  0
SECTION
  2
HEADER
  9
$ACADVER
  1
AC1027
  9
$ACADMAINTVER
 70
   105
  9
$DWGCODEPAGE
  3
ANSI_932
  9
$LASTSAVEDBY
  1
a.yasuda
  9
$REQUIREDVERSIONS
160
                 0
  9
$INSBASE
 10
0.0
 20
0.0
 30
0.0
  9
$EXTMIN
 10
0.0
 20
0.0
 30
0.0
  9
$EXTMAX
 10
302.9997823349792
 20
216.0016055409748
 30
0.0
  9
$LIMMIN
 10
0.0
 20
0.0
  9
$LIMMAX
 10
302.9997823349792
 20
216.0016055409748
  9
$ORTHOMODE
 70
     0
  9
$REGENMODE
 70
     1
  9
$FILLMODE
 70
     1
  9
$QTEXTMODE
 70
     0
  9
$MIRRTEXT
 70
     1
  9
$LTSCALE
 40
1.0
  9
$ATTMODE
 70
     1
  9
$TEXTSIZE
 40
2.5
  9
$TRACEWID
 40
1.0
  9
$TEXTSTYLE
  7
Standard
  9
$CLAYER
  8
0
  9
$CELTYPE
  6
ByLayer
  9
$CECOLOR
 62
   256
  9
$CELTSCALE
 40
1.0
  9
$DISPSILH
 70
     0
  9
$DIMSCALE
 40
1.0
  9
$DIMASZ
 40
2.5
  9
$DIMEXO
 40
0.625
  9
$DIMDLI
 40
3.75
  9
$DIMRND
 40
0.0
  9
$DIMDLE
 40
0.0
  9
$DIMEXE
 40
1.25
  9
$DIMTP
 40
0.0
  9
$DIMTM
 40
0.0
  9
$DIMTXT
 40
2.5
  9
$DIMCEN
 40
2.5
  9
$DIMTSZ
 40
0.0
  9
$DIMTOL
 70
     0
  9
$DIMLIM
 70
     0
  9
$DIMTIH
 70
     0
  9
$DIMTOH
 70
     0
  9
$DIMSE1
 70
     0
  9
$DIMSE2
 70
     0
  9
$DIMTAD
 70
     1
  9
$DIMZIN
 70
     8
  9
$DIMBLK
  1

  9
$DIMASO
 70
     1
  9
$DIMSHO
 70
     1
  9
$DIMPOST
  1

  9
$DIMAPOST
  1

  9
$DIMALT
 70
     0
  9
$DIMALTD
 70
     3
  9
$DIMALTF
 40
0.03937007874016
  9
$DIMLFAC
 40
1.0
  9
$DIMTOFL
 70
     1
  9
$DIMTVP
 40
0.0
  9
$DIMTIX
 70
     0
  9
$DIMSOXD
 70
     0
  9
$DIMSAH
 70
     0
  9
$DIMBLK1
  1

  9
$DIMBLK2
  1

  9
$DIMSTYLE
  2
ISO-25
  9
$DIMCLRD
 70
     0
  9
$DIMCLRE
 70
     0
  9
$DIMCLRT
 70
     0
  9
$DIMTFAC
 40
1.0
  9
$DIMGAP
 40
0.625
  9
$DIMJUST
 70
     0
  9
$DIMSD1
 70
     0
  9
$DIMSD2
 70
     0
  9
$DIMTOLJ
 70
     0
  9
$DIMTZIN
 70
     8
  9
$DIMALTZ
 70
     0
  9
$DIMALTTZ
 70
     0
  9
$DIMUPT
 70
     0
  9
$DIMDEC
 70
     2
  9
$DIMTDEC
 70
     2
  9
$DIMALTU
 70
     2
  9
$DIMALTTD
 70
     3
  9
$DIMTXSTY
  7
Standard
  9
$DIMAUNIT
 70
     0
  9
$DIMADEC
 70
     0
  9
$DIMALTRND
 40
0.0
  9
$DIMAZIN
 70
     0
  9
$DIMDSEP
 70
    44
  9
$DIMATFIT
 70
     3
  9
$DIMFRAC
 70
     0
  9
$DIMLDRBLK
  1

  9
$DIMLUNIT
 70
     2
  9
$DIMLWD
 70
    -2
  9
$DIMLWE
 70
    -2
  9
$DIMTMOVE
 70
     0
  9
$DIMFXL
 40
1.0
  9
$DIMFXLON
 70
     0
  9
$DIMJOGANG
 40
0.7853981633974483
  9
$DIMTFILL
 70
     0
  9
$DIMTFILLCLR
 70
     0
  9
$DIMARCSYM
 70
     0
  9
$DIMLTYPE
  6

  9
$DIMLTEX1
  6

  9
$DIMLTEX2
  6

  9
$DIMTXTDIRECTION
 70
     0
  9
$LUNITS
 70
     2
  9
$LUPREC
 70
     4
  9
$SKETCHINC
 40
1.0
  9
$FILLETRAD
 40
0.0
  9
$AUNITS
 70
     0
  9
$AUPREC
 70
     0
  9
$MENU
  1
.
  9
$ELEVATION
 40
0.0
  9
$PELEVATION
 40
0.0
  9
$THICKNESS
 40
0.0
  9
$LIMCHECK
 70
     0
  9
$CHAMFERA
 40
0.0
  9
$CHAMFERB
 40
0.0
  9
$CHAMFERC
 40
0.0
  9
$CHAMFERD
 40
0.0
  9
$SKPOLY
 70
     0
  9
$TDCREATE
 40
2459873.457570521
  9
$TDUCREATE
 40
2459873.082570521
  9
$TDUPDATE
 40
2459873.457570567
  9
$TDUUPDATE
 40
2459873.082570567
  9
$TDINDWG
 40
0.0000000116
  9
$TDUSRTIMER
 40
0.0000000116
  9
$USRTIMER
 70
     1
  9
$ANGBASE
 50
0.0
  9
$ANGDIR
 70
     0
  9
$PDMODE
 70
     0
  9
$PDSIZE
 40
0.0
  9
$PLINEWID
 40
0.0
  9
$SPLFRAME
 70
     0
  9
$SPLINETYPE
 70
     6
  9
$SPLINESEGS
 70
     8
  9
$HANDSEED
  5
A3
  9
$SURFTAB1
 70
     6
  9
$SURFTAB2
 70
     6
  9
$SURFTYPE
 70
     6
  9
$SURFU
 70
     6
  9
$SURFV
 70
     6
  9
$UCSBASE
  2

  9
$UCSNAME
  2

  9
$UCSORG
 10
0.0
 20
0.0
 30
0.0
  9
$UCSXDIR
 10
1.0
 20
0.0
 30
0.0
  9
$UCSYDIR
 10
0.0
 20
1.0
 30
0.0
  9
$UCSORTHOREF
  2

  9
$UCSORTHOVIEW
 70
     0
  9
$UCSORGTOP
 10
0.0
 20
0.0
 30
0.0
  9
$UCSORGBOTTOM
 10
0.0
 20
0.0
 30
0.0
  9
$UCSORGLEFT
 10
0.0
 20
0.0
 30
0.0
  9
$UCSORGRIGHT
 10
0.0
 20
0.0
 30
0.0
  9
$UCSORGFRONT
 10
0.0
 20
0.0
 30
0.0
  9
$UCSORGBACK
 10
0.0
 20
0.0
 30
0.0
  9
$PUCSBASE
  2

  9
$PUCSNAME
  2

  9
$PUCSORG
 10
0.0
 20
0.0
 30
0.0
  9
$PUCSXDIR
 10
1.0
 20
0.0
 30
0.0
  9
$PUCSYDIR
 10
0.0
 20
1.0
 30
0.0
  9
$PUCSORTHOREF
  2

  9
$PUCSORTHOVIEW
 70
     0
  9
$PUCSORGTOP
 10
0.0
 20
0.0
 30
0.0
  9
$PUCSORGBOTTOM
 10
0.0
 20
0.0
 30
0.0
  9
$PUCSORGLEFT
 10
0.0
 20
0.0
 30
0.0
  9
$PUCSORGRIGHT
 10
0.0
 20
0.0
 30
0.0
  9
$PUCSORGFRONT
 10
0.0
 20
0.0
 30
0.0
  9
$PUCSORGBACK
 10
0.0
 20
0.0
 30
0.0
  9
$USERI1
 70
     0
  9
$USERI2
 70
     0
  9
$USERI3
 70
     0
  9
$USERI4
 70
     0
  9
$USERI5
 70
     0
  9
$USERR1
 40
0.0
  9
$USERR2
 40
0.0
  9
$USERR3
 40
0.0
  9
$USERR4
 40
0.0
  9
$USERR5
 40
0.0
  9
$WORLDVIEW
 70
     1
  9
$SHADEDGE
 70
     3
  9
$SHADEDIF
 70
    70
  9
$TILEMODE
 70
     1
  9
$MAXACTVP
 70
    64
  9
$PINSBASE
 10
0.0
 20
0.0
 30
0.0
  9
$PLIMCHECK
 70
     0
  9
$PEXTMIN
 10
1.000000000000000E+20
 20
1.000000000000000E+20
 30
1.000000000000000E+20
  9
$PEXTMAX
 10
-1.000000000000000E+20
 20
-1.000000000000000E+20
 30
-1.000000000000000E+20
  9
$PLIMMIN
 10
0.0
 20
0.0
  9
$PLIMMAX
 10
420.0
 20
297.0
  9
$UNITMODE
 70
     0
  9
$VISRETAIN
 70
     1
  9
$PLINEGEN
 70
     0
  9
$PSLTSCALE
 70
     1
  9
$TREEDEPTH
 70
  3020
  9
$CMLSTYLE
  2
Standard
  9
$CMLJUST
 70
     0
  9
$CMLSCALE
 40
20.0
  9
$PROXYGRAPHICS
 70
     1
  9
$MEASUREMENT
 70
     1
  9
$CELWEIGHT
370
    -1
  9
$ENDCAPS
280
     0
  9
$JOINSTYLE
280
     0
  9
$LWDISPLAY
290
     0
  9
$INSUNITS
 70
     4
  9
$HYPERLINKBASE
  1

  9
$STYLESHEET
  1

  9
$XEDIT
290
     1
  9
$CEPSNTYPE
380
     0
  9
$PSTYLEMODE
290
     1
  9
$FINGERPRINTGUID
  2
{ad37abd0-ba89-4875-800f-13b3d7cf7a0d}
  9
$VERSIONGUID
  2
{FAEB1C32-E019-11D5-929B-00C0DF256EC4}
  9
$EXTNAMES
290
     1
  9
$PSVPSCALE
 40
0.0
  9
$OLESTARTUP
290
     0
  9
$SORTENTS
280
   127
  9
$INDEXCTL
280
     0
  9
$HIDETEXT
280
     1
  9
$XCLIPFRAME
280
     2
  9
$HALOGAP
280
     0
  9
$OBSCOLOR
 70
   257
  9
$OBSLTYPE
280
     0
  9
$INTERSECTIONDISPLAY
280
     0
  9
$INTERSECTIONCOLOR
 70
   257
  9
$DIMASSOC
280
     2
  9
$PROJECTNAME
  1

  9
$CAMERADISPLAY
290
     0
  9
$LENSLENGTH
 40
50.0
  9
$CAMERAHEIGHT
 40
0.0
  9
$STEPSPERSEC
 40
2.0
  9
$STEPSIZE
 40
6.0
  9
$3DDWFPREC
 40
2.0
  9
$PSOLWIDTH
 40
5.0
  9
$PSOLHEIGHT
 40
80.0
  9
$LOFTANG1
 40
1.570796326794897
  9
$LOFTANG2
 40
1.570796326794897
  9
$LOFTMAG1
 40
0.0
  9
$LOFTMAG2
 40
0.0
  9
$LOFTPARAM
 70
     7
  9
$LOFTNORMALS
280
     1
  9
$LATITUDE
 40
37.795
  9
$LONGITUDE
 40
-122.394
  9
$NORTHDIRECTION
 40
0.0
  9
$TIMEZONE
 70
 -8000
  9
$LIGHTGLYPHDISPLAY
280
     1
  9
$TILEMODELIGHTSYNCH
280
     1
  9
$CMATERIAL
347
44
  9
$SOLIDHIST
280
     0
  9
$SHOWHIST
280
     1
  9
$DWFFRAME
280
     2
  9
$DGNFRAME
280
     2
  9
$REALWORLDSCALE
290
     1
  9
$INTERFERECOLOR
 62
   256
  9
$CSHADOW
280
     0
  9
$SHADOWPLANELOCATION
 40
0.0
  0
ENDSEC
  0
SECTION
  2
CLASSES
  0
CLASS
  1
ACDBDICTIONARYWDFLT
  2
AcDbDictionaryWithDefault
  3
ObjectDBX Classes
 90
        0
 91
        3
280
     0
281
     0
  0
CLASS
  1
VISUALSTYLE
  2
AcDbVisualStyle
  3
ObjectDBX Classes
 90
     4095
 91
        3
280
     0
281
     0
  0
CLASS
  1
MATERIAL
  2
AcDbMaterial
  3
ObjectDBX Classes
 90
     1153
 91
        3
280
     0
281
     0
  0
CLASS
  1
SCALE
  2
AcDbScale
  3
ObjectDBX Classes
 90
     1153
 91
        3
280
     0
281
     0
  0
CLASS
  1
TABLESTYLE
  2
AcDbTableStyle
  3
ObjectDBX Classes
 90
     4095
 91
        3
280
     0
281
     0
  0
CLASS
  1
MLEADERSTYLE
  2
AcDbMLeaderStyle
  3
ACDB_MLEADERSTYLE_CLASS
 90
     4095
 91
        3
280
     0
281
     0
  0
CLASS
  1
SUN
  2
AcDbSun
  3
SCENEOE
 90
     1153
 91
        3
280
     0
281
     0
  0
CLASS
  1
DICTIONARYVAR
  2
AcDbDictionaryVar
  3
ObjectDBX Classes
 90
        0
 91
        3
280
     0
281
     0
  0
CLASS
  1
CELLSTYLEMAP
  2
AcDbCellStyleMap
  3
ObjectDBX Classes
 90
     1152
 91
        3
280
     0
281
     0
  0
ENDSEC
  0
SECTION
  2
TABLES
  0
TABLE
  2
VPORT
  5
8
330
0
100
AcDbSymbolTable
 70
     1
  0
VPORT
  5
29
330
8
100
AcDbSymbolTableRecord
100
AcDbViewportTableRecord
  2
*Active
 70
     0
 10
0.0
 20
0.0
 11
1.0
 21
1.0
 12
151.4998911674896
 22
108.0008027704874
 13
0.0
 23
0.0
 14
10.0
 24
10.0
 15
10.0
 25
10.0
 16
0.0
 26
0.0
 36
1.0
 17
0.0
 27
0.0
 37
0.0
 40
237.6017660950723
 41
1.402766343222857
 42
50.0
 43
0.0
 44
0.0
 50
0.0
 51
0.0
 71
     0
 72
 10000
 73
     1
 74
     3
 75
     0
 76
     0
 77
     0
 78
     0
281
     0
 65
     1
110
0.0
120
0.0
130
0.0
111
1.0
121
0.0
131
0.0
112
0.0
122
1.0
132
0.0
 79
     0
146
0.0
348
2F
 60
     3
 61
     5
292
     1
282
     1
141
0.0
142
0.0
 63
   250
361
5D
  0
ENDTAB
  0
TABLE
  2
LTYPE
  5
5
330
0
100
AcDbSymbolTable
 70
     2
  0
LTYPE
  5
14
330
5
100
AcDbSymbolTableRecord
100
AcDbLinetypeTableRecord
  2
ByBlock
 70
     0
  3

 72
    65
 73
     0
 40
0.0
  0
LTYPE
  5
15
330
5
100
AcDbSymbolTableRecord
100
AcDbLinetypeTableRecord
  2
ByLayer
 70
     0
  3

 72
    65
 73
     0
 40
0.0
  0
LTYPE
  5
16
330
5
100
AcDbSymbolTableRecord
100
AcDbLinetypeTableRecord
  2
Continuous
 70
     0
  3
Solid line
 72
    65
 73
     0
 40
0.0
  0
LTYPE
  5
5F
330
5
100
AcDbSymbolTableRecord
100
AcDbLinetypeTableRecord
  2
UserDefined01
 70
     0
  3
----------------                
 72
    65
 73
     2
 40
0.7055555449591743
 49
0.3527777724795871
 74
     0
 49
-0.3527777724795871
 74
     0
  0
ENDTAB
  0
TABLE
  2
LAYER
  5
2
330
0
100
AcDbSymbolTable
 70
     3
  0
LAYER
  5
10
330
2
100
AcDbSymbolTableRecord
100
AcDbLayerTableRecord
  2
0
 70
     0
 62
     7
  6
Continuous
370
    -3
390
F
347
46
348
0
  0
LAYER
  5
60
330
2
100
AcDbSymbolTableRecord
100
AcDbLayerTableRecord
  2
外枠
 70
     0
 62
     7
  6
Continuous
370
    -3
390
F
347
46
348
0
  0
LAYER
  5
61
330
2
100
AcDbSymbolTableRecord
100
AcDbLayerTableRecord
  2
ISS138金台
 70
     0
 62
     7
  6
Continuous
370
    -3
390
F
347
46
348
0
  0
ENDTAB
  0
TABLE
  2
STYLE
  5
3
330
0
100
AcDbSymbolTable
 70
     2
  0
STYLE
  5
11
330
3
100
AcDbSymbolTableRecord
100
AcDbTextStyleTableRecord
  2
Standard
 70
     0
 40
0.0
 41
1.0
 50
0.0
 71
     0
 42
2.5
  3

  4

  0
STYLE
  5
5E
330
3
100
AcDbSymbolTableRecord
100
AcDbTextStyleTableRecord
  2
MS Gothic
 70
     0
 40
1.0
 41
1.0
 50
0.0
 71
     0
 42
2.5
  3
msgothic.ttc
  4

1001
ACAD
1000
MS Gothic
1071
    32817
  0
ENDTAB
  0
TABLE
  2
VIEW
  5
6
330
0
100
AcDbSymbolTable
 70
     0
  0
ENDTAB
  0
TABLE
  2
UCS
  5
7
330
0
100
AcDbSymbolTable
 70
     0
  0
ENDTAB
  0
TABLE
  2
APPID
  5
9
330
0
100
AcDbSymbolTable
 70
     1
  0
APPID
  5
12
330
9
100
AcDbSymbolTableRecord
100
AcDbRegAppTableRecord
  2
ACAD
 70
     0
  0
ENDTAB
  0
TABLE
  2
DIMSTYLE
  5
A
330
0
100
AcDbSymbolTable
 70
     1
100
AcDbDimStyleTable
  0
DIMSTYLE
105
27
330
A
100
AcDbSymbolTableRecord
100
AcDbDimStyleTableRecord
  2
ISO-25
 70
     0
 41
2.5
 42
0.625
 43
3.75
 44
1.25
 73
     0
 74
     0
 77
     1
 78
     8
140
2.5
141
2.5
143
0.03937007874016
147
0.625
171
     3
172
     1
178
     0
271
     2
272
     2
274
     3
278
    44
283
     0
284
     8
340
11
  0
ENDTAB
  0
TABLE
  2
BLOCK_RECORD
  5
1
330
0
100
AcDbSymbolTable
 70
     1
  0
BLOCK_RECORD
  5
1F
330
1
100
AcDbSymbolTableRecord
100
AcDbBlockTableRecord
  2
*Model_Space
340
22
 70
     0
280
     1
281
     0
  0
BLOCK_RECORD
  5
1B
330
1
100
AcDbSymbolTableRecord
100
AcDbBlockTableRecord
  2
*Paper_Space
340
1E
 70
     0
280
     1
281
     0
  0
BLOCK_RECORD
  5
23
330
1
100
AcDbSymbolTableRecord
100
AcDbBlockTableRecord
  2
*Paper_Space0
340
26
 70
     0
280
     1
281
     0
  0
ENDTAB
  0
ENDSEC
  0
SECTION
  2
BLOCKS
  0
BLOCK
  5
20
330
1F
100
AcDbEntity
  8
0
100
AcDbBlockBegin
  2
*Model_Space
 70
     0
 10
0.0
 20
0.0
 30
0.0
  3
*Model_Space
  1

  0
ENDBLK
  5
21
330
1F
100
AcDbEntity
  8
0
100
AcDbBlockEnd
  0
BLOCK
  5
1C
330
1B
100
AcDbEntity
 67
     1
  8
0
100
AcDbBlockBegin
  2
*Paper_Space
 70
     0
 10
0.0
 20
0.0
 30
0.0
  3
*Paper_Space
  1

  0
ENDBLK
  5
1D
330
1B
100
AcDbEntity
 67
     1
  8
0
100
AcDbBlockEnd
  0
BLOCK
  5
24
330
23
100
AcDbEntity
  8
0
100
AcDbBlockBegin
  2
*Paper_Space0
 70
     0
 10
0.0
 20
0.0
 30
0.0
  3
*Paper_Space0
  1

  0
ENDBLK
  5
25
330
23
100
AcDbEntity
  8
0
100
AcDbBlockEnd
  0
ENDSEC
  0
SECTION
  2
ENTITIES
  0
LWPOLYLINE
  5
62
330
1F
100
AcDbEntity
  8
外枠
  6
Continuous
 62
   250
420
  2367521
370
   100
100
AcDbPolyline
 90
        5
 70
     0
 43
0.0
 10
281.9999662644599
 20
13.29407825637392
 10
20.99981607051935
 20
13.29407825637392
 10
20.99981607051935
 20
193.0018900389566
 10
281.9999662644599
 20
193.0018900389566
 10
281.9999662644599
 20
13.29407825637392
  0
LINE
  5
63
330
1F
100
AcDbEntity
  8
外枠
  6
Continuous
 62
   250
420
  2367521
370
    25
100
AcDbLine
 10
223.3097080177524
 20
174.0786160074276
 30
0.0
 11
281.9999232007669
 21
174.0786160074276
 31
0.0
  0
LINE
  5
64
330
1F
100
AcDbEntity
  8
外枠
  6
Continuous
 62
   250
420
  2367521
370
    25
100
AcDbLine
 10
223.3097080177524
 20
50.37109023844297
 30
0.0
 11
281.9999232007669
 21
50.37109023844297
 31
0.0
  0
LINE
  5
65
330
1F
100
AcDbEntity
  8
外枠
  6
Continuous
 62
   250
420
  2367521
370
    25
100
AcDbLine
 10
223.3097080177524
 20
36.25997933925949
 30
0.0
 11
281.9999232007669
 21
36.25997933925949
 31
0.0
  0
LINE
  5
66
330
1F
100
AcDbEntity
  8
外枠
  6
Continuous
 62
   250
420
  2367521
370
    50
100
AcDbLine
 10
223.0158413772006
 20
193.3637327187979
 30
0.0
 11
223.0158413772006
 21
13.29396655992039
 31
0.0
  0
TEXT
  5
67
330
1F
100
AcDbEntity
  8
外枠
  6
Continuous
 62
   250
420
  2367521
100
AcDbText
 10
224.7190965599536
 20
186.6888051931772
 30
0.0
 40
2.688166626294454
  1
品名：
 41
0.974166170756022
  7
MS Gothic
100
AcDbText
  0
TEXT
  5
68
330
1F
100
AcDbEntity
  8
外枠
  6
Continuous
 62
   250
420
  2367521
100
AcDbText
 10
224.7190965599536
 20
168.1080059455944
 30
0.0
 40
2.688166626294454
  1
仕様：
 41
0.9978878657023111
  7
MS Gothic
100
AcDbText
  0
TEXT
  5
69
330
1F
100
AcDbEntity
  8
外枠
  6
Continuous
 62
   250
420
  2367521
100
AcDbText
 10
224.7190965599536
 20
44.16660664327048
 30
0.0
 40
2.688166626294454
  1
縮尺：
 41
0.9939999262491861
  7
MS Gothic
100
AcDbText
  0
TEXT
  5
6A
330
1F
100
AcDbEntity
  8
外枠
  6
Continuous
 62
   250
420
  2367521
100
AcDbText
 10
250.2379519709696
 20
40.59738467878129
 30
0.0
 40
2.150533301035563
  1
1/1
 41
1.000003814697266
  7
MS Gothic
100
AcDbText
  0
TEXT
  5
6B
330
1F
100
AcDbEntity
  8
外枠
  6
Continuous
 62
   250
420
  2367521
100
AcDbText
 10
232.7757967427735
 20
181.9845273775436
 30
0.0
 40
2.688166626294454
  1
アドロック103(S)
 41
1.031923580169677
  7
MS Gothic
100
AcDbText
  0
TEXT
  5
6C
330
1F
100
AcDbEntity
  8
外枠
  6
Continuous
 62
   250
420
  2367521
100
AcDbText
 10
226.1633020978884
 20
24.25683874973963
 30
0.0
 40
2.553758294979732
  1
ヤスダインテリアサプライ株式会社
 41
1.0194908945184
  7
MS Gothic
100
AcDbText
  0
TEXT
  5
6D
330
1F
100
AcDbEntity
  8
外枠
  6
Continuous
 62
   250
420
  2367521
100
AcDbText
 10
227.7635273953072
 20
161.7763665048245
 30
0.0
 40
2.150533301035563
  1
材質
 41
1.028502464294433
  7
MS Gothic
100
AcDbText
  0
TEXT
  5
6E
330
1F
100
AcDbEntity
  8
外枠
  6
Continuous
 62
   250
420
  2367521
100
AcDbText
 10
232.7757967427735
 20
156.199681315683
 30
0.0
 40
2.016124969720841
  1
アルミ押出形材（A6063S-T5）/
 41
1.030580357142857
  7
MS Gothic
100
AcDbText
  0
TEXT
  5
6F
330
1F
100
AcDbEntity
  8
外枠
  6
Continuous
 62
   250
420
  2367521
100
AcDbText
 10
232.7757967427735
 20
151.9663480459279
 30
0.0
 40
2.016124969720841
  1
シルバー仕上(アルマイト)
 41
1.052132924397786
  7
MS Gothic
100
AcDbText
  0
HATCH
  5
70
330
1F
100
AcDbEntity
  8
ISS138金台
  6
Continuous
 62
     7
420
 16777215
370
    50
100
AcDbHatch
 10
0.0
 20
0.0
 30
0.0
210
0.0
220
0.0
230
1.0
  2
SOLID
 70
     1
 71
     0
 91
        1
 92
        3
 72
     0
 73
     1
 93
      195
 10
138.399129865898
 20
105.280738436203
 10
128.8437916372802
 20
105.9848836452188
 10
115.8432287832127
 20
105.9848836452188
 10
115.8432287832127
 20
107.4852442387338
 10
115.85098024794
 20
107.6386586447956
 10
115.8737286437301
 20
107.7876267245625
 10
115.9107095900334
 20
107.9314163952545
 10
115.9611694722237
 20
108.0692740422455
 10
116.0243546756748
 20
108.200435284986
 10
116.0995331176067
 20
108.3241357429263
 10
116.1859081197003
 20
108.4396325673636
 10
116.2827475991758
 20
108.5461829095948
 10
116.3892871754837
 20
108.6430116231471
 10
116.5047732339978
 20
108.7293866252407
 10
116.6284413941685
 20
108.8045327694029
 10
116.759559573216
 20
108.8677179728539
 10
116.8973526246676
 20
108.918167089121
 10
117.041066933897
 20
108.9551372695011
 10
117.1899381203548
 20
108.9778748993679
 10
117.343234101261
 20
108.985615598172
 10
117.3435893767277
 20
109.4851436702326
 10
115.3436899452289
 20
109.4851436702326
 10
103.3471355599694
 20
106.0064047257604
 10
103.3467802845027
 20
106.0064047257604
 10
103.2416295122918
 20
105.9800174479177
 10
103.1401068562102
 20
105.945103558875
 10
103.0426537191104
 20
105.9020183340989
 10
102.9497222697682
 20
105.8511924105187
 10
102.8617108473433
 20
105.7930456591405
 10
102.7790716206113
 20
105.7279441213541
 10
102.7022459924249
 20
105.6563399659353
 10
102.6316538337899
 20
105.5786100001973
 10
102.5677473134824
 20
105.4951848610694
 10
102.5109463025082
 20
105.4064413558647
 10
102.4617029696431
 20
105.3128101215124
 10
102.4204264199701
 20
105.2146894971722
 10
102.3875688222648
 20
105.1124778220037
 10
102.3635608134565
 20
105.0066057329362
 10
102.3488437963978
 20
104.8974500372828
 10
102.3438376420947
 20
104.7854413719728
 10
108.3435251706679
 20
104.7854413719728
 10
108.3435251706679
 20
105.845185025355
 10
113.2097332376401
 20
107.2884000983524
 10
113.2178184459877
 20
107.2906717081544
 10
113.2259467180281
 20
107.2928894883403
 10
113.2340965219151
 20
107.2949996092939
 10
113.2423001554182
 20
107.2970343687848
 10
113.2505253207677
 20
107.2989399371969
 10
113.2588043157335
 20
107.3007378463768
 10
113.2671156084689
 20
107.302417330401
 10
113.2754807308205
 20
107.3039568574232
 10
113.283888916865
 20
107.3053671933667
 10
113.2923509325257
 20
107.3066052745384
 10
113.300845245956
 20
107.3076818668617
 10
113.3094041549258
 20
107.3085862044132
 10
113.3180061275885
 20
107.3093075212698
 10
113.3266619298673
 20
107.3098350515081
 10
113.3353823276856
 20
107.3101580292051
 10
113.3441457891968
 20
107.3102656884374
 10
113.3441457891968
 20
107.3102656884374
 10
113.3952839245507
 20
107.3076926327849
 10
113.4449255965753
 20
107.3000918909828
 10
113.492855486806
 20
107.2877756748049
 10
113.5387829153155
 20
107.2709593027159
 10
113.5824925636391
 20
107.2499011568733
 10
113.6237045177728
 20
107.2248380875883
 10
113.6621711614821
 20
107.1960500088648
 10
113.6976771763026
 20
107.163773771014
 10
113.7299318823069
 20
107.1282677561936
 10
113.7587091951072
 20
107.0897795806377
 10
113.7837292006993
 20
107.048567626504
 10
113.8047765806186
 20
107.0048687441037
 10
113.8215714208612
 20
106.9589520815175
 10
113.8338876370391
 20
106.9110652549797
 10
113.8414560810715
 20
106.8614558807248
 10
113.8440399026472
 20
106.8103823409102
 10
113.8440399026472
 20
104.7854413719728
 10
119.5936027367619
 20
104.7854413719728
 10
119.5948946475498
 20
104.8109243122639
 10
119.5986734866043
 20
104.835664403852
 10
119.6048315946933
 20
104.8595755193512
 10
119.6132290148146
 20
104.8825069358362
 10
119.6237580877359
 20
104.9043402281516
 10
119.6362573246087
 20
104.9249354392951
 10
119.6506405980472
 20
104.9441633781882
 10
119.6667679510493
 20
104.9619056196752
 10
119.6844994266131
 20
104.9780545045239
 10
119.7037273655062
 20
104.9924485438856
 10
119.7243225766498
 20
105.0049800785281
 10
119.7461558689651
 20
105.0155199173726
 10
119.7690980513734
 20
105.0239388693404
 10
119.7930414646423
 20
105.0301077433526
 10
119.8178353858465
 20
105.0339081142536
 10
119.8433721557538
 20
105.0352000250415
 10
119.8433721557538
 20
105.0352000250415
 10
119.8689735212004
 20
105.0338973483304
 10
119.8938320379441
 20
105.0301185092758
 10
119.9177969830594
 20
105.0239281034171
 10
119.9407929950838
 20
105.0155199173726
 10
119.9626478192456
 20
105.0049908444513
 10
119.9832753281589
 20
104.9924485438856
 10
120.0025355648217
 20
104.9780437386006
 10
120.0202778063087
 20
104.9619056196752
 10
120.0364266911573
 20
104.9441633781882
 10
120.0508099645958
 20
104.9249246733719
 10
120.0633307333151
 20
104.9043294622283
 10
120.0738490403132
 20
104.8825069358362
 10
120.0822572263577
 20
104.8595755193512
 10
120.0884153344466
 20
104.8356751697752
 10
120.0921941735012
 20
104.8109243122639
 10
120.0934860842891
 20
104.7854413719728
 10
122.5936241387818
 20
104.7854413719728
 10
122.5949160495697
 20
104.8109243122639
 10
122.5987056545475
 20
104.835664403852
 10
122.6048529967132
 20
104.8595755193512
 10
122.6132504168345
 20
104.8825069358362
 10
122.6237687238326
 20
104.9043402281516
 10
122.6362894925518
 20
104.9249354392951
 10
122.6506620000671
 20
104.9441633781882
 10
122.6667893530693
 20
104.9619056196752
 10
122.684520828633
 20
104.9780545045239
 10
122.7037487675261
 20
104.9924485438856
 10
122.7243439786697
 20
105.0049800785281
 10
122.7461772709851
 20
105.0155199173726
 10
122.7691194533933
 20
105.0239388693404
 10
122.7930628666622
 20
105.0301077433526
 10
122.8178567878664
 20
105.0339081142536
 10
122.8433935577737
 20
105.0352000250415
 10
122.8433935577737
 20
105.0352000250415
 10
122.8689841572971
 20
105.0338973483304
 10
122.8938426740408
 20
105.0301185092758
 10
122.9178291510026
 20
105.0239281034171
 10
122.9408036311805
 20
105.0155199173726
 10
122.962690753112
 20
105.0049908444513
 10
122.9833074961021
 20
104.9924485438856
 10
123.0025569668417
 20
104.9780437386006
 10
123.0203207401751
 20
104.9619056196752
 10
123.036437327254
 20
104.9441633781882
 10
123.050842132539
 20
104.9249246733719
 10
123.0633629012583
 20
104.9043294622283
 10
123.0738812082564
 20
104.8825069358362
 10
123.0822893943009
 20
104.8595755193512
 10
123.0884475023898
 20
104.8356751697752
 10
123.0922263414444
 20
104.8109243122639
 10
123.0935182522323
 20
104.7854413719728
 10
125.5936455408017
 20
104.7854413719728
 10
125.5949374515896
 20
104.8109135463407
 10
125.5987378224907
 20
104.8356536379288
 10
125.6049066965028
 20
104.8595432215815
 10
125.6133148825474
 20
104.8824531062201
 10
125.6238654873151
 20
104.9042541007657
 10
125.6363970219576
 20
104.9248170141396
 10
125.6507910613194
 20
104.9440234211862
 10
125.6669291802448
 20
104.9617333649035
 10
125.6846929535782
 20
104.9778499519824
 10
125.7039208924713
 20
104.9922116935745
 10
125.7245161036149
 20
105.0047109304473
 10
125.746338630007
 20
105.0152292374454
 10
125.769270046492
 20
105.0236266575666
 10
125.7931811619912
 20
105.0297847656556
 10
125.8179320195025
 20
105.0335636047102
 10
125.8434149597936
 20
105.0348555154981
 10
125.8434149597936
 20
105.0348555154981
 10
125.8690055593171
 20
105.0335636047102
 10
125.8938533101375
 20
105.0297847656556
 10
125.9178182552528
 20
105.0236158916434
 10
125.9407819695076
 20
105.0152292374454
 10
125.9626367936693
 20
105.0047216963705
 10
125.9832320048129
 20
104.9922116935745
 10
126.002459943706
 20
104.9778391860592
 10
126.020202185193
 20
104.9617333649035
 10
126.0363295381952
 20
104.9440234211862
 10
126.0507020457105
 20
104.9248170141396
 10
126.0632228144297
 20
104.9042541007657
 10
126.073751887351
 20
104.8824531062201
 10
126.0821708393188
 20
104.8595432215815
 10
126.0883612451774
 20
104.8356536379288
 10
126.0921939138482
 20
104.8109135463407
 10
126.0935396542522
 20
104.7854413719728
 10
138.8436333043177
 20
104.7854413719728
 10
138.8413724604389
 20
104.8326391794237
 10
138.8346760561884
 20
104.8786096716261
 10
138.8238024737236
 20
104.9231375301153
 10
138.8089562655861
 20
104.96601820235
 10
138.7903419843173
 20
105.0070794335584
 10
138.7681964802283
 20
105.0460843734294
 10
138.7427135399371
 20
105.0828715331146
 10
138.7141192478319
 20
105.1172255941492
 10
138.6826181564538
 20
105.1489527699151
 10
138.6484471161141
 20
105.1778485078709
 10
138.611799913431
 20
105.2037190213984
 10
138.5729133987156
 20
105.2263705238794
 10
138.5319813585859
 20
105.2455876968492
 10
138.4892298774301
 20
105.261187519613
 10
138.4448742737125
 20
105.2729762055525
 97
        0
 75
     1
 76
     1
 98
        0
  0
LWPOLYLINE
  5
71
330
1F
100
AcDbEntity
  8
ISS138金台
  6
Continuous
 62
     7
420
 16777215
370
    50
100
AcDbPolyline
 90
      196
 70
     0
 43
0.0
 10
138.399129865898
 20
105.280738436203
 10
128.8437916372802
 20
105.9848836452188
 10
115.8432287832127
 20
105.9848836452188
 10
115.8432287832127
 20
107.4852442387338
 10
115.85098024794
 20
107.6386586447956
 10
115.8737286437301
 20
107.7876267245625
 10
115.9107095900334
 20
107.9314163952545
 10
115.9611694722237
 20
108.0692740422455
 10
116.0243546756748
 20
108.200435284986
 10
116.0995331176067
 20
108.3241357429263
 10
116.1859081197003
 20
108.4396325673636
 10
116.2827475991758
 20
108.5461829095948
 10
116.3892871754837
 20
108.6430116231471
 10
116.5047732339978
 20
108.7293866252407
 10
116.6284413941685
 20
108.8045327694029
 10
116.759559573216
 20
108.8677179728539
 10
116.8973526246676
 20
108.918167089121
 10
117.041066933897
 20
108.9551372695011
 10
117.1899381203548
 20
108.9778748993679
 10
117.343234101261
 20
108.985615598172
 10
117.3435893767277
 20
109.4851436702326
 10
115.3436899452289
 20
109.4851436702326
 10
103.3471355599694
 20
106.0064047257604
 10
103.3467802845027
 20
106.0064047257604
 10
103.2416295122918
 20
105.9800174479177
 10
103.1401068562102
 20
105.945103558875
 10
103.0426537191104
 20
105.9020183340989
 10
102.9497222697682
 20
105.8511924105187
 10
102.8617108473433
 20
105.7930456591405
 10
102.7790716206113
 20
105.7279441213541
 10
102.7022459924249
 20
105.6563399659353
 10
102.6316538337899
 20
105.5786100001973
 10
102.5677473134824
 20
105.4951848610694
 10
102.5109463025082
 20
105.4064413558647
 10
102.4617029696431
 20
105.3128101215124
 10
102.4204264199701
 20
105.2146894971722
 10
102.3875688222648
 20
105.1124778220037
 10
102.3635608134565
 20
105.0066057329362
 10
102.3488437963978
 20
104.8974500372828
 10
102.3438376420947
 20
104.7854413719728
 10
108.3435251706679
 20
104.7854413719728
 10
108.3435251706679
 20
105.845185025355
 10
113.2097332376401
 20
107.2884000983524
 10
113.2178184459877
 20
107.2906717081544
 10
113.2259467180281
 20
107.2928894883403
 10
113.2340965219151
 20
107.2949996092939
 10
113.2423001554182
 20
107.2970343687848
 10
113.2505253207677
 20
107.2989399371969
 10
113.2588043157335
 20
107.3007378463768
 10
113.2671156084689
 20
107.302417330401
 10
113.2754807308205
 20
107.3039568574232
 10
113.283888916865
 20
107.3053671933667
 10
113.2923509325257
 20
107.3066052745384
 10
113.300845245956
 20
107.3076818668617
 10
113.3094041549258
 20
107.3085862044132
 10
113.3180061275885
 20
107.3093075212698
 10
113.3266619298673
 20
107.3098350515081
 10
113.3353823276856
 20
107.3101580292051
 10
113.3441457891968
 20
107.3102656884374
 10
113.3441457891968
 20
107.3102656884374
 10
113.3952839245507
 20
107.3076926327849
 10
113.4449255965753
 20
107.3000918909828
 10
113.492855486806
 20
107.2877756748049
 10
113.5387829153155
 20
107.2709593027159
 10
113.5824925636391
 20
107.2499011568733
 10
113.6237045177728
 20
107.2248380875883
 10
113.6621711614821
 20
107.1960500088648
 10
113.6976771763026
 20
107.163773771014
 10
113.7299318823069
 20
107.1282677561936
 10
113.7587091951072
 20
107.0897795806377
 10
113.7837292006993
 20
107.048567626504
 10
113.8047765806186
 20
107.0048687441037
 10
113.8215714208612
 20
106.9589520815175
 10
113.8338876370391
 20
106.9110652549797
 10
113.8414560810715
 20
106.8614558807248
 10
113.8440399026472
 20
106.8103823409102
 10
113.8440399026472
 20
104.7854413719728
 10
119.5936027367619
 20
104.7854413719728
 10
119.5948946475498
 20
104.8109243122639
 10
119.5986734866043
 20
104.835664403852
 10
119.6048315946933
 20
104.8595755193512
 10
119.6132290148146
 20
104.8825069358362
 10
119.6237580877359
 20
104.9043402281516
 10
119.6362573246087
 20
104.9249354392951
 10
119.6506405980472
 20
104.9441633781882
 10
119.6667679510493
 20
104.9619056196752
 10
119.6844994266131
 20
104.9780545045239
 10
119.7037273655062
 20
104.9924485438856
 10
119.7243225766498
 20
105.0049800785281
 10
119.7461558689651
 20
105.0155199173726
 10
119.7690980513734
 20
105.0239388693404
 10
119.7930414646423
 20
105.0301077433526
 10
119.8178353858465
 20
105.0339081142536
 10
119.8433721557538
 20
105.0352000250415
 10
119.8433721557538
 20
105.0352000250415
 10
119.8689735212004
 20
105.0338973483304
 10
119.8938320379441
 20
105.0301185092758
 10
119.9177969830594
 20
105.0239281034171
 10
119.9407929950838
 20
105.0155199173726
 10
119.9626478192456
 20
105.0049908444513
 10
119.9832753281589
 20
104.9924485438856
 10
120.0025355648217
 20
104.9780437386006
 10
120.0202778063087
 20
104.9619056196752
 10
120.0364266911573
 20
104.9441633781882
 10
120.0508099645958
 20
104.9249246733719
 10
120.0633307333151
 20
104.9043294622283
 10
120.0738490403132
 20
104.8825069358362
 10
120.0822572263577
 20
104.8595755193512
 10
120.0884153344466
 20
104.8356751697752
 10
120.0921941735012
 20
104.8109243122639
 10
120.0934860842891
 20
104.7854413719728
 10
122.5936241387818
 20
104.7854413719728
 10
122.5949160495697
 20
104.8109243122639
 10
122.5987056545475
 20
104.835664403852
 10
122.6048529967132
 20
104.8595755193512
 10
122.6132504168345
 20
104.8825069358362
 10
122.6237687238326
 20
104.9043402281516
 10
122.6362894925518
 20
104.9249354392951
 10
122.6506620000671
 20
104.9441633781882
 10
122.6667893530693
 20
104.9619056196752
 10
122.684520828633
 20
104.9780545045239
 10
122.7037487675261
 20
104.9924485438856
 10
122.7243439786697
 20
105.0049800785281
 10
122.7461772709851
 20
105.0155199173726
 10
122.7691194533933
 20
105.0239388693404
 10
122.7930628666622
 20
105.0301077433526
 10
122.8178567878664
 20
105.0339081142536
 10
122.8433935577737
 20
105.0352000250415
 10
122.8433935577737
 20
105.0352000250415
 10
122.8689841572971
 20
105.0338973483304
 10
122.8938426740408
 20
105.0301185092758
 10
122.9178291510026
 20
105.0239281034171
 10
122.9408036311805
 20
105.0155199173726
 10
122.962690753112
 20
105.0049908444513
 10
122.9833074961021
 20
104.9924485438856
 10
123.0025569668417
 20
104.9780437386006
 10
123.0203207401751
 20
104.9619056196752
 10
123.036437327254
 20
104.9441633781882
 10
123.050842132539
 20
104.9249246733719
 10
123.0633629012583
 20
104.9043294622283
 10
123.0738812082564
 20
104.8825069358362
 10
123.0822893943009
 20
104.8595755193512
 10
123.0884475023898
 20
104.8356751697752
 10
123.0922263414444
 20
104.8109243122639
 10
123.0935182522323
 20
104.7854413719728
 10
125.5936455408017
 20
104.7854413719728
 10
125.5949374515896
 20
104.8109135463407
 10
125.5987378224907
 20
104.8356536379288
 10
125.6049066965028
 20
104.8595432215815
 10
125.6133148825474
 20
104.8824531062201
 10
125.6238654873151
 20
104.9042541007657
 10
125.6363970219576
 20
104.9248170141396
 10
125.6507910613194
 20
104.9440234211862
 10
125.6669291802448
 20
104.9617333649035
 10
125.6846929535782
 20
104.9778499519824
 10
125.7039208924713
 20
104.9922116935745
 10
125.7245161036149
 20
105.0047109304473
 10
125.746338630007
 20
105.0152292374454
 10
125.769270046492
 20
105.0236266575666
 10
125.7931811619912
 20
105.0297847656556
 10
125.8179320195025
 20
105.0335636047102
 10
125.8434149597936
 20
105.0348555154981
 10
125.8434149597936
 20
105.0348555154981
 10
125.8690055593171
 20
105.0335636047102
 10
125.8938533101375
 20
105.0297847656556
 10
125.9178182552528
 20
105.0236158916434
 10
125.9407819695076
 20
105.0152292374454
 10
125.9626367936693
 20
105.0047216963705
 10
125.9832320048129
 20
104.9922116935745
 10
126.002459943706
 20
104.9778391860592
 10
126.020202185193
 20
104.9617333649035
 10
126.0363295381952
 20
104.9440234211862
 10
126.0507020457105
 20
104.9248170141396
 10
126.0632228144297
 20
104.9042541007657
 10
126.073751887351
 20
104.8824531062201
 10
126.0821708393188
 20
104.8595432215815
 10
126.0883612451774
 20
104.8356536379288
 10
126.0921939138482
 20
104.8109135463407
 10
126.0935396542522
 20
104.7854413719728
 10
138.8436333043177
 20
104.7854413719728
 10
138.8413724604389
 20
104.8326391794237
 10
138.8346760561884
 20
104.8786096716261
 10
138.8238024737236
 20
104.9231375301153
 10
138.8089562655861
 20
104.96601820235
 10
138.7903419843173
 20
105.0070794335584
 10
138.7681964802283
 20
105.0460843734294
 10
138.7427135399371
 20
105.0828715331146
 10
138.7141192478319
 20
105.1172255941492
 10
138.6826181564538
 20
105.1489527699151
 10
138.6484471161141
 20
105.1778485078709
 10
138.611799913431
 20
105.2037190213984
 10
138.5729133987156
 20
105.2263705238794
 10
138.5319813585859
 20
105.2455876968492
 10
138.4892298774301
 20
105.261187519613
 10
138.4448742737125
 20
105.2729762055525
 10
138.399129865898
 20
105.280738436203
  0
LWPOLYLINE
  5
72
330
1F
100
AcDbEntity
  8
ISS138金台
  6
Continuous
 62
   250
420
  2367521
370
    25
100
AcDbPolyline
 90
      196
 70
     0
 43
0.0
 10
138.399129865898
 20
105.280738436203
 10
128.8437916372802
 20
105.9848836452188
 10
115.8432287832127
 20
105.9848836452188
 10
115.8432287832127
 20
107.4852442387338
 10
115.85098024794
 20
107.6386586447956
 10
115.8737286437301
 20
107.7876267245625
 10
115.9107095900334
 20
107.9314163952545
 10
115.9611694722237
 20
108.0692740422455
 10
116.0243546756748
 20
108.200435284986
 10
116.0995331176067
 20
108.3241357429263
 10
116.1859081197003
 20
108.4396325673636
 10
116.2827475991758
 20
108.5461829095948
 10
116.3892871754837
 20
108.6430116231471
 10
116.5047732339978
 20
108.7293866252407
 10
116.6284413941685
 20
108.8045327694029
 10
116.759559573216
 20
108.8677179728539
 10
116.8973526246676
 20
108.918167089121
 10
117.041066933897
 20
108.9551372695011
 10
117.1899381203548
 20
108.9778748993679
 10
117.343234101261
 20
108.985615598172
 10
117.3435893767277
 20
109.4851436702326
 10
115.3436899452289
 20
109.4851436702326
 10
103.3471355599694
 20
106.0064047257604
 10
103.3467802845027
 20
106.0064047257604
 10
103.2416295122918
 20
105.9800174479177
 10
103.1401068562102
 20
105.945103558875
 10
103.0426537191104
 20
105.9020183340989
 10
102.9497222697682
 20
105.8511924105187
 10
102.8617108473433
 20
105.7930456591405
 10
102.7790716206113
 20
105.7279441213541
 10
102.7022459924249
 20
105.6563399659353
 10
102.6316538337899
 20
105.5786100001973
 10
102.5677473134824
 20
105.4951848610694
 10
102.5109463025082
 20
105.4064413558647
 10
102.4617029696431
 20
105.3128101215124
 10
102.4204264199701
 20
105.2146894971722
 10
102.3875688222648
 20
105.1124778220037
 10
102.3635608134565
 20
105.0066057329362
 10
102.3488437963978
 20
104.8974500372828
 10
102.3438376420947
 20
104.7854413719728
 10
108.3435251706679
 20
104.7854413719728
 10
108.3435251706679
 20
105.845185025355
 10
113.2097332376401
 20
107.2884000983524
 10
113.2178184459877
 20
107.2906717081544
 10
113.2259467180281
 20
107.2928894883403
 10
113.2340965219151
 20
107.2949996092939
 10
113.2423001554182
 20
107.2970343687848
 10
113.2505253207677
 20
107.2989399371969
 10
113.2588043157335
 20
107.3007378463768
 10
113.2671156084689
 20
107.302417330401
 10
113.2754807308205
 20
107.3039568574232
 10
113.283888916865
 20
107.3053671933667
 10
113.2923509325257
 20
107.3066052745384
 10
113.300845245956
 20
107.3076818668617
 10
113.3094041549258
 20
107.3085862044132
 10
113.3180061275885
 20
107.3093075212698
 10
113.3266619298673
 20
107.3098350515081
 10
113.3353823276856
 20
107.3101580292051
 10
113.3441457891968
 20
107.3102656884374
 10
113.3441457891968
 20
107.3102656884374
 10
113.3952839245507
 20
107.3076926327849
 10
113.4449255965753
 20
107.3000918909828
 10
113.492855486806
 20
107.2877756748049
 10
113.5387829153155
 20
107.2709593027159
 10
113.5824925636391
 20
107.2499011568733
 10
113.6237045177728
 20
107.2248380875883
 10
113.6621711614821
 20
107.1960500088648
 10
113.6976771763026
 20
107.163773771014
 10
113.7299318823069
 20
107.1282677561936
 10
113.7587091951072
 20
107.0897795806377
 10
113.7837292006993
 20
107.048567626504
 10
113.8047765806186
 20
107.0048687441037
 10
113.8215714208612
 20
106.9589520815175
 10
113.8338876370391
 20
106.9110652549797
 10
113.8414560810715
 20
106.8614558807248
 10
113.8440399026472
 20
106.8103823409102
 10
113.8440399026472
 20
104.7854413719728
 10
119.5936027367619
 20
104.7854413719728
 10
119.5948946475498
 20
104.8109243122639
 10
119.5986734866043
 20
104.835664403852
 10
119.6048315946933
 20
104.8595755193512
 10
119.6132290148146
 20
104.8825069358362
 10
119.6237580877359
 20
104.9043402281516
 10
119.6362573246087
 20
104.9249354392951
 10
119.6506405980472
 20
104.9441633781882
 10
119.6667679510493
 20
104.9619056196752
 10
119.6844994266131
 20
104.9780545045239
 10
119.7037273655062
 20
104.9924485438856
 10
119.7243225766498
 20
105.0049800785281
 10
119.7461558689651
 20
105.0155199173726
 10
119.7690980513734
 20
105.0239388693404
 10
119.7930414646423
 20
105.0301077433526
 10
119.8178353858465
 20
105.0339081142536
 10
119.8433721557538
 20
105.0352000250415
 10
119.8433721557538
 20
105.0352000250415
 10
119.8689735212004
 20
105.0338973483304
 10
119.8938320379441
 20
105.0301185092758
 10
119.9177969830594
 20
105.0239281034171
 10
119.9407929950838
 20
105.0155199173726
 10
119.9626478192456
 20
105.0049908444513
 10
119.9832753281589
 20
104.9924485438856
 10
120.0025355648217
 20
104.9780437386006
 10
120.0202778063087
 20
104.9619056196752
 10
120.0364266911573
 20
104.9441633781882
 10
120.0508099645958
 20
104.9249246733719
 10
120.0633307333151
 20
104.9043294622283
 10
120.0738490403132
 20
104.8825069358362
 10
120.0822572263577
 20
104.8595755193512
 10
120.0884153344466
 20
104.8356751697752
 10
120.0921941735012
 20
104.8109243122639
 10
120.0934860842891
 20
104.7854413719728
 10
122.5936241387818
 20
104.7854413719728
 10
122.5949160495697
 20
104.8109243122639
 10
122.5987056545475
 20
104.835664403852
 10
122.6048529967132
 20
104.8595755193512
 10
122.6132504168345
 20
104.8825069358362
 10
122.6237687238326
 20
104.9043402281516
 10
122.6362894925518
 20
104.9249354392951
 10
122.6506620000671
 20
104.9441633781882
 10
122.6667893530693
 20
104.9619056196752
 10
122.684520828633
 20
104.9780545045239
 10
122.7037487675261
 20
104.9924485438856
 10
122.7243439786697
 20
105.0049800785281
 10
122.7461772709851
 20
105.0155199173726
 10
122.7691194533933
 20
105.0239388693404
 10
122.7930628666622
 20
105.0301077433526
 10
122.8178567878664
 20
105.0339081142536
 10
122.8433935577737
 20
105.0352000250415
 10
122.8433935577737
 20
105.0352000250415
 10
122.8689841572971
 20
105.0338973483304
 10
122.8938426740408
 20
105.0301185092758
 10
122.9178291510026
 20
105.0239281034171
 10
122.9408036311805
 20
105.0155199173726
 10
122.962690753112
 20
105.0049908444513
 10
122.9833074961021
 20
104.9924485438856
 10
123.0025569668417
 20
104.9780437386006
 10
123.0203207401751
 20
104.9619056196752
 10
123.036437327254
 20
104.9441633781882
 10
123.050842132539
 20
104.9249246733719
 10
123.0633629012583
 20
104.9043294622283
 10
123.0738812082564
 20
104.8825069358362
 10
123.0822893943009
 20
104.8595755193512
 10
123.0884475023898
 20
104.8356751697752
 10
123.0922263414444
 20
104.8109243122639
 10
123.0935182522323
 20
104.7854413719728
 10
125.5936455408017
 20
104.7854413719728
 10
125.5949374515896
 20
104.8109135463407
 10
125.5987378224907
 20
104.8356536379288
 10
125.6049066965028
 20
104.8595432215815
 10
125.6133148825474
 20
104.8824531062201
 10
125.6238654873151
 20
104.9042541007657
 10
125.6363970219576
 20
104.9248170141396
 10
125.6507910613194
 20
104.9440234211862
 10
125.6669291802448
 20
104.9617333649035
 10
125.6846929535782
 20
104.9778499519824
 10
125.7039208924713
 20
104.9922116935745
 10
125.7245161036149
 20
105.0047109304473
 10
125.746338630007
 20
105.0152292374454
 10
125.769270046492
 20
105.0236266575666
 10
125.7931811619912
 20
105.0297847656556
 10
125.8179320195025
 20
105.0335636047102
 10
125.8434149597936
 20
105.0348555154981
 10
125.8434149597936
 20
105.0348555154981
 10
125.8690055593171
 20
105.0335636047102
 10
125.8938533101375
 20
105.0297847656556
 10
125.9178182552528
 20
105.0236158916434
 10
125.9407819695076
 20
105.0152292374454
 10
125.9626367936693
 20
105.0047216963705
 10
125.9832320048129
 20
104.9922116935745
 10
126.002459943706
 20
104.9778391860592
 10
126.020202185193
 20
104.9617333649035
 10
126.0363295381952
 20
104.9440234211862
 10
126.0507020457105
 20
104.9248170141396
 10
126.0632228144297
 20
104.9042541007657
 10
126.073751887351
 20
104.8824531062201
 10
126.0821708393188
 20
104.8595432215815
 10
126.0883612451774
 20
104.8356536379288
 10
126.0921939138482
 20
104.8109135463407
 10
126.0935396542522
 20
104.7854413719728
 10
138.8436333043177
 20
104.7854413719728
 10
138.8413724604389
 20
104.8326391794237
 10
138.8346760561884
 20
104.8786096716261
 10
138.8238024737236
 20
104.9231375301153
 10
138.8089562655861
 20
104.96601820235
 10
138.7903419843173
 20
105.0070794335584
 10
138.7681964802283
 20
105.0460843734294
 10
138.7427135399371
 20
105.0828715331146
 10
138.7141192478319
 20
105.1172255941492
 10
138.6826181564538
 20
105.1489527699151
 10
138.6484471161141
 20
105.1778485078709
 10
138.611799913431
 20
105.2037190213984
 10
138.5729133987156
 20
105.2263705238794
 10
138.5319813585859
 20
105.2455876968492
 10
138.4892298774301
 20
105.261187519613
 10
138.4448742737125
 20
105.2729762055525
 10
138.399129865898
 20
105.280738436203
  0
LINE
  5
73
330
1F
100
AcDbEntity
  8
ISS138金台
  6
Continuous
 62
   250
420
  2367521
370
    13
100
AcDbLine
 10
102.3437945784018
 20
110.485233342984
 30
0.0
 11
102.3437945784018
 21
115.4904402448099
 31
0.0
  0
LINE
  5
74
330
1F
100
AcDbEntity
  8
ISS138金台
  6
Continuous
 62
   250
420
  2367521
370
    13
100
AcDbLine
 10
117.3437185678065
 20
114.9833221968705
 30
0.0
 11
102.5937254862422
 21
114.9833221968705
 31
0.0
  0
LINE
  5
75
330
1F
100
AcDbEntity
  8
ISS138金台
  6
Continuous
 62
   250
420
  2367521
370
    13
100
AcDbLine
 10
117.3437185678065
 20
115.4904402448099
 30
0.0
 11
117.3437185678065
 21
110.485233342984
 31
0.0
  0
LINE
  5
76
330
1F
100
AcDbEntity
  8
ISS138金台
  6
Continuous
 62
   250
420
  2367521
370
    13
100
AcDbLine
 10
102.3437945784018
 20
103.7852117422194
 30
0.0
 11
102.3437945784018
 21
93.84111602567928
 31
0.0
  0
LINE
  5
77
330
1F
100
AcDbEntity
  8
ISS138金台
  6
Continuous
 62
   250
420
  2367521
370
    13
100
AcDbLine
 10
138.8438809205521
 20
94.34840632839041
 30
0.0
 11
102.5938439113977
 21
94.34840632839041
 31
0.0
  0
LINE
  5
78
330
1F
100
AcDbEntity
  8
ISS138金台
  6
Continuous
 62
   250
420
  2367521
370
    13
100
AcDbLine
 10
138.8438809205521
 20
103.7852117422194
 30
0.0
 11
138.8438809205521
 21
93.84111602567928
 31
0.0
  0
LINE
  5
79
330
1F
100
AcDbEntity
  8
ISS138金台
  6
Continuous
 62
   250
420
  2367521
370
    13
100
AcDbLine
 10
139.8436476156065
 20
108.9852603227054
 30
0.0
 11
144.8488545174324
 21
108.9852603227054
 31
0.0
  0
LINE
  5
7A
330
1F
100
AcDbEntity
  8
ISS138金台
  6
Continuous
 62
   250
420
  2367521
370
    13
100
AcDbLine
 10
139.8436476156065
 20
105.9852712184551
 30
0.0
 11
144.8488545174324
 21
105.9852712184551
 31
0.0
  0
LINE
  5
7B
330
1F
100
AcDbEntity
  8
ISS138金台
  6
Continuous
 62
   250
420
  2367521
370
    13
100
AcDbLine
 10
139.8436476156065
 20
109.4851436702326
 30
0.0
 11
149.8537169097148
 21
109.4851436702326
 31
0.0
  0
LINE
  5
7C
330
1F
100
AcDbEntity
  8
ISS138金台
  6
Continuous
 62
   250
420
  2367521
370
    13
100
AcDbLine
 10
149.3465988617754
 20
104.7853337127405
 30
0.0
 11
149.3465988617754
 21
109.8875631147368
 31
0.0
  0
LINE
  5
7D
330
1F
100
AcDbEntity
  8
ISS138金台
  6
Continuous
 62
   250
420
  2367521
370
    13
100
AcDbLine
 10
139.8436476156065
 20
104.7853337127405
 30
0.0
 11
149.8537169097148
 21
104.7853337127405
 31
0.0
  0
HATCH
  5
7E
330
1F
100
AcDbEntity
  8
ISS138金台
  6
Continuous
 62
   250
420
  2367521
370
    13
100
AcDbHatch
 10
0.0
 20
0.0
 30
0.0
210
0.0
220
0.0
230
1.0
  2
SOLID
 70
     1
 71
     0
 91
        1
 92
        3
 72
     0
 73
     1
 93
       67
 10
102.3437945784018
 20
114.7333805231069
 10
102.3693421142323
 20
114.7346616679715
 10
102.3941468013598
 20
114.7384512729493
 10
102.4181009805519
 20
114.7446093810383
 10
102.4410754607298
 20
114.7530068011595
 10
102.4629195189684
 20
114.7635251081576
 10
102.4835470278817
 20
114.7760351109537
 10
102.5028180304677
 20
114.7904183843922
 10
102.5205818038012
 20
114.8065349714711
 10
102.536741454573
 20
114.8242772129581
 10
102.551146259858
 20
114.8435051518512
 10
102.5636885604238
 20
114.8640895970715
 10
102.5742283992683
 20
114.8859336553101
 10
102.5826581171593
 20
114.9088758377184
 10
102.5888269911714
 20
114.932808485064
 10
102.5926273620725
 20
114.9576131721915
 10
102.5939192728604
 20
114.9831499420988
 10
102.5939192728604
 20
114.9831499420988
 10
102.5926273620725
 20
115.0087405416222
 10
102.5888269911714
 20
115.0335990583658
 10
102.582647351236
 20
115.0575855353276
 10
102.5742283992683
 20
115.0805600155056
 10
102.5636777945005
 20
115.1024363715139
 10
102.551146259858
 20
115.1230531145039
 10
102.5367306886498
 20
115.1423025852435
 10
102.5205818038012
 20
115.1600663585769
 10
102.5028072645445
 20
115.1761937115791
 10
102.4835470278817
 20
115.1905877509408
 10
102.4629302848916
 20
115.2031085196601
 10
102.4410646948066
 20
115.2136268266582
 10
102.4181009805519
 20
115.2220350127027
 10
102.3941468013598
 20
115.2281931207916
 10
102.3693313483091
 20
115.2319719598462
 10
102.3437945784018
 20
115.2332638706341
 10
102.3437945784018
 20
115.2332638706341
 10
102.3182039788783
 20
115.2319719598462
 10
102.2933454621347
 20
115.2281823548684
 10
102.2693482192497
 20
115.2220242467795
 10
102.2463629731485
 20
115.2136268266582
 10
102.2244973830635
 20
115.2031085196601
 10
102.2038806400734
 20
115.1905877509408
 10
102.1846311693338
 20
115.1762044775023
 10
102.1668673960004
 20
115.1600663585769
 10
102.1507400429982
 20
115.1423133511667
 10
102.1363460036365
 20
115.1230531145039
 10
102.1238360008404
 20
115.1024363715139
 10
102.1133069279191
 20
115.0805707814288
 10
102.1049095077979
 20
115.0575855353276
 10
102.0987513997089
 20
115.0335990583658
 10
102.0949617947311
 20
115.0087513075454
 10
102.0936698839432
 20
114.9831499420988
 10
102.0936698839432
 20
114.9831499420988
 10
102.0949617947311
 20
114.9576131721915
 10
102.0987513997089
 20
114.9328192509872
 10
102.1048987418746
 20
114.9088758377184
 10
102.1132961619959
 20
114.8859336553101
 10
102.1238252349172
 20
114.8640895970715
 10
102.1363460036365
 20
114.8435051518512
 10
102.150729277075
 20
114.8242772129581
 10
102.1668673960004
 20
114.8065349714711
 10
102.1846311693338
 20
114.7904183843922
 10
102.2038806400734
 20
114.7760351109537
 10
102.2245081489867
 20
114.7635251081576
 10
102.2463737390717
 20
114.7530068011595
 10
102.2693589851729
 20
114.7446093810383
 10
102.2933454621347
 20
114.7384512729493
 10
102.3181932129551
 20
114.7346724338947
 97
        0
 75
     1
 76
     1
 98
        0
  0
LWPOLYLINE
  5
7F
330
1F
100
AcDbEntity
  8
ISS138金台
  6
Continuous
 62
   250
420
  2367521
370
    13
100
AcDbPolyline
 90
       68
 70
     0
 43
0.0
 10
102.3437945784018
 20
114.7333805231069
 10
102.3693421142323
 20
114.7346616679715
 10
102.3941468013598
 20
114.7384512729493
 10
102.4181009805519
 20
114.7446093810383
 10
102.4410754607298
 20
114.7530068011595
 10
102.4629195189684
 20
114.7635251081576
 10
102.4835470278817
 20
114.7760351109537
 10
102.5028180304677
 20
114.7904183843922
 10
102.5205818038012
 20
114.8065349714711
 10
102.536741454573
 20
114.8242772129581
 10
102.551146259858
 20
114.8435051518512
 10
102.5636885604238
 20
114.8640895970715
 10
102.5742283992683
 20
114.8859336553101
 10
102.5826581171593
 20
114.9088758377184
 10
102.5888269911714
 20
114.932808485064
 10
102.5926273620725
 20
114.9576131721915
 10
102.5939192728604
 20
114.9831499420988
 10
102.5939192728604
 20
114.9831499420988
 10
102.5926273620725
 20
115.0087405416222
 10
102.5888269911714
 20
115.0335990583658
 10
102.582647351236
 20
115.0575855353276
 10
102.5742283992683
 20
115.0805600155056
 10
102.5636777945005
 20
115.1024363715139
 10
102.551146259858
 20
115.1230531145039
 10
102.5367306886498
 20
115.1423025852435
 10
102.5205818038012
 20
115.1600663585769
 10
102.5028072645445
 20
115.1761937115791
 10
102.4835470278817
 20
115.1905877509408
 10
102.4629302848916
 20
115.2031085196601
 10
102.4410646948066
 20
115.2136268266582
 10
102.4181009805519
 20
115.2220350127027
 10
102.3941468013598
 20
115.2281931207916
 10
102.3693313483091
 20
115.2319719598462
 10
102.3437945784018
 20
115.2332638706341
 10
102.3437945784018
 20
115.2332638706341
 10
102.3182039788783
 20
115.2319719598462
 10
102.2933454621347
 20
115.2281823548684
 10
102.2693482192497
 20
115.2220242467795
 10
102.2463629731485
 20
115.2136268266582
 10
102.2244973830635
 20
115.2031085196601
 10
102.2038806400734
 20
115.1905877509408
 10
102.1846311693338
 20
115.1762044775023
 10
102.1668673960004
 20
115.1600663585769
 10
102.1507400429982
 20
115.1423133511667
 10
102.1363460036365
 20
115.1230531145039
 10
102.1238360008404
 20
115.1024363715139
 10
102.1133069279191
 20
115.0805707814288
 10
102.1049095077979
 20
115.0575855353276
 10
102.0987513997089
 20
115.0335990583658
 10
102.0949617947311
 20
115.0087513075454
 10
102.0936698839432
 20
114.9831499420988
 10
102.0936698839432
 20
114.9831499420988
 10
102.0949617947311
 20
114.9576131721915
 10
102.0987513997089
 20
114.9328192509872
 10
102.1048987418746
 20
114.9088758377184
 10
102.1132961619959
 20
114.8859336553101
 10
102.1238252349172
 20
114.8640895970715
 10
102.1363460036365
 20
114.8435051518512
 10
102.150729277075
 20
114.8242772129581
 10
102.1668673960004
 20
114.8065349714711
 10
102.1846311693338
 20
114.7904183843922
 10
102.2038806400734
 20
114.7760351109537
 10
102.2245081489867
 20
114.7635251081576
 10
102.2463737390717
 20
114.7530068011595
 10
102.2693589851729
 20
114.7446093810383
 10
102.2933454621347
 20
114.7384512729493
 10
102.3181932129551
 20
114.7346724338947
 10
102.3437945784018
 20
114.7333805231069
  0
HATCH
  5
80
330
1F
100
AcDbEntity
  8
ISS138金台
  6
Continuous
 62
   250
420
  2367521
370
    13
100
AcDbHatch
 10
0.0
 20
0.0
 30
0.0
210
0.0
220
0.0
230
1.0
  2
SOLID
 70
     1
 71
     0
 91
        1
 92
        3
 72
     0
 73
     1
 93
       67
 10
144.3415642147213
 20
105.7351572899198
 10
144.3671009846286
 20
105.7364384347845
 10
144.391905671756
 20
105.7402388056855
 10
144.4158598509482
 20
105.7463969137744
 10
144.4388343311261
 20
105.7547943338957
 10
144.4606999212111
 20
105.7653126408938
 10
144.4813166642012
 20
105.7778334096131
 10
144.500576900864
 20
105.7922274489748
 10
144.5183514401207
 20
105.808354801977
 10
144.5345110908925
 20
105.8261078093872
 10
144.5489158961775
 20
105.84536804605
 10
144.5614581967432
 20
105.86598478904
 10
144.572008801511
 20
105.8878503791251
 10
144.5804277534787
 20
105.9108463911495
 10
144.5865966274909
 20
105.9348328681113
 10
144.590396998392
 20
105.9596806189317
 10
144.5916889091798
 20
105.9852819843784
 10
144.5916889091798
 20
105.9852819843784
 10
144.590396998392
 20
106.0108187542856
 10
144.5865966274909
 20
106.0356126754899
 10
144.5804277534787
 20
106.0595453228355
 10
144.5719980355878
 20
106.082498271167
 10
144.5614581967432
 20
106.1043315634823
 10
144.5489158961775
 20
106.1249267746259
 10
144.5345003249693
 20
106.144154713519
 10
144.5183514401207
 20
106.1618861890828
 10
144.5005876667872
 20
106.1780027761617
 10
144.4813274301244
 20
106.1923860496002
 10
144.4606999212111
 20
106.2048960523963
 10
144.4388343311261
 20
106.2154143593943
 10
144.4158598509482
 20
106.2238117795156
 10
144.3919164376792
 20
106.2299698876046
 10
144.3671009846286
 20
106.2337487266591
 10
144.3415642147213
 20
106.235040637447
 10
144.3415642147213
 20
106.235040637447
 10
144.316027444814
 20
106.2337487266591
 10
144.2912119917633
 20
106.2299698876046
 10
144.2672578125712
 20
106.2238117795156
 10
144.2442833323932
 20
106.2154143593943
 10
144.2224285082314
 20
106.2048960523963
 10
144.2018009993182
 20
106.1923860496002
 10
144.1825515285786
 20
106.178013542085
 10
144.1647769893219
 20
106.1618861890828
 10
144.1486281044733
 20
106.1441439475958
 10
144.1342017673418
 20
106.1249160087027
 10
144.1216702326993
 20
106.1043315634823
 10
144.1111303938548
 20
106.082498271167
 10
144.1027006759638
 20
106.0595453228355
 10
144.0965318019516
 20
106.0356126754899
 10
144.0927314310506
 20
106.0108187542856
 10
144.0914395202627
 20
105.9852819843784
 10
144.0914395202627
 20
105.9852819843784
 10
144.0927314310506
 20
105.9596806189317
 10
144.0965210360284
 20
105.9348328681113
 10
144.1027006759638
 20
105.9108463911495
 10
144.1111196279315
 20
105.8878611450483
 10
144.1216702326993
 20
105.86598478904
 10
144.1342125332651
 20
105.84536804605
 10
144.14861733855
 20
105.8261078093872
 10
144.1647769893219
 20
105.808354801977
 10
144.1825515285786
 20
105.7922274489748
 10
144.2018117652414
 20
105.7778334096131
 10
144.2224392741547
 20
105.7653126408938
 10
144.2442940983165
 20
105.7547943338957
 10
144.2672578125712
 20
105.7463861478512
 10
144.2912119917633
 20
105.7402280397623
 10
144.316027444814
 20
105.7364492007077
 97
        0
 75
     1
 76
     1
 98
        0
  0
LWPOLYLINE
  5
81
330
1F
100
AcDbEntity
  8
ISS138金台
  6
Continuous
 62
   250
420
  2367521
370
    13
100
AcDbPolyline
 90
       68
 70
     0
 43
0.0
 10
144.3415642147213
 20
105.7351572899198
 10
144.3671009846286
 20
105.7364384347845
 10
144.391905671756
 20
105.7402388056855
 10
144.4158598509482
 20
105.7463969137744
 10
144.4388343311261
 20
105.7547943338957
 10
144.4606999212111
 20
105.7653126408938
 10
144.4813166642012
 20
105.7778334096131
 10
144.500576900864
 20
105.7922274489748
 10
144.5183514401207
 20
105.808354801977
 10
144.5345110908925
 20
105.8261078093872
 10
144.5489158961775
 20
105.84536804605
 10
144.5614581967432
 20
105.86598478904
 10
144.572008801511
 20
105.8878503791251
 10
144.5804277534787
 20
105.9108463911495
 10
144.5865966274909
 20
105.9348328681113
 10
144.590396998392
 20
105.9596806189317
 10
144.5916889091798
 20
105.9852819843784
 10
144.5916889091798
 20
105.9852819843784
 10
144.590396998392
 20
106.0108187542856
 10
144.5865966274909
 20
106.0356126754899
 10
144.5804277534787
 20
106.0595453228355
 10
144.5719980355878
 20
106.082498271167
 10
144.5614581967432
 20
106.1043315634823
 10
144.5489158961775
 20
106.1249267746259
 10
144.5345003249693
 20
106.144154713519
 10
144.5183514401207
 20
106.1618861890828
 10
144.5005876667872
 20
106.1780027761617
 10
144.4813274301244
 20
106.1923860496002
 10
144.4606999212111
 20
106.2048960523963
 10
144.4388343311261
 20
106.2154143593943
 10
144.4158598509482
 20
106.2238117795156
 10
144.3919164376792
 20
106.2299698876046
 10
144.3671009846286
 20
106.2337487266591
 10
144.3415642147213
 20
106.235040637447
 10
144.3415642147213
 20
106.235040637447
 10
144.316027444814
 20
106.2337487266591
 10
144.2912119917633
 20
106.2299698876046
 10
144.2672578125712
 20
106.2238117795156
 10
144.2442833323932
 20
106.2154143593943
 10
144.2224285082314
 20
106.2048960523963
 10
144.2018009993182
 20
106.1923860496002
 10
144.1825515285786
 20
106.178013542085
 10
144.1647769893219
 20
106.1618861890828
 10
144.1486281044733
 20
106.1441439475958
 10
144.1342017673418
 20
106.1249160087027
 10
144.1216702326993
 20
106.1043315634823
 10
144.1111303938548
 20
106.082498271167
 10
144.1027006759638
 20
106.0595453228355
 10
144.0965318019516
 20
106.0356126754899
 10
144.0927314310506
 20
106.0108187542856
 10
144.0914395202627
 20
105.9852819843784
 10
144.0914395202627
 20
105.9852819843784
 10
144.0927314310506
 20
105.9596806189317
 10
144.0965210360284
 20
105.9348328681113
 10
144.1027006759638
 20
105.9108463911495
 10
144.1111196279315
 20
105.8878611450483
 10
144.1216702326993
 20
105.86598478904
 10
144.1342125332651
 20
105.84536804605
 10
144.14861733855
 20
105.8261078093872
 10
144.1647769893219
 20
105.808354801977
 10
144.1825515285786
 20
105.7922274489748
 10
144.2018117652414
 20
105.7778334096131
 10
144.2224392741547
 20
105.7653126408938
 10
144.2442940983165
 20
105.7547943338957
 10
144.2672578125712
 20
105.7463861478512
 10
144.2912119917633
 20
105.7402280397623
 10
144.316027444814
 20
105.7364492007077
 10
144.3415642147213
 20
105.7351572899198
  0
HATCH
  5
82
330
1F
100
AcDbEntity
  8
ISS138金台
  6
Continuous
 62
   250
420
  2367521
370
    13
100
AcDbHatch
 10
0.0
 20
0.0
 30
0.0
210
0.0
220
0.0
230
1.0
  2
SOLID
 70
     1
 71
     0
 91
        1
 92
        3
 72
     0
 73
     1
 93
       67
 10
102.3437945784018
 20
94.09864767532176
 10
102.3693421142323
 20
94.09993958610963
 10
102.3941468013598
 20
94.1037184251642
 10
102.4181009805519
 20
94.10987653325316
 10
102.4410754607298
 20
94.11828471929766
 10
102.4629195189684
 20
94.12879226037249
 10
102.4835470278817
 20
94.14130226316855
 10
102.5028180304677
 20
94.15568553660705
 10
102.5205818038012
 20
94.17180212368598
 10
102.536741454573
 20
94.18953359924976
 10
102.551146259858
 20
94.20877230406606
 10
102.5636885604238
 20
94.22935674928644
 10
102.5742283992683
 20
94.25120080752498
 10
102.5826581171593
 20
94.27414298993325
 10
102.5888269911714
 20
94.2980756372789
 10
102.5926273620725
 20
94.32288032440637
 10
102.5939192728604
 20
94.34841709431365
 10
102.5939192728604
 20
94.34841709431365
 10
102.5926273620725
 20
94.37400769383709
 10
102.5888269911714
 20
94.3988662105807
 10
102.582647351236
 20
94.42285268754253
 10
102.5742283992683
 20
94.44582716772048
 10
102.5636777945005
 20
94.46770352372874
 10
102.551146259858
 20
94.4883202667188
 10
102.5367306886498
 20
94.50756973745834
 10
102.5205818038012
 20
94.52533351079182
 10
102.5028072645445
 20
94.54147162971721
 10
102.4835470278817
 20
94.5558549031557
 10
102.4629302848916
 20
94.568375671875
 10
102.4410646948066
 20
94.57889397887305
 10
102.4181009805519
 20
94.58730216491757
 10
102.3941468013598
 20
94.59346027300651
 10
102.3693313483091
 20
94.59723911206109
 10
102.3437945784018
 20
94.59853102284897
 10
102.3437945784018
 20
94.59853102284897
 10
102.3182039788783
 20
94.59723911206109
 10
102.2933454621347
 20
94.59344950708328
 10
102.2693482192497
 20
94.58730216491757
 10
102.2463629731485
 20
94.57889397887305
 10
102.2244973830635
 20
94.56836490595177
 10
102.2038806400734
 20
94.5558549031557
 10
102.1846311693338
 20
94.54147162971721
 10
102.1668673960004
 20
94.52533351079182
 10
102.1507400429982
 20
94.50758050338158
 10
102.1363460036365
 20
94.4883202667188
 10
102.1238360008404
 20
94.46770352372874
 10
102.1133069279191
 20
94.44583793364372
 10
102.1049095077979
 20
94.42285268754253
 10
102.0987513997089
 20
94.3988662105807
 10
102.0949617947311
 20
94.37401845976032
 10
102.0936698839432
 20
94.34841709431365
 10
102.0936698839432
 20
94.34841709431365
 10
102.0949617947311
 20
94.32288032440637
 10
102.0987513997089
 20
94.2980756372789
 10
102.1048987418746
 20
94.27414298993325
 10
102.1132961619959
 20
94.25119004160175
 10
102.1238252349172
 20
94.22935674928644
 10
102.1363460036365
 20
94.20877230406606
 10
102.150729277075
 20
94.18954436517298
 10
102.1668673960004
 20
94.17180212368598
 10
102.1846311693338
 20
94.15568553660705
 10
102.2038806400734
 20
94.14130226316855
 10
102.2245081489867
 20
94.12879226037249
 10
102.2463737390717
 20
94.11827395337443
 10
102.2693589851729
 20
94.10987653325316
 10
102.2933454621347
 20
94.1037184251642
 10
102.3181932129551
 20
94.09993958610963
 97
        0
 75
     1
 76
     1
 98
        0
  0
LWPOLYLINE
  5
83
330
1F
100
AcDbEntity
  8
ISS138金台
  6
Continuous
 62
   250
420
  2367521
370
    13
100
AcDbPolyline
 90
       68
 70
     0
 43
0.0
 10
102.3437945784018
 20
94.09864767532176
 10
102.3693421142323
 20
94.09993958610963
 10
102.3941468013598
 20
94.1037184251642
 10
102.4181009805519
 20
94.10987653325316
 10
102.4410754607298
 20
94.11828471929766
 10
102.4629195189684
 20
94.12879226037249
 10
102.4835470278817
 20
94.14130226316855
 10
102.5028180304677
 20
94.15568553660705
 10
102.5205818038012
 20
94.17180212368598
 10
102.536741454573
 20
94.18953359924976
 10
102.551146259858
 20
94.20877230406606
 10
102.5636885604238
 20
94.22935674928644
 10
102.5742283992683
 20
94.25120080752498
 10
102.5826581171593
 20
94.27414298993325
 10
102.5888269911714
 20
94.2980756372789
 10
102.5926273620725
 20
94.32288032440637
 10
102.5939192728604
 20
94.34841709431365
 10
102.5939192728604
 20
94.34841709431365
 10
102.5926273620725
 20
94.37400769383709
 10
102.5888269911714
 20
94.3988662105807
 10
102.582647351236
 20
94.42285268754253
 10
102.5742283992683
 20
94.44582716772048
 10
102.5636777945005
 20
94.46770352372874
 10
102.551146259858
 20
94.4883202667188
 10
102.5367306886498
 20
94.50756973745834
 10
102.5205818038012
 20
94.52533351079182
 10
102.5028072645445
 20
94.54147162971721
 10
102.4835470278817
 20
94.5558549031557
 10
102.4629302848916
 20
94.568375671875
 10
102.4410646948066
 20
94.57889397887305
 10
102.4181009805519
 20
94.58730216491757
 10
102.3941468013598
 20
94.59346027300651
 10
102.3693313483091
 20
94.59723911206109
 10
102.3437945784018
 20
94.59853102284897
 10
102.3437945784018
 20
94.59853102284897
 10
102.3182039788783
 20
94.59723911206109
 10
102.2933454621347
 20
94.59344950708328
 10
102.2693482192497
 20
94.58730216491757
 10
102.2463629731485
 20
94.57889397887305
 10
102.2244973830635
 20
94.56836490595177
 10
102.2038806400734
 20
94.5558549031557
 10
102.1846311693338
 20
94.54147162971721
 10
102.1668673960004
 20
94.52533351079182
 10
102.1507400429982
 20
94.50758050338158
 10
102.1363460036365
 20
94.4883202667188
 10
102.1238360008404
 20
94.46770352372874
 10
102.1133069279191
 20
94.44583793364372
 10
102.1049095077979
 20
94.42285268754253
 10
102.0987513997089
 20
94.3988662105807
 10
102.0949617947311
 20
94.37401845976032
 10
102.0936698839432
 20
94.34841709431365
 10
102.0936698839432
 20
94.34841709431365
 10
102.0949617947311
 20
94.32288032440637
 10
102.0987513997089
 20
94.2980756372789
 10
102.1048987418746
 20
94.27414298993325
 10
102.1132961619959
 20
94.25119004160175
 10
102.1238252349172
 20
94.22935674928644
 10
102.1363460036365
 20
94.20877230406606
 10
102.150729277075
 20
94.18954436517298
 10
102.1668673960004
 20
94.17180212368598
 10
102.1846311693338
 20
94.15568553660705
 10
102.2038806400734
 20
94.14130226316855
 10
102.2245081489867
 20
94.12879226037249
 10
102.2463737390717
 20
94.11827395337443
 10
102.2693589851729
 20
94.10987653325316
 10
102.2933454621347
 20
94.1037184251642
 10
102.3181932129551
 20
94.09993958610963
 10
102.3437945784018
 20
94.09864767532176
  0
HATCH
  5
84
330
1F
100
AcDbEntity
  8
ISS138金台
  6
Continuous
 62
   250
420
  2367521
370
    13
100
AcDbHatch
 10
0.0
 20
0.0
 30
0.0
210
0.0
220
0.0
230
1.0
  2
SOLID
 70
     1
 71
     0
 91
        1
 92
        3
 72
     0
 73
     1
 93
       67
 10
149.3465988617754
 20
104.5355642937486
 10
149.3721356316827
 20
104.5368562045365
 10
149.3969080210405
 20
104.5406458095143
 10
149.4208299024629
 20
104.5467823857568
 10
149.4437505530247
 20
104.5551905718013
 10
149.4655730794168
 20
104.5657088787993
 10
149.4861252268674
 20
104.5782296475186
 10
149.5053316339141
 20
104.5926021550339
 10
149.5230308117081
 20
104.6087187421128
 10
149.5391151010174
 20
104.6264609835998
 10
149.5534660766862
 20
104.6456781565697
 10
149.5659437817125
 20
104.6662733677133
 10
149.5764405568641
 20
104.6881174259518
 10
149.5848164451389
 20
104.7110596083601
 10
149.5909530213814
 20
104.7349922557057
 10
149.594731860436
 20
104.7597969428332
 10
149.5960130053006
 20
104.7853337127405
 10
149.5960130053006
 20
104.7853337127405
 10
149.594731860436
 20
104.8109350781872
 10
149.5909530213814
 20
104.8357828290076
 10
149.5848164451389
 20
104.8597585400461
 10
149.5764297909409
 20
104.8827545520706
 10
149.5659545476358
 20
104.9046201421556
 10
149.5534660766862
 20
104.9252476510689
 10
149.5391258669406
 20
104.9444971218084
 10
149.5230308117081
 20
104.9622501292187
 10
149.5053208679908
 20
104.978388248144
 10
149.4861359927907
 20
104.9927715215826
 10
149.4655623134935
 20
105.0052922903018
 10
149.4437613189479
 20
105.0158105972999
 10
149.4208299024629
 20
105.0242187833444
 10
149.3969187869637
 20
105.0303661255101
 10
149.3721356316827
 20
105.0341557304879
 10
149.3465988617754
 20
105.0354476412758
 10
149.3465988617754
 20
105.0354476412758
 10
149.3209436667126
 20
105.0341557304879
 10
149.2960528521992
 20
105.0303768914334
 10
149.2720340774678
 20
105.0242080174212
 10
149.2490165335969
 20
105.0158105972999
 10
149.2271509435118
 20
105.0052922903018
 10
149.2065234345985
 20
104.9927715215826
 10
149.1872847297822
 20
104.9783774822208
 10
149.1695424882952
 20
104.9622501292187
 10
149.1534259012163
 20
104.9444863558852
 10
149.139053393701
 20
104.9252368851457
 10
149.1265649227514
 20
104.9046201421556
 10
149.1160573816766
 20
104.8827545520706
 10
149.1076707274786
 20
104.8597693059694
 10
149.1015341512361
 20
104.8357828290076
 10
149.0977553121815
 20
104.8109350781872
 10
149.0964741673168
 20
104.7853337127405
 10
149.0964741673168
 20
104.7853337127405
 10
149.0977660781047
 20
104.7598077087565
 10
149.1015233853129
 20
104.735003021629
 10
149.1076599615553
 20
104.7110596083601
 10
149.1160466157534
 20
104.6881174259518
 10
149.1265649227514
 20
104.6662841336365
 10
149.1390641596243
 20
104.6456781565697
 10
149.1534259012163
 20
104.6264609835998
 10
149.1695424882952
 20
104.6087187421128
 10
149.1872847297822
 20
104.5926021550339
 10
149.2065342005218
 20
104.5782188815954
 10
149.2271509435118
 20
104.5657088787993
 10
149.2490272995201
 20
104.5551905718013
 10
149.2720340774678
 20
104.54679315168
 10
149.296042086276
 20
104.5406350435911
 10
149.3209436667126
 20
104.5368562045365
 97
        0
 75
     1
 76
     1
 98
        0
  0
LWPOLYLINE
  5
85
330
1F
100
AcDbEntity
  8
ISS138金台
  6
Continuous
 62
   250
420
  2367521
370
    13
100
AcDbPolyline
 90
       68
 70
     0
 43
0.0
 10
149.3465988617754
 20
104.5355642937486
 10
149.3721356316827
 20
104.5368562045365
 10
149.3969080210405
 20
104.5406458095143
 10
149.4208299024629
 20
104.5467823857568
 10
149.4437505530247
 20
104.5551905718013
 10
149.4655730794168
 20
104.5657088787993
 10
149.4861252268674
 20
104.5782296475186
 10
149.5053316339141
 20
104.5926021550339
 10
149.5230308117081
 20
104.6087187421128
 10
149.5391151010174
 20
104.6264609835998
 10
149.5534660766862
 20
104.6456781565697
 10
149.5659437817125
 20
104.6662733677133
 10
149.5764405568641
 20
104.6881174259518
 10
149.5848164451389
 20
104.7110596083601
 10
149.5909530213814
 20
104.7349922557057
 10
149.594731860436
 20
104.7597969428332
 10
149.5960130053006
 20
104.7853337127405
 10
149.5960130053006
 20
104.7853337127405
 10
149.594731860436
 20
104.8109350781872
 10
149.5909530213814
 20
104.8357828290076
 10
149.5848164451389
 20
104.8597585400461
 10
149.5764297909409
 20
104.8827545520706
 10
149.5659545476358
 20
104.9046201421556
 10
149.5534660766862
 20
104.9252476510689
 10
149.5391258669406
 20
104.9444971218084
 10
149.5230308117081
 20
104.9622501292187
 10
149.5053208679908
 20
104.978388248144
 10
149.4861359927907
 20
104.9927715215826
 10
149.4655623134935
 20
105.0052922903018
 10
149.4437613189479
 20
105.0158105972999
 10
149.4208299024629
 20
105.0242187833444
 10
149.3969187869637
 20
105.0303661255101
 10
149.3721356316827
 20
105.0341557304879
 10
149.3465988617754
 20
105.0354476412758
 10
149.3465988617754
 20
105.0354476412758
 10
149.3209436667126
 20
105.0341557304879
 10
149.2960528521992
 20
105.0303768914334
 10
149.2720340774678
 20
105.0242080174212
 10
149.2490165335969
 20
105.0158105972999
 10
149.2271509435118
 20
105.0052922903018
 10
149.2065234345985
 20
104.9927715215826
 10
149.1872847297822
 20
104.9783774822208
 10
149.1695424882952
 20
104.9622501292187
 10
149.1534259012163
 20
104.9444863558852
 10
149.139053393701
 20
104.9252368851457
 10
149.1265649227514
 20
104.9046201421556
 10
149.1160573816766
 20
104.8827545520706
 10
149.1076707274786
 20
104.8597693059694
 10
149.1015341512361
 20
104.8357828290076
 10
149.0977553121815
 20
104.8109350781872
 10
149.0964741673168
 20
104.7853337127405
 10
149.0964741673168
 20
104.7853337127405
 10
149.0977660781047
 20
104.7598077087565
 10
149.1015233853129
 20
104.735003021629
 10
149.1076599615553
 20
104.7110596083601
 10
149.1160466157534
 20
104.6881174259518
 10
149.1265649227514
 20
104.6662841336365
 10
149.1390641596243
 20
104.6456781565697
 10
149.1534259012163
 20
104.6264609835998
 10
149.1695424882952
 20
104.6087187421128
 10
149.1872847297822
 20
104.5926021550339
 10
149.2065342005218
 20
104.5782188815954
 10
149.2271509435118
 20
104.5657088787993
 10
149.2490272995201
 20
104.5551905718013
 10
149.2720340774678
 20
104.54679315168
 10
149.296042086276
 20
104.5406350435911
 10
149.3209436667126
 20
104.5368562045365
 10
149.3465988617754
 20
104.5355642937486
  0
HATCH
  5
86
330
1F
100
AcDbEntity
  8
ISS138金台
  6
Continuous
 62
   250
420
  2367521
370
    13
100
AcDbHatch
 10
0.0
 20
0.0
 30
0.0
210
0.0
220
0.0
230
1.0
  2
SOLID
 70
     1
 71
     0
 91
        1
 92
        3
 72
     0
 73
     1
 93
       67
 10
149.3465988617754
 20
109.2353850171639
 10
149.3721356316827
 20
109.2366661620286
 10
149.3969080210405
 20
109.2404557670064
 10
149.4208299024629
 20
109.2465923432489
 10
149.4437505530247
 20
109.2549682315237
 10
149.4655730794168
 20
109.2654650066753
 10
149.4861252268674
 20
109.2779534776249
 10
149.5053316339141
 20
109.2923152192169
 10
149.5230308117081
 20
109.3084102744494
 10
149.5391151010174
 20
109.3261309840899
 10
149.5534660766862
 20
109.3453481570598
 10
149.5659437817125
 20
109.3659541341266
 10
149.5764405568641
 20
109.3877874264419
 10
149.5848164451389
 20
109.4107511406967
 10
149.5909530213814
 20
109.434716085812
 10
149.594731860436
 20
109.4595638366324
 10
149.5960130053006
 20
109.4851544361558
 10
149.5960130053006
 20
109.4851544361558
 10
149.594731860436
 20
109.5107450356793
 10
149.5909530213814
 20
109.5355927864997
 10
149.5848164451389
 20
109.5595469656918
 10
149.5764297909409
 20
109.582532211793
 10
149.5659545476358
 20
109.6043655041083
 10
149.5534660766862
 20
109.6249499493287
 10
149.5391258669406
 20
109.6441778882217
 10
149.5230308117081
 20
109.6618878319391
 10
149.5053208679908
 20
109.6779936530947
 10
149.4861359927907
 20
109.6923553946868
 10
149.4655623134935
 20
109.7048438656364
 10
149.4437613189479
 20
109.7153298748647
 10
149.4208299024629
 20
109.7237165290628
 10
149.3969187869637
 20
109.7298531053053
 10
149.3721356316827
 20
109.7336319443598
 10
149.3465988617754
 20
109.7349130892245
 10
149.3465988617754
 20
109.7349130892245
 10
149.3209436667126
 20
109.7336319443598
 10
149.2960528521992
 20
109.7298531053053
 10
149.2720340774678
 20
109.7237165290628
 10
149.2490165335969
 20
109.715340640788
 10
149.2271509435118
 20
109.7048438656364
 10
149.2065234345985
 20
109.6923553946868
 10
149.1872847297822
 20
109.6779936530947
 10
149.1695424882952
 20
109.6618878319391
 10
149.1534259012163
 20
109.6441671222985
 10
149.139053393701
 20
109.6249499493287
 10
149.1265649227514
 20
109.6043655041083
 10
149.1160573816766
 20
109.5825214458697
 10
149.1076707274786
 20
109.559557731615
 10
149.1015341512361
 20
109.5355927864997
 10
149.0977553121815
 20
109.5107450356793
 10
149.0964741673168
 20
109.4851544361558
 10
149.0964741673168
 20
109.4851544361558
 10
149.0977660781047
 20
109.4595638366324
 10
149.1015233853129
 20
109.434716085812
 10
149.1076599615553
 20
109.4107511406967
 10
149.1160466157534
 20
109.3877981923652
 10
149.1265649227514
 20
109.3659541341266
 10
149.1390641596243
 20
109.3453481570598
 10
149.1534259012163
 20
109.3261309840899
 10
149.1695424882952
 20
109.3084102744494
 10
149.1872847297822
 20
109.2923152192169
 10
149.2065342005218
 20
109.2779534776249
 10
149.2271509435118
 20
109.2654650066753
 10
149.2490272995201
 20
109.2549682315237
 10
149.2720340774678
 20
109.2465815773256
 10
149.296042086276
 20
109.2404450010832
 10
149.3209436667126
 20
109.2366661620286
 97
        0
 75
     1
 76
     1
 98
        0
  0
LWPOLYLINE
  5
87
330
1F
100
AcDbEntity
  8
ISS138金台
  6
Continuous
 62
   250
420
  2367521
370
    13
100
AcDbPolyline
 90
       68
 70
     0
 43
0.0
 10
149.3465988617754
 20
109.2353850171639
 10
149.3721356316827
 20
109.2366661620286
 10
149.3969080210405
 20
109.2404557670064
 10
149.4208299024629
 20
109.2465923432489
 10
149.4437505530247
 20
109.2549682315237
 10
149.4655730794168
 20
109.2654650066753
 10
149.4861252268674
 20
109.2779534776249
 10
149.5053316339141
 20
109.2923152192169
 10
149.5230308117081
 20
109.3084102744494
 10
149.5391151010174
 20
109.3261309840899
 10
149.5534660766862
 20
109.3453481570598
 10
149.5659437817125
 20
109.3659541341266
 10
149.5764405568641
 20
109.3877874264419
 10
149.5848164451389
 20
109.4107511406967
 10
149.5909530213814
 20
109.434716085812
 10
149.594731860436
 20
109.4595638366324
 10
149.5960130053006
 20
109.4851544361558
 10
149.5960130053006
 20
109.4851544361558
 10
149.594731860436
 20
109.5107450356793
 10
149.5909530213814
 20
109.5355927864997
 10
149.5848164451389
 20
109.5595469656918
 10
149.5764297909409
 20
109.582532211793
 10
149.5659545476358
 20
109.6043655041083
 10
149.5534660766862
 20
109.6249499493287
 10
149.5391258669406
 20
109.6441778882217
 10
149.5230308117081
 20
109.6618878319391
 10
149.5053208679908
 20
109.6779936530947
 10
149.4861359927907
 20
109.6923553946868
 10
149.4655623134935
 20
109.7048438656364
 10
149.4437613189479
 20
109.7153298748647
 10
149.4208299024629
 20
109.7237165290628
 10
149.3969187869637
 20
109.7298531053053
 10
149.3721356316827
 20
109.7336319443598
 10
149.3465988617754
 20
109.7349130892245
 10
149.3465988617754
 20
109.7349130892245
 10
149.3209436667126
 20
109.7336319443598
 10
149.2960528521992
 20
109.7298531053053
 10
149.2720340774678
 20
109.7237165290628
 10
149.2490165335969
 20
109.715340640788
 10
149.2271509435118
 20
109.7048438656364
 10
149.2065234345985
 20
109.6923553946868
 10
149.1872847297822
 20
109.6779936530947
 10
149.1695424882952
 20
109.6618878319391
 10
149.1534259012163
 20
109.6441671222985
 10
149.139053393701
 20
109.6249499493287
 10
149.1265649227514
 20
109.6043655041083
 10
149.1160573816766
 20
109.5825214458697
 10
149.1076707274786
 20
109.559557731615
 10
149.1015341512361
 20
109.5355927864997
 10
149.0977553121815
 20
109.5107450356793
 10
149.0964741673168
 20
109.4851544361558
 10
149.0964741673168
 20
109.4851544361558
 10
149.0977660781047
 20
109.4595638366324
 10
149.1015233853129
 20
109.434716085812
 10
149.1076599615553
 20
109.4107511406967
 10
149.1160466157534
 20
109.3877981923652
 10
149.1265649227514
 20
109.3659541341266
 10
149.1390641596243
 20
109.3453481570598
 10
149.1534259012163
 20
109.3261309840899
 10
149.1695424882952
 20
109.3084102744494
 10
149.1872847297822
 20
109.2923152192169
 10
149.2065342005218
 20
109.2779534776249
 10
149.2271509435118
 20
109.2654650066753
 10
149.2490272995201
 20
109.2549682315237
 10
149.2720340774678
 20
109.2465815773256
 10
149.296042086276
 20
109.2404450010832
 10
149.3209436667126
 20
109.2366661620286
 10
149.3465988617754
 20
109.2353850171639
  0
HATCH
  5
88
330
1F
100
AcDbEntity
  8
ISS138金台
  6
Continuous
 62
   250
420
  2367521
370
    13
100
AcDbHatch
 10
0.0
 20
0.0
 30
0.0
210
0.0
220
0.0
230
1.0
  2
SOLID
 70
     1
 71
     0
 91
        1
 92
        3
 72
     0
 73
     1
 93
       67
 10
117.3437185678065
 20
114.7333805231069
 10
117.3692553377138
 20
114.7346616679715
 10
117.3940707907645
 20
114.7384512729493
 10
117.4180249699566
 20
114.7446093810383
 10
117.4409779182881
 20
114.7530068011595
 10
117.4628542742964
 20
114.7635251081576
 10
117.4834710172864
 20
114.7760351109537
 10
117.5027312539492
 20
114.7904183843922
 10
117.5205057932059
 20
114.8065349714711
 10
117.5366654439778
 20
114.8242772129581
 10
117.5510702492627
 20
114.8435051518512
 10
117.5636125498285
 20
114.8640895970715
 10
117.5741631545962
 20
114.8859336553101
 10
117.582582106564
 20
114.9088758377184
 10
117.5887509805762
 20
114.932808485064
 10
117.5925513514772
 20
114.9576131721915
 10
117.5938432622651
 20
114.9831499420988
 10
117.5938432622651
 20
114.9831499420988
 10
117.5925513514772
 20
115.0087405416222
 10
117.5887509805762
 20
115.0335990583658
 10
117.582582106564
 20
115.0575855353276
 10
117.574152388673
 20
115.0805600155056
 10
117.5636125498285
 20
115.1024363715139
 10
117.5510702492627
 20
115.1230531145039
 10
117.5366654439778
 20
115.1423025852435
 10
117.5205057932059
 20
115.1600663585769
 10
117.5027420198724
 20
115.1761937115791
 10
117.4834710172864
 20
115.1905877509408
 10
117.4628542742964
 20
115.2031085196601
 10
117.4409886842113
 20
115.2136268266582
 10
117.4180142040334
 20
115.2220350127027
 10
117.3940707907645
 20
115.2281931207916
 10
117.3692553377138
 20
115.2319719598462
 10
117.3437185678065
 20
115.2332638706341
 10
117.3437185678065
 20
115.2332638706341
 10
117.3181172023599
 20
115.2319719598462
 10
117.2932694515394
 20
115.2281823548684
 10
117.2692829745776
 20
115.2220242467795
 10
117.2462869625532
 20
115.2136268266582
 10
117.2244321383914
 20
115.2031085196601
 10
117.2038046294781
 20
115.1905877509408
 10
117.1845551587386
 20
115.1762044775023
 10
117.1668021513283
 20
115.1600663585769
 10
117.150664032403
 20
115.1423133511667
 10
117.1362699930412
 20
115.1230531145039
 10
117.1237492243219
 20
115.1024363715139
 10
117.1132309173239
 20
115.0805707814288
 10
117.1048227312794
 20
115.0575855353276
 10
117.0986646231904
 20
115.0335990583658
 10
117.0948857841358
 20
115.0087513075454
 10
117.093593873348
 20
114.9831499420988
 10
117.093593873348
 20
114.9831499420988
 10
117.0948857841358
 20
114.9576131721915
 10
117.0986646231904
 20
114.9328192509872
 10
117.1048334972026
 20
114.9088758377184
 10
117.1132201514006
 20
114.8859336553101
 10
117.1237599902452
 20
114.8640895970715
 10
117.1362699930412
 20
114.8435051518512
 10
117.150664032403
 20
114.8242772129581
 10
117.1668021513283
 20
114.8065349714711
 10
117.1845551587386
 20
114.7904183843922
 10
117.2038046294781
 20
114.7760351109537
 10
117.2244321383914
 20
114.7635251081576
 10
117.2462977284764
 20
114.7530068011595
 10
117.2692829745776
 20
114.7446093810383
 10
117.2932694515394
 20
114.7384512729493
 10
117.3181172023599
 20
114.7346724338947
 97
        0
 75
     1
 76
     1
 98
        0
  0
LWPOLYLINE
  5
89
330
1F
100
AcDbEntity
  8
ISS138金台
  6
Continuous
 62
   250
420
  2367521
370
    13
100
AcDbPolyline
 90
       68
 70
     0
 43
0.0
 10
117.3437185678065
 20
114.7333805231069
 10
117.3692553377138
 20
114.7346616679715
 10
117.3940707907645
 20
114.7384512729493
 10
117.4180249699566
 20
114.7446093810383
 10
117.4409779182881
 20
114.7530068011595
 10
117.4628542742964
 20
114.7635251081576
 10
117.4834710172864
 20
114.7760351109537
 10
117.5027312539492
 20
114.7904183843922
 10
117.5205057932059
 20
114.8065349714711
 10
117.5366654439778
 20
114.8242772129581
 10
117.5510702492627
 20
114.8435051518512
 10
117.5636125498285
 20
114.8640895970715
 10
117.5741631545962
 20
114.8859336553101
 10
117.582582106564
 20
114.9088758377184
 10
117.5887509805762
 20
114.932808485064
 10
117.5925513514772
 20
114.9576131721915
 10
117.5938432622651
 20
114.9831499420988
 10
117.5938432622651
 20
114.9831499420988
 10
117.5925513514772
 20
115.0087405416222
 10
117.5887509805762
 20
115.0335990583658
 10
117.582582106564
 20
115.0575855353276
 10
117.574152388673
 20
115.0805600155056
 10
117.5636125498285
 20
115.1024363715139
 10
117.5510702492627
 20
115.1230531145039
 10
117.5366654439778
 20
115.1423025852435
 10
117.5205057932059
 20
115.1600663585769
 10
117.5027420198724
 20
115.1761937115791
 10
117.4834710172864
 20
115.1905877509408
 10
117.4628542742964
 20
115.2031085196601
 10
117.4409886842113
 20
115.2136268266582
 10
117.4180142040334
 20
115.2220350127027
 10
117.3940707907645
 20
115.2281931207916
 10
117.3692553377138
 20
115.2319719598462
 10
117.3437185678065
 20
115.2332638706341
 10
117.3437185678065
 20
115.2332638706341
 10
117.3181172023599
 20
115.2319719598462
 10
117.2932694515394
 20
115.2281823548684
 10
117.2692829745776
 20
115.2220242467795
 10
117.2462869625532
 20
115.2136268266582
 10
117.2244321383914
 20
115.2031085196601
 10
117.2038046294781
 20
115.1905877509408
 10
117.1845551587386
 20
115.1762044775023
 10
117.1668021513283
 20
115.1600663585769
 10
117.150664032403
 20
115.1423133511667
 10
117.1362699930412
 20
115.1230531145039
 10
117.1237492243219
 20
115.1024363715139
 10
117.1132309173239
 20
115.0805707814288
 10
117.1048227312794
 20
115.0575855353276
 10
117.0986646231904
 20
115.0335990583658
 10
117.0948857841358
 20
115.0087513075454
 10
117.093593873348
 20
114.9831499420988
 10
117.093593873348
 20
114.9831499420988
 10
117.0948857841358
 20
114.9576131721915
 10
117.0986646231904
 20
114.9328192509872
 10
117.1048334972026
 20
114.9088758377184
 10
117.1132201514006
 20
114.8859336553101
 10
117.1237599902452
 20
114.8640895970715
 10
117.1362699930412
 20
114.8435051518512
 10
117.150664032403
 20
114.8242772129581
 10
117.1668021513283
 20
114.8065349714711
 10
117.1845551587386
 20
114.7904183843922
 10
117.2038046294781
 20
114.7760351109537
 10
117.2244321383914
 20
114.7635251081576
 10
117.2462977284764
 20
114.7530068011595
 10
117.2692829745776
 20
114.7446093810383
 10
117.2932694515394
 20
114.7384512729493
 10
117.3181172023599
 20
114.7346724338947
 10
117.3437185678065
 20
114.7333805231069
  0
HATCH
  5
8A
330
1F
100
AcDbEntity
  8
ISS138金台
  6
Continuous
 62
   250
420
  2367521
370
    13
100
AcDbHatch
 10
0.0
 20
0.0
 30
0.0
210
0.0
220
0.0
230
1.0
  2
SOLID
 70
     1
 71
     0
 91
        1
 92
        3
 72
     0
 73
     1
 93
       67
 10
138.8438809205521
 20
94.09832469762478
 10
138.8694284563826
 20
94.09961660841267
 10
138.8942223775868
 20
94.10339544746725
 10
138.9181765567789
 20
94.10955355555618
 10
138.9411510369569
 20
94.11796174160068
 10
138.9630166270419
 20
94.12848004859876
 10
138.983633370032
 20
94.14099005139482
 10
139.0028936066948
 20
94.15539485667978
 10
139.0206681459515
 20
94.17152220968192
 10
139.0368277967233
 20
94.18927521709216
 10
139.0512326020083
 20
94.20853545375495
 10
139.063774902574
 20
94.22915219674502
 10
139.0743255073418
 20
94.25101778683003
 10
139.0827444593095
 20
94.27401379885447
 10
139.0889133333217
 20
94.29800027581626
 10
139.0927137042228
 20
94.32284802663668
 10
139.0940056150106
 20
94.34844939208334
 10
139.0940056150106
 20
94.34844939208334
 10
139.0927137042228
 20
94.37398616199062
 10
139.0889133333217
 20
94.39879084911809
 10
139.0827444593095
 20
94.42272349646373
 10
139.0743147414186
 20
94.44566567887199
 10
139.063774902574
 20
94.46748820526409
 10
139.0512433679315
 20
94.48809418233091
 10
139.0368277967233
 20
94.507322121224
 10
139.0206681459515
 20
94.52505359678779
 10
139.0028936066948
 20
94.5411701838667
 10
138.9836441359552
 20
94.5555534573052
 10
138.9630166270419
 20
94.56806346010126
 10
138.9411510369569
 20
94.57858176709932
 10
138.9181873227022
 20
94.5869791872206
 10
138.8942331435101
 20
94.59313729530953
 10
138.8694176904594
 20
94.59691613436411
 10
138.8438809205521
 20
94.598208045152
 10
138.8438809205521
 20
94.598208045152
 10
138.8183441506448
 20
94.59692690028734
 10
138.7935179316709
 20
94.5931265293863
 10
138.7695852843252
 20
94.5869791872206
 10
138.746600038224
 20
94.57858176709932
 10
138.7247452140622
 20
94.56805269417802
 10
138.7041284710722
 20
94.5555534573052
 10
138.6848574684862
 20
94.54118094978993
 10
138.6670936951527
 20
94.52505359678779
 10
138.6509340443808
 20
94.50731135530077
 10
138.6365292390959
 20
94.48808341640769
 10
138.6239869385301
 20
94.46749897118733
 10
138.6134470996856
 20
94.44566567887199
 10
138.6050173817946
 20
94.42272349646373
 10
138.5988485077825
 20
94.39878008319485
 10
138.5950481368814
 20
94.37398616199062
 10
138.5937562260935
 20
94.34844939208334
 10
138.5937562260935
 20
94.34844939208334
 10
138.5950589028046
 20
94.32284802663668
 10
138.5988485077825
 20
94.29798950989303
 10
138.6050281477179
 20
94.27401379885447
 10
138.6134363337624
 20
94.25102855275327
 10
138.6239869385301
 20
94.22915219674502
 10
138.6365292390959
 20
94.20853545375495
 10
138.6509448103041
 20
94.18927521709216
 10
138.6670936951527
 20
94.17152220968192
 10
138.6848682344094
 20
94.15538409075654
 10
138.7041284710722
 20
94.14100081731804
 10
138.7247559799855
 20
94.12848004859876
 10
138.7466108041473
 20
94.11796174160068
 10
138.769574518402
 20
94.10955355555618
 10
138.7935286975941
 20
94.10340621339047
 10
138.8183441506448
 20
94.09961660841267
 97
        0
 75
     1
 76
     1
 98
        0
  0
LWPOLYLINE
  5
8B
330
1F
100
AcDbEntity
  8
ISS138金台
  6
Continuous
 62
   250
420
  2367521
370
    13
100
AcDbPolyline
 90
       68
 70
     0
 43
0.0
 10
138.8438809205521
 20
94.09832469762478
 10
138.8694284563826
 20
94.09961660841267
 10
138.8942223775868
 20
94.10339544746725
 10
138.9181765567789
 20
94.10955355555618
 10
138.9411510369569
 20
94.11796174160068
 10
138.9630166270419
 20
94.12848004859876
 10
138.983633370032
 20
94.14099005139482
 10
139.0028936066948
 20
94.15539485667978
 10
139.0206681459515
 20
94.17152220968192
 10
139.0368277967233
 20
94.18927521709216
 10
139.0512326020083
 20
94.20853545375495
 10
139.063774902574
 20
94.22915219674502
 10
139.0743255073418
 20
94.25101778683003
 10
139.0827444593095
 20
94.27401379885447
 10
139.0889133333217
 20
94.29800027581626
 10
139.0927137042228
 20
94.32284802663668
 10
139.0940056150106
 20
94.34844939208334
 10
139.0940056150106
 20
94.34844939208334
 10
139.0927137042228
 20
94.37398616199062
 10
139.0889133333217
 20
94.39879084911809
 10
139.0827444593095
 20
94.42272349646373
 10
139.0743147414186
 20
94.44566567887199
 10
139.063774902574
 20
94.46748820526409
 10
139.0512433679315
 20
94.48809418233091
 10
139.0368277967233
 20
94.507322121224
 10
139.0206681459515
 20
94.52505359678779
 10
139.0028936066948
 20
94.5411701838667
 10
138.9836441359552
 20
94.5555534573052
 10
138.9630166270419
 20
94.56806346010126
 10
138.9411510369569
 20
94.57858176709932
 10
138.9181873227022
 20
94.5869791872206
 10
138.8942331435101
 20
94.59313729530953
 10
138.8694176904594
 20
94.59691613436411
 10
138.8438809205521
 20
94.598208045152
 10
138.8438809205521
 20
94.598208045152
 10
138.8183441506448
 20
94.59692690028734
 10
138.7935179316709
 20
94.5931265293863
 10
138.7695852843252
 20
94.5869791872206
 10
138.746600038224
 20
94.57858176709932
 10
138.7247452140622
 20
94.56805269417802
 10
138.7041284710722
 20
94.5555534573052
 10
138.6848574684862
 20
94.54118094978993
 10
138.6670936951527
 20
94.52505359678779
 10
138.6509340443808
 20
94.50731135530077
 10
138.6365292390959
 20
94.48808341640769
 10
138.6239869385301
 20
94.46749897118733
 10
138.6134470996856
 20
94.44566567887199
 10
138.6050173817946
 20
94.42272349646373
 10
138.5988485077825
 20
94.39878008319485
 10
138.5950481368814
 20
94.37398616199062
 10
138.5937562260935
 20
94.34844939208334
 10
138.5937562260935
 20
94.34844939208334
 10
138.5950589028046
 20
94.32284802663668
 10
138.5988485077825
 20
94.29798950989303
 10
138.6050281477179
 20
94.27401379885447
 10
138.6134363337624
 20
94.25102855275327
 10
138.6239869385301
 20
94.22915219674502
 10
138.6365292390959
 20
94.20853545375495
 10
138.6509448103041
 20
94.18927521709216
 10
138.6670936951527
 20
94.17152220968192
 10
138.6848682344094
 20
94.15538409075654
 10
138.7041284710722
 20
94.14100081731804
 10
138.7247559799855
 20
94.12848004859876
 10
138.7466108041473
 20
94.11796174160068
 10
138.769574518402
 20
94.10955355555618
 10
138.7935286975941
 20
94.10340621339047
 10
138.8183441506448
 20
94.09961660841267
 10
138.8438809205521
 20
94.09832469762478
  0
HATCH
  5
8C
330
1F
100
AcDbEntity
  8
ISS138金台
  6
Continuous
 62
   250
420
  2367521
370
    13
100
AcDbHatch
 10
0.0
 20
0.0
 30
0.0
210
0.0
220
0.0
230
1.0
  2
SOLID
 70
     1
 71
     0
 91
        1
 92
        3
 72
     0
 73
     1
 93
       67
 10
144.3415642147213
 20
108.73514639417
 10
144.3670902187053
 20
108.7364275390347
 10
144.3918733739863
 20
108.7402171440125
 10
144.415806021332
 20
108.7463860180247
 10
144.4387159059705
 20
108.754783438146
 10
144.4605384323626
 20
108.765301745144
 10
144.4810905798133
 20
108.7778225138633
 10
144.5002862209367
 20
108.792216553225
 10
144.517996164654
 20
108.8083439062272
 10
144.5340804539632
 20
108.8260969136374
 10
144.548431429632
 20
108.8453571503002
 10
144.5609091346584
 20
108.8659738932903
 10
144.57140590981
 20
108.8878394833753
 10
144.5797817980848
 20
108.9108354953997
 10
144.5859183743273
 20
108.9348219723615
 10
144.5896972133818
 20
108.9596697231819
 10
144.5909783582465
 20
108.9852710886286
 10
144.5909783582465
 20
108.9852710886286
 10
144.5896864474586
 20
109.0107970926126
 10
144.5859183743273
 20
109.0356017797401
 10
144.5797817980848
 20
109.0595344270858
 10
144.5713951438867
 20
109.0824873754173
 10
144.5609091346584
 20
109.1043206677326
 10
144.548431429632
 20
109.1249051129529
 10
144.5340804539632
 20
109.144133051846
 10
144.517996164654
 20
109.161875293333
 10
144.5002969868599
 20
109.177991880412
 10
144.4811013457365
 20
109.1923751538504
 10
144.4605384323626
 20
109.2048851566465
 10
144.4387266718938
 20
109.2154034636446
 10
144.4157952554087
 20
109.2238008837659
 10
144.3918841399096
 20
109.2299589918548
 10
144.3671009846286
 20
109.2337378309094
 10
144.3415642147213
 20
109.2350297416973
 10
144.3415642147213
 20
109.2350297416973
 10
144.3159090196584
 20
109.2337378309094
 10
144.2910182051451
 20
109.2299589918548
 10
144.2669994304136
 20
109.2238008837659
 10
144.2439818865427
 20
109.2154034636446
 10
144.2221162964577
 20
109.2048851566465
 10
144.2014887875444
 20
109.1923751538504
 10
144.1822608486513
 20
109.1780026463352
 10
144.1645078412411
 20
109.161875293333
 10
144.1483912541622
 20
109.1441438177693
 10
144.1340187466469
 20
109.1249158788762
 10
144.1215195097741
 20
109.1043206677326
 10
144.1110227346225
 20
109.0824873754173
 10
144.1026360804244
 20
109.059545193009
 10
144.096499504182
 20
109.0356017797401
 10
144.0927206651274
 20
109.0108078585359
 10
144.0914395202627
 20
108.9852710886286
 10
144.0914395202627
 20
108.9852710886286
 10
144.0927206651274
 20
108.9596697231819
 10
144.0964887382587
 20
108.9348112064383
 10
144.1026360804244
 20
108.9108354953997
 10
144.1110119686992
 20
108.8878502492985
 10
144.1215302756973
 20
108.8659846592135
 10
144.1340295125701
 20
108.8453571503002
 10
144.1483912541622
 20
108.8260969136374
 10
144.1645078412411
 20
108.8083439062272
 10
144.1822608486513
 20
108.7922057873018
 10
144.2014995534676
 20
108.7778225138633
 10
144.2221162964577
 20
108.765301745144
 10
144.2439926524659
 20
108.754783438146
 10
144.2669994304136
 20
108.7463752521014
 10
144.2910074392219
 20
108.7402171440125
 10
144.3159090196584
 20
108.7364383049579
 97
        0
 75
     1
 76
     1
 98
        0
  0
LWPOLYLINE
  5
8D
330
1F
100
AcDbEntity
  8
ISS138金台
  6
Continuous
 62
   250
420
  2367521
370
    13
100
AcDbPolyline
 90
       68
 70
     0
 43
0.0
 10
144.3415642147213
 20
108.73514639417
 10
144.3670902187053
 20
108.7364275390347
 10
144.3918733739863
 20
108.7402171440125
 10
144.415806021332
 20
108.7463860180247
 10
144.4387159059705
 20
108.754783438146
 10
144.4605384323626
 20
108.765301745144
 10
144.4810905798133
 20
108.7778225138633
 10
144.5002862209367
 20
108.792216553225
 10
144.517996164654
 20
108.8083439062272
 10
144.5340804539632
 20
108.8260969136374
 10
144.548431429632
 20
108.8453571503002
 10
144.5609091346584
 20
108.8659738932903
 10
144.57140590981
 20
108.8878394833753
 10
144.5797817980848
 20
108.9108354953997
 10
144.5859183743273
 20
108.9348219723615
 10
144.5896972133818
 20
108.9596697231819
 10
144.5909783582465
 20
108.9852710886286
 10
144.5909783582465
 20
108.9852710886286
 10
144.5896864474586
 20
109.0107970926126
 10
144.5859183743273
 20
109.0356017797401
 10
144.5797817980848
 20
109.0595344270858
 10
144.5713951438867
 20
109.0824873754173
 10
144.5609091346584
 20
109.1043206677326
 10
144.548431429632
 20
109.1249051129529
 10
144.5340804539632
 20
109.144133051846
 10
144.517996164654
 20
109.161875293333
 10
144.5002969868599
 20
109.177991880412
 10
144.4811013457365
 20
109.1923751538504
 10
144.4605384323626
 20
109.2048851566465
 10
144.4387266718938
 20
109.2154034636446
 10
144.4157952554087
 20
109.2238008837659
 10
144.3918841399096
 20
109.2299589918548
 10
144.3671009846286
 20
109.2337378309094
 10
144.3415642147213
 20
109.2350297416973
 10
144.3415642147213
 20
109.2350297416973
 10
144.3159090196584
 20
109.2337378309094
 10
144.2910182051451
 20
109.2299589918548
 10
144.2669994304136
 20
109.2238008837659
 10
144.2439818865427
 20
109.2154034636446
 10
144.2221162964577
 20
109.2048851566465
 10
144.2014887875444
 20
109.1923751538504
 10
144.1822608486513
 20
109.1780026463352
 10
144.1645078412411
 20
109.161875293333
 10
144.1483912541622
 20
109.1441438177693
 10
144.1340187466469
 20
109.1249158788762
 10
144.1215195097741
 20
109.1043206677326
 10
144.1110227346225
 20
109.0824873754173
 10
144.1026360804244
 20
109.059545193009
 10
144.096499504182
 20
109.0356017797401
 10
144.0927206651274
 20
109.0108078585359
 10
144.0914395202627
 20
108.9852710886286
 10
144.0914395202627
 20
108.9852710886286
 10
144.0927206651274
 20
108.9596697231819
 10
144.0964887382587
 20
108.9348112064383
 10
144.1026360804244
 20
108.9108354953997
 10
144.1110119686992
 20
108.8878502492985
 10
144.1215302756973
 20
108.8659846592135
 10
144.1340295125701
 20
108.8453571503002
 10
144.1483912541622
 20
108.8260969136374
 10
144.1645078412411
 20
108.8083439062272
 10
144.1822608486513
 20
108.7922057873018
 10
144.2014995534676
 20
108.7778225138633
 10
144.2221162964577
 20
108.765301745144
 10
144.2439926524659
 20
108.754783438146
 10
144.2669994304136
 20
108.7463752521014
 10
144.2910074392219
 20
108.7402171440125
 10
144.3159090196584
 20
108.7364383049579
 10
144.3415642147213
 20
108.73514639417
  0
TEXT
  5
8E
330
1F
100
AcDbEntity
  8
ISS138金台
  6
Continuous
 62
   250
420
  2367521
100
AcDbText
 10
150.0497180352434
 20
110.3371157537583
 30
0.0
 40
2.150533301035563
  1
4  .   7
 50
90.00000250447816
 41
0.3949691355228424
  7
MS Gothic
100
AcDbText
  0
TEXT
  5
8F
330
1F
100
AcDbEntity
  8
ISS138金台
  6
Continuous
 62
   250
420
  2367521
100
AcDbText
 10
145.1108292205292
 20
110.3371157537583
 30
0.0
 40
2.150533301035563
  1
0  .   5
 50
90.00000250447816
 41
0.3725004196166992
  7
MS Gothic
100
AcDbText
  0
TEXT
  5
90
330
1F
100
AcDbEntity
  8
ISS138金台
  6
Continuous
 62
   250
420
  2367521
100
AcDbText
 10
143.5755439720482
 20
106.8178000446231
 30
0.0
 40
2.150533301035563
  1
3
 50
90.00000250447816
 41
0.8120040893554685
  7
MS Gothic
100
AcDbText
  0
TEXT
  5
91
330
1F
100
AcDbEntity
  8
ISS138金台
  6
Continuous
 62
   250
420
  2367521
100
AcDbText
 10
108.5394542075745
 20
116.0868110691866
 30
0.0
 40
2.150533301035563
  1
15
 41
0.9618744850158689
  7
MS Gothic
100
AcDbText
  0
TEXT
  5
92
330
1F
100
AcDbEntity
  8
ISS138金台
  6
Continuous
 62
   250
420
  2367521
100
AcDbText
 10
119.3288040889375
 20
95.4083901049244
 30
0.0
 40
2.150533301035563
  1
36 . 5
 41
0.6870002746582031
  7
MS Gothic
100
AcDbText
  0
LINE
  5
93
330
1F
100
AcDbEntity
  8
ISS138金台
  6
Continuous
 62
   250
420
  2367521
370
    13
100
AcDbLine
 10
144.3415642147213
 20
106.0862125146822
 30
0.0
 11
144.3415642147213
 21
109.838007570098
 31
0.0
  0
LINE
  5
94
330
1F
100
AcDbEntity
  8
ISS138金台
  6
UserDefined01
 62
   140
420
    44526
370
    13
100
AcDbLine
 10
125.8438455967229
 20
99.8312757121918
 30
0.0
 11
138.844063941247
 21
99.8312757121918
 31
0.0
  0
TEXT
  5
95
330
1F
100
AcDbEntity
  8
ISS138金台
  6
Continuous
 62
   140
420
    44526
100
AcDbText
 10
130.1150210866399
 20
100.6204503551519
 30
0.0
 40
1.881716638406118
  1
13
 41
1.071248735700335
  7
MS Gothic
100
AcDbText
  0
HATCH
  5
96
330
1F
100
AcDbEntity
  8
ISS138金台
  6
Continuous
 62
   140
420
    44526
370
    50
100
AcDbHatch
 10
0.0
 20
0.0
 30
0.0
210
0.0
220
0.0
230
1.0
  2
SOLID
 70
     1
 71
     0
 91
        1
 92
        3
 72
     0
 73
     1
 93
        3
 10
124.9777378385988
 20
109.2842838404855
 10
126.7095227179177
 20
109.2835732895522
 10
125.84486835943
 20
107.785333582914
 97
        0
 75
     1
 76
     1
 98
        0
  0
LWPOLYLINE
  5
97
330
1F
100
AcDbEntity
  8
ISS138金台
  6
Continuous
 62
   140
420
    44526
370
    50
100
AcDbPolyline
 90
        4
 70
     0
 43
0.0
 10
124.9777378385988
 20
109.2842838404855
 10
126.7095227179177
 20
109.2835732895522
 10
125.84486835943
 20
107.785333582914
 10
124.9777378385988
 20
109.2842838404855
  0
ENDSEC
  0
SECTION
  2
OBJECTS
  0
DICTIONARY
  5
C
330
0
100
AcDbDictionary
281
     1
  3
ACAD_DETAILVIEWSTYLE
350
9F
  3
ACAD_GROUP
350
D
  3
ACAD_LAYOUT
350
1A
  3
ACAD_MATERIAL
350
43
  3
ACAD_MLEADERSTYLE
350
5B
  3
ACAD_MLINESTYLE
350
17
  3
ACAD_PLOTSETTINGS
350
19
  3
ACAD_PLOTSTYLENAME
350
E
  3
ACAD_SCALELIST
350
47
  3
ACAD_SECTIONVIEWSTYLE
350
A0
  3
ACAD_TABLESTYLE
350
59
  3
ACAD_VISUALSTYLE
350
2A
  3
ACDB_RECOMPOSE_DATA
350
9C
  3
AcDbVariableDictionary
350
98
  0
SUN
  5
5D
330
29
100
AcDbSun
 90
        1
290
     0
 63
     7
421
 16777215
 40
1.0
291
     1
 91
  2455826
 92
 54000000
292
     0
 70
     2
 71
   256
280
     1
  0
DICTIONARY
  5
9F
102
{ACAD_REACTORS
330
C
102
}
330
C
100
AcDbDictionary
281
     1
  0
DICTIONARY
  5
D
102
{ACAD_REACTORS
330
C
102
}
330
C
100
AcDbDictionary
281
     1
  0
DICTIONARY
  5
1A
102
{ACAD_REACTORS
330
C
102
}
330
C
100
AcDbDictionary
281
     1
  3
Layout1
350
1E
  3
Layout2
350
26
  3
Model
350
22
  0
DICTIONARY
  5
43
102
{ACAD_REACTORS
330
C
102
}
330
C
100
AcDbDictionary
281
     1
  3
ByBlock
350
45
  3
ByLayer
350
44
  3
Global
350
46
  0
DICTIONARY
  5
5B
102
{ACAD_REACTORS
330
C
102
}
330
C
100
AcDbDictionary
281
     1
  3
Standard
350
5C
  0
DICTIONARY
  5
17
102
{ACAD_REACTORS
330
C
102
}
330
C
100
AcDbDictionary
281
     1
  3
Standard
350
18
  0
DICTIONARY
  5
19
102
{ACAD_REACTORS
330
C
102
}
330
C
100
AcDbDictionary
281
     1
  0
ACDBDICTIONARYWDFLT
  5
E
102
{ACAD_REACTORS
330
C
102
}
330
C
100
AcDbDictionary
281
     1
  3
Normal
350
F
100
AcDbDictionaryWithDefault
340
F
  0
DICTIONARY
  5
47
102
{ACAD_REACTORS
330
C
102
}
330
C
100
AcDbDictionary
281
     1
  3
A0
350
48
  3
A1
350
49
  3
A2
350
4A
  3
A3
350
4B
  3
A4
350
4C
  3
A5
350
4D
  3
A6
350
4E
  3
A7
350
4F
  3
A8
350
50
  3
A9
350
51
  3
B0
350
52
  3
B1
350
53
  3
B2
350
54
  3
B3
350
55
  3
B4
350
56
  3
B5
350
57
  3
B6
350
58
  0
DICTIONARY
  5
A0
102
{ACAD_REACTORS
330
C
102
}
330
C
100
AcDbDictionary
281
     1
  0
DICTIONARY
  5
59
102
{ACAD_REACTORS
330
C
102
}
330
C
100
AcDbDictionary
281
     1
  3
Standard
350
5A
  0
DICTIONARY
  5
2A
102
{ACAD_REACTORS
330
C
102
}
330
C
100
AcDbDictionary
281
     1
  3
2dWireframe
350
2F
  3
Basic
350
32
  3
Brighten
350
36
  3
ColorChange
350
3A
  3
Conceptual
350
34
  3
Dim
350
35
  3
EdgeColorOff
350
3D
  3
Facepattern
350
39
  3
Flat
350
2B
  3
FlatWithEdges
350
2C
  3
Gouraud
350
2D
  3
GouraudWithEdges
350
2E
  3
Hidden
350
31
  3
JitterOff
350
3B
  3
Linepattern
350
38
  3
OverhangOff
350
3C
  3
Realistic
350
33
  3
Shaded
350
42
  3
Shaded with edges
350
41
  3
Shades of Gray
350
3E
  3
Sketchy
350
3F
  3
Thicken
350
37
  3
Wireframe
350
30
  3
X-Ray
350
40
  0
XRECORD
  5
9C
102
{ACAD_REACTORS
330
C
102
}
330
C
100
AcDbXrecord
280
     1
 90
        1
330
5A
  0
DICTIONARY
  5
98
102
{ACAD_REACTORS
330
C
102
}
330
C
100
AcDbDictionary
281
     1
  3
CANNOSCALE
350
99
  3
CENTEREXE
350
A1
  3
CENTERLTYPEFILE
350
A2
  3
CMLEADERSTYLE
350
9E
  3
CTABLESTYLE
350
9D
  0
LAYOUT
  5
1E
102
{ACAD_REACTORS
330
1A
102
}
330
1A
100
AcDbPlotSettings
  1

  2
none_device
  4

  6

 40
0.0
 41
0.0
 42
0.0
 43
0.0
 44
0.0
 45
0.0
 46
0.0
 47
0.0
 48
0.0
 49
0.0
140
0.0
141
0.0
142
1.0
143
1.0
 70
   688
 72
     1
 73
     0
 74
     5
  7

 75
    16
 76
     0
 77
     5
 78
   300
147
1.0
148
0.0
149
0.0
100
AcDbLayout
  1
Layout1
 70
     1
 71
     1
 10
0.0
 20
0.0
 11
420.0
 21
297.0
 12
0.0
 22
0.0
 32
0.0
 14
1.000000000000000E+20
 24
1.000000000000000E+20
 34
1.000000000000000E+20
 15
-1.000000000000000E+20
 25
-1.000000000000000E+20
 35
-1.000000000000000E+20
146
0.0
 13
0.0
 23
0.0
 33
0.0
 16
1.0
 26
0.0
 36
0.0
 17
0.0
 27
1.0
 37
0.0
 76
     0
330
1B
  0
LAYOUT
  5
26
102
{ACAD_REACTORS
330
1A
102
}
330
1A
100
AcDbPlotSettings
  1

  2
none_device
  4

  6

 40
0.0
 41
0.0
 42
0.0
 43
0.0
 44
0.0
 45
0.0
 46
0.0
 47
0.0
 48
0.0
 49
0.0
140
0.0
141
0.0
142
1.0
143
1.0
 70
   688
 72
     1
 73
     0
 74
     5
  7

 75
    16
 76
     0
 77
     5
 78
   300
147
1.0
148
0.0
149
0.0
100
AcDbLayout
  1
Layout2
 70
     1
 71
     2
 10
0.0
 20
0.0
 11
0.0
 21
0.0
 12
0.0
 22
0.0
 32
0.0
 14
0.0
 24
0.0
 34
0.0
 15
0.0
 25
0.0
 35
0.0
146
0.0
 13
0.0
 23
0.0
 33
0.0
 16
1.0
 26
0.0
 36
0.0
 17
0.0
 27
1.0
 37
0.0
 76
     0
330
23
  0
LAYOUT
  5
22
102
{ACAD_REACTORS
330
1A
102
}
330
1A
100
AcDbPlotSettings
  1

  2
none_device
  4
Letter_(8.50_x_11.00_Inches)
  6

 40
6.35
 41
6.35
 42
6.35000508
 43
6.35000508
 44
215.9
 45
279.4
 46
0.0
 47
0.0
 48
0.0
 49
0.0
140
0.0
141
0.0
142
1.0
143
1.0
 70
  1712
 72
     1
 73
     0
 74
     0
  7

 75
     0
 76
     0
 77
     5
 78
   300
147
1.0
148
0.0
149
0.0
100
AcDbLayout
  1
Model
 70
     1
 71
     0
 10
0.0
 20
0.0
 11
302.9997823349792
 21
216.0016055409748
 12
0.0
 22
0.0
 32
0.0
 14
0.0
 24
0.0
 34
0.0
 15
302.9997823349792
 25
216.0016055409748
 35
0.0
146
0.0
 13
0.0
 23
0.0
 33
0.0
 16
1.0
 26
0.0
 36
0.0
 17
0.0
 27
1.0
 37
0.0
 76
     0
330
1F
331
29
  0
MATERIAL
  5
45
102
{ACAD_REACTORS
330
43
102
}
330
43
100
AcDbMaterial
  1
ByBlock
 72
     1
 94
      127
  0
MATERIAL
  5
44
102
{ACAD_REACTORS
330
43
102
}
330
43
100
AcDbMaterial
  1
ByLayer
 72
     1
 94
      127
  0
MATERIAL
  5
46
102
{ACAD_REACTORS
330
43
102
}
330
43
100
AcDbMaterial
  1
Global
 72
     1
 94
      127
  0
MLEADERSTYLE
  5
5C
102
{ACAD_REACTORS
330
5B
102
}
330
5B
100
AcDbMLeaderStyle
179
     2
170
     2
171
     1
172
     0
 90
        2
 40
0.0
 41
0.0
173
     1
 91
-1056964608
340
14
 92
       -2
290
     1
 42
2.0
291
     1
 43
8.0
  3
Standard
341
0
 44
4.0
300

342
11
174
     1
178
     6
175
     1
176
     0
 93
-1056964608
 45
4.0
292
     0
297
     0
 46
4.0
343
0
 94
-1056964608
 47
1.0
 49
1.0
140
1.0
293
     1
141
0.0
294
     1
177
     0
142
1.0
295
     0
296
     0
143
3.75
271
     0
272
     9
273
     9
298
     0
  0
MLINESTYLE
  5
18
102
{ACAD_REACTORS
330
17
102
}
330
17
100
AcDbMlineStyle
  2
Standard
 70
     0
  3

 62
   256
 51
90.0
 52
90.0
 71
     2
 49
0.5
 62
   256
  6
BYLAYER
 49
-0.5
 62
   256
  6
BYLAYER
  0
ACDBPLACEHOLDER
  5
F
102
{ACAD_REACTORS
330
E
102
}
330
E
  0
SCALE
  5
48
102
{ACAD_REACTORS
330
47
102
}
330
47
100
AcDbScale
 70
     0
300
1:1
140
1.0
141
1.0
290
     1
  0
SCALE
  5
49
102
{ACAD_REACTORS
330
47
102
}
330
47
100
AcDbScale
 70
     0
300
1:2
140
1.0
141
2.0
290
     0
  0
SCALE
  5
4A
102
{ACAD_REACTORS
330
47
102
}
330
47
100
AcDbScale
 70
     0
300
1:4
140
1.0
141
4.0
290
     0
  0
SCALE
  5
4B
102
{ACAD_REACTORS
330
47
102
}
330
47
100
AcDbScale
 70
     0
300
1:5
140
1.0
141
5.0
290
     0
  0
SCALE
  5
4C
102
{ACAD_REACTORS
330
47
102
}
330
47
100
AcDbScale
 70
     0
300
1:8
140
1.0
141
8.0
290
     0
  0
SCALE
  5
4D
102
{ACAD_REACTORS
330
47
102
}
330
47
100
AcDbScale
 70
     0
300
1:10
140
1.0
141
10.0
290
     0
  0
SCALE
  5
4E
102
{ACAD_REACTORS
330
47
102
}
330
47
100
AcDbScale
 70
     0
300
1:16
140
1.0
141
16.0
290
     0
  0
SCALE
  5
4F
102
{ACAD_REACTORS
330
47
102
}
330
47
100
AcDbScale
 70
     0
300
1:20
140
1.0
141
20.0
290
     0
  0
SCALE
  5
50
102
{ACAD_REACTORS
330
47
102
}
330
47
100
AcDbScale
 70
     0
300
1:30
140
1.0
141
30.0
290
     0
  0
SCALE
  5
51
102
{ACAD_REACTORS
330
47
102
}
330
47
100
AcDbScale
 70
     0
300
1:40
140
1.0
141
40.0
290
     0
  0
SCALE
  5
52
102
{ACAD_REACTORS
330
47
102
}
330
47
100
AcDbScale
 70
     0
300
1:50
140
1.0
141
50.0
290
     0
  0
SCALE
  5
53
102
{ACAD_REACTORS
330
47
102
}
330
47
100
AcDbScale
 70
     0
300
1:100
140
1.0
141
100.0
290
     0
  0
SCALE
  5
54
102
{ACAD_REACTORS
330
47
102
}
330
47
100
AcDbScale
 70
     0
300
2:1
140
2.0
141
1.0
290
     0
  0
SCALE
  5
55
102
{ACAD_REACTORS
330
47
102
}
330
47
100
AcDbScale
 70
     0
300
4:1
140
4.0
141
1.0
290
     0
  0
SCALE
  5
56
102
{ACAD_REACTORS
330
47
102
}
330
47
100
AcDbScale
 70
     0
300
8:1
140
8.0
141
1.0
290
     0
  0
SCALE
  5
57
102
{ACAD_REACTORS
330
47
102
}
330
47
100
AcDbScale
 70
     0
300
10:1
140
10.0
141
1.0
290
     0
  0
SCALE
  5
58
102
{ACAD_REACTORS
330
47
102
}
330
47
100
AcDbScale
 70
     0
300
100:1
140
100.0
141
1.0
290
     0
  0
TABLESTYLE
  5
5A
102
{ACAD_REACTORS
330
59
102
}
102
{ACAD_XDICTIONARY
360
9A
102
}
330
59
100
AcDbTableStyle
  3
Standard
 70
     0
 71
     0
 40
0.06
 41
0.06
280
     0
281
     0
  7
Standard
140
4.5
170
     2
 62
     0
 63
   257
283
     0
 90
        4
 91
        0
  1

274
    -2
284
     1
 64
     0
275
    -2
285
     1
 65
     0
276
    -2
286
     1
 66
     0
277
    -2
287
     1
 67
     0
278
    -2
288
     1
 68
     0
279
    -2
289
     1
 69
     0
  7
Standard
140
6.0
170
     5
 62
     0
 63
   257
283
     0
 90
        4
 91
        0
  1

274
    -2
284
     1
 64
     0
275
    -2
285
     1
 65
     0
276
    -2
286
     1
 66
     0
277
    -2
287
     1
 67
     0
278
    -2
288
     1
 68
     0
279
    -2
289
     1
 69
     0
  7
Standard
140
4.5
170
     5
 62
     0
 63
   257
283
     0
 90
        4
 91
        0
  1

274
    -2
284
     1
 64
     0
275
    -2
285
     1
 65
     0
276
    -2
286
     1
 66
     0
277
    -2
287
     1
 67
     0
278
    -2
288
     1
 68
     0
279
    -2
289
     1
 69
     0
  0
VISUALSTYLE
  5
2F
102
{ACAD_REACTORS
330
2A
102
}
330
2A
100
AcDbVisualStyle
  2
2dWireframe
 70
     4
177
     3
291
     0
 70
    58
 90
        0
176
     1
 90
        2
176
     1
 90
        0
176
     1
 90
        0
176
     1
 40
0.6
176
     1
 40
30.0
176
     1
 62
     7
420
 16777215
176
     1
 90
        1
176
     1
 90
        4
176
     1
 62
     7
176
     1
 62
   257
176
     1
 90
        1
176
     1
 90
        1
176
     1
 40
1.0
176
     1
 90
        0
176
     1
 62
   257
176
     1
 40
1.0
176
     1
 90
        1
176
     1
 90
        6
176
     1
 90
        2
176
     1
 62
     7
176
     1
 90
        5
176
     1
 90
        0
176
     1
 90
        0
176
     1
290
     0
176
     1
 90
        1
176
     1
 40
0.0
176
     1
 90
        0
176
     1
290
     1
176
     1
290
     1
176
     1
290
     0
176
     1
290
     0
176
     1
290
     0
176
     1
290
     0
176
     1
290
     0
176
     1
290
     0
176
     1
290
     0
176
     1
 90
       50
176
     1
 40
0.0
176
     1
 40
1.0
176
     1
 90
        0
176
     1
 62
    18
420
        0
176
     1
 90
       50
176
     1
 90
        3
176
     1
 62
     5
420
      255
176
     1
290
     0
176
     1
 90
       50
176
     1
 90
       50
176
     1
 90
       50
176
     1
290
     0
176
     1
 90
       50
176
     1
 62
   256
176
     0
 40
1.0
176
     0
 90
        2
176
     1
  1
strokes_ogs.tif
176
     1
290
     0
176
     1
 40
1.0
176
     1
 40
1.0
176
     1
  0
VISUALSTYLE
  5
32
102
{ACAD_REACTORS
330
2A
102
}
330
2A
100
AcDbVisualStyle
  2
Basic
 70
     7
177
     3
291
     1
 70
    58
 90
        1
176
     1
 90
        0
176
     1
 90
        1
176
     1
 90
        0
176
     1
 40
0.6
176
     1
 40
30.0
176
     1
 62
     7
420
 16777215
176
     1
 90
        0
176
     1
 90
        4
176
     1
 62
     7
176
     1
 62
   257
176
     1
 90
        1
176
     1
 90
        1
176
     1
 40
1.0
176
     1
 90
        8
176
     1
 62
     7
176
     1
 40
1.0
176
     1
 90
        1
176
     1
 90
        6
176
     1
 90
        2
176
     1
 62
     7
176
     1
 90
        5
176
     1
 90
        0
176
     1
 90
        0
176
     1
290
     0
176
     1
 90
        1
176
     1
 40
0.0
176
     1
 90
        0
176
     1
290
     0
176
     1
290
     1
176
     1
290
     1
176
     1
290
     0
176
     1
290
     0
176
     1
290
     0
176
     1
290
     0
176
     1
290
     0
176
     1
290
     0
176
     1
 90
       50
176
     1
 40
0.0
176
     1
 40
1.0
176
     1
 90
        0
176
     1
 62
    18
420
        0
176
     1
 90
       50
176
     1
 90
        3
176
     1
 62
     5
420
      255
176
     1
290
     0
176
     1
 90
       50
176
     1
 90
       50
176
     1
 90
       50
176
     1
290
     0
176
     1
 90
       50
176
     1
 62
   256
176
     0
 40
1.0
176
     0
 90
        2
176
     1
  1
strokes_ogs.tif
176
     1
290
     0
176
     1
 40
1.0
176
     1
 40
1.0
176
     1
  0
VISUALSTYLE
  5
36
102
{ACAD_REACTORS
330
2A
102
}
330
2A
100
AcDbVisualStyle
  2
Brighten
 70
    12
177
     3
291
     1
 70
    58
 90
        2
176
     1
 90
        2
176
     1
 90
        0
176
     1
 90
        0
176
     1
 40
0.6
176
     1
 40
30.0
176
     1
 62
     7
420
 16777215
176
     1
 90
        1
176
     1
 90
        4
176
     1
 62
     7
176
     1
 62
   257
176
     1
 90
        1
176
     1
 90
        1
176
     1
 40
1.0
176
     1
 90
        8
176
     1
 62
     7
176
     1
 40
1.0
176
     1
 90
        1
176
     1
 90
        6
176
     1
 90
        2
176
     1
 62
     7
176
     1
 90
        5
176
     1
 90
        0
176
     1
 90
        0
176
     1
290
     0
176
     1
 90
        1
176
     1
 40
50.0
176
     1
 90
        0
176
     1
290
     0
176
     1
290
     1
176
     1
290
     1
176
     1
290
     0
176
     1
290
     0
176
     1
290
     0
176
     1
290
     0
176
     1
290
     0
176
     1
290
     0
176
     1
 90
       50
176
     1
 40
0.0
176
     1
 40
1.0
176
     1
 90
        0
176
     1
 62
    18
420
        0
176
     1
 90
       50
176
     1
 90
        3
176
     1
 62
     5
420
      255
176
     1
290
     0
176
     1
 90
       50
176
     1
 90
       50
176
     1
 90
       50
176
     1
290
     0
176
     1
 90
       50
176
     1
 62
   256
176
     0
 40
1.0
176
     0
 90
        2
176
     1
  1
strokes_ogs.tif
176
     1
290
     0
176
     1
 40
1.0
176
     1
 40
1.0
176
     1
  0
VISUALSTYLE
  5
3A
102
{ACAD_REACTORS
330
2A
102
}
330
2A
100
AcDbVisualStyle
  2
ColorChange
 70
    16
177
     3
291
     1
 70
    58
 90
        2
176
     1
 90
        2
176
     1
 90
        3
176
     1
 90
        0
176
     1
 40
0.6
176
     1
 40
30.0
176
     1
 62
     8
420
  8421504
176
     1
 90
        1
176
     1
 90
        4
176
     1
 62
     7
176
     1
 62
   257
176
     1
 90
        1
176
     1
 90
        1
176
     1
 40
1.0
176
     1
 90
        8
176
     1
 62
     8
420
  8421504
176
     1
 40
1.0
176
     1
 90
        1
176
     1
 90
        6
176
     1
 90
        2
176
     1
 62
     7
176
     1
 90
        5
176
     1
 90
        0
176
     1
 90
        0
176
     1
290
     0
176
     1
 90
        1
176
     1
 40
0.0
176
     1
 90
        0
176
     1
290
     0
176
     1
290
     1
176
     1
290
     1
176
     1
290
     0
176
     1
290
     0
176
     1
290
     0
176
     1
290
     0
176
     1
290
     0
176
     1
290
     0
176
     1
 90
       50
176
     1
 40
0.0
176
     1
 40
1.0
176
     1
 90
        0
176
     1
 62
    18
420
        0
176
     1
 90
       50
176
     1
 90
        3
176
     1
 62
     5
420
      255
176
     1
290
     0
176
     1
 90
       50
176
     1
 90
       50
176
     1
 90
       50
176
     1
290
     0
176
     1
 90
       50
176
     1
 62
   256
176
     0
 40
1.0
176
     0
 90
        2
176
     1
  1
strokes_ogs.tif
176
     1
290
     0
176
     1
 40
1.0
176
     1
 40
1.0
176
     1
  0
VISUALSTYLE
  5
34
102
{ACAD_REACTORS
330
2A
102
}
330
2A
100
AcDbVisualStyle
  2
Conceptual
 70
     9
177
     3
291
     0
 70
    58
 90
        3
176
     1
 90
        2
176
     1
 90
        0
176
     1
 90
        0
176
     1
 40
0.6
176
     1
 40
30.0
176
     1
 62
     7
420
 16777215
176
     1
 90
        2
176
     1
 90
        2
176
     1
 62
     7
176
     1
 62
   257
176
     1
 90
        1
176
     1
 90
        1
176
     1
 40
179.0
176
     1
 90
        8
176
     1
 62
     7
176
     1
 40
1.0
176
     1
 90
        1
176
     1
 90
        6
176
     1
 90
        2
176
     1
 62
     7
176
     1
 90
        3
176
     1
 90
        0
176
     1
 90
        0
176
     1
290
     0
176
     1
 90
        1
176
     1
 40
0.0
176
     1
 90
        0
176
     1
290
     0
176
     1
290
     1
176
     1
290
     1
176
     1
290
     0
176
     1
290
     0
176
     1
290
     0
176
     1
290
     0
176
     1
290
     0
176
     1
290
     0
176
     1
 90
       50
176
     1
 40
0.0
176
     1
 40
1.0
176
     1
 90
        0
176
     1
 62
    18
420
        0
176
     1
 90
       50
176
     1
 90
        3
176
     1
 62
     5
420
      255
176
     1
290
     0
176
     1
 90
       50
176
     1
 90
       50
176
     1
 90
       50
176
     1
290
     0
176
     1
 90
       50
176
     1
 62
   256
176
     0
 40
1.0
176
     0
 90
        2
176
     1
  1
strokes_ogs.tif
176
     1
290
     0
176
     1
 40
1.0
176
     1
 40
1.0
176
     1
  0
VISUALSTYLE
  5
35
102
{ACAD_REACTORS
330
2A
102
}
330
2A
100
AcDbVisualStyle
  2
Dim
 70
    11
177
     3
291
     1
 70
    58
 90
        2
176
     1
 90
        2
176
     1
 90
        0
176
     1
 90
        0
176
     1
 40
0.6
176
     1
 40
30.0
176
     1
 62
     7
420
 16777215
176
     1
 90
        1
176
     1
 90
        4
176
     1
 62
     7
176
     1
 62
   257
176
     1
 90
        1
176
     1
 90
        1
176
     1
 40
1.0
176
     1
 90
        8
176
     1
 62
     7
176
     1
 40
1.0
176
     1
 90
        1
176
     1
 90
        6
176
     1
 90
        2
176
     1
 62
     7
176
     1
 90
        5
176
     1
 90
        0
176
     1
 90
        0
176
     1
290
     0
176
     1
 90
        1
176
     1
 40
-50.0
176
     1
 90
        0
176
     1
290
     0
176
     1
290
     1
176
     1
290
     1
176
     1
290
     0
176
     1
290
     0
176
     1
290
     0
176
     1
290
     0
176
     1
290
     0
176
     1
290
     0
176
     1
 90
       50
176
     1
 40
0.0
176
     1
 40
1.0
176
     1
 90
        0
176
     1
 62
    18
420
        0
176
     1
 90
       50
176
     1
 90
        3
176
     1
 62
     5
420
      255
176
     1
290
     0
176
     1
 90
       50
176
     1
 90
       50
176
     1
 90
       50
176
     1
290
     0
176
     1
 90
       50
176
     1
 62
   256
176
     0
 40
1.0
176
     0
 90
        2
176
     1
  1
strokes_ogs.tif
176
     1
290
     0
176
     1
 40
1.0
176
     1
 40
1.0
176
     1
  0
VISUALSTYLE
  5
3D
102
{ACAD_REACTORS
330
2A
102
}
330
2A
100
AcDbVisualStyle
  2
EdgeColorOff
 70
    22
177
     3
291
     1
 70
    58
 90
        2
176
     0
 90
        2
176
     0
 90
        0
176
     0
 90
        0
176
     0
 40
0.6
176
     0
 40
30.0
176
     0
 62
     7
420
 16777215
176
     0
 90
        1
176
     0
 90
        4
176
     0
 62
     7
176
     0
 62
   257
176
     0
 90
        1
176
     0
 90
        1
176
     0
 40
1.0
176
     0
 90
        8
176
     2
 62
     7
176
     0
 40
1.0
176
     0
 90
        1
176
     0
 90
        6
176
     0
 90
        2
176
     0
 62
     7
176
     0
 90
        5
176
     0
 90
        0
176
     0
 90
        0
176
     0
290
     0
176
     0
 90
        1
176
     0
 40
0.0
176
     0
 90
        0
176
     0
290
     0
176
     0
290
     1
176
     0
290
     1
176
     0
290
     0
176
     0
290
     0
176
     0
290
     0
176
     0
290
     0
176
     0
290
     0
176
     0
290
     0
176
     0
 90
       50
176
     0
 40
0.0
176
     0
 40
1.0
176
     0
 90
        0
176
     0
 62
    18
420
        0
176
     0
 90
       50
176
     0
 90
        3
176
     0
 62
     5
420
      255
176
     0
290
     0
176
     0
 90
       50
176
     0
 90
       50
176
     0
 90
       50
176
     0
290
     0
176
     0
 90
       50
176
     0
 62
   256
176
     0
 40
1.0
176
     0
 90
        2
176
     0
  1
strokes_ogs.tif
176
     0
290
     0
176
     0
 40
1.0
176
     0
 40
1.0
176
     0
  0
VISUALSTYLE
  5
39
102
{ACAD_REACTORS
330
2A
102
}
330
2A
100
AcDbVisualStyle
  2
Facepattern
 70
    15
177
     3
291
     1
 70
    58
 90
        2
176
     1
 90
        2
176
     1
 90
        0
176
     1
 90
        0
176
     1
 40
0.6
176
     1
 40
30.0
176
     1
 62
     7
420
 16777215
176
     1
 90
        1
176
     1
 90
        4
176
     1
 62
     7
176
     1
 62
   257
176
     1
 90
        1
176
     1
 90
        1
176
     1
 40
1.0
176
     1
 90
        8
176
     1
 62
     7
176
     1
 40
1.0
176
     1
 90
        1
176
     1
 90
        6
176
     1
 90
        2
176
     1
 62
     7
176
     1
 90
        5
176
     1
 90
        0
176
     1
 90
        0
176
     1
290
     0
176
     1
 90
        1
176
     1
 40
0.0
176
     1
 90
        0
176
     1
290
     0
176
     1
290
     1
176
     1
290
     1
176
     1
290
     0
176
     1
290
     0
176
     1
290
     0
176
     1
290
     0
176
     1
290
     0
176
     1
290
     0
176
     1
 90
       50
176
     1
 40
0.0
176
     1
 40
1.0
176
     1
 90
        0
176
     1
 62
    18
420
        0
176
     1
 90
       50
176
     1
 90
        3
176
     1
 62
     5
420
      255
176
     1
290
     0
176
     1
 90
       50
176
     1
 90
       50
176
     1
 90
       50
176
     1
290
     0
176
     1
 90
       50
176
     1
 62
   256
176
     0
 40
1.0
176
     0
 90
        2
176
     1
  1
strokes_ogs.tif
176
     1
290
     0
176
     1
 40
1.0
176
     1
 40
1.0
176
     1
  0
VISUALSTYLE
  5
2B
102
{ACAD_REACTORS
330
2A
102
}
330
2A
100
AcDbVisualStyle
  2
Flat
 70
     0
177
     3
291
     1
 70
    58
 90
        2
176
     1
 90
        1
176
     1
 90
        1
176
     1
 90
        2
176
     1
 40
0.6
176
     1
 40
30.0
176
     1
 62
     7
420
 16777215
176
     1
 90
        0
176
     1
 90
        0
176
     1
 62
     7
176
     1
 62
   257
176
     1
 90
        1
176
     1
 90
        1
176
     1
 40
1.0
176
     1
 90
        8
176
     1
 62
     7
176
     1
 40
1.0
176
     1
 90
        1
176
     1
 90
        6
176
     1
 90
        2
176
     1
 62
     7
176
     1
 90
        5
176
     1
 90
        0
176
     1
 90
        0
176
     1
290
     0
176
     1
 90
       13
176
     1
 40
0.0
176
     1
 90
        0
176
     1
290
     0
176
     1
290
     1
176
     1
290
     1
176
     1
290
     0
176
     1
290
     0
176
     1
290
     0
176
     1
290
     0
176
     1
290
     0
176
     1
290
     0
176
     1
 90
       50
176
     1
 40
0.0
176
     1
 40
1.0
176
     1
 90
        0
176
     1
 62
    18
420
        0
176
     1
 90
       50
176
     1
 90
        3
176
     1
 62
     5
420
      255
176
     1
290
     0
176
     1
 90
       50
176
     1
 90
       50
176
     1
 90
       50
176
     1
290
     0
176
     1
 90
       50
176
     1
 62
   256
176
     0
 40
1.0
176
     0
 90
        2
176
     1
  1
strokes_ogs.tif
176
     1
290
     0
176
     1
 40
1.0
176
     1
 40
1.0
176
     1
  0
VISUALSTYLE
  5
2C
102
{ACAD_REACTORS
330
2A
102
}
330
2A
100
AcDbVisualStyle
  2
FlatWithEdges
 70
     1
177
     3
291
     1
 70
    58
 90
        2
176
     1
 90
        1
176
     1
 90
        1
176
     1
 90
        2
176
     1
 40
0.6
176
     1
 40
30.0
176
     1
 62
     7
420
 16777215
176
     1
 90
        1
176
     1
 90
        0
176
     1
 62
     7
176
     1
 62
   257
176
     1
 90
        1
176
     1
 90
        1
176
     1
 40
1.0
176
     1
 90
        0
176
     1
 62
   257
176
     1
 40
1.0
176
     1
 90
        1
176
     1
 90
        6
176
     1
 90
        2
176
     1
 62
     7
176
     1
 90
        5
176
     1
 90
        0
176
     1
 90
        0
176
     1
290
     0
176
     1
 90
       13
176
     1
 40
0.0
176
     1
 90
        0
176
     1
290
     0
176
     1
290
     1
176
     1
290
     1
176
     1
290
     0
176
     1
290
     0
176
     1
290
     0
176
     1
290
     0
176
     1
290
     0
176
     1
290
     0
176
     1
 90
       50
176
     1
 40
0.0
176
     1
 40
1.0
176
     1
 90
        0
176
     1
 62
    18
420
        0
176
     1
 90
       50
176
     1
 90
        3
176
     1
 62
     5
420
      255
176
     1
290
     0
176
     1
 90
       50
176
     1
 90
       50
176
     1
 90
       50
176
     1
290
     0
176
     1
 90
       50
176
     1
 62
   256
176
     0
 40
1.0
176
     0
 90
        2
176
     1
  1
strokes_ogs.tif
176
     1
290
     0
176
     1
 40
1.0
176
     1
 40
1.0
176
     1
  0
VISUALSTYLE
  5
2D
102
{ACAD_REACTORS
330
2A
102
}
330
2A
100
AcDbVisualStyle
  2
Gouraud
 70
     2
177
     3
291
     1
 70
    58
 90
        2
176
     1
 90
        2
176
     1
 90
        1
176
     1
 90
        2
176
     1
 40
0.6
176
     1
 40
30.0
176
     1
 62
     7
420
 16777215
176
     1
 90
        0
176
     1
 90
        0
176
     1
 62
     7
176
     1
 62
   257
176
     1
 90
        1
176
     1
 90
        1
176
     1
 40
1.0
176
     1
 90
        0
176
     1
 62
     7
176
     1
 40
1.0
176
     1
 90
        1
176
     1
 90
        6
176
     1
 90
        2
176
     1
 62
     7
176
     1
 90
        5
176
     1
 90
        0
176
     1
 90
        0
176
     1
290
     0
176
     1
 90
       13
176
     1
 40
0.0
176
     1
 90
        0
176
     1
290
     0
176
     1
290
     1
176
     1
290
     1
176
     1
290
     0
176
     1
290
     0
176
     1
290
     0
176
     1
290
     0
176
     1
290
     0
176
     1
290
     0
176
     1
 90
       50
176
     1
 40
0.0
176
     1
 40
1.0
176
     1
 90
        0
176
     1
 62
    18
420
        0
176
     1
 90
       50
176
     1
 90
        3
176
     1
 62
     5
420
      255
176
     1
290
     0
176
     1
 90
       50
176
     1
 90
       50
176
     1
 90
       50
176
     1
290
     0
176
     1
 90
       50
176
     1
 62
   256
176
     0
 40
1.0
176
     0
 90
        2
176
     1
  1
strokes_ogs.tif
176
     1
290
     0
176
     1
 40
1.0
176
     1
 40
1.0
176
     1
  0
VISUALSTYLE
  5
2E
102
{ACAD_REACTORS
330
2A
102
}
330
2A
100
AcDbVisualStyle
  2
GouraudWithEdges
 70
     3
177
     3
291
     1
 70
    58
 90
        2
176
     1
 90
        2
176
     1
 90
        1
176
     1
 90
        2
176
     1
 40
0.6
176
     1
 40
30.0
176
     1
 62
     7
420
 16777215
176
     1
 90
        1
176
     1
 90
        0
176
     1
 62
     7
176
     1
 62
   257
176
     1
 90
        1
176
     1
 90
        1
176
     1
 40
1.0
176
     1
 90
        0
176
     1
 62
   257
176
     1
 40
1.0
176
     1
 90
        1
176
     1
 90
        6
176
     1
 90
        2
176
     1
 62
     7
176
     1
 90
        5
176
     1
 90
        0
176
     1
 90
        0
176
     1
290
     0
176
     1
 90
       13
176
     1
 40
0.0
176
     1
 90
        0
176
     1
290
     0
176
     1
290
     1
176
     1
290
     1
176
     1
290
     0
176
     1
290
     0
176
     1
290
     0
176
     1
290
     0
176
     1
290
     0
176
     1
290
     0
176
     1
 90
       50
176
     1
 40
0.0
176
     1
 40
1.0
176
     1
 90
        0
176
     1
 62
    18
420
        0
176
     1
 90
       50
176
     1
 90
        3
176
     1
 62
     5
420
      255
176
     1
290
     0
176
     1
 90
       50
176
     1
 90
       50
176
     1
 90
       50
176
     1
290
     0
176
     1
 90
       50
176
     1
 62
   256
176
     0
 40
1.0
176
     0
 90
        2
176
     1
  1
strokes_ogs.tif
176
     1
290
     0
176
     1
 40
1.0
176
     1
 40
1.0
176
     1
  0
VISUALSTYLE
  5
31
102
{ACAD_REACTORS
330
2A
102
}
330
2A
100
AcDbVisualStyle
  2
Hidden
 70
     6
177
     3
291
     0
 70
    58
 90
        1
176
     1
 90
        2
176
     1
 90
        2
176
     1
 90
        0
176
     1
 40
0.6
176
     1
 40
30.0
176
     1
 62
     7
420
 16777215
176
     1
 90
        2
176
     1
 90
        2
176
     1
 62
     7
176
     1
 62
   257
176
     1
 90
        2
176
     1
 90
        1
176
     1
 40
40.0
176
     1
 90
        0
176
     1
 62
   257
176
     1
 40
1.0
176
     1
 90
        1
176
     1
 90
        6
176
     1
 90
        2
176
     1
 62
     7
176
     1
 90
        3
176
     1
 90
        0
176
     1
 90
        0
176
     1
290
     0
176
     1
 90
        1
176
     1
 40
0.0
176
     1
 90
        0
176
     1
290
     0
176
     1
290
     1
176
     1
290
     1
176
     1
290
     0
176
     1
290
     0
176
     1
290
     0
176
     1
290
     0
176
     1
290
     0
176
     1
290
     0
176
     1
 90
       50
176
     1
 40
0.0
176
     1
 40
1.0
176
     1
 90
        0
176
     1
 62
    18
420
        0
176
     1
 90
       50
176
     1
 90
        3
176
     1
 62
     5
420
      255
176
     1
290
     0
176
     1
 90
       50
176
     1
 90
       50
176
     1
 90
       50
176
     1
290
     0
176
     1
 90
       50
176
     1
 62
   256
176
     0
 40
1.0
176
     0
 90
        2
176
     1
  1
strokes_ogs.tif
176
     1
290
     0
176
     1
 40
1.0
176
     1
 40
1.0
176
     1
  0
VISUALSTYLE
  5
3B
102
{ACAD_REACTORS
330
2A
102
}
330
2A
100
AcDbVisualStyle
  2
JitterOff
 70
    20
177
     3
291
     1
 70
    58
 90
        2
176
     0
 90
        2
176
     0
 90
        0
176
     0
 90
        0
176
     0
 40
0.6
176
     0
 40
30.0
176
     0
 62
     7
420
 16777215
176
     0
 90
        1
176
     0
 90
        4
176
     0
 62
     7
176
     0
 62
   257
176
     0
 90
        1
176
     0
 90
        1
176
     0
 40
1.0
176
     0
 90
       10
176
     2
 62
     7
176
     0
 40
1.0
176
     0
 90
        1
176
     0
 90
        6
176
     0
 90
        2
176
     0
 62
     7
176
     0
 90
        5
176
     0
 90
        0
176
     0
 90
        0
176
     0
290
     0
176
     0
 90
        1
176
     0
 40
0.0
176
     0
 90
        0
176
     0
290
     0
176
     0
290
     1
176
     0
290
     1
176
     0
290
     0
176
     0
290
     0
176
     0
290
     0
176
     0
290
     0
176
     0
290
     0
176
     0
290
     0
176
     0
 90
       50
176
     0
 40
0.0
176
     0
 40
1.0
176
     0
 90
        0
176
     0
 62
    18
420
        0
176
     0
 90
       50
176
     0
 90
        3
176
     0
 62
     5
420
      255
176
     0
290
     0
176
     0
 90
       50
176
     0
 90
       50
176
     0
 90
       50
176
     0
290
     0
176
     0
 90
       50
176
     0
 62
   256
176
     0
 40
1.0
176
     0
 90
        2
176
     0
  1
strokes_ogs.tif
176
     0
290
     0
176
     0
 40
1.0
176
     0
 40
1.0
176
     0
  0
VISUALSTYLE
  5
38
102
{ACAD_REACTORS
330
2A
102
}
330
2A
100
AcDbVisualStyle
  2
Linepattern
 70
    14
177
     3
291
     1
 70
    58
 90
        2
176
     1
 90
        2
176
     1
 90
        0
176
     1
 90
        0
176
     1
 40
0.6
176
     1
 40
30.0
176
     1
 62
     7
420
 16777215
176
     1
 90
        1
176
     1
 90
        4
176
     1
 62
     7
176
     1
 62
   257
176
     1
 90
        7
176
     1
 90
        7
176
     1
 40
1.0
176
     1
 90
        8
176
     1
 62
     7
176
     1
 40
1.0
176
     1
 90
        1
176
     1
 90
        6
176
     1
 90
        2
176
     1
 62
     7
176
     1
 90
        5
176
     1
 90
        0
176
     1
 90
        0
176
     1
290
     0
176
     1
 90
        1
176
     1
 40
0.0
176
     1
 90
        0
176
     1
290
     0
176
     1
290
     1
176
     1
290
     1
176
     1
290
     0
176
     1
290
     0
176
     1
290
     0
176
     1
290
     0
176
     1
290
     0
176
     1
290
     0
176
     1
 90
       50
176
     1
 40
0.0
176
     1
 40
1.0
176
     1
 90
        0
176
     1
 62
    18
420
        0
176
     1
 90
       50
176
     1
 90
        3
176
     1
 62
     5
420
      255
176
     1
290
     0
176
     1
 90
       50
176
     1
 90
       50
176
     1
 90
       50
176
     1
290
     0
176
     1
 90
       50
176
     1
 62
   256
176
     0
 40
1.0
176
     0
 90
        2
176
     1
  1
strokes_ogs.tif
176
     1
290
     0
176
     1
 40
1.0
176
     1
 40
1.0
176
     1
  0
VISUALSTYLE
  5
3C
102
{ACAD_REACTORS
330
2A
102
}
330
2A
100
AcDbVisualStyle
  2
OverhangOff
 70
    21
177
     3
291
     1
 70
    58
 90
        2
176
     0
 90
        2
176
     0
 90
        0
176
     0
 90
        0
176
     0
 40
0.6
176
     0
 40
30.0
176
     0
 62
     7
420
 16777215
176
     0
 90
        1
176
     0
 90
        4
176
     0
 62
     7
176
     0
 62
   257
176
     0
 90
        1
176
     0
 90
        1
176
     0
 40
1.0
176
     0
 90
        9
176
     2
 62
     7
176
     0
 40
1.0
176
     0
 90
        1
176
     0
 90
        6
176
     0
 90
        2
176
     0
 62
     7
176
     0
 90
        5
176
     0
 90
        0
176
     0
 90
        0
176
     0
290
     0
176
     0
 90
        1
176
     0
 40
0.0
176
     0
 90
        0
176
     0
290
     0
176
     0
290
     1
176
     0
290
     1
176
     0
290
     0
176
     0
290
     0
176
     0
290
     0
176
     0
290
     0
176
     0
290
     0
176
     0
290
     0
176
     0
 90
       50
176
     0
 40
0.0
176
     0
 40
1.0
176
     0
 90
        0
176
     0
 62
    18
420
        0
176
     0
 90
       50
176
     0
 90
        3
176
     0
 62
     5
420
      255
176
     0
290
     0
176
     0
 90
       50
176
     0
 90
       50
176
     0
 90
       50
176
     0
290
     0
176
     0
 90
       50
176
     0
 62
   256
176
     0
 40
1.0
176
     0
 90
        2
176
     0
  1
strokes_ogs.tif
176
     0
290
     0
176
     0
 40
1.0
176
     0
 40
1.0
176
     0
  0
VISUALSTYLE
  5
33
102
{ACAD_REACTORS
330
2A
102
}
330
2A
100
AcDbVisualStyle
  2
Realistic
 70
     8
177
     3
291
     0
 70
    58
 90
        2
176
     1
 90
        3
176
     1
 90
        0
176
     1
 90
        2
176
     1
 40
0.6
176
     1
 40
30.0
176
     1
 62
     7
420
 16777215
176
     1
 90
        0
176
     1
 90
        0
176
     1
 62
     7
176
     1
 62
   257
176
     1
 90
        1
176
     1
 90
        1
176
     1
 40
1.0
176
     1
 90
        8
176
     1
 62
   257
176
     1
 40
1.0
176
     1
 90
        1
176
     1
 90
        6
176
     1
 90
        2
176
     1
 62
     7
176
     1
 90
        3
176
     1
 90
        0
176
     1
 90
        0
176
     1
290
     0
176
     1
 90
       13
176
     1
 40
0.0
176
     1
 90
        0
176
     1
290
     0
176
     1
290
     1
176
     1
290
     1
176
     1
290
     0
176
     1
290
     0
176
     1
290
     0
176
     1
290
     0
176
     1
290
     0
176
     1
290
     0
176
     1
 90
       50
176
     1
 40
0.0
176
     1
 40
1.0
176
     1
 90
        0
176
     1
 62
    18
420
        0
176
     1
 90
       50
176
     1
 90
        3
176
     1
 62
     5
420
      255
176
     1
290
     0
176
     1
 90
       50
176
     1
 90
       50
176
     1
 90
       50
176
     1
290
     0
176
     1
 90
       50
176
     1
 62
   256
176
     0
 40
1.0
176
     0
 90
        2
176
     1
  1
strokes_ogs.tif
176
     1
290
     0
176
     1
 40
1.0
176
     1
 40
1.0
176
     1
  0
VISUALSTYLE
  5
42
102
{ACAD_REACTORS
330
2A
102
}
330
2A
100
AcDbVisualStyle
  2
Shaded
 70
    27
177
     3
291
     0
 70
    58
 90
        2
176
     1
 90
        2
176
     1
 90
        1
176
     1
 90
        2
176
     1
 40
0.6
176
     1
 40
30.0
176
     1
 62
     7
420
 16777215
176
     1
 90
        0
176
     1
 90
        4
176
     1
 62
     7
176
     1
 62
   257
176
     1
 90
        1
176
     1
 90
        1
176
     1
 40
1.0
176
     1
 90
        8
176
     1
 62
   257
176
     1
 40
1.0
176
     1
 90
        1
176
     1
 90
        6
176
     1
 90
        2
176
     1
 62
     8
420
  7895160
176
     1
 90
        3
176
     1
 90
        0
176
     1
 90
        0
176
     1
290
     0
176
     1
 90
        5
176
     1
 40
0.0
176
     1
 90
        0
176
     1
290
     0
176
     1
290
     1
176
     1
290
     1
176
     1
290
     0
176
     1
290
     0
176
     1
290
     0
176
     1
290
     0
176
     1
290
     0
176
     1
290
     0
176
     1
 90
       50
176
     1
 40
0.0
176
     1
 40
1.0
176
     1
 90
        0
176
     1
 62
    18
420
        0
176
     1
 90
       50
176
     1
 90
        3
176
     1
 62
     5
420
      255
176
     1
290
     0
176
     1
 90
       50
176
     1
 90
       50
176
     1
 90
       50
176
     1
290
     0
176
     1
 90
       50
176
     1
 62
   256
176
     0
 40
1.0
176
     0
 90
        2
176
     1
  1
strokes_ogs.tif
176
     1
290
     0
176
     1
 40
1.0
176
     1
 40
1.0
176
     1
  0
VISUALSTYLE
  5
41
102
{ACAD_REACTORS
330
2A
102
}
330
2A
100
AcDbVisualStyle
  2
Shaded with edges
 70
    26
177
     3
291
     0
 70
    58
 90
        2
176
     1
 90
        2
176
     1
 90
        1
176
     1
 90
        2
176
     1
 40
0.6
176
     1
 40
30.0
176
     1
 62
     7
420
 16777215
176
     1
 90
        1
176
     1
 90
       10
176
     1
 62
     7
176
     1
 62
   257
176
     1
 90
        2
176
     1
 90
        1
176
     1
 40
1.0
176
     1
 90
        8
176
     1
 62
   257
176
     1
 40
1.0
176
     1
 90
        1
176
     1
 90
        6
176
     1
 90
        2
176
     1
 62
     7
176
     1
 90
        3
176
     1
 90
        0
176
     1
 90
        0
176
     1
290
     0
176
     1
 90
        5
176
     1
 40
0.0
176
     1
 90
        0
176
     1
290
     0
176
     1
290
     1
176
     1
290
     1
176
     1
290
     0
176
     1
290
     0
176
     1
290
     0
176
     1
290
     0
176
     1
290
     0
176
     1
290
     0
176
     1
 90
       50
176
     1
 40
0.0
176
     1
 40
1.0
176
     1
 90
        0
176
     1
 62
    18
420
        0
176
     1
 90
       50
176
     1
 90
        3
176
     1
 62
     5
420
      255
176
     1
290
     0
176
     1
 90
       50
176
     1
 90
       50
176
     1
 90
       50
176
     1
290
     0
176
     1
 90
       50
176
     1
 62
   256
176
     0
 40
1.0
176
     0
 90
        2
176
     1
  1
strokes_ogs.tif
176
     1
290
     0
176
     1
 40
1.0
176
     1
 40
1.0
176
     1
  0
VISUALSTYLE
  5
3E
102
{ACAD_REACTORS
330
2A
102
}
330
2A
100
AcDbVisualStyle
  2
Shades of Gray
 70
    23
177
     3
291
     0
 70
    58
 90
        2
176
     1
 90
        2
176
     1
 90
        3
176
     1
 90
        0
176
     1
 40
0.6
176
     1
 40
30.0
176
     1
 62
     7
420
 16777215
176
     1
 90
        2
176
     1
 90
        2
176
     1
 62
     7
176
     1
 62
     7
176
     1
 90
        1
176
     1
 90
        1
176
     1
 40
40.0
176
     1
 90
        8
176
     1
 62
     7
176
     1
 40
1.0
176
     1
 90
        1
176
     1
 90
        6
176
     1
 90
        2
176
     1
 62
     7
176
     1
 90
        3
176
     1
 90
        0
176
     1
 90
        0
176
     1
290
     0
176
     1
 90
        1
176
     1
 40
0.0
176
     1
 90
        0
176
     1
290
     0
176
     1
290
     1
176
     1
290
     1
176
     1
290
     0
176
     1
290
     0
176
     1
290
     0
176
     1
290
     0
176
     1
290
     0
176
     1
290
     0
176
     1
 90
       50
176
     1
 40
0.0
176
     1
 40
1.0
176
     1
 90
        0
176
     1
 62
    18
420
        0
176
     1
 90
       50
176
     1
 90
        3
176
     1
 62
     5
420
      255
176
     1
290
     0
176
     1
 90
       50
176
     1
 90
       50
176
     1
 90
       50
176
     1
290
     0
176
     1
 90
       50
176
     1
 62
   256
176
     0
 40
1.0
176
     0
 90
        2
176
     1
  1
strokes_ogs.tif
176
     1
290
     0
176
     1
 40
1.0
176
     1
 40
1.0
176
     1
  0
VISUALSTYLE
  5
3F
102
{ACAD_REACTORS
330
2A
102
}
330
2A
100
AcDbVisualStyle
  2
Sketchy
 70
    24
177
     3
291
     0
 70
    58
 90
        1
176
     1
 90
        2
176
     1
 90
        2
176
     1
 90
        0
176
     1
 40
0.6
176
     1
 40
30.0
176
     1
 62
     7
420
 16777215
176
     1
 90
        2
176
     1
 90
        2
176
     1
 62
     7
176
     1
 62
     7
176
     1
 90
        1
176
     1
 90
        1
176
     1
 40
40.0
176
     1
 90
       11
176
     1
 62
     7
176
     1
 40
1.0
176
     1
 90
        1
176
     1
 90
        6
176
     1
 90
        2
176
     1
 62
     7
176
     1
 90
        6
176
     1
 90
        0
176
     1
 90
        0
176
     1
290
     0
176
     1
 90
        1
176
     1
 40
0.0
176
     1
 90
        0
176
     1
290
     0
176
     1
290
     1
176
     1
290
     1
176
     1
290
     0
176
     1
290
     0
176
     1
290
     0
176
     1
290
     0
176
     1
290
     0
176
     1
290
     0
176
     1
 90
       50
176
     1
 40
0.0
176
     1
 40
1.0
176
     1
 90
        0
176
     1
 62
    18
420
        0
176
     1
 90
       50
176
     1
 90
        3
176
     1
 62
     5
420
      255
176
     1
290
     0
176
     1
 90
       50
176
     1
 90
       50
176
     1
 90
       50
176
     1
290
     0
176
     1
 90
       50
176
     1
 62
   256
176
     0
 40
1.0
176
     0
 90
        2
176
     1
  1
strokes_ogs.tif
176
     1
290
     0
176
     1
 40
1.0
176
     1
 40
1.0
176
     1
  0
VISUALSTYLE
  5
37
102
{ACAD_REACTORS
330
2A
102
}
330
2A
100
AcDbVisualStyle
  2
Thicken
 70
    13
177
     3
291
     1
 70
    58
 90
        2
176
     1
 90
        2
176
     1
 90
        0
176
     1
 90
        0
176
     1
 40
0.6
176
     1
 40
30.0
176
     1
 62
     7
420
 16777215
176
     1
 90
        1
176
     1
 90
        4
176
     1
 62
     7
176
     1
 62
   257
176
     1
 90
        1
176
     1
 90
        1
176
     1
 40
1.0
176
     1
 90
       12
176
     1
 62
     7
176
     1
 40
1.0
176
     1
 90
        1
176
     1
 90
        6
176
     1
 90
        2
176
     1
 62
     7
176
     1
 90
        5
176
     1
 90
        0
176
     1
 90
        0
176
     1
290
     0
176
     1
 90
        1
176
     1
 40
0.0
176
     1
 90
        0
176
     1
290
     0
176
     1
290
     1
176
     1
290
     1
176
     1
290
     0
176
     1
290
     0
176
     1
290
     0
176
     1
290
     0
176
     1
290
     0
176
     1
290
     0
176
     1
 90
       50
176
     1
 40
0.0
176
     1
 40
1.0
176
     1
 90
        0
176
     1
 62
    18
420
        0
176
     1
 90
       50
176
     1
 90
        3
176
     1
 62
     5
420
      255
176
     1
290
     0
176
     1
 90
       50
176
     1
 90
       50
176
     1
 90
       50
176
     1
290
     0
176
     1
 90
       50
176
     1
 62
   256
176
     0
 40
1.0
176
     0
 90
        2
176
     1
  1
strokes_ogs.tif
176
     1
290
     0
176
     1
 40
1.0
176
     1
 40
1.0
176
     1
  0
VISUALSTYLE
  5
30
102
{ACAD_REACTORS
330
2A
102
}
330
2A
100
AcDbVisualStyle
  2
Wireframe
 70
     5
177
     3
291
     0
 70
    58
 90
        0
176
     1
 90
        2
176
     1
 90
        0
176
     1
 90
        0
176
     1
 40
0.6
176
     1
 40
30.0
176
     1
 62
     7
420
 16777215
176
     1
 90
        1
176
     1
 90
        4
176
     1
 62
     7
176
     1
 62
   257
176
     1
 90
        1
176
     1
 90
        1
176
     1
 40
1.0
176
     1
 90
        0
176
     1
 62
   257
176
     1
 40
1.0
176
     1
 90
        1
176
     1
 90
        6
176
     1
 90
        2
176
     1
 62
     7
176
     1
 90
        3
176
     1
 90
        0
176
     1
 90
        0
176
     1
290
     0
176
     1
 90
        1
176
     1
 40
0.0
176
     1
 90
        0
176
     1
290
     0
176
     1
290
     1
176
     1
290
     1
176
     1
290
     0
176
     1
290
     0
176
     1
290
     0
176
     1
290
     0
176
     1
290
     0
176
     1
290
     0
176
     1
 90
       50
176
     1
 40
0.0
176
     1
 40
1.0
176
     1
 90
        0
176
     1
 62
    18
420
        0
176
     1
 90
       50
176
     1
 90
        3
176
     1
 62
     5
420
      255
176
     1
290
     0
176
     1
 90
       50
176
     1
 90
       50
176
     1
 90
       50
176
     1
290
     0
176
     1
 90
       50
176
     1
 62
   256
176
     0
 40
1.0
176
     0
 90
        2
176
     1
  1
strokes_ogs.tif
176
     1
290
     0
176
     1
 40
1.0
176
     1
 40
1.0
176
     1
  0
VISUALSTYLE
  5
40
102
{ACAD_REACTORS
330
2A
102
}
330
2A
100
AcDbVisualStyle
  2
X-Ray
 70
    25
177
     3
291
     0
 70
    58
 90
        2
176
     1
 90
        2
176
     1
 90
        1
176
     1
 90
        1
176
     1
 40
0.5
176
     1
 40
30.0
176
     1
 62
     7
420
 16777215
176
     1
 90
        1
176
     1
 90
        0
176
     1
 62
     7
176
     1
 62
   257
176
     1
 90
        1
176
     1
 90
        1
176
     1
 40
1.0
176
     1
 90
        8
176
     1
 62
     7
176
     1
 40
1.0
176
     1
 90
        1
176
     1
 90
        6
176
     1
 90
        2
176
     1
 62
     7
176
     1
 90
        3
176
     1
 90
        0
176
     1
 90
        0
176
     1
290
     0
176
     1
 90
       13
176
     1
 40
0.0
176
     1
 90
        0
176
     1
290
     0
176
     1
290
     1
176
     1
290
     1
176
     1
290
     0
176
     1
290
     0
176
     1
290
     0
176
     1
290
     0
176
     1
290
     0
176
     1
290
     0
176
     1
 90
       50
176
     1
 40
0.0
176
     1
 40
1.0
176
     1
 90
        0
176
     1
 62
    18
420
        0
176
     1
 90
       50
176
     1
 90
        3
176
     1
 62
     5
420
      255
176
     1
290
     0
176
     1
 90
       50
176
     1
 90
       50
176
     1
 90
       50
176
     1
290
     0
176
     1
 90
       50
176
     1
 62
   256
176
     0
 40
1.0
176
     0
 90
        2
176
     1
  1
strokes_ogs.tif
176
     1
290
     0
176
     1
 40
1.0
176
     1
 40
1.0
176
     1
  0
DICTIONARYVAR
  5
99
102
{ACAD_REACTORS
330
98
102
}
330
98
100
DictionaryVariables
280
     0
  1
1:1
  0
DICTIONARYVAR
  5
A1
102
{ACAD_REACTORS
330
98
102
}
330
98
100
DictionaryVariables
280
     0
  1
3.500000
  0
DICTIONARYVAR
  5
A2
102
{ACAD_REACTORS
330
98
102
}
330
98
100
DictionaryVariables
280
     0
  1
acadiso.lin
  0
DICTIONARYVAR
  5
9E
102
{ACAD_REACTORS
330
98
102
}
330
98
100
DictionaryVariables
280
     0
  1
Standard
  0
DICTIONARYVAR
  5
9D
102
{ACAD_REACTORS
330
98
102
}
330
98
100
DictionaryVariables
280
     0
  1
Standard
  0
DICTIONARY
  5
9A
330
5A
100
AcDbDictionary
280
     1
281
     1
  3
ACAD_ROUNDTRIP_2008_TABLESTYLE_CELLSTYLEMAP
360
9B
  0
CELLSTYLEMAP
  5
9B
102
{ACAD_REACTORS
330
9A
102
}
330
9A
100
AcDbCellStyleMap
 90
        3
300
CELLSTYLE
  1
TABLEFORMAT_BEGIN
 90
        5
170
     1
 91
        0
 92
    32768
 62
   257
 93
        1
300
CONTENTFORMAT
  1
CONTENTFORMAT_BEGIN
 90
        0
 91
        0
 92
        4
 93
        0
300

 40
0.0
140
1.0
 94
        5
 62
     0
340
11
144
6.0
309
CONTENTFORMAT_END
171
     1
301
MARGIN
  1
CELLMARGIN_BEGIN
 40
1.5
 40
1.5
 40
1.5
 40
1.5
 40
1.5
 40
1.5
309
CELLMARGIN_END
 94
        6
 95
        1
302
GRIDFORMAT
  1
GRIDFORMAT_BEGIN
 90
        0
 91
        1
 62
     0
 92
       -2
340
14
 93
        0
 40
0.045
309
GRIDFORMAT_END
 95
        2
302
GRIDFORMAT
  1
GRIDFORMAT_BEGIN
 90
        0
 91
        1
 62
     0
 92
       -2
340
14
 93
        0
 40
0.045
309
GRIDFORMAT_END
 95
        4
302
GRIDFORMAT
  1
GRIDFORMAT_BEGIN
 90
        0
 91
        1
 62
     0
 92
       -2
340
14
 93
        0
 40
0.045
309
GRIDFORMAT_END
 95
        8
302
GRIDFORMAT
  1
GRIDFORMAT_BEGIN
 90
        0
 91
        1
 62
     0
 92
       -2
340
14
 93
        0
 40
0.045
309
GRIDFORMAT_END
 95
       16
302
GRIDFORMAT
  1
GRIDFORMAT_BEGIN
 90
        0
 91
        1
 62
     0
 92
       -2
340
14
 93
        0
 40
0.045
309
GRIDFORMAT_END
 95
       32
302
GRIDFORMAT
  1
GRIDFORMAT_BEGIN
 90
        0
 91
        1
 62
     0
 92
       -2
340
14
 93
        0
 40
0.045
309
GRIDFORMAT_END
309
TABLEFORMAT_END
  1
CELLSTYLE_BEGIN
 90
        1
 91
        1
300
_TITLE
309
CELLSTYLE_END
300
CELLSTYLE
  1
TABLEFORMAT_BEGIN
 90
        5
170
     1
 91
        0
 92
        0
 62
   257
 93
        1
300
CONTENTFORMAT
  1
CONTENTFORMAT_BEGIN
 90
        0
 91
        0
 92
        4
 93
        0
300

 40
0.0
140
1.0
 94
        5
 62
     0
340
11
144
4.5
309
CONTENTFORMAT_END
171
     1
301
MARGIN
  1
CELLMARGIN_BEGIN
 40
1.5
 40
1.5
 40
1.5
 40
1.5
 40
1.5
 40
1.5
309
CELLMARGIN_END
 94
        6
 95
        1
302
GRIDFORMAT
  1
GRIDFORMAT_BEGIN
 90
        0
 91
        1
 62
     0
 92
       -2
340
14
 93
        0
 40
0.045
309
GRIDFORMAT_END
 95
        2
302
GRIDFORMAT
  1
GRIDFORMAT_BEGIN
 90
        0
 91
        1
 62
     0
 92
       -2
340
14
 93
        0
 40
0.045
309
GRIDFORMAT_END
 95
        4
302
GRIDFORMAT
  1
GRIDFORMAT_BEGIN
 90
        0
 91
        1
 62
     0
 92
       -2
340
14
 93
        0
 40
0.045
309
GRIDFORMAT_END
 95
        8
302
GRIDFORMAT
  1
GRIDFORMAT_BEGIN
 90
        0
 91
        1
 62
     0
 92
       -2
340
14
 93
        0
 40
0.045
309
GRIDFORMAT_END
 95
       16
302
GRIDFORMAT
  1
GRIDFORMAT_BEGIN
 90
        0
 91
        1
 62
     0
 92
       -2
340
14
 93
        0
 40
0.045
309
GRIDFORMAT_END
 95
       32
302
GRIDFORMAT
  1
GRIDFORMAT_BEGIN
 90
        0
 91
        1
 62
     0
 92
       -2
340
14
 93
        0
 40
0.045
309
GRIDFORMAT_END
309
TABLEFORMAT_END
  1
CELLSTYLE_BEGIN
 90
        2
 91
        1
300
_HEADER
309
CELLSTYLE_END
300
CELLSTYLE
  1
TABLEFORMAT_BEGIN
 90
        5
170
     1
 91
        0
 92
        0
 62
   257
 93
        1
300
CONTENTFORMAT
  1
CONTENTFORMAT_BEGIN
 90
        0
 91
        0
 92
        4
 93
        0
300

 40
0.0
140
1.0
 94
        2
 62
     0
340
11
144
4.5
309
CONTENTFORMAT_END
171
     1
301
MARGIN
  1
CELLMARGIN_BEGIN
 40
1.5
 40
1.5
 40
1.5
 40
1.5
 40
1.5
 40
1.5
309
CELLMARGIN_END
 94
        6
 95
        1
302
GRIDFORMAT
  1
GRIDFORMAT_BEGIN
 90
        0
 91
        1
 62
     0
 92
       -2
340
14
 93
        0
 40
0.045
309
GRIDFORMAT_END
 95
        2
302
GRIDFORMAT
  1
GRIDFORMAT_BEGIN
 90
        0
 91
        1
 62
     0
 92
       -2
340
14
 93
        0
 40
0.045
309
GRIDFORMAT_END
 95
        4
302
GRIDFORMAT
  1
GRIDFORMAT_BEGIN
 90
        0
 91
        1
 62
     0
 92
       -2
340
14
 93
        0
 40
0.045
309
GRIDFORMAT_END
 95
        8
302
GRIDFORMAT
  1
GRIDFORMAT_BEGIN
 90
        0
 91
        1
 62
     0
 92
       -2
340
14
 93
        0
 40
0.045
309
GRIDFORMAT_END
 95
       16
302
GRIDFORMAT
  1
GRIDFORMAT_BEGIN
 90
        0
 91
        1
 62
     0
 92
       -2
340
14
 93
        0
 40
0.045
309
GRIDFORMAT_END
 95
       32
302
GRIDFORMAT
  1
GRIDFORMAT_BEGIN
 90
        0
 91
        1
 62
     0
 92
       -2
340
14
 93
        0
 40
0.045
309
GRIDFORMAT_END
309
TABLEFORMAT_END
  1
CELLSTYLE_BEGIN
 90
        3
 91
        2
300
_DATA
309
CELLSTYLE_END
  0
ENDSEC
  0
EOF
