  0
SECTION
  2
HEADER
  9
$ACADVER
  1
AC1027
  9
$ACADMAINTVER
 70
   105
  9
$DWGCODEPAGE
  3
ANSI_932
  9
$LASTSAVEDBY
  1
a.yasuda
  9
$REQUIREDVERSIONS
160
                 0
  9
$INSBASE
 10
0.0
 20
0.0
 30
0.0
  9
$EXTMIN
 10
0.0
 20
0.0
 30
0.0
  9
$EXTMAX
 10
302.9997823349792
 20
216.0016055409748
 30
0.0
  9
$LIMMIN
 10
0.0
 20
0.0
  9
$LIMMAX
 10
302.9997823349792
 20
216.0016055409748
  9
$ORTHOMODE
 70
     0
  9
$REGENMODE
 70
     1
  9
$FILLMODE
 70
     1
  9
$QTEXTMODE
 70
     0
  9
$MIRRTEXT
 70
     1
  9
$LTSCALE
 40
1.0
  9
$ATTMODE
 70
     1
  9
$TEXTSIZE
 40
2.5
  9
$TRACEWID
 40
1.0
  9
$TEXTSTYLE
  7
Standard
  9
$CLAYER
  8
0
  9
$CELTYPE
  6
ByLayer
  9
$CECOLOR
 62
   256
  9
$CELTSCALE
 40
1.0
  9
$DISPSILH
 70
     0
  9
$DIMSCALE
 40
1.0
  9
$DIMASZ
 40
2.5
  9
$DIMEXO
 40
0.625
  9
$DIMDLI
 40
3.75
  9
$DIMRND
 40
0.0
  9
$DIMDLE
 40
0.0
  9
$DIMEXE
 40
1.25
  9
$DIMTP
 40
0.0
  9
$DIMTM
 40
0.0
  9
$DIMTXT
 40
2.5
  9
$DIMCEN
 40
2.5
  9
$DIMTSZ
 40
0.0
  9
$DIMTOL
 70
     0
  9
$DIMLIM
 70
     0
  9
$DIMTIH
 70
     0
  9
$DIMTOH
 70
     0
  9
$DIMSE1
 70
     0
  9
$DIMSE2
 70
     0
  9
$DIMTAD
 70
     1
  9
$DIMZIN
 70
     8
  9
$DIMBLK
  1

  9
$DIMASO
 70
     1
  9
$DIMSHO
 70
     1
  9
$DIMPOST
  1

  9
$DIMAPOST
  1

  9
$DIMALT
 70
     0
  9
$DIMALTD
 70
     3
  9
$DIMALTF
 40
0.03937007874016
  9
$DIMLFAC
 40
1.0
  9
$DIMTOFL
 70
     1
  9
$DIMTVP
 40
0.0
  9
$DIMTIX
 70
     0
  9
$DIMSOXD
 70
     0
  9
$DIMSAH
 70
     0
  9
$DIMBLK1
  1

  9
$DIMBLK2
  1

  9
$DIMSTYLE
  2
ISO-25
  9
$DIMCLRD
 70
     0
  9
$DIMCLRE
 70
     0
  9
$DIMCLRT
 70
     0
  9
$DIMTFAC
 40
1.0
  9
$DIMGAP
 40
0.625
  9
$DIMJUST
 70
     0
  9
$DIMSD1
 70
     0
  9
$DIMSD2
 70
     0
  9
$DIMTOLJ
 70
     0
  9
$DIMTZIN
 70
     8
  9
$DIMALTZ
 70
     0
  9
$DIMALTTZ
 70
     0
  9
$DIMUPT
 70
     0
  9
$DIMDEC
 70
     2
  9
$DIMTDEC
 70
     2
  9
$DIMALTU
 70
     2
  9
$DIMALTTD
 70
     3
  9
$DIMTXSTY
  7
Standard
  9
$DIMAUNIT
 70
     0
  9
$DIMADEC
 70
     0
  9
$DIMALTRND
 40
0.0
  9
$DIMAZIN
 70
     0
  9
$DIMDSEP
 70
    44
  9
$DIMATFIT
 70
     3
  9
$DIMFRAC
 70
     0
  9
$DIMLDRBLK
  1

  9
$DIMLUNIT
 70
     2
  9
$DIMLWD
 70
    -2
  9
$DIMLWE
 70
    -2
  9
$DIMTMOVE
 70
     0
  9
$DIMFXL
 40
1.0
  9
$DIMFXLON
 70
     0
  9
$DIMJOGANG
 40
0.7853981633974483
  9
$DIMTFILL
 70
     0
  9
$DIMTFILLCLR
 70
     0
  9
$DIMARCSYM
 70
     0
  9
$DIMLTYPE
  6

  9
$DIMLTEX1
  6

  9
$DIMLTEX2
  6

  9
$DIMTXTDIRECTION
 70
     0
  9
$LUNITS
 70
     2
  9
$LUPREC
 70
     4
  9
$SKETCHINC
 40
1.0
  9
$FILLETRAD
 40
0.0
  9
$AUNITS
 70
     0
  9
$AUPREC
 70
     0
  9
$MENU
  1
.
  9
$ELEVATION
 40
0.0
  9
$PELEVATION
 40
0.0
  9
$THICKNESS
 40
0.0
  9
$LIMCHECK
 70
     0
  9
$CHAMFERA
 40
0.0
  9
$CHAMFERB
 40
0.0
  9
$CHAMFERC
 40
0.0
  9
$CHAMFERD
 40
0.0
  9
$SKPOLY
 70
     0
  9
$TDCREATE
 40
2459866.61886434
  9
$TDUCREATE
 40
2459866.24386434
  9
$TDUPDATE
 40
2459866.61886441
  9
$TDUUPDATE
 40
2459866.24386441
  9
$TDINDWG
 40
0.0000000116
  9
$TDUSRTIMER
 40
0.0000000116
  9
$USRTIMER
 70
     1
  9
$ANGBASE
 50
0.0
  9
$ANGDIR
 70
     0
  9
$PDMODE
 70
     0
  9
$PDSIZE
 40
0.0
  9
$PLINEWID
 40
0.0
  9
$SPLFRAME
 70
     0
  9
$SPLINETYPE
 70
     6
  9
$SPLINESEGS
 70
     8
  9
$HANDSEED
  5
AB
  9
$SURFTAB1
 70
     6
  9
$SURFTAB2
 70
     6
  9
$SURFTYPE
 70
     6
  9
$SURFU
 70
     6
  9
$SURFV
 70
     6
  9
$UCSBASE
  2

  9
$UCSNAME
  2

  9
$UCSORG
 10
0.0
 20
0.0
 30
0.0
  9
$UCSXDIR
 10
1.0
 20
0.0
 30
0.0
  9
$UCSYDIR
 10
0.0
 20
1.0
 30
0.0
  9
$UCSORTHOREF
  2

  9
$UCSORTHOVIEW
 70
     0
  9
$UCSORGTOP
 10
0.0
 20
0.0
 30
0.0
  9
$UCSORGBOTTOM
 10
0.0
 20
0.0
 30
0.0
  9
$UCSORGLEFT
 10
0.0
 20
0.0
 30
0.0
  9
$UCSORGRIGHT
 10
0.0
 20
0.0
 30
0.0
  9
$UCSORGFRONT
 10
0.0
 20
0.0
 30
0.0
  9
$UCSORGBACK
 10
0.0
 20
0.0
 30
0.0
  9
$PUCSBASE
  2

  9
$PUCSNAME
  2

  9
$PUCSORG
 10
0.0
 20
0.0
 30
0.0
  9
$PUCSXDIR
 10
1.0
 20
0.0
 30
0.0
  9
$PUCSYDIR
 10
0.0
 20
1.0
 30
0.0
  9
$PUCSORTHOREF
  2

  9
$PUCSORTHOVIEW
 70
     0
  9
$PUCSORGTOP
 10
0.0
 20
0.0
 30
0.0
  9
$PUCSORGBOTTOM
 10
0.0
 20
0.0
 30
0.0
  9
$PUCSORGLEFT
 10
0.0
 20
0.0
 30
0.0
  9
$PUCSORGRIGHT
 10
0.0
 20
0.0
 30
0.0
  9
$PUCSORGFRONT
 10
0.0
 20
0.0
 30
0.0
  9
$PUCSORGBACK
 10
0.0
 20
0.0
 30
0.0
  9
$USERI1
 70
     0
  9
$USERI2
 70
     0
  9
$USERI3
 70
     0
  9
$USERI4
 70
     0
  9
$USERI5
 70
     0
  9
$USERR1
 40
0.0
  9
$USERR2
 40
0.0
  9
$USERR3
 40
0.0
  9
$USERR4
 40
0.0
  9
$USERR5
 40
0.0
  9
$WORLDVIEW
 70
     1
  9
$SHADEDGE
 70
     3
  9
$SHADEDIF
 70
    70
  9
$TILEMODE
 70
     1
  9
$MAXACTVP
 70
    64
  9
$PINSBASE
 10
0.0
 20
0.0
 30
0.0
  9
$PLIMCHECK
 70
     0
  9
$PEXTMIN
 10
1.000000000000000E+20
 20
1.000000000000000E+20
 30
1.000000000000000E+20
  9
$PEXTMAX
 10
-1.000000000000000E+20
 20
-1.000000000000000E+20
 30
-1.000000000000000E+20
  9
$PLIMMIN
 10
0.0
 20
0.0
  9
$PLIMMAX
 10
420.0
 20
297.0
  9
$UNITMODE
 70
     0
  9
$VISRETAIN
 70
     1
  9
$PLINEGEN
 70
     0
  9
$PSLTSCALE
 70
     1
  9
$TREEDEPTH
 70
  3020
  9
$CMLSTYLE
  2
Standard
  9
$CMLJUST
 70
     0
  9
$CMLSCALE
 40
20.0
  9
$PROXYGRAPHICS
 70
     1
  9
$MEASUREMENT
 70
     1
  9
$CELWEIGHT
370
    -1
  9
$ENDCAPS
280
     0
  9
$JOINSTYLE
280
     0
  9
$LWDISPLAY
290
     0
  9
$INSUNITS
 70
     4
  9
$HYPERLINKBASE
  1

  9
$STYLESHEET
  1

  9
$XEDIT
290
     1
  9
$CEPSNTYPE
380
     0
  9
$PSTYLEMODE
290
     1
  9
$FINGERPRINTGUID
  2
{017668d0-44e1-4719-8c72-6e02a2be075a}
  9
$VERSIONGUID
  2
{FAEB1C32-E019-11D5-929B-00C0DF256EC4}
  9
$EXTNAMES
290
     1
  9
$PSVPSCALE
 40
0.0
  9
$OLESTARTUP
290
     0
  9
$SORTENTS
280
   127
  9
$INDEXCTL
280
     0
  9
$HIDETEXT
280
     1
  9
$XCLIPFRAME
280
     2
  9
$HALOGAP
280
     0
  9
$OBSCOLOR
 70
   257
  9
$OBSLTYPE
280
     0
  9
$INTERSECTIONDISPLAY
280
     0
  9
$INTERSECTIONCOLOR
 70
   257
  9
$DIMASSOC
280
     2
  9
$PROJECTNAME
  1

  9
$CAMERADISPLAY
290
     0
  9
$LENSLENGTH
 40
50.0
  9
$CAMERAHEIGHT
 40
0.0
  9
$STEPSPERSEC
 40
2.0
  9
$STEPSIZE
 40
6.0
  9
$3DDWFPREC
 40
2.0
  9
$PSOLWIDTH
 40
5.0
  9
$PSOLHEIGHT
 40
80.0
  9
$LOFTANG1
 40
1.570796326794897
  9
$LOFTANG2
 40
1.570796326794897
  9
$LOFTMAG1
 40
0.0
  9
$LOFTMAG2
 40
0.0
  9
$LOFTPARAM
 70
     7
  9
$LOFTNORMALS
280
     1
  9
$LATITUDE
 40
37.795
  9
$LONGITUDE
 40
-122.394
  9
$NORTHDIRECTION
 40
0.0
  9
$TIMEZONE
 70
 -8000
  9
$LIGHTGLYPHDISPLAY
280
     1
  9
$TILEMODELIGHTSYNCH
280
     1
  9
$CMATERIAL
347
44
  9
$SOLIDHIST
280
     0
  9
$SHOWHIST
280
     1
  9
$DWFFRAME
280
     2
  9
$DGNFRAME
280
     2
  9
$REALWORLDSCALE
290
     1
  9
$INTERFERECOLOR
 62
   256
  9
$CSHADOW
280
     0
  9
$SHADOWPLANELOCATION
 40
0.0
  0
ENDSEC
  0
SECTION
  2
CLASSES
  0
CLASS
  1
ACDBDICTIONARYWDFLT
  2
AcDbDictionaryWithDefault
  3
ObjectDBX Classes
 90
        0
 91
        3
280
     0
281
     0
  0
CLASS
  1
VISUALSTYLE
  2
AcDbVisualStyle
  3
ObjectDBX Classes
 90
     4095
 91
        3
280
     0
281
     0
  0
CLASS
  1
MATERIAL
  2
AcDbMaterial
  3
ObjectDBX Classes
 90
     1153
 91
        3
280
     0
281
     0
  0
CLASS
  1
SCALE
  2
AcDbScale
  3
ObjectDBX Classes
 90
     1153
 91
        3
280
     0
281
     0
  0
CLASS
  1
TABLESTYLE
  2
AcDbTableStyle
  3
ObjectDBX Classes
 90
     4095
 91
        3
280
     0
281
     0
  0
CLASS
  1
MLEADERSTYLE
  2
AcDbMLeaderStyle
  3
ACDB_MLEADERSTYLE_CLASS
 90
     4095
 91
        3
280
     0
281
     0
  0
CLASS
  1
SUN
  2
AcDbSun
  3
SCENEOE
 90
     1153
 91
        3
280
     0
281
     0
  0
CLASS
  1
DICTIONARYVAR
  2
AcDbDictionaryVar
  3
ObjectDBX Classes
 90
        0
 91
        3
280
     0
281
     0
  0
CLASS
  1
CELLSTYLEMAP
  2
AcDbCellStyleMap
  3
ObjectDBX Classes
 90
     1152
 91
        3
280
     0
281
     0
  0
ENDSEC
  0
SECTION
  2
TABLES
  0
TABLE
  2
VPORT
  5
8
330
0
100
AcDbSymbolTable
 70
     1
  0
VPORT
  5
29
330
8
100
AcDbSymbolTableRecord
100
AcDbViewportTableRecord
  2
*Active
 70
     0
 10
0.0
 20
0.0
 11
1.0
 21
1.0
 12
151.4998911674896
 22
108.0008027704874
 13
0.0
 23
0.0
 14
10.0
 24
10.0
 15
10.0
 25
10.0
 16
0.0
 26
0.0
 36
1.0
 17
0.0
 27
0.0
 37
0.0
 40
237.6017660950723
 41
1.402766343222857
 42
50.0
 43
0.0
 44
0.0
 50
0.0
 51
0.0
 71
     0
 72
 10000
 73
     1
 74
     3
 75
     0
 76
     0
 77
     0
 78
     0
281
     0
 65
     1
110
0.0
120
0.0
130
0.0
111
1.0
121
0.0
131
0.0
112
0.0
122
1.0
132
0.0
 79
     0
146
0.0
348
2F
 60
     3
 61
     5
292
     1
282
     1
141
0.0
142
0.0
 63
   250
361
5D
  0
ENDTAB
  0
TABLE
  2
LTYPE
  5
5
330
0
100
AcDbSymbolTable
 70
     2
  0
LTYPE
  5
14
330
5
100
AcDbSymbolTableRecord
100
AcDbLinetypeTableRecord
  2
ByBlock
 70
     0
  3

 72
    65
 73
     0
 40
0.0
  0
LTYPE
  5
15
330
5
100
AcDbSymbolTableRecord
100
AcDbLinetypeTableRecord
  2
ByLayer
 70
     0
  3

 72
    65
 73
     0
 40
0.0
  0
LTYPE
  5
16
330
5
100
AcDbSymbolTableRecord
100
AcDbLinetypeTableRecord
  2
Continuous
 70
     0
  3
Solid line
 72
    65
 73
     0
 40
0.0
  0
LTYPE
  5
5F
330
5
100
AcDbSymbolTableRecord
100
AcDbLinetypeTableRecord
  2
UserDefined01
 70
     0
  3
----------------                
 72
    65
 73
     2
 40
0.7055555449591743
 49
0.3527777724795871
 74
     0
 49
-0.3527777724795871
 74
     0
  0
ENDTAB
  0
TABLE
  2
LAYER
  5
2
330
0
100
AcDbSymbolTable
 70
     3
  0
LAYER
  5
10
330
2
100
AcDbSymbolTableRecord
100
AcDbLayerTableRecord
  2
0
 70
     0
 62
     7
  6
Continuous
370
    -3
390
F
347
46
348
0
  0
LAYER
  5
60
330
2
100
AcDbSymbolTableRecord
100
AcDbLayerTableRecord
  2
外枠
 70
     0
 62
     7
  6
Continuous
370
    -3
390
F
347
46
348
0
  0
LAYER
  5
61
330
2
100
AcDbSymbolTableRecord
100
AcDbLayerTableRecord
  2
ISS138金台
 70
     0
 62
     7
  6
Continuous
370
    -3
390
F
347
46
348
0
  0
ENDTAB
  0
TABLE
  2
STYLE
  5
3
330
0
100
AcDbSymbolTable
 70
     2
  0
STYLE
  5
11
330
3
100
AcDbSymbolTableRecord
100
AcDbTextStyleTableRecord
  2
Standard
 70
     0
 40
0.0
 41
1.0
 50
0.0
 71
     0
 42
2.5
  3

  4

  0
STYLE
  5
5E
330
3
100
AcDbSymbolTableRecord
100
AcDbTextStyleTableRecord
  2
MS Gothic
 70
     0
 40
1.0
 41
1.0
 50
0.0
 71
     0
 42
2.5
  3
msgothic.ttc
  4

1001
ACAD
1000
MS Gothic
1071
    32817
  0
ENDTAB
  0
TABLE
  2
VIEW
  5
6
330
0
100
AcDbSymbolTable
 70
     0
  0
ENDTAB
  0
TABLE
  2
UCS
  5
7
330
0
100
AcDbSymbolTable
 70
     0
  0
ENDTAB
  0
TABLE
  2
APPID
  5
9
330
0
100
AcDbSymbolTable
 70
     1
  0
APPID
  5
12
330
9
100
AcDbSymbolTableRecord
100
AcDbRegAppTableRecord
  2
ACAD
 70
     0
  0
ENDTAB
  0
TABLE
  2
DIMSTYLE
  5
A
330
0
100
AcDbSymbolTable
 70
     1
100
AcDbDimStyleTable
  0
DIMSTYLE
105
27
330
A
100
AcDbSymbolTableRecord
100
AcDbDimStyleTableRecord
  2
ISO-25
 70
     0
 41
2.5
 42
0.625
 43
3.75
 44
1.25
 73
     0
 74
     0
 77
     1
 78
     8
140
2.5
141
2.5
143
0.03937007874016
147
0.625
171
     3
172
     1
178
     0
271
     2
272
     2
274
     3
278
    44
283
     0
284
     8
340
11
  0
ENDTAB
  0
TABLE
  2
BLOCK_RECORD
  5
1
330
0
100
AcDbSymbolTable
 70
     1
  0
BLOCK_RECORD
  5
1F
330
1
100
AcDbSymbolTableRecord
100
AcDbBlockTableRecord
  2
*Model_Space
340
22
 70
     0
280
     1
281
     0
  0
BLOCK_RECORD
  5
1B
330
1
100
AcDbSymbolTableRecord
100
AcDbBlockTableRecord
  2
*Paper_Space
340
1E
 70
     0
280
     1
281
     0
  0
BLOCK_RECORD
  5
23
330
1
100
AcDbSymbolTableRecord
100
AcDbBlockTableRecord
  2
*Paper_Space0
340
26
 70
     0
280
     1
281
     0
  0
ENDTAB
  0
ENDSEC
  0
SECTION
  2
BLOCKS
  0
BLOCK
  5
20
330
1F
100
AcDbEntity
  8
0
100
AcDbBlockBegin
  2
*Model_Space
 70
     0
 10
0.0
 20
0.0
 30
0.0
  3
*Model_Space
  1

  0
ENDBLK
  5
21
330
1F
100
AcDbEntity
  8
0
100
AcDbBlockEnd
  0
BLOCK
  5
1C
330
1B
100
AcDbEntity
 67
     1
  8
0
100
AcDbBlockBegin
  2
*Paper_Space
 70
     0
 10
0.0
 20
0.0
 30
0.0
  3
*Paper_Space
  1

  0
ENDBLK
  5
1D
330
1B
100
AcDbEntity
 67
     1
  8
0
100
AcDbBlockEnd
  0
BLOCK
  5
24
330
23
100
AcDbEntity
  8
0
100
AcDbBlockBegin
  2
*Paper_Space0
 70
     0
 10
0.0
 20
0.0
 30
0.0
  3
*Paper_Space0
  1

  0
ENDBLK
  5
25
330
23
100
AcDbEntity
  8
0
100
AcDbBlockEnd
  0
ENDSEC
  0
SECTION
  2
ENTITIES
  0
LWPOLYLINE
  5
62
330
1F
100
AcDbEntity
  8
外枠
  6
Continuous
 62
   250
420
  2367521
370
   100
100
AcDbPolyline
 90
        5
 70
     0
 43
0.0
 10
281.9999662644599
 20
13.29407825637392
 10
20.99981607051935
 20
13.29407825637392
 10
20.99981607051935
 20
193.0018900389566
 10
281.9999662644599
 20
193.0018900389566
 10
281.9999662644599
 20
13.29407825637392
  0
LINE
  5
63
330
1F
100
AcDbEntity
  8
外枠
  6
Continuous
 62
   250
420
  2367521
370
    25
100
AcDbLine
 10
223.3097080177524
 20
174.0786160074276
 30
0.0
 11
281.9999232007669
 21
174.0786160074276
 31
0.0
  0
LINE
  5
64
330
1F
100
AcDbEntity
  8
外枠
  6
Continuous
 62
   250
420
  2367521
370
    25
100
AcDbLine
 10
223.3097080177524
 20
50.37109023844297
 30
0.0
 11
281.9999232007669
 21
50.37109023844297
 31
0.0
  0
LINE
  5
65
330
1F
100
AcDbEntity
  8
外枠
  6
Continuous
 62
   250
420
  2367521
370
    25
100
AcDbLine
 10
223.3097080177524
 20
36.25997933925949
 30
0.0
 11
281.9999232007669
 21
36.25997933925949
 31
0.0
  0
LINE
  5
66
330
1F
100
AcDbEntity
  8
外枠
  6
Continuous
 62
   250
420
  2367521
370
    50
100
AcDbLine
 10
223.0158413772006
 20
193.3637327187979
 30
0.0
 11
223.0158413772006
 21
13.29396655992039
 31
0.0
  0
TEXT
  5
67
330
1F
100
AcDbEntity
  8
外枠
  6
Continuous
 62
   250
420
  2367521
100
AcDbText
 10
224.7190965599536
 20
186.6888051931772
 30
0.0
 40
2.688166626294454
  1
品名：
 41
0.974166170756022
  7
MS Gothic
100
AcDbText
  0
TEXT
  5
68
330
1F
100
AcDbEntity
  8
外枠
  6
Continuous
 62
   250
420
  2367521
100
AcDbText
 10
224.7190965599536
 20
168.1080059455944
 30
0.0
 40
2.688166626294454
  1
仕様：
 41
0.9978878657023111
  7
MS Gothic
100
AcDbText
  0
TEXT
  5
69
330
1F
100
AcDbEntity
  8
外枠
  6
Continuous
 62
   250
420
  2367521
100
AcDbText
 10
224.7190965599536
 20
44.16660664327048
 30
0.0
 40
2.688166626294454
  1
縮尺：
 41
0.9939999262491861
  7
MS Gothic
100
AcDbText
  0
TEXT
  5
6A
330
1F
100
AcDbEntity
  8
外枠
  6
Continuous
 62
   250
420
  2367521
100
AcDbText
 10
250.2379519709696
 20
40.59738467878129
 30
0.0
 40
2.150533301035563
  1
1/1
 41
1.000003814697266
  7
MS Gothic
100
AcDbText
  0
TEXT
  5
6B
330
1F
100
AcDbEntity
  8
外枠
  6
Continuous
 62
   250
420
  2367521
100
AcDbText
 10
232.7757967427735
 20
181.9845273775436
 30
0.0
 40
2.688166626294454
  1
アドロック103B(U)
 41
1.061602424172794
  7
MS Gothic
100
AcDbText
  0
TEXT
  5
6C
330
1F
100
AcDbEntity
  8
外枠
  6
Continuous
 62
   250
420
  2367521
100
AcDbText
 10
226.1633020978884
 20
24.25683874973963
 30
0.0
 40
2.553758294979732
  1
ヤスダインテリアサプライ株式会社
 41
1.0194908945184
  7
MS Gothic
100
AcDbText
  0
TEXT
  5
6D
330
1F
100
AcDbEntity
  8
外枠
  6
Continuous
 62
   250
420
  2367521
100
AcDbText
 10
227.7635273953072
 20
161.7763665048245
 30
0.0
 40
2.150533301035563
  1
材質
 41
1.028502464294433
  7
MS Gothic
100
AcDbText
  0
TEXT
  5
6E
330
1F
100
AcDbEntity
  8
外枠
  6
Continuous
 62
   250
420
  2367521
100
AcDbText
 10
232.7757967427735
 20
156.199681315683
 30
0.0
 40
2.016124969720841
  1
アルミ押出形材（A6063S-T5）/
 41
1.030580357142857
  7
MS Gothic
100
AcDbText
  0
TEXT
  5
6F
330
1F
100
AcDbEntity
  8
外枠
  6
Continuous
 62
   250
420
  2367521
100
AcDbText
 10
232.7757967427735
 20
151.9663480459279
 30
0.0
 40
2.016124969720841
  1
アンバー仕上(アルマイト)
 41
1.051187388102213
  7
MS Gothic
100
AcDbText
  0
HATCH
  5
70
330
1F
100
AcDbEntity
  8
ISS138金台
  6
Continuous
 62
     7
420
 16777215
370
    50
100
AcDbHatch
 10
0.0
 20
0.0
 30
0.0
210
0.0
220
0.0
230
1.0
  2
SOLID
 70
     1
 71
     0
 91
        1
 92
        3
 72
     0
 73
     1
 93
      179
 10
137.1950582456622
 20
103.9040998324749
 10
127.6397200170444
 20
104.6082450414906
 10
114.6391571629768
 20
104.6082450414906
 10
114.6391571629768
 20
106.1086056350056
 10
114.6469193936274
 20
106.2620092751442
 10
114.669646257571
 20
106.4109881208343
 10
114.7066379697976
 20
106.5547885574496
 10
114.7570978519879
 20
106.6926354385174
 10
114.8202938213621
 20
106.8237859153346
 10
114.8954614973708
 20
106.9474971391982
 10
114.9818364994644
 20
107.0629939636355
 10
115.0786759789399
 20
107.1695335399434
 10
115.1852047893246
 20
107.2663730194189
 10
115.3007016137619
 20
107.3527480215125
 10
115.4243805398558
 20
107.4278941656747
 10
115.5554879529801
 20
107.4910793691258
 10
115.6932810044317
 20
107.5415284853928
 10
115.8369953136611
 20
107.5784986657729
 10
115.9858772660421
 20
107.6012362956398
 10
116.1391624810252
 20
107.6089769944439
 10
116.1395177564918
 20
108.1085050665044
 10
114.139618324993
 20
108.1085050665044
 10
101.1397552559356
 20
105.4087021997435
 10
101.1397552559356
 20
103.4088027682446
 10
107.139453550432
 20
103.4088027682446
 10
107.139453550432
 20
104.9747816638612
 10
112.0056723833275
 20
105.9117614946242
 10
112.013757591675
 20
105.9140331044263
 10
112.0218750977923
 20
105.9162401186889
 10
112.0300356676024
 20
105.9183610055657
 10
112.0382177692591
 20
105.9203957650566
 10
112.0464537005319
 20
105.9223013334688
 10
112.0547326954976
 20
105.9240992426486
 10
112.0630655200795
 20
105.9257894925961
 10
112.0714198765078
 20
105.9273182536951
 10
112.0798280625523
 20
105.9287285896385
 10
112.0882793122898
 20
105.9299666708102
 10
112.0967736257201
 20
105.9310432631335
 10
112.1053325346899
 20
105.931947600685
 10
112.1139345073526
 20
105.9326689175416
 10
112.1225903096314
 20
105.93319644778
 10
112.1313107074497
 20
105.9335194254769
 10
112.1400741689609
 20
105.9336270847093
 10
112.1400741689609
 20
105.9336270847093
 10
112.1912015383916
 20
105.9310432631335
 10
112.2408755081859
 20
105.9234748191011
 10
112.2887946324934
 20
105.9111263051535
 10
112.3347112950796
 20
105.8943206989877
 10
112.37841017748
 20
105.8732517872219
 10
112.4196328975369
 20
105.8482102497833
 10
112.4581103071695
 20
105.8194114051366
 10
112.4936055560668
 20
105.7871459332091
 10
112.525860262071
 20
105.7516291524654
 10
112.554626808948
 20
105.7131409769095
 10
112.5796575804634
 20
105.6719290227759
 10
112.6006941944595
 20
105.6282409062987
 10
112.6174998006253
 20
105.5823134777893
 10
112.62980525088
 20
105.5344266512515
 10
112.6373736949123
 20
105.4848172769966
 10
112.6399575164881
 20
105.433743737182
 10
112.6399575164881
 20
103.4088027682446
 10
118.389531116526
 20
103.4088027682446
 10
118.3908122613906
 20
103.4342857085358
 10
118.3946018663685
 20
103.4590365660471
 10
118.4007707403806
 20
103.4829476815462
 10
118.4091573945787
 20
103.505868332108
 10
118.4196757015767
 20
103.5276908585001
 10
118.4321857043728
 20
103.5482753037205
 10
118.4465689778113
 20
103.56752477446
 10
118.4626855648902
 20
103.5852670159471
 10
118.4804278063772
 20
103.6014051348724
 10
118.4996557452703
 20
103.6158099401574
 10
118.5202509564139
 20
103.6283414747999
 10
118.5420842487292
 20
103.6388813136445
 10
118.5650371970607
 20
103.6473002656122
 10
118.5889698444064
 20
103.6534691396244
 10
118.6137637656106
 20
103.6572695105254
 10
118.6393005355179
 20
103.6585614213133
 10
118.6393005355179
 20
103.6585614213133
 10
118.6648911350413
 20
103.6572695105254
 10
118.6897604177082
 20
103.6534691396244
 10
118.7137253628235
 20
103.6473110315354
 10
118.7367213748479
 20
103.6388813136445
 10
118.758586964933
 20
103.6283414747999
 10
118.7792144738463
 20
103.6158099401574
 10
118.7984639445858
 20
103.6014051348724
 10
118.8162169519961
 20
103.5852777818703
 10
118.8323550709214
 20
103.56752477446
 10
118.8467491102832
 20
103.5482860696437
 10
118.8592698790025
 20
103.5276908585001
 10
118.8697881860005
 20
103.505868332108
 10
118.8781963720451
 20
103.482936915623
 10
118.884354480134
 20
103.4590365660471
 10
118.8881333191886
 20
103.4342749426125
 10
118.8894252299764
 20
103.4088027682446
 10
121.3895525185459
 20
103.4088027682446
 10
121.3908336634106
 20
103.4342857085358
 10
121.3946232683884
 20
103.4590365660471
 10
121.4007921424006
 20
103.4829476815462
 10
121.4091895625218
 20
103.505868332108
 10
121.4196971035967
 20
103.5276908585001
 10
121.432217872316
 20
103.5482753037205
 10
121.4465903798312
 20
103.56752477446
 10
121.4627177328334
 20
103.5852670159471
 10
121.4804492083971
 20
103.6014051348724
 10
121.4996771472902
 20
103.6158099401574
 10
121.5202723584338
 20
103.6283414747999
 10
121.5421056507491
 20
103.6388813136445
 10
121.5650478331574
 20
103.6473002656122
 10
121.5889912464263
 20
103.6534691396244
 10
121.6137851676306
 20
103.6572695105254
 10
121.6393219375378
 20
103.6585614213133
 10
121.6393219375378
 20
103.6585614213133
 10
121.6649125370613
 20
103.6572695105254
 10
121.6897818197281
 20
103.6534691396244
 10
121.7137682966899
 20
103.6473110315354
 10
121.7367535427911
 20
103.6388813136445
 10
121.7585976010297
 20
103.6283414747999
 10
121.779225109943
 20
103.6158099401574
 10
121.7984853466057
 20
103.6014051348724
 10
121.816238354016
 20
103.5852777818703
 10
121.8323657070181
 20
103.56752477446
 10
121.8467597463799
 20
103.5482860696437
 10
121.8592805150992
 20
103.5276908585001
 10
121.8697988220972
 20
103.505868332108
 10
121.8782070081418
 20
103.482936915623
 10
121.8843651162307
 20
103.4590365660471
 10
121.8881439552853
 20
103.4342749426125
 10
121.8894358660731
 20
103.4088027682446
 10
124.3895739205659
 20
103.4088027682446
 10
124.3908658313537
 20
103.4342749426125
 10
124.3946662022548
 20
103.4590150342006
 10
124.400835076267
 20
103.4829153837766
 10
124.4092540282347
 20
103.5058145024919
 10
124.419783101156
 20
103.5276154970375
 10
124.4323254017218
 20
103.5481784104114
 10
124.4467194410835
 20
103.5673740515348
 10
124.4628683259321
 20
103.5850947611753
 10
124.4806213333423
 20
103.6012113482543
 10
124.4998600381587
 20
103.6155730898463
 10
124.5204552493023
 20
103.6280830926423
 10
124.5422777756943
 20
103.6385906337172
 10
124.5652091921794
 20
103.6469880538385
 10
124.5891095417553
 20
103.6531461619274
 10
124.6138711651899
 20
103.656925000982
 10
124.6393433395578
 20
103.6582169117699
 10
124.6393433395578
 20
103.6582169117699
 10
124.6649339390812
 20
103.656925000982
 10
124.6897816899016
 20
103.6531353960042
 10
124.7137466350169
 20
103.6469988197617
 10
124.7367211151949
 20
103.6385906337172
 10
124.7585544075102
 20
103.6280723267191
 10
124.7791603845771
 20
103.6155730898463
 10
124.7983883234701
 20
103.601200582331
 10
124.8161305649571
 20
103.5851055270986
 10
124.8322471520361
 20
103.567384817458
 10
124.8466304254746
 20
103.5481784104114
 10
124.8591511941938
 20
103.5276154970375
 10
124.8696802671151
 20
103.5058145024919
 10
124.8780992190829
 20
103.4829046178533
 10
124.8842896249415
 20
103.4590150342006
 10
124.8881222936123
 20
103.4342749426125
 10
124.8894680340163
 20
103.4088027682446
 10
137.6395616840819
 20
103.4088027682446
 10
137.6372900742798
 20
103.4560005756955
 10
137.6306152018757
 20
103.5019710678979
 10
137.6197308534877
 20
103.5464881604639
 10
137.6048846453503
 20
103.5893795986218
 10
137.5862703640814
 20
103.630430063907
 10
137.5641248599924
 20
103.6694457697013
 10
137.5386419197013
 20
103.7062329293864
 10
137.510047627596
 20
103.740586990421
 10
137.4785465362179
 20
103.7723141661869
 10
137.4443754958783
 20
103.8012099041427
 10
137.4077390591184
 20
103.8270804176702
 10
137.3688417784797
 20
103.8497319201512
 10
137.3279097383501
 20
103.868949093121
 10
137.2851582571942
 20
103.8845489158848
 10
137.2408026534766
 20
103.8963376018243
 97
        0
 75
     1
 76
     1
 98
        0
  0
LWPOLYLINE
  5
71
330
1F
100
AcDbEntity
  8
ISS138金台
  6
Continuous
 62
     7
420
 16777215
370
    50
100
AcDbPolyline
 90
      180
 70
     0
 43
0.0
 10
137.1950582456622
 20
103.9040998324749
 10
127.6397200170444
 20
104.6082450414906
 10
114.6391571629768
 20
104.6082450414906
 10
114.6391571629768
 20
106.1086056350056
 10
114.6469193936274
 20
106.2620092751442
 10
114.669646257571
 20
106.4109881208343
 10
114.7066379697976
 20
106.5547885574496
 10
114.7570978519879
 20
106.6926354385174
 10
114.8202938213621
 20
106.8237859153346
 10
114.8954614973708
 20
106.9474971391982
 10
114.9818364994644
 20
107.0629939636355
 10
115.0786759789399
 20
107.1695335399434
 10
115.1852047893246
 20
107.2663730194189
 10
115.3007016137619
 20
107.3527480215125
 10
115.4243805398558
 20
107.4278941656747
 10
115.5554879529801
 20
107.4910793691258
 10
115.6932810044317
 20
107.5415284853928
 10
115.8369953136611
 20
107.5784986657729
 10
115.9858772660421
 20
107.6012362956398
 10
116.1391624810252
 20
107.6089769944439
 10
116.1395177564918
 20
108.1085050665044
 10
114.139618324993
 20
108.1085050665044
 10
101.1397552559356
 20
105.4087021997435
 10
101.1397552559356
 20
103.4088027682446
 10
107.139453550432
 20
103.4088027682446
 10
107.139453550432
 20
104.9747816638612
 10
112.0056723833275
 20
105.9117614946242
 10
112.013757591675
 20
105.9140331044263
 10
112.0218750977923
 20
105.9162401186889
 10
112.0300356676024
 20
105.9183610055657
 10
112.0382177692591
 20
105.9203957650566
 10
112.0464537005319
 20
105.9223013334688
 10
112.0547326954976
 20
105.9240992426486
 10
112.0630655200795
 20
105.9257894925961
 10
112.0714198765078
 20
105.9273182536951
 10
112.0798280625523
 20
105.9287285896385
 10
112.0882793122898
 20
105.9299666708102
 10
112.0967736257201
 20
105.9310432631335
 10
112.1053325346899
 20
105.931947600685
 10
112.1139345073526
 20
105.9326689175416
 10
112.1225903096314
 20
105.93319644778
 10
112.1313107074497
 20
105.9335194254769
 10
112.1400741689609
 20
105.9336270847093
 10
112.1400741689609
 20
105.9336270847093
 10
112.1912015383916
 20
105.9310432631335
 10
112.2408755081859
 20
105.9234748191011
 10
112.2887946324934
 20
105.9111263051535
 10
112.3347112950796
 20
105.8943206989877
 10
112.37841017748
 20
105.8732517872219
 10
112.4196328975369
 20
105.8482102497833
 10
112.4581103071695
 20
105.8194114051366
 10
112.4936055560668
 20
105.7871459332091
 10
112.525860262071
 20
105.7516291524654
 10
112.554626808948
 20
105.7131409769095
 10
112.5796575804634
 20
105.6719290227759
 10
112.6006941944595
 20
105.6282409062987
 10
112.6174998006253
 20
105.5823134777893
 10
112.62980525088
 20
105.5344266512515
 10
112.6373736949123
 20
105.4848172769966
 10
112.6399575164881
 20
105.433743737182
 10
112.6399575164881
 20
103.4088027682446
 10
118.389531116526
 20
103.4088027682446
 10
118.3908122613906
 20
103.4342857085358
 10
118.3946018663685
 20
103.4590365660471
 10
118.4007707403806
 20
103.4829476815462
 10
118.4091573945787
 20
103.505868332108
 10
118.4196757015767
 20
103.5276908585001
 10
118.4321857043728
 20
103.5482753037205
 10
118.4465689778113
 20
103.56752477446
 10
118.4626855648902
 20
103.5852670159471
 10
118.4804278063772
 20
103.6014051348724
 10
118.4996557452703
 20
103.6158099401574
 10
118.5202509564139
 20
103.6283414747999
 10
118.5420842487292
 20
103.6388813136445
 10
118.5650371970607
 20
103.6473002656122
 10
118.5889698444064
 20
103.6534691396244
 10
118.6137637656106
 20
103.6572695105254
 10
118.6393005355179
 20
103.6585614213133
 10
118.6393005355179
 20
103.6585614213133
 10
118.6648911350413
 20
103.6572695105254
 10
118.6897604177082
 20
103.6534691396244
 10
118.7137253628235
 20
103.6473110315354
 10
118.7367213748479
 20
103.6388813136445
 10
118.758586964933
 20
103.6283414747999
 10
118.7792144738463
 20
103.6158099401574
 10
118.7984639445858
 20
103.6014051348724
 10
118.8162169519961
 20
103.5852777818703
 10
118.8323550709214
 20
103.56752477446
 10
118.8467491102832
 20
103.5482860696437
 10
118.8592698790025
 20
103.5276908585001
 10
118.8697881860005
 20
103.505868332108
 10
118.8781963720451
 20
103.482936915623
 10
118.884354480134
 20
103.4590365660471
 10
118.8881333191886
 20
103.4342749426125
 10
118.8894252299764
 20
103.4088027682446
 10
121.3895525185459
 20
103.4088027682446
 10
121.3908336634106
 20
103.4342857085358
 10
121.3946232683884
 20
103.4590365660471
 10
121.4007921424006
 20
103.4829476815462
 10
121.4091895625218
 20
103.505868332108
 10
121.4196971035967
 20
103.5276908585001
 10
121.432217872316
 20
103.5482753037205
 10
121.4465903798312
 20
103.56752477446
 10
121.4627177328334
 20
103.5852670159471
 10
121.4804492083971
 20
103.6014051348724
 10
121.4996771472902
 20
103.6158099401574
 10
121.5202723584338
 20
103.6283414747999
 10
121.5421056507491
 20
103.6388813136445
 10
121.5650478331574
 20
103.6473002656122
 10
121.5889912464263
 20
103.6534691396244
 10
121.6137851676306
 20
103.6572695105254
 10
121.6393219375378
 20
103.6585614213133
 10
121.6393219375378
 20
103.6585614213133
 10
121.6649125370613
 20
103.6572695105254
 10
121.6897818197281
 20
103.6534691396244
 10
121.7137682966899
 20
103.6473110315354
 10
121.7367535427911
 20
103.6388813136445
 10
121.7585976010297
 20
103.6283414747999
 10
121.779225109943
 20
103.6158099401574
 10
121.7984853466057
 20
103.6014051348724
 10
121.816238354016
 20
103.5852777818703
 10
121.8323657070181
 20
103.56752477446
 10
121.8467597463799
 20
103.5482860696437
 10
121.8592805150992
 20
103.5276908585001
 10
121.8697988220972
 20
103.505868332108
 10
121.8782070081418
 20
103.482936915623
 10
121.8843651162307
 20
103.4590365660471
 10
121.8881439552853
 20
103.4342749426125
 10
121.8894358660731
 20
103.4088027682446
 10
124.3895739205659
 20
103.4088027682446
 10
124.3908658313537
 20
103.4342749426125
 10
124.3946662022548
 20
103.4590150342006
 10
124.400835076267
 20
103.4829153837766
 10
124.4092540282347
 20
103.5058145024919
 10
124.419783101156
 20
103.5276154970375
 10
124.4323254017218
 20
103.5481784104114
 10
124.4467194410835
 20
103.5673740515348
 10
124.4628683259321
 20
103.5850947611753
 10
124.4806213333423
 20
103.6012113482543
 10
124.4998600381587
 20
103.6155730898463
 10
124.5204552493023
 20
103.6280830926423
 10
124.5422777756943
 20
103.6385906337172
 10
124.5652091921794
 20
103.6469880538385
 10
124.5891095417553
 20
103.6531461619274
 10
124.6138711651899
 20
103.656925000982
 10
124.6393433395578
 20
103.6582169117699
 10
124.6393433395578
 20
103.6582169117699
 10
124.6649339390812
 20
103.656925000982
 10
124.6897816899016
 20
103.6531353960042
 10
124.7137466350169
 20
103.6469988197617
 10
124.7367211151949
 20
103.6385906337172
 10
124.7585544075102
 20
103.6280723267191
 10
124.7791603845771
 20
103.6155730898463
 10
124.7983883234701
 20
103.601200582331
 10
124.8161305649571
 20
103.5851055270986
 10
124.8322471520361
 20
103.567384817458
 10
124.8466304254746
 20
103.5481784104114
 10
124.8591511941938
 20
103.5276154970375
 10
124.8696802671151
 20
103.5058145024919
 10
124.8780992190829
 20
103.4829046178533
 10
124.8842896249415
 20
103.4590150342006
 10
124.8881222936123
 20
103.4342749426125
 10
124.8894680340163
 20
103.4088027682446
 10
137.6395616840819
 20
103.4088027682446
 10
137.6372900742798
 20
103.4560005756955
 10
137.6306152018757
 20
103.5019710678979
 10
137.6197308534877
 20
103.5464881604639
 10
137.6048846453503
 20
103.5893795986218
 10
137.5862703640814
 20
103.630430063907
 10
137.5641248599924
 20
103.6694457697013
 10
137.5386419197013
 20
103.7062329293864
 10
137.510047627596
 20
103.740586990421
 10
137.4785465362179
 20
103.7723141661869
 10
137.4443754958783
 20
103.8012099041427
 10
137.4077390591184
 20
103.8270804176702
 10
137.3688417784797
 20
103.8497319201512
 10
137.3279097383501
 20
103.868949093121
 10
137.2851582571942
 20
103.8845489158848
 10
137.2408026534766
 20
103.8963376018243
 10
137.1950582456622
 20
103.9040998324749
  0
LWPOLYLINE
  5
72
330
1F
100
AcDbEntity
  8
ISS138金台
  6
Continuous
 62
   250
420
  2367521
370
    25
100
AcDbPolyline
 90
      180
 70
     0
 43
0.0
 10
137.1950582456622
 20
103.9040998324749
 10
127.6397200170444
 20
104.6082450414906
 10
114.6391571629768
 20
104.6082450414906
 10
114.6391571629768
 20
106.1086056350056
 10
114.6469193936274
 20
106.2620092751442
 10
114.669646257571
 20
106.4109881208343
 10
114.7066379697976
 20
106.5547885574496
 10
114.7570978519879
 20
106.6926354385174
 10
114.8202938213621
 20
106.8237859153346
 10
114.8954614973708
 20
106.9474971391982
 10
114.9818364994644
 20
107.0629939636355
 10
115.0786759789399
 20
107.1695335399434
 10
115.1852047893246
 20
107.2663730194189
 10
115.3007016137619
 20
107.3527480215125
 10
115.4243805398558
 20
107.4278941656747
 10
115.5554879529801
 20
107.4910793691258
 10
115.6932810044317
 20
107.5415284853928
 10
115.8369953136611
 20
107.5784986657729
 10
115.9858772660421
 20
107.6012362956398
 10
116.1391624810252
 20
107.6089769944439
 10
116.1395177564918
 20
108.1085050665044
 10
114.139618324993
 20
108.1085050665044
 10
101.1397552559356
 20
105.4087021997435
 10
101.1397552559356
 20
103.4088027682446
 10
107.139453550432
 20
103.4088027682446
 10
107.139453550432
 20
104.9747816638612
 10
112.0056723833275
 20
105.9117614946242
 10
112.013757591675
 20
105.9140331044263
 10
112.0218750977923
 20
105.9162401186889
 10
112.0300356676024
 20
105.9183610055657
 10
112.0382177692591
 20
105.9203957650566
 10
112.0464537005319
 20
105.9223013334688
 10
112.0547326954976
 20
105.9240992426486
 10
112.0630655200795
 20
105.9257894925961
 10
112.0714198765078
 20
105.9273182536951
 10
112.0798280625523
 20
105.9287285896385
 10
112.0882793122898
 20
105.9299666708102
 10
112.0967736257201
 20
105.9310432631335
 10
112.1053325346899
 20
105.931947600685
 10
112.1139345073526
 20
105.9326689175416
 10
112.1225903096314
 20
105.93319644778
 10
112.1313107074497
 20
105.9335194254769
 10
112.1400741689609
 20
105.9336270847093
 10
112.1400741689609
 20
105.9336270847093
 10
112.1912015383916
 20
105.9310432631335
 10
112.2408755081859
 20
105.9234748191011
 10
112.2887946324934
 20
105.9111263051535
 10
112.3347112950796
 20
105.8943206989877
 10
112.37841017748
 20
105.8732517872219
 10
112.4196328975369
 20
105.8482102497833
 10
112.4581103071695
 20
105.8194114051366
 10
112.4936055560668
 20
105.7871459332091
 10
112.525860262071
 20
105.7516291524654
 10
112.554626808948
 20
105.7131409769095
 10
112.5796575804634
 20
105.6719290227759
 10
112.6006941944595
 20
105.6282409062987
 10
112.6174998006253
 20
105.5823134777893
 10
112.62980525088
 20
105.5344266512515
 10
112.6373736949123
 20
105.4848172769966
 10
112.6399575164881
 20
105.433743737182
 10
112.6399575164881
 20
103.4088027682446
 10
118.389531116526
 20
103.4088027682446
 10
118.3908122613906
 20
103.4342857085358
 10
118.3946018663685
 20
103.4590365660471
 10
118.4007707403806
 20
103.4829476815462
 10
118.4091573945787
 20
103.505868332108
 10
118.4196757015767
 20
103.5276908585001
 10
118.4321857043728
 20
103.5482753037205
 10
118.4465689778113
 20
103.56752477446
 10
118.4626855648902
 20
103.5852670159471
 10
118.4804278063772
 20
103.6014051348724
 10
118.4996557452703
 20
103.6158099401574
 10
118.5202509564139
 20
103.6283414747999
 10
118.5420842487292
 20
103.6388813136445
 10
118.5650371970607
 20
103.6473002656122
 10
118.5889698444064
 20
103.6534691396244
 10
118.6137637656106
 20
103.6572695105254
 10
118.6393005355179
 20
103.6585614213133
 10
118.6393005355179
 20
103.6585614213133
 10
118.6648911350413
 20
103.6572695105254
 10
118.6897604177082
 20
103.6534691396244
 10
118.7137253628235
 20
103.6473110315354
 10
118.7367213748479
 20
103.6388813136445
 10
118.758586964933
 20
103.6283414747999
 10
118.7792144738463
 20
103.6158099401574
 10
118.7984639445858
 20
103.6014051348724
 10
118.8162169519961
 20
103.5852777818703
 10
118.8323550709214
 20
103.56752477446
 10
118.8467491102832
 20
103.5482860696437
 10
118.8592698790025
 20
103.5276908585001
 10
118.8697881860005
 20
103.505868332108
 10
118.8781963720451
 20
103.482936915623
 10
118.884354480134
 20
103.4590365660471
 10
118.8881333191886
 20
103.4342749426125
 10
118.8894252299764
 20
103.4088027682446
 10
121.3895525185459
 20
103.4088027682446
 10
121.3908336634106
 20
103.4342857085358
 10
121.3946232683884
 20
103.4590365660471
 10
121.4007921424006
 20
103.4829476815462
 10
121.4091895625218
 20
103.505868332108
 10
121.4196971035967
 20
103.5276908585001
 10
121.432217872316
 20
103.5482753037205
 10
121.4465903798312
 20
103.56752477446
 10
121.4627177328334
 20
103.5852670159471
 10
121.4804492083971
 20
103.6014051348724
 10
121.4996771472902
 20
103.6158099401574
 10
121.5202723584338
 20
103.6283414747999
 10
121.5421056507491
 20
103.6388813136445
 10
121.5650478331574
 20
103.6473002656122
 10
121.5889912464263
 20
103.6534691396244
 10
121.6137851676306
 20
103.6572695105254
 10
121.6393219375378
 20
103.6585614213133
 10
121.6393219375378
 20
103.6585614213133
 10
121.6649125370613
 20
103.6572695105254
 10
121.6897818197281
 20
103.6534691396244
 10
121.7137682966899
 20
103.6473110315354
 10
121.7367535427911
 20
103.6388813136445
 10
121.7585976010297
 20
103.6283414747999
 10
121.779225109943
 20
103.6158099401574
 10
121.7984853466057
 20
103.6014051348724
 10
121.816238354016
 20
103.5852777818703
 10
121.8323657070181
 20
103.56752477446
 10
121.8467597463799
 20
103.5482860696437
 10
121.8592805150992
 20
103.5276908585001
 10
121.8697988220972
 20
103.505868332108
 10
121.8782070081418
 20
103.482936915623
 10
121.8843651162307
 20
103.4590365660471
 10
121.8881439552853
 20
103.4342749426125
 10
121.8894358660731
 20
103.4088027682446
 10
124.3895739205659
 20
103.4088027682446
 10
124.3908658313537
 20
103.4342749426125
 10
124.3946662022548
 20
103.4590150342006
 10
124.400835076267
 20
103.4829153837766
 10
124.4092540282347
 20
103.5058145024919
 10
124.419783101156
 20
103.5276154970375
 10
124.4323254017218
 20
103.5481784104114
 10
124.4467194410835
 20
103.5673740515348
 10
124.4628683259321
 20
103.5850947611753
 10
124.4806213333423
 20
103.6012113482543
 10
124.4998600381587
 20
103.6155730898463
 10
124.5204552493023
 20
103.6280830926423
 10
124.5422777756943
 20
103.6385906337172
 10
124.5652091921794
 20
103.6469880538385
 10
124.5891095417553
 20
103.6531461619274
 10
124.6138711651899
 20
103.656925000982
 10
124.6393433395578
 20
103.6582169117699
 10
124.6393433395578
 20
103.6582169117699
 10
124.6649339390812
 20
103.656925000982
 10
124.6897816899016
 20
103.6531353960042
 10
124.7137466350169
 20
103.6469988197617
 10
124.7367211151949
 20
103.6385906337172
 10
124.7585544075102
 20
103.6280723267191
 10
124.7791603845771
 20
103.6155730898463
 10
124.7983883234701
 20
103.601200582331
 10
124.8161305649571
 20
103.5851055270986
 10
124.8322471520361
 20
103.567384817458
 10
124.8466304254746
 20
103.5481784104114
 10
124.8591511941938
 20
103.5276154970375
 10
124.8696802671151
 20
103.5058145024919
 10
124.8780992190829
 20
103.4829046178533
 10
124.8842896249415
 20
103.4590150342006
 10
124.8881222936123
 20
103.4342749426125
 10
124.8894680340163
 20
103.4088027682446
 10
137.6395616840819
 20
103.4088027682446
 10
137.6372900742798
 20
103.4560005756955
 10
137.6306152018757
 20
103.5019710678979
 10
137.6197308534877
 20
103.5464881604639
 10
137.6048846453503
 20
103.5893795986218
 10
137.5862703640814
 20
103.630430063907
 10
137.5641248599924
 20
103.6694457697013
 10
137.5386419197013
 20
103.7062329293864
 10
137.510047627596
 20
103.740586990421
 10
137.4785465362179
 20
103.7723141661869
 10
137.4443754958783
 20
103.8012099041427
 10
137.4077390591184
 20
103.8270804176702
 10
137.3688417784797
 20
103.8497319201512
 10
137.3279097383501
 20
103.868949093121
 10
137.2851582571942
 20
103.8845489158848
 10
137.2408026534766
 20
103.8963376018243
 10
137.1950582456622
 20
103.9040998324749
  0
LINE
  5
73
330
1F
100
AcDbEntity
  8
ISS138金台
  6
Continuous
 62
   250
420
  2367521
370
    13
100
AcDbLine
 10
101.1397337240891
 20
109.1085947392558
 30
0.0
 11
101.1397337240891
 21
114.1138016410817
 31
0.0
  0
LINE
  5
74
330
1F
100
AcDbEntity
  8
ISS138金台
  6
Continuous
 62
   250
420
  2367521
370
    13
100
AcDbLine
 10
116.1396684794171
 20
113.6066835931423
 30
0.0
 11
101.3896753978528
 21
113.6066835931423
 31
0.0
  0
LINE
  5
75
330
1F
100
AcDbEntity
  8
ISS138金台
  6
Continuous
 62
   250
420
  2367521
370
    13
100
AcDbLine
 10
116.1396684794171
 20
114.1138124070049
 30
0.0
 11
116.1396684794171
 21
109.1086055051791
 31
0.0
  0
LINE
  5
76
330
1F
100
AcDbEntity
  8
ISS138金台
  6
Continuous
 62
   250
420
  2367521
370
    13
100
AcDbLine
 10
101.1397337240891
 20
102.4085731384912
 30
0.0
 11
101.1397337240891
 21
92.4644774219511
 31
0.0
  0
LINE
  5
77
330
1F
100
AcDbEntity
  8
ISS138金台
  6
Continuous
 62
   250
420
  2367521
370
    13
100
AcDbLine
 10
137.6398523640091
 20
92.97176772466224
 30
0.0
 11
101.389826120778
 21
92.97176772466224
 31
0.0
  0
LINE
  5
78
330
1F
100
AcDbEntity
  8
ISS138金台
  6
Continuous
 62
   250
420
  2367521
370
    13
100
AcDbLine
 10
137.6398523640091
 20
102.4085731384912
 30
0.0
 11
137.6398523640091
 21
92.4644774219511
 31
0.0
  0
LINE
  5
79
330
1F
100
AcDbEntity
  8
ISS138金台
  6
Continuous
 62
   250
420
  2367521
370
    13
100
AcDbLine
 10
138.6395759953706
 20
107.6085894212075
 30
0.0
 11
143.6447828971965
 21
107.6085894212075
 31
0.0
  0
LINE
  5
7A
330
1F
100
AcDbEntity
  8
ISS138金台
  6
Continuous
 62
   250
420
  2367521
370
    13
100
AcDbLine
 10
138.6395759953706
 20
104.608589551034
 30
0.0
 11
143.6447828971965
 21
104.608589551034
 31
0.0
  0
LINE
  5
7B
330
1F
100
AcDbEntity
  8
ISS138金台
  6
Continuous
 62
   250
420
  2367521
370
    13
100
AcDbLine
 10
138.6395759953706
 20
108.1084727687347
 30
0.0
 11
148.6496452894789
 21
108.1084727687347
 31
0.0
  0
LINE
  5
7C
330
1F
100
AcDbEntity
  8
ISS138金台
  6
Continuous
 62
   250
420
  2367521
370
    13
100
AcDbLine
 10
148.1425380074627
 20
103.4086843430891
 30
0.0
 11
148.1425380074627
 21
108.5109137450854
 31
0.0
  0
LINE
  5
7D
330
1F
100
AcDbEntity
  8
ISS138金台
  6
Continuous
 62
   250
420
  2367521
370
    13
100
AcDbLine
 10
138.6395759953706
 20
103.4086843430891
 30
0.0
 11
148.6496452894789
 21
103.4086843430891
 31
0.0
  0
HATCH
  5
7E
330
1F
100
AcDbEntity
  8
ISS138金台
  6
Continuous
 62
   250
420
  2367521
370
    13
100
AcDbHatch
 10
0.0
 20
0.0
 30
0.0
210
0.0
220
0.0
230
1.0
  2
SOLID
 70
     1
 71
     0
 91
        1
 92
        3
 72
     0
 73
     1
 93
       67
 10
101.1397337240891
 20
113.3567419193787
 10
101.1652704939964
 20
113.3580230642434
 10
101.1900644152007
 20
113.3618126692212
 10
101.2140078284695
 20
113.3679707773101
 10
101.2369500108778
 20
113.3763789633546
 10
101.2587833031931
 20
113.3868865044294
 10
101.2793785143367
 20
113.3993965072255
 10
101.2986064532298
 20
113.413779780664
 10
101.3163379287936
 20
113.4298963677429
 10
101.3324652817957
 20
113.4476386092299
 10
101.3468485552342
 20
113.466866548123
 10
101.3593585580303
 20
113.4874509933434
 10
101.3698660991051
 20
113.5092842856587
 10
101.3782742851496
 20
113.5322372339902
 10
101.3844323932386
 20
113.5561698813358
 10
101.3882112322931
 20
113.5809745684633
 10
101.389503143081
 20
113.6065113383706
 10
101.389503143081
 20
113.6065113383706
 10
101.3882112322931
 20
113.6321234697405
 10
101.3844216273153
 20
113.6569712205609
 10
101.3782742851496
 20
113.6809576975227
 10
101.3698768650283
 20
113.7039429436239
 10
101.3593477921071
 20
113.7257977677857
 10
101.3468485552342
 20
113.7464145107758
 10
101.3324652817957
 20
113.7656639815153
 10
101.3163379287936
 20
113.7834277548488
 10
101.2986064532298
 20
113.7995551078509
 10
101.2793785143367
 20
113.8139491472127
 10
101.2587833031931
 20
113.826469915932
 10
101.2369500108778
 20
113.83698822293
 10
101.2140078284695
 20
113.8453964089745
 10
101.1900644152007
 20
113.8515545170634
 10
101.1652704939964
 20
113.855333356118
 10
101.1397337240891
 20
113.8566252669059
 10
101.1397337240891
 20
113.8566252669059
 10
101.1141323586425
 20
113.8553225901948
 10
101.0892953737453
 20
113.8515437511402
 10
101.0653304286299
 20
113.8453964089745
 10
101.0423667143752
 20
113.8369989888532
 10
101.0205226561367
 20
113.8264591500087
 10
100.9999274449931
 20
113.8139491472127
 10
100.9807102720232
 20
113.7995551078509
 10
100.9629895623827
 20
113.7834277548488
 10
100.946883741227
 20
113.7656747474385
 10
100.9325327655582
 20
113.746425276699
 10
100.9200442946086
 20
113.7257977677857
 10
100.9095367535338
 20
113.7039321777007
 10
100.9011608652589
 20
113.6809469315995
 10
100.8950242890165
 20
113.6569604546377
 10
100.8912454499619
 20
113.6321127038173
 10
100.8899643050972
 20
113.6065113383706
 10
100.8899643050972
 20
113.6065113383706
 10
100.8912454499619
 20
113.5809745684633
 10
100.8950242890165
 20
113.5561698813358
 10
100.9011716311822
 20
113.5322372339902
 10
100.909547519457
 20
113.5092842856587
 10
100.9200335286854
 20
113.4874509933434
 10
100.9325327655582
 20
113.466866548123
 10
100.946883741227
 20
113.4476386092299
 10
100.9629895623827
 20
113.4298963677429
 10
100.9807102720232
 20
113.4137690147408
 10
100.9999274449931
 20
113.3993965072255
 10
101.0205226561367
 20
113.3868865044294
 10
101.0423667143752
 20
113.3763681974314
 10
101.0653304286299
 20
113.3679707773101
 10
101.0892953737453
 20
113.3618126692212
 10
101.1141431245657
 20
113.3580338301666
 97
        0
 75
     1
 76
     1
 98
        0
  0
LWPOLYLINE
  5
7F
330
1F
100
AcDbEntity
  8
ISS138金台
  6
Continuous
 62
   250
420
  2367521
370
    13
100
AcDbPolyline
 90
       68
 70
     0
 43
0.0
 10
101.1397337240891
 20
113.3567419193787
 10
101.1652704939964
 20
113.3580230642434
 10
101.1900644152007
 20
113.3618126692212
 10
101.2140078284695
 20
113.3679707773101
 10
101.2369500108778
 20
113.3763789633546
 10
101.2587833031931
 20
113.3868865044294
 10
101.2793785143367
 20
113.3993965072255
 10
101.2986064532298
 20
113.413779780664
 10
101.3163379287936
 20
113.4298963677429
 10
101.3324652817957
 20
113.4476386092299
 10
101.3468485552342
 20
113.466866548123
 10
101.3593585580303
 20
113.4874509933434
 10
101.3698660991051
 20
113.5092842856587
 10
101.3782742851496
 20
113.5322372339902
 10
101.3844323932386
 20
113.5561698813358
 10
101.3882112322931
 20
113.5809745684633
 10
101.389503143081
 20
113.6065113383706
 10
101.389503143081
 20
113.6065113383706
 10
101.3882112322931
 20
113.6321234697405
 10
101.3844216273153
 20
113.6569712205609
 10
101.3782742851496
 20
113.6809576975227
 10
101.3698768650283
 20
113.7039429436239
 10
101.3593477921071
 20
113.7257977677857
 10
101.3468485552342
 20
113.7464145107758
 10
101.3324652817957
 20
113.7656639815153
 10
101.3163379287936
 20
113.7834277548488
 10
101.2986064532298
 20
113.7995551078509
 10
101.2793785143367
 20
113.8139491472127
 10
101.2587833031931
 20
113.826469915932
 10
101.2369500108778
 20
113.83698822293
 10
101.2140078284695
 20
113.8453964089745
 10
101.1900644152007
 20
113.8515545170634
 10
101.1652704939964
 20
113.855333356118
 10
101.1397337240891
 20
113.8566252669059
 10
101.1397337240891
 20
113.8566252669059
 10
101.1141323586425
 20
113.8553225901948
 10
101.0892953737453
 20
113.8515437511402
 10
101.0653304286299
 20
113.8453964089745
 10
101.0423667143752
 20
113.8369989888532
 10
101.0205226561367
 20
113.8264591500087
 10
100.9999274449931
 20
113.8139491472127
 10
100.9807102720232
 20
113.7995551078509
 10
100.9629895623827
 20
113.7834277548488
 10
100.946883741227
 20
113.7656747474385
 10
100.9325327655582
 20
113.746425276699
 10
100.9200442946086
 20
113.7257977677857
 10
100.9095367535338
 20
113.7039321777007
 10
100.9011608652589
 20
113.6809469315995
 10
100.8950242890165
 20
113.6569604546377
 10
100.8912454499619
 20
113.6321127038173
 10
100.8899643050972
 20
113.6065113383706
 10
100.8899643050972
 20
113.6065113383706
 10
100.8912454499619
 20
113.5809745684633
 10
100.8950242890165
 20
113.5561698813358
 10
100.9011716311822
 20
113.5322372339902
 10
100.909547519457
 20
113.5092842856587
 10
100.9200335286854
 20
113.4874509933434
 10
100.9325327655582
 20
113.466866548123
 10
100.946883741227
 20
113.4476386092299
 10
100.9629895623827
 20
113.4298963677429
 10
100.9807102720232
 20
113.4137690147408
 10
100.9999274449931
 20
113.3993965072255
 10
101.0205226561367
 20
113.3868865044294
 10
101.0423667143752
 20
113.3763681974314
 10
101.0653304286299
 20
113.3679707773101
 10
101.0892953737453
 20
113.3618126692212
 10
101.1141431245657
 20
113.3580338301666
 10
101.1397337240891
 20
113.3567419193787
  0
HATCH
  5
80
330
1F
100
AcDbEntity
  8
ISS138金台
  6
Continuous
 62
   250
420
  2367521
370
    13
100
AcDbHatch
 10
0.0
 20
0.0
 30
0.0
210
0.0
220
0.0
230
1.0
  2
SOLID
 70
     1
 71
     0
 91
        1
 92
        3
 72
     0
 73
     1
 93
       67
 10
143.1375033604086
 20
104.3584756224987
 10
143.1630508962391
 20
104.3597567673634
 10
143.1878555833666
 20
104.3635571382644
 10
143.2117989966355
 20
104.3697044804301
 10
143.2347734768134
 20
104.3781019005514
 10
143.2566390668985
 20
104.3886309734727
 10
143.2772558098885
 20
104.401151742192
 10
143.2965160465513
 20
104.4155457815537
 10
143.314290585808
 20
104.4316731345559
 10
143.3304502365798
 20
104.4494369078893
 10
143.3448550418648
 20
104.4686863786289
 10
143.3573973424306
 20
104.4893031216189
 10
143.3679479471983
 20
104.5111687117039
 10
143.3763668991661
 20
104.5341647237284
 10
143.3825357731783
 20
104.558140434767
 10
143.3863361440793
 20
104.5829989515106
 10
143.3876280548672
 20
104.6086003169573
 10
143.3876280548672
 20
104.6086003169573
 10
143.3863361440793
 20
104.6341370868645
 10
143.3825465391015
 20
104.6589310080688
 10
143.3763668991661
 20
104.6828744213377
 10
143.3679479471983
 20
104.7058166037459
 10
143.3573973424306
 20
104.7276498960612
 10
143.3448550418648
 20
104.7482343412816
 10
143.3304394706566
 20
104.7674622801747
 10
143.314290585808
 20
104.7852045216617
 10
143.2965160465513
 20
104.8013318746638
 10
143.2772558098885
 20
104.8157043821791
 10
143.2566283009753
 20
104.8282143849752
 10
143.2347734768134
 20
104.8387326919732
 10
143.2117989966355
 20
104.8471301120945
 10
143.1878555833666
 20
104.8532882201835
 10
143.1630401303159
 20
104.857067059238
 10
143.1375033604086
 20
104.8583589700259
 10
143.1375033604086
 20
104.8583589700259
 10
143.1119665905014
 20
104.857067059238
 10
143.0871511374506
 20
104.8532882201835
 10
143.0632077241818
 20
104.8471193461713
 10
143.0402332440038
 20
104.8387326919732
 10
143.018378419842
 20
104.8282036190519
 10
142.9977509109287
 20
104.8157043821791
 10
142.9784799083427
 20
104.8013211087406
 10
142.9607161350092
 20
104.7852045216617
 10
142.9445672501606
 20
104.7674622801747
 10
142.9301516789524
 20
104.7482451072049
 10
142.9176093783867
 20
104.7276498960612
 10
142.9070695395421
 20
104.7058166037459
 10
142.8986398216512
 20
104.6828636554144
 10
142.892470947639
 20
104.6589310080688
 10
142.888670576738
 20
104.6341370868645
 10
142.8873786659501
 20
104.6086003169573
 10
142.8873786659501
 20
104.6086003169573
 10
142.8886813426612
 20
104.5829989515106
 10
142.892470947639
 20
104.558140434767
 10
142.8986505875744
 20
104.5341647237284
 10
142.9070587736189
 20
104.5111687117039
 10
142.9176093783867
 20
104.4893031216189
 10
142.9301516789524
 20
104.4686863786289
 10
142.9445672501606
 20
104.4494369078893
 10
142.9607161350092
 20
104.4316839004791
 10
142.9784906742659
 20
104.4155457815537
 10
142.9977509109287
 20
104.401151742192
 10
143.0183676539188
 20
104.3886309734727
 10
143.0402332440038
 20
104.3781126664746
 10
143.0631969582585
 20
104.3697044804301
 10
143.0871511374506
 20
104.3635463723412
 10
143.1119665905014
 20
104.3597675332866
 97
        0
 75
     1
 76
     1
 98
        0
  0
LWPOLYLINE
  5
81
330
1F
100
AcDbEntity
  8
ISS138金台
  6
Continuous
 62
   250
420
  2367521
370
    13
100
AcDbPolyline
 90
       68
 70
     0
 43
0.0
 10
143.1375033604086
 20
104.3584756224987
 10
143.1630508962391
 20
104.3597567673634
 10
143.1878555833666
 20
104.3635571382644
 10
143.2117989966355
 20
104.3697044804301
 10
143.2347734768134
 20
104.3781019005514
 10
143.2566390668985
 20
104.3886309734727
 10
143.2772558098885
 20
104.401151742192
 10
143.2965160465513
 20
104.4155457815537
 10
143.314290585808
 20
104.4316731345559
 10
143.3304502365798
 20
104.4494369078893
 10
143.3448550418648
 20
104.4686863786289
 10
143.3573973424306
 20
104.4893031216189
 10
143.3679479471983
 20
104.5111687117039
 10
143.3763668991661
 20
104.5341647237284
 10
143.3825357731783
 20
104.558140434767
 10
143.3863361440793
 20
104.5829989515106
 10
143.3876280548672
 20
104.6086003169573
 10
143.3876280548672
 20
104.6086003169573
 10
143.3863361440793
 20
104.6341370868645
 10
143.3825465391015
 20
104.6589310080688
 10
143.3763668991661
 20
104.6828744213377
 10
143.3679479471983
 20
104.7058166037459
 10
143.3573973424306
 20
104.7276498960612
 10
143.3448550418648
 20
104.7482343412816
 10
143.3304394706566
 20
104.7674622801747
 10
143.314290585808
 20
104.7852045216617
 10
143.2965160465513
 20
104.8013318746638
 10
143.2772558098885
 20
104.8157043821791
 10
143.2566283009753
 20
104.8282143849752
 10
143.2347734768134
 20
104.8387326919732
 10
143.2117989966355
 20
104.8471301120945
 10
143.1878555833666
 20
104.8532882201835
 10
143.1630401303159
 20
104.857067059238
 10
143.1375033604086
 20
104.8583589700259
 10
143.1375033604086
 20
104.8583589700259
 10
143.1119665905014
 20
104.857067059238
 10
143.0871511374506
 20
104.8532882201835
 10
143.0632077241818
 20
104.8471193461713
 10
143.0402332440038
 20
104.8387326919732
 10
143.018378419842
 20
104.8282036190519
 10
142.9977509109287
 20
104.8157043821791
 10
142.9784799083427
 20
104.8013211087406
 10
142.9607161350092
 20
104.7852045216617
 10
142.9445672501606
 20
104.7674622801747
 10
142.9301516789524
 20
104.7482451072049
 10
142.9176093783867
 20
104.7276498960612
 10
142.9070695395421
 20
104.7058166037459
 10
142.8986398216512
 20
104.6828636554144
 10
142.892470947639
 20
104.6589310080688
 10
142.888670576738
 20
104.6341370868645
 10
142.8873786659501
 20
104.6086003169573
 10
142.8873786659501
 20
104.6086003169573
 10
142.8886813426612
 20
104.5829989515106
 10
142.892470947639
 20
104.558140434767
 10
142.8986505875744
 20
104.5341647237284
 10
142.9070587736189
 20
104.5111687117039
 10
142.9176093783867
 20
104.4893031216189
 10
142.9301516789524
 20
104.4686863786289
 10
142.9445672501606
 20
104.4494369078893
 10
142.9607161350092
 20
104.4316839004791
 10
142.9784906742659
 20
104.4155457815537
 10
142.9977509109287
 20
104.401151742192
 10
143.0183676539188
 20
104.3886309734727
 10
143.0402332440038
 20
104.3781126664746
 10
143.0631969582585
 20
104.3697044804301
 10
143.0871511374506
 20
104.3635463723412
 10
143.1119665905014
 20
104.3597675332866
 10
143.1375033604086
 20
104.3584756224987
  0
HATCH
  5
82
330
1F
100
AcDbEntity
  8
ISS138金台
  6
Continuous
 62
   250
420
  2367521
370
    13
100
AcDbHatch
 10
0.0
 20
0.0
 30
0.0
210
0.0
220
0.0
230
1.0
  2
SOLID
 70
     1
 71
     0
 91
        1
 92
        3
 72
     0
 73
     1
 93
       67
 10
101.1397337240891
 20
92.72198753974712
 10
101.1652704939964
 20
92.72326868461177
 10
101.1900644152007
 20
92.72705828958956
 10
101.2140078284695
 20
92.73321639767852
 10
101.2369500108778
 20
92.74162458372302
 10
101.2587833031931
 20
92.75213212479785
 10
101.2793785143367
 20
92.76465289351714
 10
101.2986064532298
 20
92.77902540103241
 10
101.3163379287936
 20
92.79514198811134
 10
101.3324652817957
 20
92.81287346367512
 10
101.3468485552342
 20
92.83210140256818
 10
101.3593585580303
 20
92.85270737963502
 10
101.3698660991051
 20
92.87454067195034
 10
101.3782742851496
 20
92.89748285435861
 10
101.3844323932386
 20
92.92141550170426
 10
101.3882112322931
 20
92.94622018883173
 10
101.389503143081
 20
92.97175695873901
 10
101.389503143081
 20
92.97175695873901
 10
101.3882112322931
 20
92.99735832418568
 10
101.3844216273153
 20
93.02220607500607
 10
101.3782742851496
 20
93.04619255196789
 10
101.3698768650283
 20
93.06916703214584
 10
101.3593477921071
 20
93.0910433881541
 10
101.3468485552342
 20
93.1116708970674
 10
101.3324652817957
 20
93.13092036780694
 10
101.3163379287936
 20
93.14867337521719
 10
101.2986064532298
 20
93.16481149414257
 10
101.2793785143367
 20
93.17919476758107
 10
101.2587833031931
 20
93.19171553630036
 10
101.2369500108778
 20
93.20223384329842
 10
101.2140078284695
 20
93.21064202934294
 10
101.1900644152007
 20
93.21680013743187
 10
101.1652704939964
 20
93.22057897648645
 10
101.1397337240891
 20
93.22187088727433
 10
101.1397337240891
 20
93.22187088727433
 10
101.1141323586425
 20
93.22057897648645
 10
101.0892953737453
 20
93.21680013743187
 10
101.0653304286299
 20
93.21064202934294
 10
101.0423667143752
 20
93.20223384329842
 10
101.0205226561367
 20
93.19171553630036
 10
100.9999274449931
 20
93.17919476758107
 10
100.9807102720232
 20
93.16481149414257
 10
100.9629895623827
 20
93.14867337521719
 10
100.946883741227
 20
93.1309096018837
 10
100.9325327655582
 20
93.11166013114416
 10
100.9200442946086
 20
93.0910433881541
 10
100.9095367535338
 20
93.06917779806908
 10
100.9011608652589
 20
93.04619255196789
 10
100.8950242890165
 20
93.02220607500607
 10
100.8912454499619
 20
92.99735832418568
 10
100.8899643050972
 20
92.97175695873901
 10
100.8899643050972
 20
92.97175695873901
 10
100.8912454499619
 20
92.94622018883173
 10
100.8950242890165
 20
92.92141550170426
 10
100.9011716311822
 20
92.89748285435861
 10
100.909547519457
 20
92.8745299060271
 10
100.9200335286854
 20
92.85270737963502
 10
100.9325327655582
 20
92.83211216849142
 10
100.946883741227
 20
92.81288422959834
 10
100.9629895623827
 20
92.79514198811134
 10
100.9807102720232
 20
92.77902540103241
 10
100.9999274449931
 20
92.76464212759392
 10
101.0205226561367
 20
92.75213212479785
 10
101.0423667143752
 20
92.74161381779979
 10
101.0653304286299
 20
92.73321639767852
 10
101.0892953737453
 20
92.72705828958956
 10
101.1141431245657
 20
92.72327945053499
 97
        0
 75
     1
 76
     1
 98
        0
  0
LWPOLYLINE
  5
83
330
1F
100
AcDbEntity
  8
ISS138金台
  6
Continuous
 62
   250
420
  2367521
370
    13
100
AcDbPolyline
 90
       68
 70
     0
 43
0.0
 10
101.1397337240891
 20
92.72198753974712
 10
101.1652704939964
 20
92.72326868461177
 10
101.1900644152007
 20
92.72705828958956
 10
101.2140078284695
 20
92.73321639767852
 10
101.2369500108778
 20
92.74162458372302
 10
101.2587833031931
 20
92.75213212479785
 10
101.2793785143367
 20
92.76465289351714
 10
101.2986064532298
 20
92.77902540103241
 10
101.3163379287936
 20
92.79514198811134
 10
101.3324652817957
 20
92.81287346367512
 10
101.3468485552342
 20
92.83210140256818
 10
101.3593585580303
 20
92.85270737963502
 10
101.3698660991051
 20
92.87454067195034
 10
101.3782742851496
 20
92.89748285435861
 10
101.3844323932386
 20
92.92141550170426
 10
101.3882112322931
 20
92.94622018883173
 10
101.389503143081
 20
92.97175695873901
 10
101.389503143081
 20
92.97175695873901
 10
101.3882112322931
 20
92.99735832418568
 10
101.3844216273153
 20
93.02220607500607
 10
101.3782742851496
 20
93.04619255196789
 10
101.3698768650283
 20
93.06916703214584
 10
101.3593477921071
 20
93.0910433881541
 10
101.3468485552342
 20
93.1116708970674
 10
101.3324652817957
 20
93.13092036780694
 10
101.3163379287936
 20
93.14867337521719
 10
101.2986064532298
 20
93.16481149414257
 10
101.2793785143367
 20
93.17919476758107
 10
101.2587833031931
 20
93.19171553630036
 10
101.2369500108778
 20
93.20223384329842
 10
101.2140078284695
 20
93.21064202934294
 10
101.1900644152007
 20
93.21680013743187
 10
101.1652704939964
 20
93.22057897648645
 10
101.1397337240891
 20
93.22187088727433
 10
101.1397337240891
 20
93.22187088727433
 10
101.1141323586425
 20
93.22057897648645
 10
101.0892953737453
 20
93.21680013743187
 10
101.0653304286299
 20
93.21064202934294
 10
101.0423667143752
 20
93.20223384329842
 10
101.0205226561367
 20
93.19171553630036
 10
100.9999274449931
 20
93.17919476758107
 10
100.9807102720232
 20
93.16481149414257
 10
100.9629895623827
 20
93.14867337521719
 10
100.946883741227
 20
93.1309096018837
 10
100.9325327655582
 20
93.11166013114416
 10
100.9200442946086
 20
93.0910433881541
 10
100.9095367535338
 20
93.06917779806908
 10
100.9011608652589
 20
93.04619255196789
 10
100.8950242890165
 20
93.02220607500607
 10
100.8912454499619
 20
92.99735832418568
 10
100.8899643050972
 20
92.97175695873901
 10
100.8899643050972
 20
92.97175695873901
 10
100.8912454499619
 20
92.94622018883173
 10
100.8950242890165
 20
92.92141550170426
 10
100.9011716311822
 20
92.89748285435861
 10
100.909547519457
 20
92.8745299060271
 10
100.9200335286854
 20
92.85270737963502
 10
100.9325327655582
 20
92.83211216849142
 10
100.946883741227
 20
92.81288422959834
 10
100.9629895623827
 20
92.79514198811134
 10
100.9807102720232
 20
92.77902540103241
 10
100.9999274449931
 20
92.76464212759392
 10
101.0205226561367
 20
92.75213212479785
 10
101.0423667143752
 20
92.74161381779979
 10
101.0653304286299
 20
92.73321639767852
 10
101.0892953737453
 20
92.72705828958956
 10
101.1141431245657
 20
92.72327945053499
 10
101.1397337240891
 20
92.72198753974712
  0
HATCH
  5
84
330
1F
100
AcDbEntity
  8
ISS138金台
  6
Continuous
 62
   250
420
  2367521
370
    13
100
AcDbHatch
 10
0.0
 20
0.0
 30
0.0
210
0.0
220
0.0
230
1.0
  2
SOLID
 70
     1
 71
     0
 91
        1
 92
        3
 72
     0
 73
     1
 93
       67
 10
148.1425380074627
 20
103.1588826263275
 10
148.1680640114468
 20
103.1601745371154
 10
148.1928579326511
 20
103.16395337617
 10
148.2167690481502
 20
103.1701007183357
 10
148.2397004646353
 20
103.1785089043802
 10
148.2615122251041
 20
103.1890272113782
 10
148.282075138478
 20
103.2015372141743
 10
148.3012600136782
 20
103.2159097216896
 10
148.3189699573955
 20
103.2320370746917
 10
148.3350542467047
 20
103.2497793161787
 10
148.3494052223735
 20
103.2690072550718
 10
148.3618829273999
 20
103.2896024662154
 10
148.3723797025515
 20
103.3114357585307
 10
148.3807555908263
 20
103.334377940939
 10
148.3868921670688
 20
103.3583105882847
 10
148.3906602402001
 20
103.3831152754121
 10
148.391952150988
 20
103.4086520453194
 10
148.391952150988
 20
103.4086520453194
 10
148.3906494742769
 20
103.4342534107661
 10
148.386902932992
 20
103.4590903956632
 10
148.3807555908263
 20
103.4830876385483
 10
148.3723797025515
 20
103.5060728846495
 10
148.3618936933231
 20
103.5279384747345
 10
148.3494052223735
 20
103.5485552177245
 10
148.3350542467047
 20
103.5678154543873
 10
148.3189699573955
 20
103.5855684617976
 10
148.3012600136782
 20
103.6016958147997
 10
148.2820643725548
 20
103.6160898541614
 10
148.2615122251041
 20
103.6286106228807
 10
148.2397004646353
 20
103.6391289298788
 10
148.2167690481502
 20
103.6475371159233
 10
148.1928579326511
 20
103.6536952240123
 10
148.1680640114468
 20
103.6574740630668
 10
148.1425380074627
 20
103.6587659738547
 10
148.1425380074627
 20
103.6587659738547
 10
148.1168720464767
 20
103.6574740630668
 10
148.0919812319634
 20
103.653684458089
 10
148.0679732231551
 20
103.6475263500001
 10
148.0449664452074
 20
103.639139695802
 10
148.0231008551224
 20
103.6286106228807
 10
148.0024733462091
 20
103.6160898541614
 10
147.9832238754696
 20
103.6016958147997
 10
147.9654816339826
 20
103.5855684617976
 10
147.9493650469037
 20
103.5678154543873
 10
147.9350033053116
 20
103.5485659836478
 10
147.9225040684388
 20
103.5279384747345
 10
147.911996527364
 20
103.5060728846495
 10
147.9036098731659
 20
103.4830876385483
 10
147.8974732969234
 20
103.4591011615864
 10
147.8936944578689
 20
103.4342534107661
 10
147.8924133130042
 20
103.4086520453194
 10
147.8924133130042
 20
103.4086520453194
 10
147.8936944578689
 20
103.3831152754121
 10
147.8974732969234
 20
103.3583213542079
 10
147.9036098731659
 20
103.334377940939
 10
147.911996527364
 20
103.3114249926075
 10
147.9225040684388
 20
103.2896024662154
 10
147.9350033053116
 20
103.2690072550718
 10
147.9493650469037
 20
103.2497685502555
 10
147.9654816339826
 20
103.2320370746917
 10
147.9832238754696
 20
103.2159204876128
 10
148.0024733462091
 20
103.2015372141743
 10
148.0230900891992
 20
103.1890272113782
 10
148.0449664452074
 20
103.1785089043802
 10
148.0679732231551
 20
103.1701114842589
 10
148.0919812319634
 20
103.16395337617
 10
148.1168828123999
 20
103.1601745371154
 97
        0
 75
     1
 76
     1
 98
        0
  0
LWPOLYLINE
  5
85
330
1F
100
AcDbEntity
  8
ISS138金台
  6
Continuous
 62
   250
420
  2367521
370
    13
100
AcDbPolyline
 90
       68
 70
     0
 43
0.0
 10
148.1425380074627
 20
103.1588826263275
 10
148.1680640114468
 20
103.1601745371154
 10
148.1928579326511
 20
103.16395337617
 10
148.2167690481502
 20
103.1701007183357
 10
148.2397004646353
 20
103.1785089043802
 10
148.2615122251041
 20
103.1890272113782
 10
148.282075138478
 20
103.2015372141743
 10
148.3012600136782
 20
103.2159097216896
 10
148.3189699573955
 20
103.2320370746917
 10
148.3350542467047
 20
103.2497793161787
 10
148.3494052223735
 20
103.2690072550718
 10
148.3618829273999
 20
103.2896024662154
 10
148.3723797025515
 20
103.3114357585307
 10
148.3807555908263
 20
103.334377940939
 10
148.3868921670688
 20
103.3583105882847
 10
148.3906602402001
 20
103.3831152754121
 10
148.391952150988
 20
103.4086520453194
 10
148.391952150988
 20
103.4086520453194
 10
148.3906494742769
 20
103.4342534107661
 10
148.386902932992
 20
103.4590903956632
 10
148.3807555908263
 20
103.4830876385483
 10
148.3723797025515
 20
103.5060728846495
 10
148.3618936933231
 20
103.5279384747345
 10
148.3494052223735
 20
103.5485552177245
 10
148.3350542467047
 20
103.5678154543873
 10
148.3189699573955
 20
103.5855684617976
 10
148.3012600136782
 20
103.6016958147997
 10
148.2820643725548
 20
103.6160898541614
 10
148.2615122251041
 20
103.6286106228807
 10
148.2397004646353
 20
103.6391289298788
 10
148.2167690481502
 20
103.6475371159233
 10
148.1928579326511
 20
103.6536952240123
 10
148.1680640114468
 20
103.6574740630668
 10
148.1425380074627
 20
103.6587659738547
 10
148.1425380074627
 20
103.6587659738547
 10
148.1168720464767
 20
103.6574740630668
 10
148.0919812319634
 20
103.653684458089
 10
148.0679732231551
 20
103.6475263500001
 10
148.0449664452074
 20
103.639139695802
 10
148.0231008551224
 20
103.6286106228807
 10
148.0024733462091
 20
103.6160898541614
 10
147.9832238754696
 20
103.6016958147997
 10
147.9654816339826
 20
103.5855684617976
 10
147.9493650469037
 20
103.5678154543873
 10
147.9350033053116
 20
103.5485659836478
 10
147.9225040684388
 20
103.5279384747345
 10
147.911996527364
 20
103.5060728846495
 10
147.9036098731659
 20
103.4830876385483
 10
147.8974732969234
 20
103.4591011615864
 10
147.8936944578689
 20
103.4342534107661
 10
147.8924133130042
 20
103.4086520453194
 10
147.8924133130042
 20
103.4086520453194
 10
147.8936944578689
 20
103.3831152754121
 10
147.8974732969234
 20
103.3583213542079
 10
147.9036098731659
 20
103.334377940939
 10
147.911996527364
 20
103.3114249926075
 10
147.9225040684388
 20
103.2896024662154
 10
147.9350033053116
 20
103.2690072550718
 10
147.9493650469037
 20
103.2497685502555
 10
147.9654816339826
 20
103.2320370746917
 10
147.9832238754696
 20
103.2159204876128
 10
148.0024733462091
 20
103.2015372141743
 10
148.0230900891992
 20
103.1890272113782
 10
148.0449664452074
 20
103.1785089043802
 10
148.0679732231551
 20
103.1701114842589
 10
148.0919812319634
 20
103.16395337617
 10
148.1168828123999
 20
103.1601745371154
 10
148.1425380074627
 20
103.1588826263275
  0
HATCH
  5
86
330
1F
100
AcDbEntity
  8
ISS138金台
  6
Continuous
 62
   250
420
  2367521
370
    13
100
AcDbHatch
 10
0.0
 20
0.0
 30
0.0
210
0.0
220
0.0
230
1.0
  2
SOLID
 70
     1
 71
     0
 91
        1
 92
        3
 72
     0
 73
     1
 93
       67
 10
148.1425380074627
 20
107.8587141156661
 10
148.1680640114468
 20
107.860006026454
 10
148.1928579326511
 20
107.8637740995853
 10
148.2167690481502
 20
107.8699106758278
 10
148.2397004646353
 20
107.8782973300258
 10
148.2615122251041
 20
107.8887833392542
 10
148.282075138478
 20
107.901282576127
 10
148.3012600136782
 20
107.9156335517958
 10
148.3189699573955
 20
107.9317393729515
 10
148.3350542467047
 20
107.9494708485153
 10
148.3494052223735
 20
107.9686772555619
 10
148.3618829273999
 20
107.9892832326287
 10
148.3723797025515
 20
108.011116524944
 10
148.3807555908263
 20
108.0340802391988
 10
148.3868921670688
 20
108.0580451843141
 10
148.3906602402001
 20
108.0828929351345
 10
148.391952150988
 20
108.108483534658
 10
148.391952150988
 20
108.108483534658
 10
148.3906494742769
 20
108.1340741341814
 10
148.386902932992
 20
108.1589111190786
 10
148.3807555908263
 20
108.1828760641939
 10
148.3723797025515
 20
108.2058397784486
 10
148.3618936933231
 20
108.2276838366872
 10
148.3494052223735
 20
108.2482790478308
 10
148.3350542467047
 20
108.2674962208006
 10
148.3189699573955
 20
108.2852276963644
 10
148.3012600136782
 20
108.3013227515969
 10
148.2820643725548
 20
108.3156844931889
 10
148.2615122251041
 20
108.3281729641385
 10
148.2397004646353
 20
108.3386697392901
 10
148.2167690481502
 20
108.3470456275649
 10
148.1928579326511
 20
108.3531822038074
 10
148.1680640114468
 20
108.356961042862
 10
148.1425380074627
 20
108.3582421877266
 10
148.1425380074627
 20
108.3582421877266
 10
148.1168720464767
 20
108.356961042862
 10
148.0919812319634
 20
108.3531929697306
 10
148.0679732231551
 20
108.3470456275649
 10
148.0449664452074
 20
108.3386589733669
 10
148.0231008551224
 20
108.3281621982153
 10
148.0024733462091
 20
108.3156737272657
 10
147.9832238754696
 20
108.3013227515969
 10
147.9654816339826
 20
108.2852169304412
 10
147.9493650469037
 20
108.2674962208006
 10
147.9350033053116
 20
108.2482790478308
 10
147.9225040684388
 20
108.2276946026104
 10
147.911996527364
 20
108.2058505443719
 10
147.9036098731659
 20
108.1828868301171
 10
147.8974732969234
 20
108.1589218850018
 10
147.8936944578689
 20
108.1340741341814
 10
147.8924133130042
 20
108.108483534658
 10
147.8924133130042
 20
108.108483534658
 10
147.8936944578689
 20
108.0828929351345
 10
147.8974732969234
 20
108.0580451843141
 10
147.9036098731659
 20
108.0340802391988
 10
147.911996527364
 20
108.0111272908673
 10
147.9225040684388
 20
107.9892724667055
 10
147.9350033053116
 20
107.9686880214851
 10
147.9493650469037
 20
107.949460082592
 10
147.9654816339826
 20
107.9317393729515
 10
147.9832238754696
 20
107.9156335517958
 10
148.0024733462091
 20
107.901282576127
 10
148.0230900891992
 20
107.8887941051774
 10
148.0449664452074
 20
107.8782973300258
 10
148.0679732231551
 20
107.8699106758278
 10
148.0919812319634
 20
107.8637740995853
 10
148.1168828123999
 20
107.8599952605307
 97
        0
 75
     1
 76
     1
 98
        0
  0
LWPOLYLINE
  5
87
330
1F
100
AcDbEntity
  8
ISS138金台
  6
Continuous
 62
   250
420
  2367521
370
    13
100
AcDbPolyline
 90
       68
 70
     0
 43
0.0
 10
148.1425380074627
 20
107.8587141156661
 10
148.1680640114468
 20
107.860006026454
 10
148.1928579326511
 20
107.8637740995853
 10
148.2167690481502
 20
107.8699106758278
 10
148.2397004646353
 20
107.8782973300258
 10
148.2615122251041
 20
107.8887833392542
 10
148.282075138478
 20
107.901282576127
 10
148.3012600136782
 20
107.9156335517958
 10
148.3189699573955
 20
107.9317393729515
 10
148.3350542467047
 20
107.9494708485153
 10
148.3494052223735
 20
107.9686772555619
 10
148.3618829273999
 20
107.9892832326287
 10
148.3723797025515
 20
108.011116524944
 10
148.3807555908263
 20
108.0340802391988
 10
148.3868921670688
 20
108.0580451843141
 10
148.3906602402001
 20
108.0828929351345
 10
148.391952150988
 20
108.108483534658
 10
148.391952150988
 20
108.108483534658
 10
148.3906494742769
 20
108.1340741341814
 10
148.386902932992
 20
108.1589111190786
 10
148.3807555908263
 20
108.1828760641939
 10
148.3723797025515
 20
108.2058397784486
 10
148.3618936933231
 20
108.2276838366872
 10
148.3494052223735
 20
108.2482790478308
 10
148.3350542467047
 20
108.2674962208006
 10
148.3189699573955
 20
108.2852276963644
 10
148.3012600136782
 20
108.3013227515969
 10
148.2820643725548
 20
108.3156844931889
 10
148.2615122251041
 20
108.3281729641385
 10
148.2397004646353
 20
108.3386697392901
 10
148.2167690481502
 20
108.3470456275649
 10
148.1928579326511
 20
108.3531822038074
 10
148.1680640114468
 20
108.356961042862
 10
148.1425380074627
 20
108.3582421877266
 10
148.1425380074627
 20
108.3582421877266
 10
148.1168720464767
 20
108.356961042862
 10
148.0919812319634
 20
108.3531929697306
 10
148.0679732231551
 20
108.3470456275649
 10
148.0449664452074
 20
108.3386589733669
 10
148.0231008551224
 20
108.3281621982153
 10
148.0024733462091
 20
108.3156737272657
 10
147.9832238754696
 20
108.3013227515969
 10
147.9654816339826
 20
108.2852169304412
 10
147.9493650469037
 20
108.2674962208006
 10
147.9350033053116
 20
108.2482790478308
 10
147.9225040684388
 20
108.2276946026104
 10
147.911996527364
 20
108.2058505443719
 10
147.9036098731659
 20
108.1828868301171
 10
147.8974732969234
 20
108.1589218850018
 10
147.8936944578689
 20
108.1340741341814
 10
147.8924133130042
 20
108.108483534658
 10
147.8924133130042
 20
108.108483534658
 10
147.8936944578689
 20
108.0828929351345
 10
147.8974732969234
 20
108.0580451843141
 10
147.9036098731659
 20
108.0340802391988
 10
147.911996527364
 20
108.0111272908673
 10
147.9225040684388
 20
107.9892724667055
 10
147.9350033053116
 20
107.9686880214851
 10
147.9493650469037
 20
107.949460082592
 10
147.9654816339826
 20
107.9317393729515
 10
147.9832238754696
 20
107.9156335517958
 10
148.0024733462091
 20
107.901282576127
 10
148.0230900891992
 20
107.8887941051774
 10
148.0449664452074
 20
107.8782973300258
 10
148.0679732231551
 20
107.8699106758278
 10
148.0919812319634
 20
107.8637740995853
 10
148.1168828123999
 20
107.8599952605307
 10
148.1425380074627
 20
107.8587141156661
  0
HATCH
  5
88
330
1F
100
AcDbEntity
  8
ISS138金台
  6
Continuous
 62
   250
420
  2367521
370
    13
100
AcDbHatch
 10
0.0
 20
0.0
 30
0.0
210
0.0
220
0.0
230
1.0
  2
SOLID
 70
     1
 71
     0
 91
        1
 92
        3
 72
     0
 73
     1
 93
       67
 10
116.1396684794171
 20
113.3567419193787
 10
116.1652052493244
 20
113.3580230642434
 10
116.1900207023751
 20
113.3618126692212
 10
116.2139748815672
 20
113.3679707773101
 10
116.2369385958219
 20
113.3763789633546
 10
116.2588041859069
 20
113.3868865044294
 10
116.279420928897
 20
113.3993965072255
 10
116.2986811655598
 20
113.413779780664
 10
116.3164557048165
 20
113.4298963677429
 10
116.3326153555883
 20
113.4476386092299
 10
116.3470201608733
 20
113.466866548123
 10
116.3595624614391
 20
113.4874509933434
 10
116.3701130662068
 20
113.5092842856587
 10
116.3785320181746
 20
113.5322372339902
 10
116.3847008921867
 20
113.5561698813358
 10
116.3885012630878
 20
113.5809745684633
 10
116.3897931738757
 20
113.6065113383706
 10
116.3897931738757
 20
113.6065113383706
 10
116.3885012630878
 20
113.6321234697405
 10
116.3847008921867
 20
113.6569712205609
 10
116.3785212522513
 20
113.6809576975227
 10
116.3701130662068
 20
113.7039429436239
 10
116.3595624614391
 20
113.7257977677857
 10
116.3470201608733
 20
113.7464145107758
 10
116.3326045896651
 20
113.7656639815153
 10
116.3164557048165
 20
113.7834277548488
 10
116.298691931483
 20
113.7995551078509
 10
116.2794316948202
 20
113.8139491472127
 10
116.2588041859069
 20
113.826469915932
 10
116.2369385958219
 20
113.83698822293
 10
116.2139748815672
 20
113.8453964089745
 10
116.1900207023751
 20
113.8515545170634
 10
116.1652052493244
 20
113.855333356118
 10
116.1396684794171
 20
113.8566252669059
 10
116.1396684794171
 20
113.8566252669059
 10
116.1140671139704
 20
113.8553225901948
 10
116.08921936315
 20
113.8515437511402
 10
116.0652328861882
 20
113.8453964089745
 10
116.042247640087
 20
113.8369989888532
 10
116.020382050002
 20
113.8264591500087
 10
115.9997545410887
 20
113.8139491472127
 10
115.9805050703492
 20
113.7995551078509
 10
115.9627520629389
 20
113.7834277548488
 10
115.9466139440135
 20
113.7656747474385
 10
115.9322199046518
 20
113.746425276699
 10
115.9196991359325
 20
113.7257977677857
 10
115.9091808289344
 20
113.7039321777007
 10
115.9007726428899
 20
113.6809469315995
 10
115.8946253007242
 20
113.6569604546377
 10
115.8908356957464
 20
113.6321127038173
 10
115.8895437849585
 20
113.6065113383706
 10
115.8895437849585
 20
113.6065113383706
 10
115.8908356957464
 20
113.5809745684633
 10
115.8946253007242
 20
113.5561698813358
 10
115.9007726428899
 20
113.5322372339902
 10
115.9091808289344
 20
113.5092842856587
 10
115.9197099018557
 20
113.4874509933434
 10
115.9322199046518
 20
113.466866548123
 10
115.9466139440135
 20
113.4476386092299
 10
115.9627520629389
 20
113.4298963677429
 10
115.9805050703492
 20
113.4137690147408
 10
115.9997545410887
 20
113.3993965072255
 10
116.020382050002
 20
113.3868865044294
 10
116.042247640087
 20
113.3763681974314
 10
116.0652328861882
 20
113.3679707773101
 10
116.08921936315
 20
113.3618126692212
 10
116.1140671139704
 20
113.3580338301666
 97
        0
 75
     1
 76
     1
 98
        0
  0
LWPOLYLINE
  5
89
330
1F
100
AcDbEntity
  8
ISS138金台
  6
Continuous
 62
   250
420
  2367521
370
    13
100
AcDbPolyline
 90
       68
 70
     0
 43
0.0
 10
116.1396684794171
 20
113.3567419193787
 10
116.1652052493244
 20
113.3580230642434
 10
116.1900207023751
 20
113.3618126692212
 10
116.2139748815672
 20
113.3679707773101
 10
116.2369385958219
 20
113.3763789633546
 10
116.2588041859069
 20
113.3868865044294
 10
116.279420928897
 20
113.3993965072255
 10
116.2986811655598
 20
113.413779780664
 10
116.3164557048165
 20
113.4298963677429
 10
116.3326153555883
 20
113.4476386092299
 10
116.3470201608733
 20
113.466866548123
 10
116.3595624614391
 20
113.4874509933434
 10
116.3701130662068
 20
113.5092842856587
 10
116.3785320181746
 20
113.5322372339902
 10
116.3847008921867
 20
113.5561698813358
 10
116.3885012630878
 20
113.5809745684633
 10
116.3897931738757
 20
113.6065113383706
 10
116.3897931738757
 20
113.6065113383706
 10
116.3885012630878
 20
113.6321234697405
 10
116.3847008921867
 20
113.6569712205609
 10
116.3785212522513
 20
113.6809576975227
 10
116.3701130662068
 20
113.7039429436239
 10
116.3595624614391
 20
113.7257977677857
 10
116.3470201608733
 20
113.7464145107758
 10
116.3326045896651
 20
113.7656639815153
 10
116.3164557048165
 20
113.7834277548488
 10
116.298691931483
 20
113.7995551078509
 10
116.2794316948202
 20
113.8139491472127
 10
116.2588041859069
 20
113.826469915932
 10
116.2369385958219
 20
113.83698822293
 10
116.2139748815672
 20
113.8453964089745
 10
116.1900207023751
 20
113.8515545170634
 10
116.1652052493244
 20
113.855333356118
 10
116.1396684794171
 20
113.8566252669059
 10
116.1396684794171
 20
113.8566252669059
 10
116.1140671139704
 20
113.8553225901948
 10
116.08921936315
 20
113.8515437511402
 10
116.0652328861882
 20
113.8453964089745
 10
116.042247640087
 20
113.8369989888532
 10
116.020382050002
 20
113.8264591500087
 10
115.9997545410887
 20
113.8139491472127
 10
115.9805050703492
 20
113.7995551078509
 10
115.9627520629389
 20
113.7834277548488
 10
115.9466139440135
 20
113.7656747474385
 10
115.9322199046518
 20
113.746425276699
 10
115.9196991359325
 20
113.7257977677857
 10
115.9091808289344
 20
113.7039321777007
 10
115.9007726428899
 20
113.6809469315995
 10
115.8946253007242
 20
113.6569604546377
 10
115.8908356957464
 20
113.6321127038173
 10
115.8895437849585
 20
113.6065113383706
 10
115.8895437849585
 20
113.6065113383706
 10
115.8908356957464
 20
113.5809745684633
 10
115.8946253007242
 20
113.5561698813358
 10
115.9007726428899
 20
113.5322372339902
 10
115.9091808289344
 20
113.5092842856587
 10
115.9197099018557
 20
113.4874509933434
 10
115.9322199046518
 20
113.466866548123
 10
115.9466139440135
 20
113.4476386092299
 10
115.9627520629389
 20
113.4298963677429
 10
115.9805050703492
 20
113.4137690147408
 10
115.9997545410887
 20
113.3993965072255
 10
116.020382050002
 20
113.3868865044294
 10
116.042247640087
 20
113.3763681974314
 10
116.0652328861882
 20
113.3679707773101
 10
116.08921936315
 20
113.3618126692212
 10
116.1140671139704
 20
113.3580338301666
 10
116.1396684794171
 20
113.3567419193787
  0
HATCH
  5
8A
330
1F
100
AcDbEntity
  8
ISS138金台
  6
Continuous
 62
   250
420
  2367521
370
    13
100
AcDbHatch
 10
0.0
 20
0.0
 30
0.0
210
0.0
220
0.0
230
1.0
  2
SOLID
 70
     1
 71
     0
 91
        1
 92
        3
 72
     0
 73
     1
 93
       67
 10
137.6398523640091
 20
92.72163226428043
 10
137.6653998998397
 20
92.72292417506833
 10
137.6902045869671
 20
92.72671378004614
 10
137.7141587661592
 20
92.73286112221184
 10
137.7371224804139
 20
92.74125854233313
 10
137.758988070499
 20
92.75178761525441
 10
137.779604813489
 20
92.76430838397371
 10
137.7988650501518
 20
92.77869165741221
 10
137.8166395894085
 20
92.7948297763376
 10
137.8327884742571
 20
92.81258278374784
 10
137.8472040454653
 20
92.83183225448738
 10
137.8597571119543
 20
92.85245976340067
 10
137.8702969507988
 20
92.8743253534857
 10
137.8787159027666
 20
92.89732136551012
 10
137.8848847767788
 20
92.92130784247193
 10
137.8886851476798
 20
92.94615559329233
 10
137.8899770584677
 20
92.97175695873901
 10
137.8899770584677
 20
92.97175695873901
 10
137.8886743817566
 20
92.99729372864627
 10
137.8848847767788
 20
93.02208764985052
 10
137.8787159027666
 20
93.04602029719616
 10
137.8702969507988
 20
93.06897324552766
 10
137.8597463460311
 20
93.09080653784298
 10
137.8472040454653
 20
93.11139098306336
 10
137.8327992401803
 20
93.13061892195643
 10
137.8166395894085
 20
93.14836116344344
 10
137.7988650501518
 20
93.16447775052237
 10
137.7796155794123
 20
93.17886102396086
 10
137.758988070499
 20
93.19137102675691
 10
137.7371224804139
 20
93.20188933375499
 10
137.714148000236
 20
93.21028675387626
 10
137.6902045869671
 20
93.2164448619652
 10
137.6653891339164
 20
93.22022370101978
 10
137.6398523640091
 20
93.22151561180766
 10
137.6398523640091
 20
93.22151561180766
 10
137.6143155941019
 20
93.22022370101978
 10
137.5895001410511
 20
93.2164448619652
 10
137.565545961859
 20
93.21028675387626
 10
137.5425822476043
 20
93.20188933375499
 10
137.5207166575193
 20
93.19137102675691
 10
137.5000999145292
 20
93.17886102396086
 10
137.4808396778664
 20
93.16447775052237
 10
137.4630651386097
 20
93.14836116344344
 10
137.4469054878379
 20
93.13061892195643
 10
137.4325006825529
 20
93.11139098306336
 10
137.419947616064
 20
93.09080653784298
 10
137.4094077772194
 20
93.06897324552766
 10
137.4009888252517
 20
93.04603106311939
 10
137.3948199512395
 20
93.02208764985052
 10
137.3910195803385
 20
92.99729372864627
 10
137.3897276695506
 20
92.97175695873901
 10
137.3897276695506
 20
92.97175695873901
 10
137.3910088144152
 20
92.94616635921557
 10
137.3948199512395
 20
92.92130784247193
 10
137.4009995911749
 20
92.89732136551012
 10
137.4094185431426
 20
92.8743253534857
 10
137.4199583819872
 20
92.85245976340067
 10
137.4325006825529
 20
92.83184302041062
 10
137.4469162537611
 20
92.81258278374784
 10
137.4630651386097
 20
92.7948297763376
 10
137.4808289119432
 20
92.77869165741221
 10
137.5000999145292
 20
92.76430838397371
 10
137.5207166575193
 20
92.75178761525441
 10
137.5425822476043
 20
92.74126930825636
 10
137.565545961859
 20
92.73286112221184
 10
137.5895001410511
 20
92.72671378004614
 10
137.6143155941019
 20
92.72292417506833
 97
        0
 75
     1
 76
     1
 98
        0
  0
LWPOLYLINE
  5
8B
330
1F
100
AcDbEntity
  8
ISS138金台
  6
Continuous
 62
   250
420
  2367521
370
    13
100
AcDbPolyline
 90
       68
 70
     0
 43
0.0
 10
137.6398523640091
 20
92.72163226428043
 10
137.6653998998397
 20
92.72292417506833
 10
137.6902045869671
 20
92.72671378004614
 10
137.7141587661592
 20
92.73286112221184
 10
137.7371224804139
 20
92.74125854233313
 10
137.758988070499
 20
92.75178761525441
 10
137.779604813489
 20
92.76430838397371
 10
137.7988650501518
 20
92.77869165741221
 10
137.8166395894085
 20
92.7948297763376
 10
137.8327884742571
 20
92.81258278374784
 10
137.8472040454653
 20
92.83183225448738
 10
137.8597571119543
 20
92.85245976340067
 10
137.8702969507988
 20
92.8743253534857
 10
137.8787159027666
 20
92.89732136551012
 10
137.8848847767788
 20
92.92130784247193
 10
137.8886851476798
 20
92.94615559329233
 10
137.8899770584677
 20
92.97175695873901
 10
137.8899770584677
 20
92.97175695873901
 10
137.8886743817566
 20
92.99729372864627
 10
137.8848847767788
 20
93.02208764985052
 10
137.8787159027666
 20
93.04602029719616
 10
137.8702969507988
 20
93.06897324552766
 10
137.8597463460311
 20
93.09080653784298
 10
137.8472040454653
 20
93.11139098306336
 10
137.8327992401803
 20
93.13061892195643
 10
137.8166395894085
 20
93.14836116344344
 10
137.7988650501518
 20
93.16447775052237
 10
137.7796155794123
 20
93.17886102396086
 10
137.758988070499
 20
93.19137102675691
 10
137.7371224804139
 20
93.20188933375499
 10
137.714148000236
 20
93.21028675387626
 10
137.6902045869671
 20
93.2164448619652
 10
137.6653891339164
 20
93.22022370101978
 10
137.6398523640091
 20
93.22151561180766
 10
137.6398523640091
 20
93.22151561180766
 10
137.6143155941019
 20
93.22022370101978
 10
137.5895001410511
 20
93.2164448619652
 10
137.565545961859
 20
93.21028675387626
 10
137.5425822476043
 20
93.20188933375499
 10
137.5207166575193
 20
93.19137102675691
 10
137.5000999145292
 20
93.17886102396086
 10
137.4808396778664
 20
93.16447775052237
 10
137.4630651386097
 20
93.14836116344344
 10
137.4469054878379
 20
93.13061892195643
 10
137.4325006825529
 20
93.11139098306336
 10
137.419947616064
 20
93.09080653784298
 10
137.4094077772194
 20
93.06897324552766
 10
137.4009888252517
 20
93.04603106311939
 10
137.3948199512395
 20
93.02208764985052
 10
137.3910195803385
 20
92.99729372864627
 10
137.3897276695506
 20
92.97175695873901
 10
137.3897276695506
 20
92.97175695873901
 10
137.3910088144152
 20
92.94616635921557
 10
137.3948199512395
 20
92.92130784247193
 10
137.4009995911749
 20
92.89732136551012
 10
137.4094185431426
 20
92.8743253534857
 10
137.4199583819872
 20
92.85245976340067
 10
137.4325006825529
 20
92.83184302041062
 10
137.4469162537611
 20
92.81258278374784
 10
137.4630651386097
 20
92.7948297763376
 10
137.4808289119432
 20
92.77869165741221
 10
137.5000999145292
 20
92.76430838397371
 10
137.5207166575193
 20
92.75178761525441
 10
137.5425822476043
 20
92.74126930825636
 10
137.565545961859
 20
92.73286112221184
 10
137.5895001410511
 20
92.72671378004614
 10
137.6143155941019
 20
92.72292417506833
 10
137.6398523640091
 20
92.72163226428043
  0
HATCH
  5
8C
330
1F
100
AcDbEntity
  8
ISS138金台
  6
Continuous
 62
   250
420
  2367521
370
    13
100
AcDbHatch
 10
0.0
 20
0.0
 30
0.0
210
0.0
220
0.0
230
1.0
  2
SOLID
 70
     1
 71
     0
 91
        1
 92
        3
 72
     0
 73
     1
 93
       67
 10
143.1375033604086
 20
107.3584539608257
 10
143.1630401303159
 20
107.3597351056903
 10
143.1878232855969
 20
107.3635247106682
 10
143.2117344010961
 20
107.3696828187571
 10
143.2346658175811
 20
107.3780802388784
 10
143.2564668121267
 20
107.3886093117997
 10
143.2770404914239
 20
107.4011408464422
 10
143.2962361325473
 20
107.4155133539575
 10
143.3139353103413
 20
107.4316514728828
 10
143.3300303655738
 20
107.4494044802931
 10
143.3443705753194
 20
107.4686647169559
 10
143.3568482803457
 20
107.4892814599459
 10
143.3673450554973
 20
107.5111578159542
 10
143.3757209437721
 20
107.5341430620554
 10
143.3818575200146
 20
107.5581295390172
 10
143.385625593146
 20
107.5829772898376
 10
143.3869175039338
 20
107.6085786552843
 10
143.3869175039338
 20
107.6085786552843
 10
143.3856363590692
 20
107.6341154251916
 10
143.3818682859379
 20
107.6589093463958
 10
143.3757209437721
 20
107.6828419937414
 10
143.3673450554973
 20
107.7057949420729
 10
143.356859046269
 20
107.7276282343882
 10
143.3443705753194
 20
107.7482234455318
 10
143.3300195996506
 20
107.7674406185017
 10
143.3139353103413
 20
107.7851828599887
 10
143.2962361325473
 20
107.8013102129909
 10
143.2770297255007
 20
107.8156827205061
 10
143.2564668121267
 20
107.8281927233022
 10
143.2346658175811
 20
107.8387110303002
 10
143.2117344010961
 20
107.8471084504215
 10
143.1878232855969
 20
107.8532665585105
 10
143.1630293643927
 20
107.857045397565
 10
143.1375033604086
 20
107.8583373083529
 10
143.1375033604086
 20
107.8583373083529
 10
143.1118481653458
 20
107.8570346316418
 10
143.0869465849092
 20
107.8532665585105
 10
143.0629493420242
 20
107.8471084504215
 10
143.0399317981533
 20
107.838700264377
 10
143.0180662080683
 20
107.8281927233022
 10
142.997438699155
 20
107.8156827205061
 10
142.9781892284154
 20
107.8012994470676
 10
142.9604469869284
 20
107.7851828599887
 10
142.9443411657728
 20
107.7674406185017
 10
142.9299686582575
 20
107.7482234455318
 10
142.9174694213846
 20
107.7276282343882
 10
142.9069618803098
 20
107.7057949420729
 10
142.8985752261117
 20
107.6828419937414
 10
142.8924386498693
 20
107.6589093463958
 10
142.8886598108147
 20
107.6341154251916
 10
142.8873786659501
 20
107.6085786552843
 10
142.8873786659501
 20
107.6085786552843
 10
142.888670576738
 20
107.5829772898376
 10
142.8924386498693
 20
107.5581295390172
 10
142.898585992035
 20
107.5341430620554
 10
142.9069618803098
 20
107.511147050031
 10
142.9174586554614
 20
107.4892814599459
 10
142.9299686582575
 20
107.4686539510326
 10
142.9443411657728
 20
107.4494152462163
 10
142.9604469869284
 20
107.4316514728828
 10
142.9781892284154
 20
107.4155241198807
 10
142.997438699155
 20
107.401130080519
 10
143.0180554421451
 20
107.3886093117997
 10
143.0399317981533
 20
107.3780910048016
 10
143.062938576101
 20
107.3696828187571
 10
143.0869465849092
 20
107.3635247106682
 10
143.1118481653458
 20
107.3597458716136
 97
        0
 75
     1
 76
     1
 98
        0
  0
LWPOLYLINE
  5
8D
330
1F
100
AcDbEntity
  8
ISS138金台
  6
Continuous
 62
   250
420
  2367521
370
    13
100
AcDbPolyline
 90
       68
 70
     0
 43
0.0
 10
143.1375033604086
 20
107.3584539608257
 10
143.1630401303159
 20
107.3597351056903
 10
143.1878232855969
 20
107.3635247106682
 10
143.2117344010961
 20
107.3696828187571
 10
143.2346658175811
 20
107.3780802388784
 10
143.2564668121267
 20
107.3886093117997
 10
143.2770404914239
 20
107.4011408464422
 10
143.2962361325473
 20
107.4155133539575
 10
143.3139353103413
 20
107.4316514728828
 10
143.3300303655738
 20
107.4494044802931
 10
143.3443705753194
 20
107.4686647169559
 10
143.3568482803457
 20
107.4892814599459
 10
143.3673450554973
 20
107.5111578159542
 10
143.3757209437721
 20
107.5341430620554
 10
143.3818575200146
 20
107.5581295390172
 10
143.385625593146
 20
107.5829772898376
 10
143.3869175039338
 20
107.6085786552843
 10
143.3869175039338
 20
107.6085786552843
 10
143.3856363590692
 20
107.6341154251916
 10
143.3818682859379
 20
107.6589093463958
 10
143.3757209437721
 20
107.6828419937414
 10
143.3673450554973
 20
107.7057949420729
 10
143.356859046269
 20
107.7276282343882
 10
143.3443705753194
 20
107.7482234455318
 10
143.3300195996506
 20
107.7674406185017
 10
143.3139353103413
 20
107.7851828599887
 10
143.2962361325473
 20
107.8013102129909
 10
143.2770297255007
 20
107.8156827205061
 10
143.2564668121267
 20
107.8281927233022
 10
143.2346658175811
 20
107.8387110303002
 10
143.2117344010961
 20
107.8471084504215
 10
143.1878232855969
 20
107.8532665585105
 10
143.1630293643927
 20
107.857045397565
 10
143.1375033604086
 20
107.8583373083529
 10
143.1375033604086
 20
107.8583373083529
 10
143.1118481653458
 20
107.8570346316418
 10
143.0869465849092
 20
107.8532665585105
 10
143.0629493420242
 20
107.8471084504215
 10
143.0399317981533
 20
107.838700264377
 10
143.0180662080683
 20
107.8281927233022
 10
142.997438699155
 20
107.8156827205061
 10
142.9781892284154
 20
107.8012994470676
 10
142.9604469869284
 20
107.7851828599887
 10
142.9443411657728
 20
107.7674406185017
 10
142.9299686582575
 20
107.7482234455318
 10
142.9174694213846
 20
107.7276282343882
 10
142.9069618803098
 20
107.7057949420729
 10
142.8985752261117
 20
107.6828419937414
 10
142.8924386498693
 20
107.6589093463958
 10
142.8886598108147
 20
107.6341154251916
 10
142.8873786659501
 20
107.6085786552843
 10
142.8873786659501
 20
107.6085786552843
 10
142.888670576738
 20
107.5829772898376
 10
142.8924386498693
 20
107.5581295390172
 10
142.898585992035
 20
107.5341430620554
 10
142.9069618803098
 20
107.511147050031
 10
142.9174586554614
 20
107.4892814599459
 10
142.9299686582575
 20
107.4686539510326
 10
142.9443411657728
 20
107.4494152462163
 10
142.9604469869284
 20
107.4316514728828
 10
142.9781892284154
 20
107.4155241198807
 10
142.997438699155
 20
107.401130080519
 10
143.0180554421451
 20
107.3886093117997
 10
143.0399317981533
 20
107.3780910048016
 10
143.062938576101
 20
107.3696828187571
 10
143.0869465849092
 20
107.3635247106682
 10
143.1118481653458
 20
107.3597458716136
 10
143.1375033604086
 20
107.3584539608257
  0
TEXT
  5
8E
330
1F
100
AcDbEntity
  8
ISS138金台
  6
Continuous
 62
   250
420
  2367521
100
AcDbText
 10
148.8456571809307
 20
108.9604556181837
 30
0.0
 40
2.150533301035563
  1
4  .   7
 50
90.00000250447816
 41
0.3949691355228424
  7
MS Gothic
100
AcDbText
  0
TEXT
  5
8F
330
1F
100
AcDbEntity
  8
ISS138金台
  6
Continuous
 62
   250
420
  2367521
100
AcDbText
 10
143.9067683662165
 20
108.9604556181837
 30
0.0
 40
2.150533301035563
  1
0  .   5
 50
90.00000250447816
 41
0.3725004196166992
  7
MS Gothic
100
AcDbText
  0
TEXT
  5
90
330
1F
100
AcDbEntity
  8
ISS138金台
  6
Continuous
 62
   250
420
  2367521
100
AcDbText
 10
142.3714831177356
 20
105.4411399090485
 30
0.0
 40
2.150533301035563
  1
3
 50
90.00000250447816
 41
0.8120040893554685
  7
MS Gothic
100
AcDbText
  0
TEXT
  5
91
330
1F
100
AcDbEntity
  8
ISS138金台
  6
Continuous
 62
   250
420
  2367521
100
AcDbText
 10
95.07950613633943
 20
103.6857238282345
 30
0.0
 40
2.150533301035563
  1
2
 50
90.00000250447816
 41
0.8300018310546873
  7
MS Gothic
100
AcDbText
  0
TEXT
  5
92
330
1F
100
AcDbEntity
  8
ISS138金台
  6
Continuous
 62
   250
420
  2367521
100
AcDbText
 10
107.336093138272
 20
114.7101724654585
 30
0.0
 40
2.150533301035563
  1
15
 41
0.9618744850158689
  7
MS Gothic
100
AcDbText
  0
TEXT
  5
93
330
1F
100
AcDbEntity
  8
ISS138金台
  6
Continuous
 62
   250
420
  2367521
100
AcDbText
 10
118.1254537855582
 20
94.03175150119623
 30
0.0
 40
2.150533301035563
  1
36 . 5
 41
0.6870002746582031
  7
MS Gothic
100
AcDbText
  0
LINE
  5
94
330
1F
100
AcDbEntity
  8
ISS138金台
  6
Continuous
 62
   250
420
  2367521
370
    13
100
AcDbLine
 10
143.1375033604086
 20
104.7095523791076
 30
0.0
 11
143.1375033604086
 21
108.4613474345234
 31
0.0
  0
LINE
  5
95
330
1F
100
AcDbEntity
  8
ISS138金台
  6
Continuous
 62
   250
420
  2367521
370
    13
100
AcDbLine
 10
100.4110960397197
 20
105.4085514768182
 30
0.0
 11
95.40588913789381
 21
105.4085514768182
 31
0.0
  0
LINE
  5
96
330
1F
100
AcDbEntity
  8
ISS138金台
  6
Continuous
 62
   250
420
  2367521
370
    13
100
AcDbLine
 10
100.4110960397197
 20
103.4086843430891
 30
0.0
 11
95.40588913789381
 21
103.4086843430891
 31
0.0
  0
HATCH
  5
97
330
1F
100
AcDbEntity
  8
ISS138金台
  6
Continuous
 62
   250
420
  2367521
370
    13
100
AcDbHatch
 10
0.0
 20
0.0
 30
0.0
210
0.0
220
0.0
230
1.0
  2
SOLID
 70
     1
 71
     0
 91
        1
 92
        3
 72
     0
 73
     1
 93
       67
 10
95.91317944060494
 20
103.1585704145538
 10
95.88764267069766
 20
103.1598623253416
 10
95.86282721764695
 20
103.1636519303195
 10
95.83888380437807
 20
103.1697992724852
 10
95.81589855827688
 20
103.1782074585297
 10
95.79404373411509
 20
103.1887257655277
 10
95.7734162252018
 20
103.2012357683238
 10
95.75416675446226
 20
103.2156405736088
 10
95.73639221520554
 20
103.2317679266109
 10
95.72024333035694
 20
103.2495209340211
 10
95.70582775914873
 20
103.2687811706839
 10
95.69328545858298
 20
103.289397913674
 10
95.68274561973845
 20
103.311263503759
 10
95.67431590184748
 20
103.3342595157834
 10
95.6681470278353
 20
103.358235226822
 10
95.66434665693427
 20
103.3830937435657
 10
95.66305474614637
 20
103.4086951090123
 10
95.66305474614637
 20
103.4086951090123
 10
95.66434665693427
 20
103.4342426448428
 10
95.6681470278353
 20
103.4590150342006
 10
95.67431590184748
 20
103.4829692133927
 10
95.68274561973845
 20
103.505911395801
 10
95.69328545858298
 20
103.5277446881163
 10
95.70582775914873
 20
103.5483398992599
 10
95.7202325644337
 20
103.567567838153
 10
95.73639221520554
 20
103.5852993137168
 10
95.75415598853903
 20
103.6014159007957
 10
95.77342699112504
 20
103.6157991742342
 10
95.79404373411509
 20
103.6283091770302
 10
95.81590932420012
 20
103.6388274840283
 10
95.83887303845485
 20
103.6472249041496
 10
95.86282721764695
 20
103.6533830122385
 10
95.88764267069766
 20
103.6571618512931
 10
95.91317944060494
 20
103.658453762081
 10
95.91317944060494
 20
103.658453762081
 10
95.93872697643545
 20
103.6571618512931
 10
95.96352089763968
 20
103.6533722463153
 10
95.98748584275504
 20
103.6472249041496
 10
96.01046032293299
 20
103.6388274840283
 10
96.03231514709478
 20
103.6283091770302
 10
96.05294265600807
 20
103.6157991742342
 10
96.07219212674762
 20
103.6014266667189
 10
96.08996666600433
 20
103.5852993137168
 10
96.10611555085293
 20
103.567567838153
 10
96.12053112206114
 20
103.5483398992599
 10
96.1330734226269
 20
103.5277446881163
 10
96.14361326147142
 20
103.505911395801
 10
96.15204297936239
 20
103.4829584474695
 10
96.15821185337458
 20
103.4590258001238
 10
96.16201222427561
 20
103.4342318789196
 10
96.1633041350635
 20
103.4086951090123
 10
96.1633041350635
 20
103.4086951090123
 10
96.16201222427561
 20
103.3830829776424
 10
96.15821185337458
 20
103.3582459927453
 10
96.15204297936239
 20
103.3342595157834
 10
96.14361326147142
 20
103.311263503759
 10
96.1330734226269
 20
103.289397913674
 10
96.12053112206114
 20
103.2687811706839
 10
96.10611555085293
 20
103.2495316999444
 10
96.08996666600433
 20
103.2317679266109
 10
96.07219212674762
 20
103.2156298076855
 10
96.05294265600807
 20
103.201246534247
 10
96.03230438117154
 20
103.1887257655277
 10
96.01044955700976
 20
103.1782074585297
 10
95.98748584275504
 20
103.1697992724852
 10
95.96353166356292
 20
103.1636411643962
 10
95.93871621051221
 20
103.1598623253416
 97
        0
 75
     1
 76
     1
 98
        0
  0
LWPOLYLINE
  5
98
330
1F
100
AcDbEntity
  8
ISS138金台
  6
Continuous
 62
   250
420
  2367521
370
    13
100
AcDbPolyline
 90
       68
 70
     0
 43
0.0
 10
95.91317944060494
 20
103.1585704145538
 10
95.88764267069766
 20
103.1598623253416
 10
95.86282721764695
 20
103.1636519303195
 10
95.83888380437807
 20
103.1697992724852
 10
95.81589855827688
 20
103.1782074585297
 10
95.79404373411509
 20
103.1887257655277
 10
95.7734162252018
 20
103.2012357683238
 10
95.75416675446226
 20
103.2156405736088
 10
95.73639221520554
 20
103.2317679266109
 10
95.72024333035694
 20
103.2495209340211
 10
95.70582775914873
 20
103.2687811706839
 10
95.69328545858298
 20
103.289397913674
 10
95.68274561973845
 20
103.311263503759
 10
95.67431590184748
 20
103.3342595157834
 10
95.6681470278353
 20
103.358235226822
 10
95.66434665693427
 20
103.3830937435657
 10
95.66305474614637
 20
103.4086951090123
 10
95.66305474614637
 20
103.4086951090123
 10
95.66434665693427
 20
103.4342426448428
 10
95.6681470278353
 20
103.4590150342006
 10
95.67431590184748
 20
103.4829692133927
 10
95.68274561973845
 20
103.505911395801
 10
95.69328545858298
 20
103.5277446881163
 10
95.70582775914873
 20
103.5483398992599
 10
95.7202325644337
 20
103.567567838153
 10
95.73639221520554
 20
103.5852993137168
 10
95.75415598853903
 20
103.6014159007957
 10
95.77342699112504
 20
103.6157991742342
 10
95.79404373411509
 20
103.6283091770302
 10
95.81590932420012
 20
103.6388274840283
 10
95.83887303845485
 20
103.6472249041496
 10
95.86282721764695
 20
103.6533830122385
 10
95.88764267069766
 20
103.6571618512931
 10
95.91317944060494
 20
103.658453762081
 10
95.91317944060494
 20
103.658453762081
 10
95.93872697643545
 20
103.6571618512931
 10
95.96352089763968
 20
103.6533722463153
 10
95.98748584275504
 20
103.6472249041496
 10
96.01046032293299
 20
103.6388274840283
 10
96.03231514709478
 20
103.6283091770302
 10
96.05294265600807
 20
103.6157991742342
 10
96.07219212674762
 20
103.6014266667189
 10
96.08996666600433
 20
103.5852993137168
 10
96.10611555085293
 20
103.567567838153
 10
96.12053112206114
 20
103.5483398992599
 10
96.1330734226269
 20
103.5277446881163
 10
96.14361326147142
 20
103.505911395801
 10
96.15204297936239
 20
103.4829584474695
 10
96.15821185337458
 20
103.4590258001238
 10
96.16201222427561
 20
103.4342318789196
 10
96.1633041350635
 20
103.4086951090123
 10
96.1633041350635
 20
103.4086951090123
 10
96.16201222427561
 20
103.3830829776424
 10
96.15821185337458
 20
103.3582459927453
 10
96.15204297936239
 20
103.3342595157834
 10
96.14361326147142
 20
103.311263503759
 10
96.1330734226269
 20
103.289397913674
 10
96.12053112206114
 20
103.2687811706839
 10
96.10611555085293
 20
103.2495316999444
 10
96.08996666600433
 20
103.2317679266109
 10
96.07219212674762
 20
103.2156298076855
 10
96.05294265600807
 20
103.201246534247
 10
96.03230438117154
 20
103.1887257655277
 10
96.01044955700976
 20
103.1782074585297
 10
95.98748584275504
 20
103.1697992724852
 10
95.96353166356292
 20
103.1636411643962
 10
95.93871621051221
 20
103.1598623253416
 10
95.91317944060494
 20
103.1585704145538
  0
HATCH
  5
99
330
1F
100
AcDbEntity
  8
ISS138金台
  6
Continuous
 62
   250
420
  2367521
370
    13
100
AcDbHatch
 10
0.0
 20
0.0
 30
0.0
210
0.0
220
0.0
230
1.0
  2
SOLID
 70
     1
 71
     0
 91
        1
 92
        3
 72
     0
 73
     1
 93
       67
 10
95.91317944060494
 20
105.1584267823596
 10
95.88764267069766
 20
105.1597079272243
 10
95.86284874949342
 20
105.1635082981253
 10
95.83893763399425
 20
105.169655640291
 10
95.81602774935567
 20
105.1780530604123
 10
95.7942159888868
 20
105.1885928992568
 10
95.77365307551291
 20
105.2010921361297
 10
95.75445743438954
 20
105.2154969414146
 10
95.73674749067222
 20
105.2316242944168
 10
95.720663201363
 20
105.2493880677503
 10
95.70631222569419
 20
105.2686375384898
 10
95.6938237547446
 20
105.2892542814799
 10
95.68333774551624
 20
105.3111198715649
 10
95.67496185724141
 20
105.3341158835893
 10
95.66882528099895
 20
105.3581023605511
 10
95.66504644194437
 20
105.3829501113715
 10
95.66376529707972
 20
105.4085514768182
 10
95.66376529707972
 20
105.4085514768182
 10
95.66505720786759
 20
105.4340882467255
 10
95.66881451507571
 20
105.4588821679297
 10
95.67496185724141
 20
105.4828255811986
 10
95.68334851143946
 20
105.5057677636069
 10
95.69383452066782
 20
105.5276010559222
 10
95.70631222569419
 20
105.5481962670658
 10
95.720663201363
 20
105.5674242059589
 10
95.73674749067222
 20
105.5851556815226
 10
95.7544466684663
 20
105.6012722686016
 10
95.77365307551291
 20
105.61565554204
 10
95.79420522296358
 20
105.6281655448361
 10
95.81601698343243
 20
105.6386838518342
 10
95.83894839991748
 20
105.6470812719555
 10
95.86285951541666
 20
105.6532393800444
 10
95.88764267069766
 20
105.657018219099
 10
95.91317944060494
 20
105.6583101298869
 10
95.91317944060494
 20
105.6583101298869
 10
95.93884540159101
 20
105.6570074531758
 10
95.9637254501811
 20
105.6532286141212
 10
95.9877442249126
 20
105.6470812719555
 10
96.0107617687835
 20
105.6386838518342
 10
96.03262735886852
 20
105.6281655448361
 10
96.05325486778182
 20
105.61565554204
 10
96.07249357259812
 20
105.6012830345248
 10
96.09023581408513
 20
105.5851556815226
 10
96.10634163524082
 20
105.5674242059589
 10
96.12072490867932
 20
105.5481962670658
 10
96.13321337962893
 20
105.5276010559222
 10
96.14372092070374
 20
105.5057677636069
 10
96.15209680897857
 20
105.4828255811986
 10
96.15824415114426
 20
105.4588821679297
 10
96.16202299019884
 20
105.4340882467255
 10
96.1633041350635
 20
105.4085514768182
 10
96.1633041350635
 20
105.4085514768182
 10
96.16201222427561
 20
105.3829501113715
 10
96.15824415114426
 20
105.3581023605511
 10
96.15209680897857
 20
105.3341158835893
 10
96.14372092070374
 20
105.3111198715649
 10
96.13322414555215
 20
105.2892542814799
 10
96.1207141427561
 20
105.2686375384898
 10
96.10634163524082
 20
105.249377301827
 10
96.09023581408513
 20
105.23163506034
 10
96.0724828066749
 20
105.2154969414146
 10
96.05325486778182
 20
105.2011029020529
 10
96.03262735886852
 20
105.1885821333336
 10
96.01075100286026
 20
105.1780638263356
 10
95.9877442249126
 20
105.169655640291
 10
95.96373621610434
 20
105.1635082981253
 10
95.93883463566777
 20
105.1597186931475
 97
        0
 75
     1
 76
     1
 98
        0
  0
LWPOLYLINE
  5
9A
330
1F
100
AcDbEntity
  8
ISS138金台
  6
Continuous
 62
   250
420
  2367521
370
    13
100
AcDbPolyline
 90
       68
 70
     0
 43
0.0
 10
95.91317944060494
 20
105.1584267823596
 10
95.88764267069766
 20
105.1597079272243
 10
95.86284874949342
 20
105.1635082981253
 10
95.83893763399425
 20
105.169655640291
 10
95.81602774935567
 20
105.1780530604123
 10
95.7942159888868
 20
105.1885928992568
 10
95.77365307551291
 20
105.2010921361297
 10
95.75445743438954
 20
105.2154969414146
 10
95.73674749067222
 20
105.2316242944168
 10
95.720663201363
 20
105.2493880677503
 10
95.70631222569419
 20
105.2686375384898
 10
95.6938237547446
 20
105.2892542814799
 10
95.68333774551624
 20
105.3111198715649
 10
95.67496185724141
 20
105.3341158835893
 10
95.66882528099895
 20
105.3581023605511
 10
95.66504644194437
 20
105.3829501113715
 10
95.66376529707972
 20
105.4085514768182
 10
95.66376529707972
 20
105.4085514768182
 10
95.66505720786759
 20
105.4340882467255
 10
95.66881451507571
 20
105.4588821679297
 10
95.67496185724141
 20
105.4828255811986
 10
95.68334851143946
 20
105.5057677636069
 10
95.69383452066782
 20
105.5276010559222
 10
95.70631222569419
 20
105.5481962670658
 10
95.720663201363
 20
105.5674242059589
 10
95.73674749067222
 20
105.5851556815226
 10
95.7544466684663
 20
105.6012722686016
 10
95.77365307551291
 20
105.61565554204
 10
95.79420522296358
 20
105.6281655448361
 10
95.81601698343243
 20
105.6386838518342
 10
95.83894839991748
 20
105.6470812719555
 10
95.86285951541666
 20
105.6532393800444
 10
95.88764267069766
 20
105.657018219099
 10
95.91317944060494
 20
105.6583101298869
 10
95.91317944060494
 20
105.6583101298869
 10
95.93884540159101
 20
105.6570074531758
 10
95.9637254501811
 20
105.6532286141212
 10
95.9877442249126
 20
105.6470812719555
 10
96.0107617687835
 20
105.6386838518342
 10
96.03262735886852
 20
105.6281655448361
 10
96.05325486778182
 20
105.61565554204
 10
96.07249357259812
 20
105.6012830345248
 10
96.09023581408513
 20
105.5851556815226
 10
96.10634163524082
 20
105.5674242059589
 10
96.12072490867932
 20
105.5481962670658
 10
96.13321337962893
 20
105.5276010559222
 10
96.14372092070374
 20
105.5057677636069
 10
96.15209680897857
 20
105.4828255811986
 10
96.15824415114426
 20
105.4588821679297
 10
96.16202299019884
 20
105.4340882467255
 10
96.1633041350635
 20
105.4085514768182
 10
96.1633041350635
 20
105.4085514768182
 10
96.16201222427561
 20
105.3829501113715
 10
96.15824415114426
 20
105.3581023605511
 10
96.15209680897857
 20
105.3341158835893
 10
96.14372092070374
 20
105.3111198715649
 10
96.13322414555215
 20
105.2892542814799
 10
96.1207141427561
 20
105.2686375384898
 10
96.10634163524082
 20
105.249377301827
 10
96.09023581408513
 20
105.23163506034
 10
96.0724828066749
 20
105.2154969414146
 10
96.05325486778182
 20
105.2011029020529
 10
96.03262735886852
 20
105.1885821333336
 10
96.01075100286026
 20
105.1780638263356
 10
95.9877442249126
 20
105.169655640291
 10
95.96373621610434
 20
105.1635082981253
 10
95.93883463566777
 20
105.1597186931475
 10
95.91317944060494
 20
105.1584267823596
  0
LINE
  5
9B
330
1F
100
AcDbEntity
  8
ISS138金台
  6
Continuous
 62
   250
420
  2367521
370
    13
100
AcDbLine
 10
95.91317944060494
 20
103.5096148733929
 30
0.0
 11
95.91317944060494
 21
105.4086160723576
 31
0.0
  0
LINE
  5
9C
330
1F
100
AcDbEntity
  8
ISS138金台
  6
UserDefined01
 62
   140
420
    44526
370
    13
100
AcDbLine
 10
124.639773976487
 20
98.4546263425404
 30
0.0
 11
137.6399815550879
 21
98.4546263425404
 31
0.0
  0
TEXT
  5
9D
330
1F
100
AcDbEntity
  8
ISS138金台
  6
Continuous
 62
   140
420
    44526
100
AcDbText
 10
128.9116600173373
 20
99.24379021957724
 30
0.0
 40
1.881716638406118
  1
13
 41
1.071248735700335
  7
MS Gothic
100
AcDbText
  0
HATCH
  5
9E
330
1F
100
AcDbEntity
  8
ISS138金台
  6
Continuous
 62
   140
420
    44526
370
    50
100
AcDbHatch
 10
0.0
 20
0.0
 30
0.0
210
0.0
220
0.0
230
1.0
  2
SOLID
 70
     1
 71
     0
 91
        1
 92
        3
 72
     0
 73
     1
 93
        3
 10
123.7736554524397
 20
107.9076237049109
 10
125.5054403317586
 20
107.9069131539776
 10
124.6407859732709
 20
106.4086734473393
 97
        0
 75
     1
 76
     1
 98
        0
  0
LWPOLYLINE
  5
9F
330
1F
100
AcDbEntity
  8
ISS138金台
  6
Continuous
 62
   140
420
    44526
370
    50
100
AcDbPolyline
 90
        4
 70
     0
 43
0.0
 10
123.7736554524397
 20
107.9076237049109
 10
125.5054403317586
 20
107.9069131539776
 10
124.6407859732709
 20
106.4086734473393
 10
123.7736554524397
 20
107.9076237049109
  0
ENDSEC
  0
SECTION
  2
OBJECTS
  0
DICTIONARY
  5
C
330
0
100
AcDbDictionary
281
     1
  3
ACAD_DETAILVIEWSTYLE
350
A7
  3
ACAD_GROUP
350
D
  3
ACAD_LAYOUT
350
1A
  3
ACAD_MATERIAL
350
43
  3
ACAD_MLEADERSTYLE
350
5B
  3
ACAD_MLINESTYLE
350
17
  3
ACAD_PLOTSETTINGS
350
19
  3
ACAD_PLOTSTYLENAME
350
E
  3
ACAD_SCALELIST
350
47
  3
ACAD_SECTIONVIEWSTYLE
350
A8
  3
ACAD_TABLESTYLE
350
59
  3
ACAD_VISUALSTYLE
350
2A
  3
ACDB_RECOMPOSE_DATA
350
A4
  3
AcDbVariableDictionary
350
A0
  0
SUN
  5
5D
330
29
100
AcDbSun
 90
        1
290
     0
 63
     7
421
 16777215
 40
1.0
291
     1
 91
  2455826
 92
 54000000
292
     0
 70
     2
 71
   256
280
     1
  0
DICTIONARY
  5
A7
102
{ACAD_REACTORS
330
C
102
}
330
C
100
AcDbDictionary
281
     1
  0
DICTIONARY
  5
D
102
{ACAD_REACTORS
330
C
102
}
330
C
100
AcDbDictionary
281
     1
  0
DICTIONARY
  5
1A
102
{ACAD_REACTORS
330
C
102
}
330
C
100
AcDbDictionary
281
     1
  3
Layout1
350
1E
  3
Layout2
350
26
  3
Model
350
22
  0
DICTIONARY
  5
43
102
{ACAD_REACTORS
330
C
102
}
330
C
100
AcDbDictionary
281
     1
  3
ByBlock
350
45
  3
ByLayer
350
44
  3
Global
350
46
  0
DICTIONARY
  5
5B
102
{ACAD_REACTORS
330
C
102
}
330
C
100
AcDbDictionary
281
     1
  3
Standard
350
5C
  0
DICTIONARY
  5
17
102
{ACAD_REACTORS
330
C
102
}
330
C
100
AcDbDictionary
281
     1
  3
Standard
350
18
  0
DICTIONARY
  5
19
102
{ACAD_REACTORS
330
C
102
}
330
C
100
AcDbDictionary
281
     1
  0
ACDBDICTIONARYWDFLT
  5
E
102
{ACAD_REACTORS
330
C
102
}
330
C
100
AcDbDictionary
281
     1
  3
Normal
350
F
100
AcDbDictionaryWithDefault
340
F
  0
DICTIONARY
  5
47
102
{ACAD_REACTORS
330
C
102
}
330
C
100
AcDbDictionary
281
     1
  3
A0
350
48
  3
A1
350
49
  3
A2
350
4A
  3
A3
350
4B
  3
A4
350
4C
  3
A5
350
4D
  3
A6
350
4E
  3
A7
350
4F
  3
A8
350
50
  3
A9
350
51
  3
B0
350
52
  3
B1
350
53
  3
B2
350
54
  3
B3
350
55
  3
B4
350
56
  3
B5
350
57
  3
B6
350
58
  0
DICTIONARY
  5
A8
102
{ACAD_REACTORS
330
C
102
}
330
C
100
AcDbDictionary
281
     1
  0
DICTIONARY
  5
59
102
{ACAD_REACTORS
330
C
102
}
330
C
100
AcDbDictionary
281
     1
  3
Standard
350
5A
  0
DICTIONARY
  5
2A
102
{ACAD_REACTORS
330
C
102
}
330
C
100
AcDbDictionary
281
     1
  3
2dWireframe
350
2F
  3
Basic
350
32
  3
Brighten
350
36
  3
ColorChange
350
3A
  3
Conceptual
350
34
  3
Dim
350
35
  3
EdgeColorOff
350
3D
  3
Facepattern
350
39
  3
Flat
350
2B
  3
FlatWithEdges
350
2C
  3
Gouraud
350
2D
  3
GouraudWithEdges
350
2E
  3
Hidden
350
31
  3
JitterOff
350
3B
  3
Linepattern
350
38
  3
OverhangOff
350
3C
  3
Realistic
350
33
  3
Shaded
350
42
  3
Shaded with edges
350
41
  3
Shades of Gray
350
3E
  3
Sketchy
350
3F
  3
Thicken
350
37
  3
Wireframe
350
30
  3
X-Ray
350
40
  0
XRECORD
  5
A4
102
{ACAD_REACTORS
330
C
102
}
330
C
100
AcDbXrecord
280
     1
 90
        1
330
5A
  0
DICTIONARY
  5
A0
102
{ACAD_REACTORS
330
C
102
}
330
C
100
AcDbDictionary
281
     1
  3
CANNOSCALE
350
A1
  3
CENTEREXE
350
A9
  3
CENTERLTYPEFILE
350
AA
  3
CMLEADERSTYLE
350
A6
  3
CTABLESTYLE
350
A5
  0
LAYOUT
  5
1E
102
{ACAD_REACTORS
330
1A
102
}
330
1A
100
AcDbPlotSettings
  1

  2
none_device
  4

  6

 40
0.0
 41
0.0
 42
0.0
 43
0.0
 44
0.0
 45
0.0
 46
0.0
 47
0.0
 48
0.0
 49
0.0
140
0.0
141
0.0
142
1.0
143
1.0
 70
   688
 72
     1
 73
     0
 74
     5
  7

 75
    16
 76
     0
 77
     5
 78
   300
147
1.0
148
0.0
149
0.0
100
AcDbLayout
  1
Layout1
 70
     1
 71
     1
 10
0.0
 20
0.0
 11
420.0
 21
297.0
 12
0.0
 22
0.0
 32
0.0
 14
1.000000000000000E+20
 24
1.000000000000000E+20
 34
1.000000000000000E+20
 15
-1.000000000000000E+20
 25
-1.000000000000000E+20
 35
-1.000000000000000E+20
146
0.0
 13
0.0
 23
0.0
 33
0.0
 16
1.0
 26
0.0
 36
0.0
 17
0.0
 27
1.0
 37
0.0
 76
     0
330
1B
  0
LAYOUT
  5
26
102
{ACAD_REACTORS
330
1A
102
}
330
1A
100
AcDbPlotSettings
  1

  2
none_device
  4

  6

 40
0.0
 41
0.0
 42
0.0
 43
0.0
 44
0.0
 45
0.0
 46
0.0
 47
0.0
 48
0.0
 49
0.0
140
0.0
141
0.0
142
1.0
143
1.0
 70
   688
 72
     1
 73
     0
 74
     5
  7

 75
    16
 76
     0
 77
     5
 78
   300
147
1.0
148
0.0
149
0.0
100
AcDbLayout
  1
Layout2
 70
     1
 71
     2
 10
0.0
 20
0.0
 11
0.0
 21
0.0
 12
0.0
 22
0.0
 32
0.0
 14
0.0
 24
0.0
 34
0.0
 15
0.0
 25
0.0
 35
0.0
146
0.0
 13
0.0
 23
0.0
 33
0.0
 16
1.0
 26
0.0
 36
0.0
 17
0.0
 27
1.0
 37
0.0
 76
     0
330
23
  0
LAYOUT
  5
22
102
{ACAD_REACTORS
330
1A
102
}
330
1A
100
AcDbPlotSettings
  1

  2
none_device
  4
Letter_(8.50_x_11.00_Inches)
  6

 40
6.35
 41
6.35
 42
6.35000508
 43
6.35000508
 44
215.9
 45
279.4
 46
0.0
 47
0.0
 48
0.0
 49
0.0
140
0.0
141
0.0
142
1.0
143
1.0
 70
  1712
 72
     1
 73
     0
 74
     0
  7

 75
     0
 76
     0
 77
     5
 78
   300
147
1.0
148
0.0
149
0.0
100
AcDbLayout
  1
Model
 70
     1
 71
     0
 10
0.0
 20
0.0
 11
302.9997823349792
 21
216.0016055409748
 12
0.0
 22
0.0
 32
0.0
 14
0.0
 24
0.0
 34
0.0
 15
302.9997823349792
 25
216.0016055409748
 35
0.0
146
0.0
 13
0.0
 23
0.0
 33
0.0
 16
1.0
 26
0.0
 36
0.0
 17
0.0
 27
1.0
 37
0.0
 76
     0
330
1F
331
29
  0
MATERIAL
  5
45
102
{ACAD_REACTORS
330
43
102
}
330
43
100
AcDbMaterial
  1
ByBlock
 72
     1
 94
      127
  0
MATERIAL
  5
44
102
{ACAD_REACTORS
330
43
102
}
330
43
100
AcDbMaterial
  1
ByLayer
 72
     1
 94
      127
  0
MATERIAL
  5
46
102
{ACAD_REACTORS
330
43
102
}
330
43
100
AcDbMaterial
  1
Global
 72
     1
 94
      127
  0
MLEADERSTYLE
  5
5C
102
{ACAD_REACTORS
330
5B
102
}
330
5B
100
AcDbMLeaderStyle
179
     2
170
     2
171
     1
172
     0
 90
        2
 40
0.0
 41
0.0
173
     1
 91
-1056964608
340
14
 92
       -2
290
     1
 42
2.0
291
     1
 43
8.0
  3
Standard
341
0
 44
4.0
300

342
11
174
     1
178
     6
175
     1
176
     0
 93
-1056964608
 45
4.0
292
     0
297
     0
 46
4.0
343
0
 94
-1056964608
 47
1.0
 49
1.0
140
1.0
293
     1
141
0.0
294
     1
177
     0
142
1.0
295
     0
296
     0
143
3.75
271
     0
272
     9
273
     9
298
     0
  0
MLINESTYLE
  5
18
102
{ACAD_REACTORS
330
17
102
}
330
17
100
AcDbMlineStyle
  2
Standard
 70
     0
  3

 62
   256
 51
90.0
 52
90.0
 71
     2
 49
0.5
 62
   256
  6
BYLAYER
 49
-0.5
 62
   256
  6
BYLAYER
  0
ACDBPLACEHOLDER
  5
F
102
{ACAD_REACTORS
330
E
102
}
330
E
  0
SCALE
  5
48
102
{ACAD_REACTORS
330
47
102
}
330
47
100
AcDbScale
 70
     0
300
1:1
140
1.0
141
1.0
290
     1
  0
SCALE
  5
49
102
{ACAD_REACTORS
330
47
102
}
330
47
100
AcDbScale
 70
     0
300
1:2
140
1.0
141
2.0
290
     0
  0
SCALE
  5
4A
102
{ACAD_REACTORS
330
47
102
}
330
47
100
AcDbScale
 70
     0
300
1:4
140
1.0
141
4.0
290
     0
  0
SCALE
  5
4B
102
{ACAD_REACTORS
330
47
102
}
330
47
100
AcDbScale
 70
     0
300
1:5
140
1.0
141
5.0
290
     0
  0
SCALE
  5
4C
102
{ACAD_REACTORS
330
47
102
}
330
47
100
AcDbScale
 70
     0
300
1:8
140
1.0
141
8.0
290
     0
  0
SCALE
  5
4D
102
{ACAD_REACTORS
330
47
102
}
330
47
100
AcDbScale
 70
     0
300
1:10
140
1.0
141
10.0
290
     0
  0
SCALE
  5
4E
102
{ACAD_REACTORS
330
47
102
}
330
47
100
AcDbScale
 70
     0
300
1:16
140
1.0
141
16.0
290
     0
  0
SCALE
  5
4F
102
{ACAD_REACTORS
330
47
102
}
330
47
100
AcDbScale
 70
     0
300
1:20
140
1.0
141
20.0
290
     0
  0
SCALE
  5
50
102
{ACAD_REACTORS
330
47
102
}
330
47
100
AcDbScale
 70
     0
300
1:30
140
1.0
141
30.0
290
     0
  0
SCALE
  5
51
102
{ACAD_REACTORS
330
47
102
}
330
47
100
AcDbScale
 70
     0
300
1:40
140
1.0
141
40.0
290
     0
  0
SCALE
  5
52
102
{ACAD_REACTORS
330
47
102
}
330
47
100
AcDbScale
 70
     0
300
1:50
140
1.0
141
50.0
290
     0
  0
SCALE
  5
53
102
{ACAD_REACTORS
330
47
102
}
330
47
100
AcDbScale
 70
     0
300
1:100
140
1.0
141
100.0
290
     0
  0
SCALE
  5
54
102
{ACAD_REACTORS
330
47
102
}
330
47
100
AcDbScale
 70
     0
300
2:1
140
2.0
141
1.0
290
     0
  0
SCALE
  5
55
102
{ACAD_REACTORS
330
47
102
}
330
47
100
AcDbScale
 70
     0
300
4:1
140
4.0
141
1.0
290
     0
  0
SCALE
  5
56
102
{ACAD_REACTORS
330
47
102
}
330
47
100
AcDbScale
 70
     0
300
8:1
140
8.0
141
1.0
290
     0
  0
SCALE
  5
57
102
{ACAD_REACTORS
330
47
102
}
330
47
100
AcDbScale
 70
     0
300
10:1
140
10.0
141
1.0
290
     0
  0
SCALE
  5
58
102
{ACAD_REACTORS
330
47
102
}
330
47
100
AcDbScale
 70
     0
300
100:1
140
100.0
141
1.0
290
     0
  0
TABLESTYLE
  5
5A
102
{ACAD_REACTORS
330
59
102
}
102
{ACAD_XDICTIONARY
360
A2
102
}
330
59
100
AcDbTableStyle
  3
Standard
 70
     0
 71
     0
 40
0.06
 41
0.06
280
     0
281
     0
  7
Standard
140
4.5
170
     2
 62
     0
 63
   257
283
     0
 90
        4
 91
        0
  1

274
    -2
284
     1
 64
     0
275
    -2
285
     1
 65
     0
276
    -2
286
     1
 66
     0
277
    -2
287
     1
 67
     0
278
    -2
288
     1
 68
     0
279
    -2
289
     1
 69
     0
  7
Standard
140
6.0
170
     5
 62
     0
 63
   257
283
     0
 90
        4
 91
        0
  1

274
    -2
284
     1
 64
     0
275
    -2
285
     1
 65
     0
276
    -2
286
     1
 66
     0
277
    -2
287
     1
 67
     0
278
    -2
288
     1
 68
     0
279
    -2
289
     1
 69
     0
  7
Standard
140
4.5
170
     5
 62
     0
 63
   257
283
     0
 90
        4
 91
        0
  1

274
    -2
284
     1
 64
     0
275
    -2
285
     1
 65
     0
276
    -2
286
     1
 66
     0
277
    -2
287
     1
 67
     0
278
    -2
288
     1
 68
     0
279
    -2
289
     1
 69
     0
  0
VISUALSTYLE
  5
2F
102
{ACAD_REACTORS
330
2A
102
}
330
2A
100
AcDbVisualStyle
  2
2dWireframe
 70
     4
177
     3
291
     0
 70
    58
 90
        0
176
     1
 90
        2
176
     1
 90
        0
176
     1
 90
        0
176
     1
 40
0.6
176
     1
 40
30.0
176
     1
 62
     7
420
 16777215
176
     1
 90
        1
176
     1
 90
        4
176
     1
 62
     7
176
     1
 62
   257
176
     1
 90
        1
176
     1
 90
        1
176
     1
 40
1.0
176
     1
 90
        0
176
     1
 62
   257
176
     1
 40
1.0
176
     1
 90
        1
176
     1
 90
        6
176
     1
 90
        2
176
     1
 62
     7
176
     1
 90
        5
176
     1
 90
        0
176
     1
 90
        0
176
     1
290
     0
176
     1
 90
        1
176
     1
 40
0.0
176
     1
 90
        0
176
     1
290
     1
176
     1
290
     1
176
     1
290
     0
176
     1
290
     0
176
     1
290
     0
176
     1
290
     0
176
     1
290
     0
176
     1
290
     0
176
     1
290
     0
176
     1
 90
       50
176
     1
 40
0.0
176
     1
 40
1.0
176
     1
 90
        0
176
     1
 62
    18
420
        0
176
     1
 90
       50
176
     1
 90
        3
176
     1
 62
     5
420
      255
176
     1
290
     0
176
     1
 90
       50
176
     1
 90
       50
176
     1
 90
       50
176
     1
290
     0
176
     1
 90
       50
176
     1
 62
   256
176
     0
 40
1.0
176
     0
 90
        2
176
     1
  1
strokes_ogs.tif
176
     1
290
     0
176
     1
 40
1.0
176
     1
 40
1.0
176
     1
  0
VISUALSTYLE
  5
32
102
{ACAD_REACTORS
330
2A
102
}
330
2A
100
AcDbVisualStyle
  2
Basic
 70
     7
177
     3
291
     1
 70
    58
 90
        1
176
     1
 90
        0
176
     1
 90
        1
176
     1
 90
        0
176
     1
 40
0.6
176
     1
 40
30.0
176
     1
 62
     7
420
 16777215
176
     1
 90
        0
176
     1
 90
        4
176
     1
 62
     7
176
     1
 62
   257
176
     1
 90
        1
176
     1
 90
        1
176
     1
 40
1.0
176
     1
 90
        8
176
     1
 62
     7
176
     1
 40
1.0
176
     1
 90
        1
176
     1
 90
        6
176
     1
 90
        2
176
     1
 62
     7
176
     1
 90
        5
176
     1
 90
        0
176
     1
 90
        0
176
     1
290
     0
176
     1
 90
        1
176
     1
 40
0.0
176
     1
 90
        0
176
     1
290
     0
176
     1
290
     1
176
     1
290
     1
176
     1
290
     0
176
     1
290
     0
176
     1
290
     0
176
     1
290
     0
176
     1
290
     0
176
     1
290
     0
176
     1
 90
       50
176
     1
 40
0.0
176
     1
 40
1.0
176
     1
 90
        0
176
     1
 62
    18
420
        0
176
     1
 90
       50
176
     1
 90
        3
176
     1
 62
     5
420
      255
176
     1
290
     0
176
     1
 90
       50
176
     1
 90
       50
176
     1
 90
       50
176
     1
290
     0
176
     1
 90
       50
176
     1
 62
   256
176
     0
 40
1.0
176
     0
 90
        2
176
     1
  1
strokes_ogs.tif
176
     1
290
     0
176
     1
 40
1.0
176
     1
 40
1.0
176
     1
  0
VISUALSTYLE
  5
36
102
{ACAD_REACTORS
330
2A
102
}
330
2A
100
AcDbVisualStyle
  2
Brighten
 70
    12
177
     3
291
     1
 70
    58
 90
        2
176
     1
 90
        2
176
     1
 90
        0
176
     1
 90
        0
176
     1
 40
0.6
176
     1
 40
30.0
176
     1
 62
     7
420
 16777215
176
     1
 90
        1
176
     1
 90
        4
176
     1
 62
     7
176
     1
 62
   257
176
     1
 90
        1
176
     1
 90
        1
176
     1
 40
1.0
176
     1
 90
        8
176
     1
 62
     7
176
     1
 40
1.0
176
     1
 90
        1
176
     1
 90
        6
176
     1
 90
        2
176
     1
 62
     7
176
     1
 90
        5
176
     1
 90
        0
176
     1
 90
        0
176
     1
290
     0
176
     1
 90
        1
176
     1
 40
50.0
176
     1
 90
        0
176
     1
290
     0
176
     1
290
     1
176
     1
290
     1
176
     1
290
     0
176
     1
290
     0
176
     1
290
     0
176
     1
290
     0
176
     1
290
     0
176
     1
290
     0
176
     1
 90
       50
176
     1
 40
0.0
176
     1
 40
1.0
176
     1
 90
        0
176
     1
 62
    18
420
        0
176
     1
 90
       50
176
     1
 90
        3
176
     1
 62
     5
420
      255
176
     1
290
     0
176
     1
 90
       50
176
     1
 90
       50
176
     1
 90
       50
176
     1
290
     0
176
     1
 90
       50
176
     1
 62
   256
176
     0
 40
1.0
176
     0
 90
        2
176
     1
  1
strokes_ogs.tif
176
     1
290
     0
176
     1
 40
1.0
176
     1
 40
1.0
176
     1
  0
VISUALSTYLE
  5
3A
102
{ACAD_REACTORS
330
2A
102
}
330
2A
100
AcDbVisualStyle
  2
ColorChange
 70
    16
177
     3
291
     1
 70
    58
 90
        2
176
     1
 90
        2
176
     1
 90
        3
176
     1
 90
        0
176
     1
 40
0.6
176
     1
 40
30.0
176
     1
 62
     8
420
  8421504
176
     1
 90
        1
176
     1
 90
        4
176
     1
 62
     7
176
     1
 62
   257
176
     1
 90
        1
176
     1
 90
        1
176
     1
 40
1.0
176
     1
 90
        8
176
     1
 62
     8
420
  8421504
176
     1
 40
1.0
176
     1
 90
        1
176
     1
 90
        6
176
     1
 90
        2
176
     1
 62
     7
176
     1
 90
        5
176
     1
 90
        0
176
     1
 90
        0
176
     1
290
     0
176
     1
 90
        1
176
     1
 40
0.0
176
     1
 90
        0
176
     1
290
     0
176
     1
290
     1
176
     1
290
     1
176
     1
290
     0
176
     1
290
     0
176
     1
290
     0
176
     1
290
     0
176
     1
290
     0
176
     1
290
     0
176
     1
 90
       50
176
     1
 40
0.0
176
     1
 40
1.0
176
     1
 90
        0
176
     1
 62
    18
420
        0
176
     1
 90
       50
176
     1
 90
        3
176
     1
 62
     5
420
      255
176
     1
290
     0
176
     1
 90
       50
176
     1
 90
       50
176
     1
 90
       50
176
     1
290
     0
176
     1
 90
       50
176
     1
 62
   256
176
     0
 40
1.0
176
     0
 90
        2
176
     1
  1
strokes_ogs.tif
176
     1
290
     0
176
     1
 40
1.0
176
     1
 40
1.0
176
     1
  0
VISUALSTYLE
  5
34
102
{ACAD_REACTORS
330
2A
102
}
330
2A
100
AcDbVisualStyle
  2
Conceptual
 70
     9
177
     3
291
     0
 70
    58
 90
        3
176
     1
 90
        2
176
     1
 90
        0
176
     1
 90
        0
176
     1
 40
0.6
176
     1
 40
30.0
176
     1
 62
     7
420
 16777215
176
     1
 90
        2
176
     1
 90
        2
176
     1
 62
     7
176
     1
 62
   257
176
     1
 90
        1
176
     1
 90
        1
176
     1
 40
179.0
176
     1
 90
        8
176
     1
 62
     7
176
     1
 40
1.0
176
     1
 90
        1
176
     1
 90
        6
176
     1
 90
        2
176
     1
 62
     7
176
     1
 90
        3
176
     1
 90
        0
176
     1
 90
        0
176
     1
290
     0
176
     1
 90
        1
176
     1
 40
0.0
176
     1
 90
        0
176
     1
290
     0
176
     1
290
     1
176
     1
290
     1
176
     1
290
     0
176
     1
290
     0
176
     1
290
     0
176
     1
290
     0
176
     1
290
     0
176
     1
290
     0
176
     1
 90
       50
176
     1
 40
0.0
176
     1
 40
1.0
176
     1
 90
        0
176
     1
 62
    18
420
        0
176
     1
 90
       50
176
     1
 90
        3
176
     1
 62
     5
420
      255
176
     1
290
     0
176
     1
 90
       50
176
     1
 90
       50
176
     1
 90
       50
176
     1
290
     0
176
     1
 90
       50
176
     1
 62
   256
176
     0
 40
1.0
176
     0
 90
        2
176
     1
  1
strokes_ogs.tif
176
     1
290
     0
176
     1
 40
1.0
176
     1
 40
1.0
176
     1
  0
VISUALSTYLE
  5
35
102
{ACAD_REACTORS
330
2A
102
}
330
2A
100
AcDbVisualStyle
  2
Dim
 70
    11
177
     3
291
     1
 70
    58
 90
        2
176
     1
 90
        2
176
     1
 90
        0
176
     1
 90
        0
176
     1
 40
0.6
176
     1
 40
30.0
176
     1
 62
     7
420
 16777215
176
     1
 90
        1
176
     1
 90
        4
176
     1
 62
     7
176
     1
 62
   257
176
     1
 90
        1
176
     1
 90
        1
176
     1
 40
1.0
176
     1
 90
        8
176
     1
 62
     7
176
     1
 40
1.0
176
     1
 90
        1
176
     1
 90
        6
176
     1
 90
        2
176
     1
 62
     7
176
     1
 90
        5
176
     1
 90
        0
176
     1
 90
        0
176
     1
290
     0
176
     1
 90
        1
176
     1
 40
-50.0
176
     1
 90
        0
176
     1
290
     0
176
     1
290
     1
176
     1
290
     1
176
     1
290
     0
176
     1
290
     0
176
     1
290
     0
176
     1
290
     0
176
     1
290
     0
176
     1
290
     0
176
     1
 90
       50
176
     1
 40
0.0
176
     1
 40
1.0
176
     1
 90
        0
176
     1
 62
    18
420
        0
176
     1
 90
       50
176
     1
 90
        3
176
     1
 62
     5
420
      255
176
     1
290
     0
176
     1
 90
       50
176
     1
 90
       50
176
     1
 90
       50
176
     1
290
     0
176
     1
 90
       50
176
     1
 62
   256
176
     0
 40
1.0
176
     0
 90
        2
176
     1
  1
strokes_ogs.tif
176
     1
290
     0
176
     1
 40
1.0
176
     1
 40
1.0
176
     1
  0
VISUALSTYLE
  5
3D
102
{ACAD_REACTORS
330
2A
102
}
330
2A
100
AcDbVisualStyle
  2
EdgeColorOff
 70
    22
177
     3
291
     1
 70
    58
 90
        2
176
     0
 90
        2
176
     0
 90
        0
176
     0
 90
        0
176
     0
 40
0.6
176
     0
 40
30.0
176
     0
 62
     7
420
 16777215
176
     0
 90
        1
176
     0
 90
        4
176
     0
 62
     7
176
     0
 62
   257
176
     0
 90
        1
176
     0
 90
        1
176
     0
 40
1.0
176
     0
 90
        8
176
     2
 62
     7
176
     0
 40
1.0
176
     0
 90
        1
176
     0
 90
        6
176
     0
 90
        2
176
     0
 62
     7
176
     0
 90
        5
176
     0
 90
        0
176
     0
 90
        0
176
     0
290
     0
176
     0
 90
        1
176
     0
 40
0.0
176
     0
 90
        0
176
     0
290
     0
176
     0
290
     1
176
     0
290
     1
176
     0
290
     0
176
     0
290
     0
176
     0
290
     0
176
     0
290
     0
176
     0
290
     0
176
     0
290
     0
176
     0
 90
       50
176
     0
 40
0.0
176
     0
 40
1.0
176
     0
 90
        0
176
     0
 62
    18
420
        0
176
     0
 90
       50
176
     0
 90
        3
176
     0
 62
     5
420
      255
176
     0
290
     0
176
     0
 90
       50
176
     0
 90
       50
176
     0
 90
       50
176
     0
290
     0
176
     0
 90
       50
176
     0
 62
   256
176
     0
 40
1.0
176
     0
 90
        2
176
     0
  1
strokes_ogs.tif
176
     0
290
     0
176
     0
 40
1.0
176
     0
 40
1.0
176
     0
  0
VISUALSTYLE
  5
39
102
{ACAD_REACTORS
330
2A
102
}
330
2A
100
AcDbVisualStyle
  2
Facepattern
 70
    15
177
     3
291
     1
 70
    58
 90
        2
176
     1
 90
        2
176
     1
 90
        0
176
     1
 90
        0
176
     1
 40
0.6
176
     1
 40
30.0
176
     1
 62
     7
420
 16777215
176
     1
 90
        1
176
     1
 90
        4
176
     1
 62
     7
176
     1
 62
   257
176
     1
 90
        1
176
     1
 90
        1
176
     1
 40
1.0
176
     1
 90
        8
176
     1
 62
     7
176
     1
 40
1.0
176
     1
 90
        1
176
     1
 90
        6
176
     1
 90
        2
176
     1
 62
     7
176
     1
 90
        5
176
     1
 90
        0
176
     1
 90
        0
176
     1
290
     0
176
     1
 90
        1
176
     1
 40
0.0
176
     1
 90
        0
176
     1
290
     0
176
     1
290
     1
176
     1
290
     1
176
     1
290
     0
176
     1
290
     0
176
     1
290
     0
176
     1
290
     0
176
     1
290
     0
176
     1
290
     0
176
     1
 90
       50
176
     1
 40
0.0
176
     1
 40
1.0
176
     1
 90
        0
176
     1
 62
    18
420
        0
176
     1
 90
       50
176
     1
 90
        3
176
     1
 62
     5
420
      255
176
     1
290
     0
176
     1
 90
       50
176
     1
 90
       50
176
     1
 90
       50
176
     1
290
     0
176
     1
 90
       50
176
     1
 62
   256
176
     0
 40
1.0
176
     0
 90
        2
176
     1
  1
strokes_ogs.tif
176
     1
290
     0
176
     1
 40
1.0
176
     1
 40
1.0
176
     1
  0
VISUALSTYLE
  5
2B
102
{ACAD_REACTORS
330
2A
102
}
330
2A
100
AcDbVisualStyle
  2
Flat
 70
     0
177
     3
291
     1
 70
    58
 90
        2
176
     1
 90
        1
176
     1
 90
        1
176
     1
 90
        2
176
     1
 40
0.6
176
     1
 40
30.0
176
     1
 62
     7
420
 16777215
176
     1
 90
        0
176
     1
 90
        0
176
     1
 62
     7
176
     1
 62
   257
176
     1
 90
        1
176
     1
 90
        1
176
     1
 40
1.0
176
     1
 90
        8
176
     1
 62
     7
176
     1
 40
1.0
176
     1
 90
        1
176
     1
 90
        6
176
     1
 90
        2
176
     1
 62
     7
176
     1
 90
        5
176
     1
 90
        0
176
     1
 90
        0
176
     1
290
     0
176
     1
 90
       13
176
     1
 40
0.0
176
     1
 90
        0
176
     1
290
     0
176
     1
290
     1
176
     1
290
     1
176
     1
290
     0
176
     1
290
     0
176
     1
290
     0
176
     1
290
     0
176
     1
290
     0
176
     1
290
     0
176
     1
 90
       50
176
     1
 40
0.0
176
     1
 40
1.0
176
     1
 90
        0
176
     1
 62
    18
420
        0
176
     1
 90
       50
176
     1
 90
        3
176
     1
 62
     5
420
      255
176
     1
290
     0
176
     1
 90
       50
176
     1
 90
       50
176
     1
 90
       50
176
     1
290
     0
176
     1
 90
       50
176
     1
 62
   256
176
     0
 40
1.0
176
     0
 90
        2
176
     1
  1
strokes_ogs.tif
176
     1
290
     0
176
     1
 40
1.0
176
     1
 40
1.0
176
     1
  0
VISUALSTYLE
  5
2C
102
{ACAD_REACTORS
330
2A
102
}
330
2A
100
AcDbVisualStyle
  2
FlatWithEdges
 70
     1
177
     3
291
     1
 70
    58
 90
        2
176
     1
 90
        1
176
     1
 90
        1
176
     1
 90
        2
176
     1
 40
0.6
176
     1
 40
30.0
176
     1
 62
     7
420
 16777215
176
     1
 90
        1
176
     1
 90
        0
176
     1
 62
     7
176
     1
 62
   257
176
     1
 90
        1
176
     1
 90
        1
176
     1
 40
1.0
176
     1
 90
        0
176
     1
 62
   257
176
     1
 40
1.0
176
     1
 90
        1
176
     1
 90
        6
176
     1
 90
        2
176
     1
 62
     7
176
     1
 90
        5
176
     1
 90
        0
176
     1
 90
        0
176
     1
290
     0
176
     1
 90
       13
176
     1
 40
0.0
176
     1
 90
        0
176
     1
290
     0
176
     1
290
     1
176
     1
290
     1
176
     1
290
     0
176
     1
290
     0
176
     1
290
     0
176
     1
290
     0
176
     1
290
     0
176
     1
290
     0
176
     1
 90
       50
176
     1
 40
0.0
176
     1
 40
1.0
176
     1
 90
        0
176
     1
 62
    18
420
        0
176
     1
 90
       50
176
     1
 90
        3
176
     1
 62
     5
420
      255
176
     1
290
     0
176
     1
 90
       50
176
     1
 90
       50
176
     1
 90
       50
176
     1
290
     0
176
     1
 90
       50
176
     1
 62
   256
176
     0
 40
1.0
176
     0
 90
        2
176
     1
  1
strokes_ogs.tif
176
     1
290
     0
176
     1
 40
1.0
176
     1
 40
1.0
176
     1
  0
VISUALSTYLE
  5
2D
102
{ACAD_REACTORS
330
2A
102
}
330
2A
100
AcDbVisualStyle
  2
Gouraud
 70
     2
177
     3
291
     1
 70
    58
 90
        2
176
     1
 90
        2
176
     1
 90
        1
176
     1
 90
        2
176
     1
 40
0.6
176
     1
 40
30.0
176
     1
 62
     7
420
 16777215
176
     1
 90
        0
176
     1
 90
        0
176
     1
 62
     7
176
     1
 62
   257
176
     1
 90
        1
176
     1
 90
        1
176
     1
 40
1.0
176
     1
 90
        0
176
     1
 62
     7
176
     1
 40
1.0
176
     1
 90
        1
176
     1
 90
        6
176
     1
 90
        2
176
     1
 62
     7
176
     1
 90
        5
176
     1
 90
        0
176
     1
 90
        0
176
     1
290
     0
176
     1
 90
       13
176
     1
 40
0.0
176
     1
 90
        0
176
     1
290
     0
176
     1
290
     1
176
     1
290
     1
176
     1
290
     0
176
     1
290
     0
176
     1
290
     0
176
     1
290
     0
176
     1
290
     0
176
     1
290
     0
176
     1
 90
       50
176
     1
 40
0.0
176
     1
 40
1.0
176
     1
 90
        0
176
     1
 62
    18
420
        0
176
     1
 90
       50
176
     1
 90
        3
176
     1
 62
     5
420
      255
176
     1
290
     0
176
     1
 90
       50
176
     1
 90
       50
176
     1
 90
       50
176
     1
290
     0
176
     1
 90
       50
176
     1
 62
   256
176
     0
 40
1.0
176
     0
 90
        2
176
     1
  1
strokes_ogs.tif
176
     1
290
     0
176
     1
 40
1.0
176
     1
 40
1.0
176
     1
  0
VISUALSTYLE
  5
2E
102
{ACAD_REACTORS
330
2A
102
}
330
2A
100
AcDbVisualStyle
  2
GouraudWithEdges
 70
     3
177
     3
291
     1
 70
    58
 90
        2
176
     1
 90
        2
176
     1
 90
        1
176
     1
 90
        2
176
     1
 40
0.6
176
     1
 40
30.0
176
     1
 62
     7
420
 16777215
176
     1
 90
        1
176
     1
 90
        0
176
     1
 62
     7
176
     1
 62
   257
176
     1
 90
        1
176
     1
 90
        1
176
     1
 40
1.0
176
     1
 90
        0
176
     1
 62
   257
176
     1
 40
1.0
176
     1
 90
        1
176
     1
 90
        6
176
     1
 90
        2
176
     1
 62
     7
176
     1
 90
        5
176
     1
 90
        0
176
     1
 90
        0
176
     1
290
     0
176
     1
 90
       13
176
     1
 40
0.0
176
     1
 90
        0
176
     1
290
     0
176
     1
290
     1
176
     1
290
     1
176
     1
290
     0
176
     1
290
     0
176
     1
290
     0
176
     1
290
     0
176
     1
290
     0
176
     1
290
     0
176
     1
 90
       50
176
     1
 40
0.0
176
     1
 40
1.0
176
     1
 90
        0
176
     1
 62
    18
420
        0
176
     1
 90
       50
176
     1
 90
        3
176
     1
 62
     5
420
      255
176
     1
290
     0
176
     1
 90
       50
176
     1
 90
       50
176
     1
 90
       50
176
     1
290
     0
176
     1
 90
       50
176
     1
 62
   256
176
     0
 40
1.0
176
     0
 90
        2
176
     1
  1
strokes_ogs.tif
176
     1
290
     0
176
     1
 40
1.0
176
     1
 40
1.0
176
     1
  0
VISUALSTYLE
  5
31
102
{ACAD_REACTORS
330
2A
102
}
330
2A
100
AcDbVisualStyle
  2
Hidden
 70
     6
177
     3
291
     0
 70
    58
 90
        1
176
     1
 90
        2
176
     1
 90
        2
176
     1
 90
        0
176
     1
 40
0.6
176
     1
 40
30.0
176
     1
 62
     7
420
 16777215
176
     1
 90
        2
176
     1
 90
        2
176
     1
 62
     7
176
     1
 62
   257
176
     1
 90
        2
176
     1
 90
        1
176
     1
 40
40.0
176
     1
 90
        0
176
     1
 62
   257
176
     1
 40
1.0
176
     1
 90
        1
176
     1
 90
        6
176
     1
 90
        2
176
     1
 62
     7
176
     1
 90
        3
176
     1
 90
        0
176
     1
 90
        0
176
     1
290
     0
176
     1
 90
        1
176
     1
 40
0.0
176
     1
 90
        0
176
     1
290
     0
176
     1
290
     1
176
     1
290
     1
176
     1
290
     0
176
     1
290
     0
176
     1
290
     0
176
     1
290
     0
176
     1
290
     0
176
     1
290
     0
176
     1
 90
       50
176
     1
 40
0.0
176
     1
 40
1.0
176
     1
 90
        0
176
     1
 62
    18
420
        0
176
     1
 90
       50
176
     1
 90
        3
176
     1
 62
     5
420
      255
176
     1
290
     0
176
     1
 90
       50
176
     1
 90
       50
176
     1
 90
       50
176
     1
290
     0
176
     1
 90
       50
176
     1
 62
   256
176
     0
 40
1.0
176
     0
 90
        2
176
     1
  1
strokes_ogs.tif
176
     1
290
     0
176
     1
 40
1.0
176
     1
 40
1.0
176
     1
  0
VISUALSTYLE
  5
3B
102
{ACAD_REACTORS
330
2A
102
}
330
2A
100
AcDbVisualStyle
  2
JitterOff
 70
    20
177
     3
291
     1
 70
    58
 90
        2
176
     0
 90
        2
176
     0
 90
        0
176
     0
 90
        0
176
     0
 40
0.6
176
     0
 40
30.0
176
     0
 62
     7
420
 16777215
176
     0
 90
        1
176
     0
 90
        4
176
     0
 62
     7
176
     0
 62
   257
176
     0
 90
        1
176
     0
 90
        1
176
     0
 40
1.0
176
     0
 90
       10
176
     2
 62
     7
176
     0
 40
1.0
176
     0
 90
        1
176
     0
 90
        6
176
     0
 90
        2
176
     0
 62
     7
176
     0
 90
        5
176
     0
 90
        0
176
     0
 90
        0
176
     0
290
     0
176
     0
 90
        1
176
     0
 40
0.0
176
     0
 90
        0
176
     0
290
     0
176
     0
290
     1
176
     0
290
     1
176
     0
290
     0
176
     0
290
     0
176
     0
290
     0
176
     0
290
     0
176
     0
290
     0
176
     0
290
     0
176
     0
 90
       50
176
     0
 40
0.0
176
     0
 40
1.0
176
     0
 90
        0
176
     0
 62
    18
420
        0
176
     0
 90
       50
176
     0
 90
        3
176
     0
 62
     5
420
      255
176
     0
290
     0
176
     0
 90
       50
176
     0
 90
       50
176
     0
 90
       50
176
     0
290
     0
176
     0
 90
       50
176
     0
 62
   256
176
     0
 40
1.0
176
     0
 90
        2
176
     0
  1
strokes_ogs.tif
176
     0
290
     0
176
     0
 40
1.0
176
     0
 40
1.0
176
     0
  0
VISUALSTYLE
  5
38
102
{ACAD_REACTORS
330
2A
102
}
330
2A
100
AcDbVisualStyle
  2
Linepattern
 70
    14
177
     3
291
     1
 70
    58
 90
        2
176
     1
 90
        2
176
     1
 90
        0
176
     1
 90
        0
176
     1
 40
0.6
176
     1
 40
30.0
176
     1
 62
     7
420
 16777215
176
     1
 90
        1
176
     1
 90
        4
176
     1
 62
     7
176
     1
 62
   257
176
     1
 90
        7
176
     1
 90
        7
176
     1
 40
1.0
176
     1
 90
        8
176
     1
 62
     7
176
     1
 40
1.0
176
     1
 90
        1
176
     1
 90
        6
176
     1
 90
        2
176
     1
 62
     7
176
     1
 90
        5
176
     1
 90
        0
176
     1
 90
        0
176
     1
290
     0
176
     1
 90
        1
176
     1
 40
0.0
176
     1
 90
        0
176
     1
290
     0
176
     1
290
     1
176
     1
290
     1
176
     1
290
     0
176
     1
290
     0
176
     1
290
     0
176
     1
290
     0
176
     1
290
     0
176
     1
290
     0
176
     1
 90
       50
176
     1
 40
0.0
176
     1
 40
1.0
176
     1
 90
        0
176
     1
 62
    18
420
        0
176
     1
 90
       50
176
     1
 90
        3
176
     1
 62
     5
420
      255
176
     1
290
     0
176
     1
 90
       50
176
     1
 90
       50
176
     1
 90
       50
176
     1
290
     0
176
     1
 90
       50
176
     1
 62
   256
176
     0
 40
1.0
176
     0
 90
        2
176
     1
  1
strokes_ogs.tif
176
     1
290
     0
176
     1
 40
1.0
176
     1
 40
1.0
176
     1
  0
VISUALSTYLE
  5
3C
102
{ACAD_REACTORS
330
2A
102
}
330
2A
100
AcDbVisualStyle
  2
OverhangOff
 70
    21
177
     3
291
     1
 70
    58
 90
        2
176
     0
 90
        2
176
     0
 90
        0
176
     0
 90
        0
176
     0
 40
0.6
176
     0
 40
30.0
176
     0
 62
     7
420
 16777215
176
     0
 90
        1
176
     0
 90
        4
176
     0
 62
     7
176
     0
 62
   257
176
     0
 90
        1
176
     0
 90
        1
176
     0
 40
1.0
176
     0
 90
        9
176
     2
 62
     7
176
     0
 40
1.0
176
     0
 90
        1
176
     0
 90
        6
176
     0
 90
        2
176
     0
 62
     7
176
     0
 90
        5
176
     0
 90
        0
176
     0
 90
        0
176
     0
290
     0
176
     0
 90
        1
176
     0
 40
0.0
176
     0
 90
        0
176
     0
290
     0
176
     0
290
     1
176
     0
290
     1
176
     0
290
     0
176
     0
290
     0
176
     0
290
     0
176
     0
290
     0
176
     0
290
     0
176
     0
290
     0
176
     0
 90
       50
176
     0
 40
0.0
176
     0
 40
1.0
176
     0
 90
        0
176
     0
 62
    18
420
        0
176
     0
 90
       50
176
     0
 90
        3
176
     0
 62
     5
420
      255
176
     0
290
     0
176
     0
 90
       50
176
     0
 90
       50
176
     0
 90
       50
176
     0
290
     0
176
     0
 90
       50
176
     0
 62
   256
176
     0
 40
1.0
176
     0
 90
        2
176
     0
  1
strokes_ogs.tif
176
     0
290
     0
176
     0
 40
1.0
176
     0
 40
1.0
176
     0
  0
VISUALSTYLE
  5
33
102
{ACAD_REACTORS
330
2A
102
}
330
2A
100
AcDbVisualStyle
  2
Realistic
 70
     8
177
     3
291
     0
 70
    58
 90
        2
176
     1
 90
        3
176
     1
 90
        0
176
     1
 90
        2
176
     1
 40
0.6
176
     1
 40
30.0
176
     1
 62
     7
420
 16777215
176
     1
 90
        0
176
     1
 90
        0
176
     1
 62
     7
176
     1
 62
   257
176
     1
 90
        1
176
     1
 90
        1
176
     1
 40
1.0
176
     1
 90
        8
176
     1
 62
   257
176
     1
 40
1.0
176
     1
 90
        1
176
     1
 90
        6
176
     1
 90
        2
176
     1
 62
     7
176
     1
 90
        3
176
     1
 90
        0
176
     1
 90
        0
176
     1
290
     0
176
     1
 90
       13
176
     1
 40
0.0
176
     1
 90
        0
176
     1
290
     0
176
     1
290
     1
176
     1
290
     1
176
     1
290
     0
176
     1
290
     0
176
     1
290
     0
176
     1
290
     0
176
     1
290
     0
176
     1
290
     0
176
     1
 90
       50
176
     1
 40
0.0
176
     1
 40
1.0
176
     1
 90
        0
176
     1
 62
    18
420
        0
176
     1
 90
       50
176
     1
 90
        3
176
     1
 62
     5
420
      255
176
     1
290
     0
176
     1
 90
       50
176
     1
 90
       50
176
     1
 90
       50
176
     1
290
     0
176
     1
 90
       50
176
     1
 62
   256
176
     0
 40
1.0
176
     0
 90
        2
176
     1
  1
strokes_ogs.tif
176
     1
290
     0
176
     1
 40
1.0
176
     1
 40
1.0
176
     1
  0
VISUALSTYLE
  5
42
102
{ACAD_REACTORS
330
2A
102
}
330
2A
100
AcDbVisualStyle
  2
Shaded
 70
    27
177
     3
291
     0
 70
    58
 90
        2
176
     1
 90
        2
176
     1
 90
        1
176
     1
 90
        2
176
     1
 40
0.6
176
     1
 40
30.0
176
     1
 62
     7
420
 16777215
176
     1
 90
        0
176
     1
 90
        4
176
     1
 62
     7
176
     1
 62
   257
176
     1
 90
        1
176
     1
 90
        1
176
     1
 40
1.0
176
     1
 90
        8
176
     1
 62
   257
176
     1
 40
1.0
176
     1
 90
        1
176
     1
 90
        6
176
     1
 90
        2
176
     1
 62
     8
420
  7895160
176
     1
 90
        3
176
     1
 90
        0
176
     1
 90
        0
176
     1
290
     0
176
     1
 90
        5
176
     1
 40
0.0
176
     1
 90
        0
176
     1
290
     0
176
     1
290
     1
176
     1
290
     1
176
     1
290
     0
176
     1
290
     0
176
     1
290
     0
176
     1
290
     0
176
     1
290
     0
176
     1
290
     0
176
     1
 90
       50
176
     1
 40
0.0
176
     1
 40
1.0
176
     1
 90
        0
176
     1
 62
    18
420
        0
176
     1
 90
       50
176
     1
 90
        3
176
     1
 62
     5
420
      255
176
     1
290
     0
176
     1
 90
       50
176
     1
 90
       50
176
     1
 90
       50
176
     1
290
     0
176
     1
 90
       50
176
     1
 62
   256
176
     0
 40
1.0
176
     0
 90
        2
176
     1
  1
strokes_ogs.tif
176
     1
290
     0
176
     1
 40
1.0
176
     1
 40
1.0
176
     1
  0
VISUALSTYLE
  5
41
102
{ACAD_REACTORS
330
2A
102
}
330
2A
100
AcDbVisualStyle
  2
Shaded with edges
 70
    26
177
     3
291
     0
 70
    58
 90
        2
176
     1
 90
        2
176
     1
 90
        1
176
     1
 90
        2
176
     1
 40
0.6
176
     1
 40
30.0
176
     1
 62
     7
420
 16777215
176
     1
 90
        1
176
     1
 90
       10
176
     1
 62
     7
176
     1
 62
   257
176
     1
 90
        2
176
     1
 90
        1
176
     1
 40
1.0
176
     1
 90
        8
176
     1
 62
   257
176
     1
 40
1.0
176
     1
 90
        1
176
     1
 90
        6
176
     1
 90
        2
176
     1
 62
     7
176
     1
 90
        3
176
     1
 90
        0
176
     1
 90
        0
176
     1
290
     0
176
     1
 90
        5
176
     1
 40
0.0
176
     1
 90
        0
176
     1
290
     0
176
     1
290
     1
176
     1
290
     1
176
     1
290
     0
176
     1
290
     0
176
     1
290
     0
176
     1
290
     0
176
     1
290
     0
176
     1
290
     0
176
     1
 90
       50
176
     1
 40
0.0
176
     1
 40
1.0
176
     1
 90
        0
176
     1
 62
    18
420
        0
176
     1
 90
       50
176
     1
 90
        3
176
     1
 62
     5
420
      255
176
     1
290
     0
176
     1
 90
       50
176
     1
 90
       50
176
     1
 90
       50
176
     1
290
     0
176
     1
 90
       50
176
     1
 62
   256
176
     0
 40
1.0
176
     0
 90
        2
176
     1
  1
strokes_ogs.tif
176
     1
290
     0
176
     1
 40
1.0
176
     1
 40
1.0
176
     1
  0
VISUALSTYLE
  5
3E
102
{ACAD_REACTORS
330
2A
102
}
330
2A
100
AcDbVisualStyle
  2
Shades of Gray
 70
    23
177
     3
291
     0
 70
    58
 90
        2
176
     1
 90
        2
176
     1
 90
        3
176
     1
 90
        0
176
     1
 40
0.6
176
     1
 40
30.0
176
     1
 62
     7
420
 16777215
176
     1
 90
        2
176
     1
 90
        2
176
     1
 62
     7
176
     1
 62
     7
176
     1
 90
        1
176
     1
 90
        1
176
     1
 40
40.0
176
     1
 90
        8
176
     1
 62
     7
176
     1
 40
1.0
176
     1
 90
        1
176
     1
 90
        6
176
     1
 90
        2
176
     1
 62
     7
176
     1
 90
        3
176
     1
 90
        0
176
     1
 90
        0
176
     1
290
     0
176
     1
 90
        1
176
     1
 40
0.0
176
     1
 90
        0
176
     1
290
     0
176
     1
290
     1
176
     1
290
     1
176
     1
290
     0
176
     1
290
     0
176
     1
290
     0
176
     1
290
     0
176
     1
290
     0
176
     1
290
     0
176
     1
 90
       50
176
     1
 40
0.0
176
     1
 40
1.0
176
     1
 90
        0
176
     1
 62
    18
420
        0
176
     1
 90
       50
176
     1
 90
        3
176
     1
 62
     5
420
      255
176
     1
290
     0
176
     1
 90
       50
176
     1
 90
       50
176
     1
 90
       50
176
     1
290
     0
176
     1
 90
       50
176
     1
 62
   256
176
     0
 40
1.0
176
     0
 90
        2
176
     1
  1
strokes_ogs.tif
176
     1
290
     0
176
     1
 40
1.0
176
     1
 40
1.0
176
     1
  0
VISUALSTYLE
  5
3F
102
{ACAD_REACTORS
330
2A
102
}
330
2A
100
AcDbVisualStyle
  2
Sketchy
 70
    24
177
     3
291
     0
 70
    58
 90
        1
176
     1
 90
        2
176
     1
 90
        2
176
     1
 90
        0
176
     1
 40
0.6
176
     1
 40
30.0
176
     1
 62
     7
420
 16777215
176
     1
 90
        2
176
     1
 90
        2
176
     1
 62
     7
176
     1
 62
     7
176
     1
 90
        1
176
     1
 90
        1
176
     1
 40
40.0
176
     1
 90
       11
176
     1
 62
     7
176
     1
 40
1.0
176
     1
 90
        1
176
     1
 90
        6
176
     1
 90
        2
176
     1
 62
     7
176
     1
 90
        6
176
     1
 90
        0
176
     1
 90
        0
176
     1
290
     0
176
     1
 90
        1
176
     1
 40
0.0
176
     1
 90
        0
176
     1
290
     0
176
     1
290
     1
176
     1
290
     1
176
     1
290
     0
176
     1
290
     0
176
     1
290
     0
176
     1
290
     0
176
     1
290
     0
176
     1
290
     0
176
     1
 90
       50
176
     1
 40
0.0
176
     1
 40
1.0
176
     1
 90
        0
176
     1
 62
    18
420
        0
176
     1
 90
       50
176
     1
 90
        3
176
     1
 62
     5
420
      255
176
     1
290
     0
176
     1
 90
       50
176
     1
 90
       50
176
     1
 90
       50
176
     1
290
     0
176
     1
 90
       50
176
     1
 62
   256
176
     0
 40
1.0
176
     0
 90
        2
176
     1
  1
strokes_ogs.tif
176
     1
290
     0
176
     1
 40
1.0
176
     1
 40
1.0
176
     1
  0
VISUALSTYLE
  5
37
102
{ACAD_REACTORS
330
2A
102
}
330
2A
100
AcDbVisualStyle
  2
Thicken
 70
    13
177
     3
291
     1
 70
    58
 90
        2
176
     1
 90
        2
176
     1
 90
        0
176
     1
 90
        0
176
     1
 40
0.6
176
     1
 40
30.0
176
     1
 62
     7
420
 16777215
176
     1
 90
        1
176
     1
 90
        4
176
     1
 62
     7
176
     1
 62
   257
176
     1
 90
        1
176
     1
 90
        1
176
     1
 40
1.0
176
     1
 90
       12
176
     1
 62
     7
176
     1
 40
1.0
176
     1
 90
        1
176
     1
 90
        6
176
     1
 90
        2
176
     1
 62
     7
176
     1
 90
        5
176
     1
 90
        0
176
     1
 90
        0
176
     1
290
     0
176
     1
 90
        1
176
     1
 40
0.0
176
     1
 90
        0
176
     1
290
     0
176
     1
290
     1
176
     1
290
     1
176
     1
290
     0
176
     1
290
     0
176
     1
290
     0
176
     1
290
     0
176
     1
290
     0
176
     1
290
     0
176
     1
 90
       50
176
     1
 40
0.0
176
     1
 40
1.0
176
     1
 90
        0
176
     1
 62
    18
420
        0
176
     1
 90
       50
176
     1
 90
        3
176
     1
 62
     5
420
      255
176
     1
290
     0
176
     1
 90
       50
176
     1
 90
       50
176
     1
 90
       50
176
     1
290
     0
176
     1
 90
       50
176
     1
 62
   256
176
     0
 40
1.0
176
     0
 90
        2
176
     1
  1
strokes_ogs.tif
176
     1
290
     0
176
     1
 40
1.0
176
     1
 40
1.0
176
     1
  0
VISUALSTYLE
  5
30
102
{ACAD_REACTORS
330
2A
102
}
330
2A
100
AcDbVisualStyle
  2
Wireframe
 70
     5
177
     3
291
     0
 70
    58
 90
        0
176
     1
 90
        2
176
     1
 90
        0
176
     1
 90
        0
176
     1
 40
0.6
176
     1
 40
30.0
176
     1
 62
     7
420
 16777215
176
     1
 90
        1
176
     1
 90
        4
176
     1
 62
     7
176
     1
 62
   257
176
     1
 90
        1
176
     1
 90
        1
176
     1
 40
1.0
176
     1
 90
        0
176
     1
 62
   257
176
     1
 40
1.0
176
     1
 90
        1
176
     1
 90
        6
176
     1
 90
        2
176
     1
 62
     7
176
     1
 90
        3
176
     1
 90
        0
176
     1
 90
        0
176
     1
290
     0
176
     1
 90
        1
176
     1
 40
0.0
176
     1
 90
        0
176
     1
290
     0
176
     1
290
     1
176
     1
290
     1
176
     1
290
     0
176
     1
290
     0
176
     1
290
     0
176
     1
290
     0
176
     1
290
     0
176
     1
290
     0
176
     1
 90
       50
176
     1
 40
0.0
176
     1
 40
1.0
176
     1
 90
        0
176
     1
 62
    18
420
        0
176
     1
 90
       50
176
     1
 90
        3
176
     1
 62
     5
420
      255
176
     1
290
     0
176
     1
 90
       50
176
     1
 90
       50
176
     1
 90
       50
176
     1
290
     0
176
     1
 90
       50
176
     1
 62
   256
176
     0
 40
1.0
176
     0
 90
        2
176
     1
  1
strokes_ogs.tif
176
     1
290
     0
176
     1
 40
1.0
176
     1
 40
1.0
176
     1
  0
VISUALSTYLE
  5
40
102
{ACAD_REACTORS
330
2A
102
}
330
2A
100
AcDbVisualStyle
  2
X-Ray
 70
    25
177
     3
291
     0
 70
    58
 90
        2
176
     1
 90
        2
176
     1
 90
        1
176
     1
 90
        1
176
     1
 40
0.5
176
     1
 40
30.0
176
     1
 62
     7
420
 16777215
176
     1
 90
        1
176
     1
 90
        0
176
     1
 62
     7
176
     1
 62
   257
176
     1
 90
        1
176
     1
 90
        1
176
     1
 40
1.0
176
     1
 90
        8
176
     1
 62
     7
176
     1
 40
1.0
176
     1
 90
        1
176
     1
 90
        6
176
     1
 90
        2
176
     1
 62
     7
176
     1
 90
        3
176
     1
 90
        0
176
     1
 90
        0
176
     1
290
     0
176
     1
 90
       13
176
     1
 40
0.0
176
     1
 90
        0
176
     1
290
     0
176
     1
290
     1
176
     1
290
     1
176
     1
290
     0
176
     1
290
     0
176
     1
290
     0
176
     1
290
     0
176
     1
290
     0
176
     1
290
     0
176
     1
 90
       50
176
     1
 40
0.0
176
     1
 40
1.0
176
     1
 90
        0
176
     1
 62
    18
420
        0
176
     1
 90
       50
176
     1
 90
        3
176
     1
 62
     5
420
      255
176
     1
290
     0
176
     1
 90
       50
176
     1
 90
       50
176
     1
 90
       50
176
     1
290
     0
176
     1
 90
       50
176
     1
 62
   256
176
     0
 40
1.0
176
     0
 90
        2
176
     1
  1
strokes_ogs.tif
176
     1
290
     0
176
     1
 40
1.0
176
     1
 40
1.0
176
     1
  0
DICTIONARYVAR
  5
A1
102
{ACAD_REACTORS
330
A0
102
}
330
A0
100
DictionaryVariables
280
     0
  1
1:1
  0
DICTIONARYVAR
  5
A9
102
{ACAD_REACTORS
330
A0
102
}
330
A0
100
DictionaryVariables
280
     0
  1
3.500000
  0
DICTIONARYVAR
  5
AA
102
{ACAD_REACTORS
330
A0
102
}
330
A0
100
DictionaryVariables
280
     0
  1
acadiso.lin
  0
DICTIONARYVAR
  5
A6
102
{ACAD_REACTORS
330
A0
102
}
330
A0
100
DictionaryVariables
280
     0
  1
Standard
  0
DICTIONARYVAR
  5
A5
102
{ACAD_REACTORS
330
A0
102
}
330
A0
100
DictionaryVariables
280
     0
  1
Standard
  0
DICTIONARY
  5
A2
330
5A
100
AcDbDictionary
280
     1
281
     1
  3
ACAD_ROUNDTRIP_2008_TABLESTYLE_CELLSTYLEMAP
360
A3
  0
CELLSTYLEMAP
  5
A3
102
{ACAD_REACTORS
330
A2
102
}
330
A2
100
AcDbCellStyleMap
 90
        3
300
CELLSTYLE
  1
TABLEFORMAT_BEGIN
 90
        5
170
     1
 91
        0
 92
    32768
 62
   257
 93
        1
300
CONTENTFORMAT
  1
CONTENTFORMAT_BEGIN
 90
        0
 91
        0
 92
        4
 93
        0
300

 40
0.0
140
1.0
 94
        5
 62
     0
340
11
144
6.0
309
CONTENTFORMAT_END
171
     1
301
MARGIN
  1
CELLMARGIN_BEGIN
 40
1.5
 40
1.5
 40
1.5
 40
1.5
 40
1.5
 40
1.5
309
CELLMARGIN_END
 94
        6
 95
        1
302
GRIDFORMAT
  1
GRIDFORMAT_BEGIN
 90
        0
 91
        1
 62
     0
 92
       -2
340
14
 93
        0
 40
0.045
309
GRIDFORMAT_END
 95
        2
302
GRIDFORMAT
  1
GRIDFORMAT_BEGIN
 90
        0
 91
        1
 62
     0
 92
       -2
340
14
 93
        0
 40
0.045
309
GRIDFORMAT_END
 95
        4
302
GRIDFORMAT
  1
GRIDFORMAT_BEGIN
 90
        0
 91
        1
 62
     0
 92
       -2
340
14
 93
        0
 40
0.045
309
GRIDFORMAT_END
 95
        8
302
GRIDFORMAT
  1
GRIDFORMAT_BEGIN
 90
        0
 91
        1
 62
     0
 92
       -2
340
14
 93
        0
 40
0.045
309
GRIDFORMAT_END
 95
       16
302
GRIDFORMAT
  1
GRIDFORMAT_BEGIN
 90
        0
 91
        1
 62
     0
 92
       -2
340
14
 93
        0
 40
0.045
309
GRIDFORMAT_END
 95
       32
302
GRIDFORMAT
  1
GRIDFORMAT_BEGIN
 90
        0
 91
        1
 62
     0
 92
       -2
340
14
 93
        0
 40
0.045
309
GRIDFORMAT_END
309
TABLEFORMAT_END
  1
CELLSTYLE_BEGIN
 90
        1
 91
        1
300
_TITLE
309
CELLSTYLE_END
300
CELLSTYLE
  1
TABLEFORMAT_BEGIN
 90
        5
170
     1
 91
        0
 92
        0
 62
   257
 93
        1
300
CONTENTFORMAT
  1
CONTENTFORMAT_BEGIN
 90
        0
 91
        0
 92
        4
 93
        0
300

 40
0.0
140
1.0
 94
        5
 62
     0
340
11
144
4.5
309
CONTENTFORMAT_END
171
     1
301
MARGIN
  1
CELLMARGIN_BEGIN
 40
1.5
 40
1.5
 40
1.5
 40
1.5
 40
1.5
 40
1.5
309
CELLMARGIN_END
 94
        6
 95
        1
302
GRIDFORMAT
  1
GRIDFORMAT_BEGIN
 90
        0
 91
        1
 62
     0
 92
       -2
340
14
 93
        0
 40
0.045
309
GRIDFORMAT_END
 95
        2
302
GRIDFORMAT
  1
GRIDFORMAT_BEGIN
 90
        0
 91
        1
 62
     0
 92
       -2
340
14
 93
        0
 40
0.045
309
GRIDFORMAT_END
 95
        4
302
GRIDFORMAT
  1
GRIDFORMAT_BEGIN
 90
        0
 91
        1
 62
     0
 92
       -2
340
14
 93
        0
 40
0.045
309
GRIDFORMAT_END
 95
        8
302
GRIDFORMAT
  1
GRIDFORMAT_BEGIN
 90
        0
 91
        1
 62
     0
 92
       -2
340
14
 93
        0
 40
0.045
309
GRIDFORMAT_END
 95
       16
302
GRIDFORMAT
  1
GRIDFORMAT_BEGIN
 90
        0
 91
        1
 62
     0
 92
       -2
340
14
 93
        0
 40
0.045
309
GRIDFORMAT_END
 95
       32
302
GRIDFORMAT
  1
GRIDFORMAT_BEGIN
 90
        0
 91
        1
 62
     0
 92
       -2
340
14
 93
        0
 40
0.045
309
GRIDFORMAT_END
309
TABLEFORMAT_END
  1
CELLSTYLE_BEGIN
 90
        2
 91
        1
300
_HEADER
309
CELLSTYLE_END
300
CELLSTYLE
  1
TABLEFORMAT_BEGIN
 90
        5
170
     1
 91
        0
 92
        0
 62
   257
 93
        1
300
CONTENTFORMAT
  1
CONTENTFORMAT_BEGIN
 90
        0
 91
        0
 92
        4
 93
        0
300

 40
0.0
140
1.0
 94
        2
 62
     0
340
11
144
4.5
309
CONTENTFORMAT_END
171
     1
301
MARGIN
  1
CELLMARGIN_BEGIN
 40
1.5
 40
1.5
 40
1.5
 40
1.5
 40
1.5
 40
1.5
309
CELLMARGIN_END
 94
        6
 95
        1
302
GRIDFORMAT
  1
GRIDFORMAT_BEGIN
 90
        0
 91
        1
 62
     0
 92
       -2
340
14
 93
        0
 40
0.045
309
GRIDFORMAT_END
 95
        2
302
GRIDFORMAT
  1
GRIDFORMAT_BEGIN
 90
        0
 91
        1
 62
     0
 92
       -2
340
14
 93
        0
 40
0.045
309
GRIDFORMAT_END
 95
        4
302
GRIDFORMAT
  1
GRIDFORMAT_BEGIN
 90
        0
 91
        1
 62
     0
 92
       -2
340
14
 93
        0
 40
0.045
309
GRIDFORMAT_END
 95
        8
302
GRIDFORMAT
  1
GRIDFORMAT_BEGIN
 90
        0
 91
        1
 62
     0
 92
       -2
340
14
 93
        0
 40
0.045
309
GRIDFORMAT_END
 95
       16
302
GRIDFORMAT
  1
GRIDFORMAT_BEGIN
 90
        0
 91
        1
 62
     0
 92
       -2
340
14
 93
        0
 40
0.045
309
GRIDFORMAT_END
 95
       32
302
GRIDFORMAT
  1
GRIDFORMAT_BEGIN
 90
        0
 91
        1
 62
     0
 92
       -2
340
14
 93
        0
 40
0.045
309
GRIDFORMAT_END
309
TABLEFORMAT_END
  1
CELLSTYLE_BEGIN
 90
        3
 91
        2
300
_DATA
309
CELLSTYLE_END
  0
ENDSEC
  0
EOF
