  0
SECTION
  2
HEADER
  9
$ACADVER
  1
AC1027
  9
$ACADMAINTVER
 70
   105
  9
$DWGCODEPAGE
  3
ANSI_932
  9
$LASTSAVEDBY
  1
a.yasuda
  9
$REQUIREDVERSIONS
160
                 0
  9
$INSBASE
 10
0.0
 20
0.0
 30
0.0
  9
$EXTMIN
 10
0.0
 20
0.0
 30
0.0
  9
$EXTMAX
 10
302.9997823349792
 20
216.0016055409748
 30
0.0
  9
$LIMMIN
 10
0.0
 20
0.0
  9
$LIMMAX
 10
302.9997823349792
 20
216.0016055409748
  9
$ORTHOMODE
 70
     0
  9
$REGENMODE
 70
     1
  9
$FILLMODE
 70
     1
  9
$QTEXTMODE
 70
     0
  9
$MIRRTEXT
 70
     1
  9
$LTSCALE
 40
1.0
  9
$ATTMODE
 70
     1
  9
$TEXTSIZE
 40
2.5
  9
$TRACEWID
 40
1.0
  9
$TEXTSTYLE
  7
Standard
  9
$CLAYER
  8
0
  9
$CELTYPE
  6
ByLayer
  9
$CECOLOR
 62
   256
  9
$CELTSCALE
 40
1.0
  9
$DISPSILH
 70
     0
  9
$DIMSCALE
 40
1.0
  9
$DIMASZ
 40
2.5
  9
$DIMEXO
 40
0.625
  9
$DIMDLI
 40
3.75
  9
$DIMRND
 40
0.0
  9
$DIMDLE
 40
0.0
  9
$DIMEXE
 40
1.25
  9
$DIMTP
 40
0.0
  9
$DIMTM
 40
0.0
  9
$DIMTXT
 40
2.5
  9
$DIMCEN
 40
2.5
  9
$DIMTSZ
 40
0.0
  9
$DIMTOL
 70
     0
  9
$DIMLIM
 70
     0
  9
$DIMTIH
 70
     0
  9
$DIMTOH
 70
     0
  9
$DIMSE1
 70
     0
  9
$DIMSE2
 70
     0
  9
$DIMTAD
 70
     1
  9
$DIMZIN
 70
     8
  9
$DIMBLK
  1

  9
$DIMASO
 70
     1
  9
$DIMSHO
 70
     1
  9
$DIMPOST
  1

  9
$DIMAPOST
  1

  9
$DIMALT
 70
     0
  9
$DIMALTD
 70
     3
  9
$DIMALTF
 40
0.03937007874016
  9
$DIMLFAC
 40
1.0
  9
$DIMTOFL
 70
     1
  9
$DIMTVP
 40
0.0
  9
$DIMTIX
 70
     0
  9
$DIMSOXD
 70
     0
  9
$DIMSAH
 70
     0
  9
$DIMBLK1
  1

  9
$DIMBLK2
  1

  9
$DIMSTYLE
  2
ISO-25
  9
$DIMCLRD
 70
     0
  9
$DIMCLRE
 70
     0
  9
$DIMCLRT
 70
     0
  9
$DIMTFAC
 40
1.0
  9
$DIMGAP
 40
0.625
  9
$DIMJUST
 70
     0
  9
$DIMSD1
 70
     0
  9
$DIMSD2
 70
     0
  9
$DIMTOLJ
 70
     0
  9
$DIMTZIN
 70
     8
  9
$DIMALTZ
 70
     0
  9
$DIMALTTZ
 70
     0
  9
$DIMUPT
 70
     0
  9
$DIMDEC
 70
     2
  9
$DIMTDEC
 70
     2
  9
$DIMALTU
 70
     2
  9
$DIMALTTD
 70
     3
  9
$DIMTXSTY
  7
Standard
  9
$DIMAUNIT
 70
     0
  9
$DIMADEC
 70
     0
  9
$DIMALTRND
 40
0.0
  9
$DIMAZIN
 70
     0
  9
$DIMDSEP
 70
    44
  9
$DIMATFIT
 70
     3
  9
$DIMFRAC
 70
     0
  9
$DIMLDRBLK
  1

  9
$DIMLUNIT
 70
     2
  9
$DIMLWD
 70
    -2
  9
$DIMLWE
 70
    -2
  9
$DIMTMOVE
 70
     0
  9
$DIMFXL
 40
1.0
  9
$DIMFXLON
 70
     0
  9
$DIMJOGANG
 40
0.7853981633974483
  9
$DIMTFILL
 70
     0
  9
$DIMTFILLCLR
 70
     0
  9
$DIMARCSYM
 70
     0
  9
$DIMLTYPE
  6

  9
$DIMLTEX1
  6

  9
$DIMLTEX2
  6

  9
$DIMTXTDIRECTION
 70
     0
  9
$LUNITS
 70
     2
  9
$LUPREC
 70
     4
  9
$SKETCHINC
 40
1.0
  9
$FILLETRAD
 40
0.0
  9
$AUNITS
 70
     0
  9
$AUPREC
 70
     0
  9
$MENU
  1
.
  9
$ELEVATION
 40
0.0
  9
$PELEVATION
 40
0.0
  9
$THICKNESS
 40
0.0
  9
$LIMCHECK
 70
     0
  9
$CHAMFERA
 40
0.0
  9
$CHAMFERB
 40
0.0
  9
$CHAMFERC
 40
0.0
  9
$CHAMFERD
 40
0.0
  9
$SKPOLY
 70
     0
  9
$TDCREATE
 40
2459873.45757154
  9
$TDUCREATE
 40
2459873.08257154
  9
$TDUPDATE
 40
2459873.457571574
  9
$TDUUPDATE
 40
2459873.082571574
  9
$TDINDWG
 40
0.0000000116
  9
$TDUSRTIMER
 40
0.0000000116
  9
$USRTIMER
 70
     1
  9
$ANGBASE
 50
0.0
  9
$ANGDIR
 70
     0
  9
$PDMODE
 70
     0
  9
$PDSIZE
 40
0.0
  9
$PLINEWID
 40
0.0
  9
$SPLFRAME
 70
     0
  9
$SPLINETYPE
 70
     6
  9
$SPLINESEGS
 70
     8
  9
$HANDSEED
  5
A3
  9
$SURFTAB1
 70
     6
  9
$SURFTAB2
 70
     6
  9
$SURFTYPE
 70
     6
  9
$SURFU
 70
     6
  9
$SURFV
 70
     6
  9
$UCSBASE
  2

  9
$UCSNAME
  2

  9
$UCSORG
 10
0.0
 20
0.0
 30
0.0
  9
$UCSXDIR
 10
1.0
 20
0.0
 30
0.0
  9
$UCSYDIR
 10
0.0
 20
1.0
 30
0.0
  9
$UCSORTHOREF
  2

  9
$UCSORTHOVIEW
 70
     0
  9
$UCSORGTOP
 10
0.0
 20
0.0
 30
0.0
  9
$UCSORGBOTTOM
 10
0.0
 20
0.0
 30
0.0
  9
$UCSORGLEFT
 10
0.0
 20
0.0
 30
0.0
  9
$UCSORGRIGHT
 10
0.0
 20
0.0
 30
0.0
  9
$UCSORGFRONT
 10
0.0
 20
0.0
 30
0.0
  9
$UCSORGBACK
 10
0.0
 20
0.0
 30
0.0
  9
$PUCSBASE
  2

  9
$PUCSNAME
  2

  9
$PUCSORG
 10
0.0
 20
0.0
 30
0.0
  9
$PUCSXDIR
 10
1.0
 20
0.0
 30
0.0
  9
$PUCSYDIR
 10
0.0
 20
1.0
 30
0.0
  9
$PUCSORTHOREF
  2

  9
$PUCSORTHOVIEW
 70
     0
  9
$PUCSORGTOP
 10
0.0
 20
0.0
 30
0.0
  9
$PUCSORGBOTTOM
 10
0.0
 20
0.0
 30
0.0
  9
$PUCSORGLEFT
 10
0.0
 20
0.0
 30
0.0
  9
$PUCSORGRIGHT
 10
0.0
 20
0.0
 30
0.0
  9
$PUCSORGFRONT
 10
0.0
 20
0.0
 30
0.0
  9
$PUCSORGBACK
 10
0.0
 20
0.0
 30
0.0
  9
$USERI1
 70
     0
  9
$USERI2
 70
     0
  9
$USERI3
 70
     0
  9
$USERI4
 70
     0
  9
$USERI5
 70
     0
  9
$USERR1
 40
0.0
  9
$USERR2
 40
0.0
  9
$USERR3
 40
0.0
  9
$USERR4
 40
0.0
  9
$USERR5
 40
0.0
  9
$WORLDVIEW
 70
     1
  9
$SHADEDGE
 70
     3
  9
$SHADEDIF
 70
    70
  9
$TILEMODE
 70
     1
  9
$MAXACTVP
 70
    64
  9
$PINSBASE
 10
0.0
 20
0.0
 30
0.0
  9
$PLIMCHECK
 70
     0
  9
$PEXTMIN
 10
1.000000000000000E+20
 20
1.000000000000000E+20
 30
1.000000000000000E+20
  9
$PEXTMAX
 10
-1.000000000000000E+20
 20
-1.000000000000000E+20
 30
-1.000000000000000E+20
  9
$PLIMMIN
 10
0.0
 20
0.0
  9
$PLIMMAX
 10
420.0
 20
297.0
  9
$UNITMODE
 70
     0
  9
$VISRETAIN
 70
     1
  9
$PLINEGEN
 70
     0
  9
$PSLTSCALE
 70
     1
  9
$TREEDEPTH
 70
  3020
  9
$CMLSTYLE
  2
Standard
  9
$CMLJUST
 70
     0
  9
$CMLSCALE
 40
20.0
  9
$PROXYGRAPHICS
 70
     1
  9
$MEASUREMENT
 70
     1
  9
$CELWEIGHT
370
    -1
  9
$ENDCAPS
280
     0
  9
$JOINSTYLE
280
     0
  9
$LWDISPLAY
290
     0
  9
$INSUNITS
 70
     4
  9
$HYPERLINKBASE
  1

  9
$STYLESHEET
  1

  9
$XEDIT
290
     1
  9
$CEPSNTYPE
380
     0
  9
$PSTYLEMODE
290
     1
  9
$FINGERPRINTGUID
  2
{6eff28f5-0227-48e6-b117-e0d2a73452f7}
  9
$VERSIONGUID
  2
{FAEB1C32-E019-11D5-929B-00C0DF256EC4}
  9
$EXTNAMES
290
     1
  9
$PSVPSCALE
 40
0.0
  9
$OLESTARTUP
290
     0
  9
$SORTENTS
280
   127
  9
$INDEXCTL
280
     0
  9
$HIDETEXT
280
     1
  9
$XCLIPFRAME
280
     2
  9
$HALOGAP
280
     0
  9
$OBSCOLOR
 70
   257
  9
$OBSLTYPE
280
     0
  9
$INTERSECTIONDISPLAY
280
     0
  9
$INTERSECTIONCOLOR
 70
   257
  9
$DIMASSOC
280
     2
  9
$PROJECTNAME
  1

  9
$CAMERADISPLAY
290
     0
  9
$LENSLENGTH
 40
50.0
  9
$CAMERAHEIGHT
 40
0.0
  9
$STEPSPERSEC
 40
2.0
  9
$STEPSIZE
 40
6.0
  9
$3DDWFPREC
 40
2.0
  9
$PSOLWIDTH
 40
5.0
  9
$PSOLHEIGHT
 40
80.0
  9
$LOFTANG1
 40
1.570796326794897
  9
$LOFTANG2
 40
1.570796326794897
  9
$LOFTMAG1
 40
0.0
  9
$LOFTMAG2
 40
0.0
  9
$LOFTPARAM
 70
     7
  9
$LOFTNORMALS
280
     1
  9
$LATITUDE
 40
37.795
  9
$LONGITUDE
 40
-122.394
  9
$NORTHDIRECTION
 40
0.0
  9
$TIMEZONE
 70
 -8000
  9
$LIGHTGLYPHDISPLAY
280
     1
  9
$TILEMODELIGHTSYNCH
280
     1
  9
$CMATERIAL
347
44
  9
$SOLIDHIST
280
     0
  9
$SHOWHIST
280
     1
  9
$DWFFRAME
280
     2
  9
$DGNFRAME
280
     2
  9
$REALWORLDSCALE
290
     1
  9
$INTERFERECOLOR
 62
   256
  9
$CSHADOW
280
     0
  9
$SHADOWPLANELOCATION
 40
0.0
  0
ENDSEC
  0
SECTION
  2
CLASSES
  0
CLASS
  1
ACDBDICTIONARYWDFLT
  2
AcDbDictionaryWithDefault
  3
ObjectDBX Classes
 90
        0
 91
        3
280
     0
281
     0
  0
CLASS
  1
VISUALSTYLE
  2
AcDbVisualStyle
  3
ObjectDBX Classes
 90
     4095
 91
        3
280
     0
281
     0
  0
CLASS
  1
MATERIAL
  2
AcDbMaterial
  3
ObjectDBX Classes
 90
     1153
 91
        3
280
     0
281
     0
  0
CLASS
  1
SCALE
  2
AcDbScale
  3
ObjectDBX Classes
 90
     1153
 91
        3
280
     0
281
     0
  0
CLASS
  1
TABLESTYLE
  2
AcDbTableStyle
  3
ObjectDBX Classes
 90
     4095
 91
        3
280
     0
281
     0
  0
CLASS
  1
MLEADERSTYLE
  2
AcDbMLeaderStyle
  3
ACDB_MLEADERSTYLE_CLASS
 90
     4095
 91
        3
280
     0
281
     0
  0
CLASS
  1
SUN
  2
AcDbSun
  3
SCENEOE
 90
     1153
 91
        3
280
     0
281
     0
  0
CLASS
  1
DICTIONARYVAR
  2
AcDbDictionaryVar
  3
ObjectDBX Classes
 90
        0
 91
        3
280
     0
281
     0
  0
CLASS
  1
CELLSTYLEMAP
  2
AcDbCellStyleMap
  3
ObjectDBX Classes
 90
     1152
 91
        3
280
     0
281
     0
  0
ENDSEC
  0
SECTION
  2
TABLES
  0
TABLE
  2
VPORT
  5
8
330
0
100
AcDbSymbolTable
 70
     1
  0
VPORT
  5
29
330
8
100
AcDbSymbolTableRecord
100
AcDbViewportTableRecord
  2
*Active
 70
     0
 10
0.0
 20
0.0
 11
1.0
 21
1.0
 12
151.4998911674896
 22
108.0008027704874
 13
0.0
 23
0.0
 14
10.0
 24
10.0
 15
10.0
 25
10.0
 16
0.0
 26
0.0
 36
1.0
 17
0.0
 27
0.0
 37
0.0
 40
237.6017660950723
 41
1.402766343222857
 42
50.0
 43
0.0
 44
0.0
 50
0.0
 51
0.0
 71
     0
 72
 10000
 73
     1
 74
     3
 75
     0
 76
     0
 77
     0
 78
     0
281
     0
 65
     1
110
0.0
120
0.0
130
0.0
111
1.0
121
0.0
131
0.0
112
0.0
122
1.0
132
0.0
 79
     0
146
0.0
348
2F
 60
     3
 61
     5
292
     1
282
     1
141
0.0
142
0.0
 63
   250
361
5D
  0
ENDTAB
  0
TABLE
  2
LTYPE
  5
5
330
0
100
AcDbSymbolTable
 70
     2
  0
LTYPE
  5
14
330
5
100
AcDbSymbolTableRecord
100
AcDbLinetypeTableRecord
  2
ByBlock
 70
     0
  3

 72
    65
 73
     0
 40
0.0
  0
LTYPE
  5
15
330
5
100
AcDbSymbolTableRecord
100
AcDbLinetypeTableRecord
  2
ByLayer
 70
     0
  3

 72
    65
 73
     0
 40
0.0
  0
LTYPE
  5
16
330
5
100
AcDbSymbolTableRecord
100
AcDbLinetypeTableRecord
  2
Continuous
 70
     0
  3
Solid line
 72
    65
 73
     0
 40
0.0
  0
LTYPE
  5
5F
330
5
100
AcDbSymbolTableRecord
100
AcDbLinetypeTableRecord
  2
UserDefined01
 70
     0
  3
----------------                
 72
    65
 73
     2
 40
0.7055555449591743
 49
0.3527777724795871
 74
     0
 49
-0.3527777724795871
 74
     0
  0
ENDTAB
  0
TABLE
  2
LAYER
  5
2
330
0
100
AcDbSymbolTable
 70
     3
  0
LAYER
  5
10
330
2
100
AcDbSymbolTableRecord
100
AcDbLayerTableRecord
  2
0
 70
     0
 62
     7
  6
Continuous
370
    -3
390
F
347
46
348
0
  0
LAYER
  5
60
330
2
100
AcDbSymbolTableRecord
100
AcDbLayerTableRecord
  2
外枠
 70
     0
 62
     7
  6
Continuous
370
    -3
390
F
347
46
348
0
  0
LAYER
  5
61
330
2
100
AcDbSymbolTableRecord
100
AcDbLayerTableRecord
  2
ISS138金台
 70
     0
 62
     7
  6
Continuous
370
    -3
390
F
347
46
348
0
  0
ENDTAB
  0
TABLE
  2
STYLE
  5
3
330
0
100
AcDbSymbolTable
 70
     2
  0
STYLE
  5
11
330
3
100
AcDbSymbolTableRecord
100
AcDbTextStyleTableRecord
  2
Standard
 70
     0
 40
0.0
 41
1.0
 50
0.0
 71
     0
 42
2.5
  3

  4

  0
STYLE
  5
5E
330
3
100
AcDbSymbolTableRecord
100
AcDbTextStyleTableRecord
  2
MS Gothic
 70
     0
 40
1.0
 41
1.0
 50
0.0
 71
     0
 42
2.5
  3
msgothic.ttc
  4

1001
ACAD
1000
MS Gothic
1071
    32817
  0
ENDTAB
  0
TABLE
  2
VIEW
  5
6
330
0
100
AcDbSymbolTable
 70
     0
  0
ENDTAB
  0
TABLE
  2
UCS
  5
7
330
0
100
AcDbSymbolTable
 70
     0
  0
ENDTAB
  0
TABLE
  2
APPID
  5
9
330
0
100
AcDbSymbolTable
 70
     1
  0
APPID
  5
12
330
9
100
AcDbSymbolTableRecord
100
AcDbRegAppTableRecord
  2
ACAD
 70
     0
  0
ENDTAB
  0
TABLE
  2
DIMSTYLE
  5
A
330
0
100
AcDbSymbolTable
 70
     1
100
AcDbDimStyleTable
  0
DIMSTYLE
105
27
330
A
100
AcDbSymbolTableRecord
100
AcDbDimStyleTableRecord
  2
ISO-25
 70
     0
 41
2.5
 42
0.625
 43
3.75
 44
1.25
 73
     0
 74
     0
 77
     1
 78
     8
140
2.5
141
2.5
143
0.03937007874016
147
0.625
171
     3
172
     1
178
     0
271
     2
272
     2
274
     3
278
    44
283
     0
284
     8
340
11
  0
ENDTAB
  0
TABLE
  2
BLOCK_RECORD
  5
1
330
0
100
AcDbSymbolTable
 70
     1
  0
BLOCK_RECORD
  5
1F
330
1
100
AcDbSymbolTableRecord
100
AcDbBlockTableRecord
  2
*Model_Space
340
22
 70
     0
280
     1
281
     0
  0
BLOCK_RECORD
  5
1B
330
1
100
AcDbSymbolTableRecord
100
AcDbBlockTableRecord
  2
*Paper_Space
340
1E
 70
     0
280
     1
281
     0
  0
BLOCK_RECORD
  5
23
330
1
100
AcDbSymbolTableRecord
100
AcDbBlockTableRecord
  2
*Paper_Space0
340
26
 70
     0
280
     1
281
     0
  0
ENDTAB
  0
ENDSEC
  0
SECTION
  2
BLOCKS
  0
BLOCK
  5
20
330
1F
100
AcDbEntity
  8
0
100
AcDbBlockBegin
  2
*Model_Space
 70
     0
 10
0.0
 20
0.0
 30
0.0
  3
*Model_Space
  1

  0
ENDBLK
  5
21
330
1F
100
AcDbEntity
  8
0
100
AcDbBlockEnd
  0
BLOCK
  5
1C
330
1B
100
AcDbEntity
 67
     1
  8
0
100
AcDbBlockBegin
  2
*Paper_Space
 70
     0
 10
0.0
 20
0.0
 30
0.0
  3
*Paper_Space
  1

  0
ENDBLK
  5
1D
330
1B
100
AcDbEntity
 67
     1
  8
0
100
AcDbBlockEnd
  0
BLOCK
  5
24
330
23
100
AcDbEntity
  8
0
100
AcDbBlockBegin
  2
*Paper_Space0
 70
     0
 10
0.0
 20
0.0
 30
0.0
  3
*Paper_Space0
  1

  0
ENDBLK
  5
25
330
23
100
AcDbEntity
  8
0
100
AcDbBlockEnd
  0
ENDSEC
  0
SECTION
  2
ENTITIES
  0
LWPOLYLINE
  5
62
330
1F
100
AcDbEntity
  8
外枠
  6
Continuous
 62
   250
420
  2367521
370
   100
100
AcDbPolyline
 90
        5
 70
     0
 43
0.0
 10
281.9999662644599
 20
13.29407825637392
 10
20.99981607051935
 20
13.29407825637392
 10
20.99981607051935
 20
193.0018900389566
 10
281.9999662644599
 20
193.0018900389566
 10
281.9999662644599
 20
13.29407825637392
  0
LINE
  5
63
330
1F
100
AcDbEntity
  8
外枠
  6
Continuous
 62
   250
420
  2367521
370
    25
100
AcDbLine
 10
223.3097080177524
 20
174.0786160074276
 30
0.0
 11
281.9999232007669
 21
174.0786160074276
 31
0.0
  0
LINE
  5
64
330
1F
100
AcDbEntity
  8
外枠
  6
Continuous
 62
   250
420
  2367521
370
    25
100
AcDbLine
 10
223.3097080177524
 20
50.37109023844297
 30
0.0
 11
281.9999232007669
 21
50.37109023844297
 31
0.0
  0
LINE
  5
65
330
1F
100
AcDbEntity
  8
外枠
  6
Continuous
 62
   250
420
  2367521
370
    25
100
AcDbLine
 10
223.3097080177524
 20
36.25997933925949
 30
0.0
 11
281.9999232007669
 21
36.25997933925949
 31
0.0
  0
LINE
  5
66
330
1F
100
AcDbEntity
  8
外枠
  6
Continuous
 62
   250
420
  2367521
370
    50
100
AcDbLine
 10
223.0158413772006
 20
193.3637327187979
 30
0.0
 11
223.0158413772006
 21
13.29396655992039
 31
0.0
  0
TEXT
  5
67
330
1F
100
AcDbEntity
  8
外枠
  6
Continuous
 62
   250
420
  2367521
100
AcDbText
 10
224.7190965599536
 20
186.6888051931772
 30
0.0
 40
2.688166626294454
  1
品名：
 41
0.974166170756022
  7
MS Gothic
100
AcDbText
  0
TEXT
  5
68
330
1F
100
AcDbEntity
  8
外枠
  6
Continuous
 62
   250
420
  2367521
100
AcDbText
 10
224.7190965599536
 20
168.1080059455944
 30
0.0
 40
2.688166626294454
  1
仕様：
 41
0.9978878657023111
  7
MS Gothic
100
AcDbText
  0
TEXT
  5
69
330
1F
100
AcDbEntity
  8
外枠
  6
Continuous
 62
   250
420
  2367521
100
AcDbText
 10
224.7190965599536
 20
44.16660664327048
 30
0.0
 40
2.688166626294454
  1
縮尺：
 41
0.9939999262491861
  7
MS Gothic
100
AcDbText
  0
TEXT
  5
6A
330
1F
100
AcDbEntity
  8
外枠
  6
Continuous
 62
   250
420
  2367521
100
AcDbText
 10
250.2379519709696
 20
40.59738467878129
 30
0.0
 40
2.150533301035563
  1
1/1
 41
1.000003814697266
  7
MS Gothic
100
AcDbText
  0
TEXT
  5
6B
330
1F
100
AcDbEntity
  8
外枠
  6
Continuous
 62
   250
420
  2367521
100
AcDbText
 10
232.7757967427735
 20
181.9845273775436
 30
0.0
 40
2.688166626294454
  1
アドロック103(U)
 41
1.052284526824951
  7
MS Gothic
100
AcDbText
  0
TEXT
  5
6C
330
1F
100
AcDbEntity
  8
外枠
  6
Continuous
 62
   250
420
  2367521
100
AcDbText
 10
226.1633020978884
 20
24.25683874973963
 30
0.0
 40
2.553758294979732
  1
ヤスダインテリアサプライ株式会社
 41
1.0194908945184
  7
MS Gothic
100
AcDbText
  0
TEXT
  5
6D
330
1F
100
AcDbEntity
  8
外枠
  6
Continuous
 62
   250
420
  2367521
100
AcDbText
 10
227.7635273953072
 20
161.7763665048245
 30
0.0
 40
2.150533301035563
  1
材質
 41
1.028502464294433
  7
MS Gothic
100
AcDbText
  0
TEXT
  5
6E
330
1F
100
AcDbEntity
  8
外枠
  6
Continuous
 62
   250
420
  2367521
100
AcDbText
 10
233.5984640006548
 20
156.9052368606422
 30
0.0
 40
2.016124969720841
  1
アルミ押出形材（A6063S-T5）
 41
1.033106825086805
  7
MS Gothic
100
AcDbText
  0
TEXT
  5
6F
330
1F
100
AcDbEntity
  8
外枠
  6
Continuous
 62
   250
420
  2367521
100
AcDbText
 10
233.5984640006548
 20
152.6719035908871
 30
0.0
 40
2.016124969720841
  1
アンバー仕上（アルマイト）
 41
1.001955316005609
  7
MS Gothic
100
AcDbText
  0
HATCH
  5
70
330
1F
100
AcDbEntity
  8
ISS138金台
  6
Continuous
 62
     7
420
 16777215
370
    50
100
AcDbHatch
 10
0.0
 20
0.0
 30
0.0
210
0.0
220
0.0
230
1.0
  2
SOLID
 70
     1
 71
     0
 91
        1
 92
        3
 72
     0
 73
     1
 93
      195
 10
138.1981300791489
 20
104.6313487127473
 10
128.6427918505312
 20
105.3354939217631
 10
115.6422289964636
 20
105.3354939217631
 10
115.6422289964636
 20
106.8354992398114
 10
115.649980461191
 20
106.9889244117965
 10
115.672728856981
 20
107.1378924915633
 10
115.7097098032844
 20
107.2816713963322
 10
115.7601804513979
 20
107.4195290433232
 10
115.8233656548489
 20
107.5506902860636
 10
115.8985333308576
 20
107.674390744004
 10
115.9849083329512
 20
107.7898875684413
 10
116.0817370465035
 20
107.8964379106724
 10
116.1882873887347
 20
107.993277390148
 10
116.3037734472487
 20
108.0796416263183
 10
116.4274523733426
 20
108.1547877704806
 10
116.5585597864669
 20
108.2179729739316
 10
116.6963528379185
 20
108.2684220901986
 10
116.8400671471479
 20
108.3053922705787
 10
116.9889490995289
 20
108.3281299004456
 10
117.142234314512
 20
108.3358705992497
 10
117.1425895899786
 20
108.8353986713102
 10
115.1426901584798
 20
108.8353986713102
 10
103.1461357732203
 20
105.3570150023046
 10
103.1457804977536
 20
105.3570150023046
 10
103.0406189596195
 20
105.3306492563085
 10
102.9390963035379
 20
105.2957030694961
 10
102.8416539323613
 20
105.2526286106432
 10
102.7487117170959
 20
105.2018134529862
 10
102.660700294671
 20
105.1436559356848
 10
102.5780718338622
 20
105.0785651638216
 10
102.5012354397525
 20
105.0069502424796
 10
102.4306540470409
 20
104.9292202767416
 10
102.3667475267333
 20
104.8457951376137
 10
102.3099572816823
 20
104.7570516324089
 10
102.2607031828941
 20
104.6634203980567
 10
102.219426633221
 20
104.5652997737165
 10
102.1865690355157
 20
104.4630988644712
 10
102.1625610267074
 20
104.3572160094805
 10
102.1478440096487
 20
104.2480603138271
 10
102.1428378553456
 20
104.1360516485171
 10
108.1425253839188
 20
104.1360516485171
 10
108.1425253839188
 20
105.1957953018993
 10
113.0087334508911
 20
106.6390103748967
 10
113.0168078933154
 20
106.6412281550826
 10
113.0249253994326
 20
106.6433705738058
 10
113.0330752033195
 20
106.6454483969897
 10
113.0412465390529
 20
106.6474400927877
 10
113.0494609384793
 20
106.6493133634301
 10
113.0577076356753
 20
106.6510897407635
 10
113.0660081624875
 20
106.6527476929413
 10
113.0743517529926
 20
106.6542656881171
 10
113.0827384071906
 20
106.655654492214
 10
113.0911896569281
 20
106.6568818074625
 10
113.0996947362817
 20
106.6579583997858
 10
113.1082536452515
 20
106.6588519714141
 10
113.1168771497606
 20
106.6595732882706
 10
113.1255652498092
 20
106.660100818509
 10
113.1343179453971
 20
106.660423796206
 10
113.1431460024477
 20
106.6605314554383
 10
113.1431460024477
 20
106.6605314554383
 10
113.1942303081855
 20
106.6579476338625
 10
113.2438289165172
 20
106.6503684239069
 10
113.2917265089782
 20
106.6380414418058
 10
113.3376431715644
 20
106.6212250697168
 10
113.3813312880415
 20
106.6001669238742
 10
113.4225540080984
 20
106.5751253864356
 10
113.4610421836543
 20
106.5463480736354
 10
113.4965481984748
 20
106.5140826017078
 10
113.5288244363255
 20
106.4785981187338
 10
113.557612515049
 20
106.4401207091012
 10
113.5826648184108
 20
106.3989410527372
 10
113.6037229642534
 20
106.3552852340298
 10
113.6205501022657
 20
106.3094008692133
 10
113.6328770843668
 20
106.2615678722917
 10
113.6404562943224
 20
106.2120123276529
 10
113.6430401158981
 20
106.1609926174545
 10
113.6430401158981
 20
104.1360516485171
 10
119.3926029500128
 20
104.1360516485171
 10
119.3938948608007
 20
104.161523822885
 10
119.3976736998553
 20
104.1862639144731
 10
119.4038318079442
 20
104.2101427322026
 10
119.4122399939887
 20
104.2330633827644
 10
119.4227583009868
 20
104.25486437731
 10
119.4352575378596
 20
104.2754272906839
 10
119.4496408112981
 20
104.2946336977305
 10
119.4657681643002
 20
104.3123436414478
 10
119.483499639864
 20
104.3284494626035
 10
119.5027275787571
 20
104.3428219701188
 10
119.5233227899007
 20
104.3553319729148
 10
119.545156082216
 20
104.3658395139897
 10
119.5680982646243
 20
104.374236934111
 10
119.5920416778932
 20
104.3803950421999
 10
119.6168355990974
 20
104.3841738812545
 10
119.6423723690047
 20
104.3854657920423
 10
119.6423723690047
 20
104.3854657920423
 10
119.6679737344514
 20
104.3841738812545
 10
119.692832251195
 20
104.3803950421999
 10
119.7167971963103
 20
104.374236934111
 10
119.7397932083347
 20
104.3658502799129
 10
119.7616587984198
 20
104.3553319729148
 10
119.7822863073331
 20
104.3428219701188
 10
119.8015357780726
 20
104.3284494626035
 10
119.8192887854829
 20
104.3123436414478
 10
119.835416138485
 20
104.2946336977305
 10
119.8498101778467
 20
104.2754272906839
 10
119.862330946566
 20
104.25486437731
 10
119.8728600194873
 20
104.2330633827644
 10
119.8812574396086
 20
104.2101534981258
 10
119.8874155476976
 20
104.1862746803963
 10
119.8911943867521
 20
104.161523822885
 10
119.89248629754
 20
104.1360516485171
 10
122.3926243520327
 20
104.1360516485171
 10
122.3939162628206
 20
104.161523822885
 10
122.3976951018752
 20
104.1862639144731
 10
122.4038532099641
 20
104.2101427322026
 10
122.4122613960086
 20
104.2330633827644
 10
122.4227797030067
 20
104.25486437731
 10
122.4352789398795
 20
104.2754272906839
 10
122.449662213318
 20
104.2946336977305
 10
122.4657788003969
 20
104.3123436414478
 10
122.4835210418839
 20
104.3284494626035
 10
122.502748980777
 20
104.3428219701188
 10
122.5233441919206
 20
104.3553319729148
 10
122.545177484236
 20
104.3658395139897
 10
122.5681304325675
 20
104.374236934111
 10
122.5920630799131
 20
104.3803950421999
 10
122.6168570011174
 20
104.3841738812545
 10
122.6423937710246
 20
104.3854657920423
 10
122.6423937710246
 20
104.3854657920423
 10
122.6679951364713
 20
104.3841738812545
 10
122.6928428872917
 20
104.3803950421999
 10
122.7168293642535
 20
104.374236934111
 10
122.7398253762779
 20
104.3658502799129
 10
122.7616909663629
 20
104.3553319729148
 10
122.7822969434298
 20
104.3428219701188
 10
122.8015571800926
 20
104.3284494626035
 10
122.8193101875028
 20
104.3123436414478
 10
122.8354590723514
 20
104.2946336977305
 10
122.8498423457899
 20
104.2754272906839
 10
122.8623631145092
 20
104.25486437731
 10
122.8728814215073
 20
104.2330633827644
 10
122.8812896075518
 20
104.2101534981258
 10
122.8874477156407
 20
104.1862746803963
 10
122.8912265546953
 20
104.161523822885
 10
122.8925184654832
 20
104.1360516485171
 10
125.3926457540527
 20
104.1360516485171
 10
125.3939376648405
 20
104.161523822885
 10
125.3977380357416
 20
104.1862639144731
 10
125.4039069097538
 20
104.2101427322026
 10
125.4123258617215
 20
104.2330633827644
 10
125.422865700566
 20
104.25486437731
 10
125.4353972352086
 20
104.2754272906839
 10
125.4497912745703
 20
104.2946336977305
 10
125.4659401594189
 20
104.3123436414478
 10
125.4836824009059
 20
104.3284494626035
 10
125.5029211057222
 20
104.3428219701188
 10
125.5235163168658
 20
104.3553319729148
 10
125.5453496091811
 20
104.3658395139897
 10
125.568270259743
 20
104.374236934111
 10
125.5921813752421
 20
104.3803950421999
 10
125.6169322327535
 20
104.3841738812545
 10
125.6424151730446
 20
104.3854657920423
 10
125.6424151730446
 20
104.3854657920423
 10
125.6680165384912
 20
104.3841738812545
 10
125.6928427574652
 20
104.3803950421999
 10
125.7168184685037
 20
104.374236934111
 10
125.7397929486817
 20
104.3658502799129
 10
125.7616370069203
 20
104.3553319729148
 10
125.7822322180639
 20
104.3428219701188
 10
125.8014709228802
 20
104.3284494626035
 10
125.8192131643672
 20
104.3123436414478
 10
125.8353189855229
 20
104.2946336977305
 10
125.8497022589614
 20
104.2754272906839
 10
125.8622230276807
 20
104.25486437731
 10
125.8727521006019
 20
104.2330633827644
 10
125.8811818184929
 20
104.2101534981258
 10
125.8873614584283
 20
104.1862746803963
 10
125.8911941270991
 20
104.161523822885
 10
125.8925398675031
 20
104.1360516485171
 10
138.6426335175686
 20
104.1360516485171
 10
138.6403619077666
 20
104.183249455968
 10
138.6336762694393
 20
104.2292199481704
 10
138.6228026869746
 20
104.2737370407364
 10
138.6079564788371
 20
104.3166284788943
 10
138.5893529634915
 20
104.3576789441795
 10
138.5671966934792
 20
104.3966946499738
 10
138.541713753188
 20
104.4334925755821
 10
138.5131194610828
 20
104.4678358706935
 10
138.481629135628
 20
104.4995630464594
 10
138.4474473293651
 20
104.5284587844152
 10
138.4108108926052
 20
104.5543292979427
 10
138.3719136119665
 20
104.5769700345004
 10
138.3309815718369
 20
104.5961979733935
 10
138.288230090681
 20
104.6117977961573
 10
138.2438744869634
 20
104.6235864820968
 97
        0
 75
     1
 76
     1
 98
        0
  0
LWPOLYLINE
  5
71
330
1F
100
AcDbEntity
  8
ISS138金台
  6
Continuous
 62
     7
420
 16777215
370
    50
100
AcDbPolyline
 90
      196
 70
     0
 43
0.0
 10
138.1981300791489
 20
104.6313487127473
 10
128.6427918505312
 20
105.3354939217631
 10
115.6422289964636
 20
105.3354939217631
 10
115.6422289964636
 20
106.8354992398114
 10
115.649980461191
 20
106.9889244117965
 10
115.672728856981
 20
107.1378924915633
 10
115.7097098032844
 20
107.2816713963322
 10
115.7601804513979
 20
107.4195290433232
 10
115.8233656548489
 20
107.5506902860636
 10
115.8985333308576
 20
107.674390744004
 10
115.9849083329512
 20
107.7898875684413
 10
116.0817370465035
 20
107.8964379106724
 10
116.1882873887347
 20
107.993277390148
 10
116.3037734472487
 20
108.0796416263183
 10
116.4274523733426
 20
108.1547877704806
 10
116.5585597864669
 20
108.2179729739316
 10
116.6963528379185
 20
108.2684220901986
 10
116.8400671471479
 20
108.3053922705787
 10
116.9889490995289
 20
108.3281299004456
 10
117.142234314512
 20
108.3358705992497
 10
117.1425895899786
 20
108.8353986713102
 10
115.1426901584798
 20
108.8353986713102
 10
103.1461357732203
 20
105.3570150023046
 10
103.1457804977536
 20
105.3570150023046
 10
103.0406189596195
 20
105.3306492563085
 10
102.9390963035379
 20
105.2957030694961
 10
102.8416539323613
 20
105.2526286106432
 10
102.7487117170959
 20
105.2018134529862
 10
102.660700294671
 20
105.1436559356848
 10
102.5780718338622
 20
105.0785651638216
 10
102.5012354397525
 20
105.0069502424796
 10
102.4306540470409
 20
104.9292202767416
 10
102.3667475267333
 20
104.8457951376137
 10
102.3099572816823
 20
104.7570516324089
 10
102.2607031828941
 20
104.6634203980567
 10
102.219426633221
 20
104.5652997737165
 10
102.1865690355157
 20
104.4630988644712
 10
102.1625610267074
 20
104.3572160094805
 10
102.1478440096487
 20
104.2480603138271
 10
102.1428378553456
 20
104.1360516485171
 10
108.1425253839188
 20
104.1360516485171
 10
108.1425253839188
 20
105.1957953018993
 10
113.0087334508911
 20
106.6390103748967
 10
113.0168078933154
 20
106.6412281550826
 10
113.0249253994326
 20
106.6433705738058
 10
113.0330752033195
 20
106.6454483969897
 10
113.0412465390529
 20
106.6474400927877
 10
113.0494609384793
 20
106.6493133634301
 10
113.0577076356753
 20
106.6510897407635
 10
113.0660081624875
 20
106.6527476929413
 10
113.0743517529926
 20
106.6542656881171
 10
113.0827384071906
 20
106.655654492214
 10
113.0911896569281
 20
106.6568818074625
 10
113.0996947362817
 20
106.6579583997858
 10
113.1082536452515
 20
106.6588519714141
 10
113.1168771497606
 20
106.6595732882706
 10
113.1255652498092
 20
106.660100818509
 10
113.1343179453971
 20
106.660423796206
 10
113.1431460024477
 20
106.6605314554383
 10
113.1431460024477
 20
106.6605314554383
 10
113.1942303081855
 20
106.6579476338625
 10
113.2438289165172
 20
106.6503684239069
 10
113.2917265089782
 20
106.6380414418058
 10
113.3376431715644
 20
106.6212250697168
 10
113.3813312880415
 20
106.6001669238742
 10
113.4225540080984
 20
106.5751253864356
 10
113.4610421836543
 20
106.5463480736354
 10
113.4965481984748
 20
106.5140826017078
 10
113.5288244363255
 20
106.4785981187338
 10
113.557612515049
 20
106.4401207091012
 10
113.5826648184108
 20
106.3989410527372
 10
113.6037229642534
 20
106.3552852340298
 10
113.6205501022657
 20
106.3094008692133
 10
113.6328770843668
 20
106.2615678722917
 10
113.6404562943224
 20
106.2120123276529
 10
113.6430401158981
 20
106.1609926174545
 10
113.6430401158981
 20
104.1360516485171
 10
119.3926029500128
 20
104.1360516485171
 10
119.3938948608007
 20
104.161523822885
 10
119.3976736998553
 20
104.1862639144731
 10
119.4038318079442
 20
104.2101427322026
 10
119.4122399939887
 20
104.2330633827644
 10
119.4227583009868
 20
104.25486437731
 10
119.4352575378596
 20
104.2754272906839
 10
119.4496408112981
 20
104.2946336977305
 10
119.4657681643002
 20
104.3123436414478
 10
119.483499639864
 20
104.3284494626035
 10
119.5027275787571
 20
104.3428219701188
 10
119.5233227899007
 20
104.3553319729148
 10
119.545156082216
 20
104.3658395139897
 10
119.5680982646243
 20
104.374236934111
 10
119.5920416778932
 20
104.3803950421999
 10
119.6168355990974
 20
104.3841738812545
 10
119.6423723690047
 20
104.3854657920423
 10
119.6423723690047
 20
104.3854657920423
 10
119.6679737344514
 20
104.3841738812545
 10
119.692832251195
 20
104.3803950421999
 10
119.7167971963103
 20
104.374236934111
 10
119.7397932083347
 20
104.3658502799129
 10
119.7616587984198
 20
104.3553319729148
 10
119.7822863073331
 20
104.3428219701188
 10
119.8015357780726
 20
104.3284494626035
 10
119.8192887854829
 20
104.3123436414478
 10
119.835416138485
 20
104.2946336977305
 10
119.8498101778467
 20
104.2754272906839
 10
119.862330946566
 20
104.25486437731
 10
119.8728600194873
 20
104.2330633827644
 10
119.8812574396086
 20
104.2101534981258
 10
119.8874155476976
 20
104.1862746803963
 10
119.8911943867521
 20
104.161523822885
 10
119.89248629754
 20
104.1360516485171
 10
122.3926243520327
 20
104.1360516485171
 10
122.3939162628206
 20
104.161523822885
 10
122.3976951018752
 20
104.1862639144731
 10
122.4038532099641
 20
104.2101427322026
 10
122.4122613960086
 20
104.2330633827644
 10
122.4227797030067
 20
104.25486437731
 10
122.4352789398795
 20
104.2754272906839
 10
122.449662213318
 20
104.2946336977305
 10
122.4657788003969
 20
104.3123436414478
 10
122.4835210418839
 20
104.3284494626035
 10
122.502748980777
 20
104.3428219701188
 10
122.5233441919206
 20
104.3553319729148
 10
122.545177484236
 20
104.3658395139897
 10
122.5681304325675
 20
104.374236934111
 10
122.5920630799131
 20
104.3803950421999
 10
122.6168570011174
 20
104.3841738812545
 10
122.6423937710246
 20
104.3854657920423
 10
122.6423937710246
 20
104.3854657920423
 10
122.6679951364713
 20
104.3841738812545
 10
122.6928428872917
 20
104.3803950421999
 10
122.7168293642535
 20
104.374236934111
 10
122.7398253762779
 20
104.3658502799129
 10
122.7616909663629
 20
104.3553319729148
 10
122.7822969434298
 20
104.3428219701188
 10
122.8015571800926
 20
104.3284494626035
 10
122.8193101875028
 20
104.3123436414478
 10
122.8354590723514
 20
104.2946336977305
 10
122.8498423457899
 20
104.2754272906839
 10
122.8623631145092
 20
104.25486437731
 10
122.8728814215073
 20
104.2330633827644
 10
122.8812896075518
 20
104.2101534981258
 10
122.8874477156407
 20
104.1862746803963
 10
122.8912265546953
 20
104.161523822885
 10
122.8925184654832
 20
104.1360516485171
 10
125.3926457540527
 20
104.1360516485171
 10
125.3939376648405
 20
104.161523822885
 10
125.3977380357416
 20
104.1862639144731
 10
125.4039069097538
 20
104.2101427322026
 10
125.4123258617215
 20
104.2330633827644
 10
125.422865700566
 20
104.25486437731
 10
125.4353972352086
 20
104.2754272906839
 10
125.4497912745703
 20
104.2946336977305
 10
125.4659401594189
 20
104.3123436414478
 10
125.4836824009059
 20
104.3284494626035
 10
125.5029211057222
 20
104.3428219701188
 10
125.5235163168658
 20
104.3553319729148
 10
125.5453496091811
 20
104.3658395139897
 10
125.568270259743
 20
104.374236934111
 10
125.5921813752421
 20
104.3803950421999
 10
125.6169322327535
 20
104.3841738812545
 10
125.6424151730446
 20
104.3854657920423
 10
125.6424151730446
 20
104.3854657920423
 10
125.6680165384912
 20
104.3841738812545
 10
125.6928427574652
 20
104.3803950421999
 10
125.7168184685037
 20
104.374236934111
 10
125.7397929486817
 20
104.3658502799129
 10
125.7616370069203
 20
104.3553319729148
 10
125.7822322180639
 20
104.3428219701188
 10
125.8014709228802
 20
104.3284494626035
 10
125.8192131643672
 20
104.3123436414478
 10
125.8353189855229
 20
104.2946336977305
 10
125.8497022589614
 20
104.2754272906839
 10
125.8622230276807
 20
104.25486437731
 10
125.8727521006019
 20
104.2330633827644
 10
125.8811818184929
 20
104.2101534981258
 10
125.8873614584283
 20
104.1862746803963
 10
125.8911941270991
 20
104.161523822885
 10
125.8925398675031
 20
104.1360516485171
 10
138.6426335175686
 20
104.1360516485171
 10
138.6403619077666
 20
104.183249455968
 10
138.6336762694393
 20
104.2292199481704
 10
138.6228026869746
 20
104.2737370407364
 10
138.6079564788371
 20
104.3166284788943
 10
138.5893529634915
 20
104.3576789441795
 10
138.5671966934792
 20
104.3966946499738
 10
138.541713753188
 20
104.4334925755821
 10
138.5131194610828
 20
104.4678358706935
 10
138.481629135628
 20
104.4995630464594
 10
138.4474473293651
 20
104.5284587844152
 10
138.4108108926052
 20
104.5543292979427
 10
138.3719136119665
 20
104.5769700345004
 10
138.3309815718369
 20
104.5961979733935
 10
138.288230090681
 20
104.6117977961573
 10
138.2438744869634
 20
104.6235864820968
 10
138.1981300791489
 20
104.6313487127473
  0
LWPOLYLINE
  5
72
330
1F
100
AcDbEntity
  8
ISS138金台
  6
Continuous
 62
   250
420
  2367521
370
    25
100
AcDbPolyline
 90
      196
 70
     0
 43
0.0
 10
138.1981300791489
 20
104.6313487127473
 10
128.6427918505312
 20
105.3354939217631
 10
115.6422289964636
 20
105.3354939217631
 10
115.6422289964636
 20
106.8354992398114
 10
115.649980461191
 20
106.9889244117965
 10
115.672728856981
 20
107.1378924915633
 10
115.7097098032844
 20
107.2816713963322
 10
115.7601804513979
 20
107.4195290433232
 10
115.8233656548489
 20
107.5506902860636
 10
115.8985333308576
 20
107.674390744004
 10
115.9849083329512
 20
107.7898875684413
 10
116.0817370465035
 20
107.8964379106724
 10
116.1882873887347
 20
107.993277390148
 10
116.3037734472487
 20
108.0796416263183
 10
116.4274523733426
 20
108.1547877704806
 10
116.5585597864669
 20
108.2179729739316
 10
116.6963528379185
 20
108.2684220901986
 10
116.8400671471479
 20
108.3053922705787
 10
116.9889490995289
 20
108.3281299004456
 10
117.142234314512
 20
108.3358705992497
 10
117.1425895899786
 20
108.8353986713102
 10
115.1426901584798
 20
108.8353986713102
 10
103.1461357732203
 20
105.3570150023046
 10
103.1457804977536
 20
105.3570150023046
 10
103.0406189596195
 20
105.3306492563085
 10
102.9390963035379
 20
105.2957030694961
 10
102.8416539323613
 20
105.2526286106432
 10
102.7487117170959
 20
105.2018134529862
 10
102.660700294671
 20
105.1436559356848
 10
102.5780718338622
 20
105.0785651638216
 10
102.5012354397525
 20
105.0069502424796
 10
102.4306540470409
 20
104.9292202767416
 10
102.3667475267333
 20
104.8457951376137
 10
102.3099572816823
 20
104.7570516324089
 10
102.2607031828941
 20
104.6634203980567
 10
102.219426633221
 20
104.5652997737165
 10
102.1865690355157
 20
104.4630988644712
 10
102.1625610267074
 20
104.3572160094805
 10
102.1478440096487
 20
104.2480603138271
 10
102.1428378553456
 20
104.1360516485171
 10
108.1425253839188
 20
104.1360516485171
 10
108.1425253839188
 20
105.1957953018993
 10
113.0087334508911
 20
106.6390103748967
 10
113.0168078933154
 20
106.6412281550826
 10
113.0249253994326
 20
106.6433705738058
 10
113.0330752033195
 20
106.6454483969897
 10
113.0412465390529
 20
106.6474400927877
 10
113.0494609384793
 20
106.6493133634301
 10
113.0577076356753
 20
106.6510897407635
 10
113.0660081624875
 20
106.6527476929413
 10
113.0743517529926
 20
106.6542656881171
 10
113.0827384071906
 20
106.655654492214
 10
113.0911896569281
 20
106.6568818074625
 10
113.0996947362817
 20
106.6579583997858
 10
113.1082536452515
 20
106.6588519714141
 10
113.1168771497606
 20
106.6595732882706
 10
113.1255652498092
 20
106.660100818509
 10
113.1343179453971
 20
106.660423796206
 10
113.1431460024477
 20
106.6605314554383
 10
113.1431460024477
 20
106.6605314554383
 10
113.1942303081855
 20
106.6579476338625
 10
113.2438289165172
 20
106.6503684239069
 10
113.2917265089782
 20
106.6380414418058
 10
113.3376431715644
 20
106.6212250697168
 10
113.3813312880415
 20
106.6001669238742
 10
113.4225540080984
 20
106.5751253864356
 10
113.4610421836543
 20
106.5463480736354
 10
113.4965481984748
 20
106.5140826017078
 10
113.5288244363255
 20
106.4785981187338
 10
113.557612515049
 20
106.4401207091012
 10
113.5826648184108
 20
106.3989410527372
 10
113.6037229642534
 20
106.3552852340298
 10
113.6205501022657
 20
106.3094008692133
 10
113.6328770843668
 20
106.2615678722917
 10
113.6404562943224
 20
106.2120123276529
 10
113.6430401158981
 20
106.1609926174545
 10
113.6430401158981
 20
104.1360516485171
 10
119.3926029500128
 20
104.1360516485171
 10
119.3938948608007
 20
104.161523822885
 10
119.3976736998553
 20
104.1862639144731
 10
119.4038318079442
 20
104.2101427322026
 10
119.4122399939887
 20
104.2330633827644
 10
119.4227583009868
 20
104.25486437731
 10
119.4352575378596
 20
104.2754272906839
 10
119.4496408112981
 20
104.2946336977305
 10
119.4657681643002
 20
104.3123436414478
 10
119.483499639864
 20
104.3284494626035
 10
119.5027275787571
 20
104.3428219701188
 10
119.5233227899007
 20
104.3553319729148
 10
119.545156082216
 20
104.3658395139897
 10
119.5680982646243
 20
104.374236934111
 10
119.5920416778932
 20
104.3803950421999
 10
119.6168355990974
 20
104.3841738812545
 10
119.6423723690047
 20
104.3854657920423
 10
119.6423723690047
 20
104.3854657920423
 10
119.6679737344514
 20
104.3841738812545
 10
119.692832251195
 20
104.3803950421999
 10
119.7167971963103
 20
104.374236934111
 10
119.7397932083347
 20
104.3658502799129
 10
119.7616587984198
 20
104.3553319729148
 10
119.7822863073331
 20
104.3428219701188
 10
119.8015357780726
 20
104.3284494626035
 10
119.8192887854829
 20
104.3123436414478
 10
119.835416138485
 20
104.2946336977305
 10
119.8498101778467
 20
104.2754272906839
 10
119.862330946566
 20
104.25486437731
 10
119.8728600194873
 20
104.2330633827644
 10
119.8812574396086
 20
104.2101534981258
 10
119.8874155476976
 20
104.1862746803963
 10
119.8911943867521
 20
104.161523822885
 10
119.89248629754
 20
104.1360516485171
 10
122.3926243520327
 20
104.1360516485171
 10
122.3939162628206
 20
104.161523822885
 10
122.3976951018752
 20
104.1862639144731
 10
122.4038532099641
 20
104.2101427322026
 10
122.4122613960086
 20
104.2330633827644
 10
122.4227797030067
 20
104.25486437731
 10
122.4352789398795
 20
104.2754272906839
 10
122.449662213318
 20
104.2946336977305
 10
122.4657788003969
 20
104.3123436414478
 10
122.4835210418839
 20
104.3284494626035
 10
122.502748980777
 20
104.3428219701188
 10
122.5233441919206
 20
104.3553319729148
 10
122.545177484236
 20
104.3658395139897
 10
122.5681304325675
 20
104.374236934111
 10
122.5920630799131
 20
104.3803950421999
 10
122.6168570011174
 20
104.3841738812545
 10
122.6423937710246
 20
104.3854657920423
 10
122.6423937710246
 20
104.3854657920423
 10
122.6679951364713
 20
104.3841738812545
 10
122.6928428872917
 20
104.3803950421999
 10
122.7168293642535
 20
104.374236934111
 10
122.7398253762779
 20
104.3658502799129
 10
122.7616909663629
 20
104.3553319729148
 10
122.7822969434298
 20
104.3428219701188
 10
122.8015571800926
 20
104.3284494626035
 10
122.8193101875028
 20
104.3123436414478
 10
122.8354590723514
 20
104.2946336977305
 10
122.8498423457899
 20
104.2754272906839
 10
122.8623631145092
 20
104.25486437731
 10
122.8728814215073
 20
104.2330633827644
 10
122.8812896075518
 20
104.2101534981258
 10
122.8874477156407
 20
104.1862746803963
 10
122.8912265546953
 20
104.161523822885
 10
122.8925184654832
 20
104.1360516485171
 10
125.3926457540527
 20
104.1360516485171
 10
125.3939376648405
 20
104.161523822885
 10
125.3977380357416
 20
104.1862639144731
 10
125.4039069097538
 20
104.2101427322026
 10
125.4123258617215
 20
104.2330633827644
 10
125.422865700566
 20
104.25486437731
 10
125.4353972352086
 20
104.2754272906839
 10
125.4497912745703
 20
104.2946336977305
 10
125.4659401594189
 20
104.3123436414478
 10
125.4836824009059
 20
104.3284494626035
 10
125.5029211057222
 20
104.3428219701188
 10
125.5235163168658
 20
104.3553319729148
 10
125.5453496091811
 20
104.3658395139897
 10
125.568270259743
 20
104.374236934111
 10
125.5921813752421
 20
104.3803950421999
 10
125.6169322327535
 20
104.3841738812545
 10
125.6424151730446
 20
104.3854657920423
 10
125.6424151730446
 20
104.3854657920423
 10
125.6680165384912
 20
104.3841738812545
 10
125.6928427574652
 20
104.3803950421999
 10
125.7168184685037
 20
104.374236934111
 10
125.7397929486817
 20
104.3658502799129
 10
125.7616370069203
 20
104.3553319729148
 10
125.7822322180639
 20
104.3428219701188
 10
125.8014709228802
 20
104.3284494626035
 10
125.8192131643672
 20
104.3123436414478
 10
125.8353189855229
 20
104.2946336977305
 10
125.8497022589614
 20
104.2754272906839
 10
125.8622230276807
 20
104.25486437731
 10
125.8727521006019
 20
104.2330633827644
 10
125.8811818184929
 20
104.2101534981258
 10
125.8873614584283
 20
104.1862746803963
 10
125.8911941270991
 20
104.161523822885
 10
125.8925398675031
 20
104.1360516485171
 10
138.6426335175686
 20
104.1360516485171
 10
138.6403619077666
 20
104.183249455968
 10
138.6336762694393
 20
104.2292199481704
 10
138.6228026869746
 20
104.2737370407364
 10
138.6079564788371
 20
104.3166284788943
 10
138.5893529634915
 20
104.3576789441795
 10
138.5671966934792
 20
104.3966946499738
 10
138.541713753188
 20
104.4334925755821
 10
138.5131194610828
 20
104.4678358706935
 10
138.481629135628
 20
104.4995630464594
 10
138.4474473293651
 20
104.5284587844152
 10
138.4108108926052
 20
104.5543292979427
 10
138.3719136119665
 20
104.5769700345004
 10
138.3309815718369
 20
104.5961979733935
 10
138.288230090681
 20
104.6117977961573
 10
138.2438744869634
 20
104.6235864820968
 10
138.1981300791489
 20
104.6313487127473
  0
LINE
  5
73
330
1F
100
AcDbEntity
  8
ISS138金台
  6
Continuous
 62
   250
420
  2367521
370
    13
100
AcDbLine
 10
102.1427840257295
 20
109.8356713647566
 30
0.0
 11
102.1427840257295
 21
114.8408782665825
 31
0.0
  0
LINE
  5
74
330
1F
100
AcDbEntity
  8
ISS138金台
  6
Continuous
 62
   250
420
  2367521
370
    13
100
AcDbLine
 10
117.1427080151342
 20
114.3337602186431
 30
0.0
 11
102.3927149335698
 21
114.3337602186431
 31
0.0
  0
LINE
  5
75
330
1F
100
AcDbEntity
  8
ISS138金台
  6
Continuous
 62
   250
420
  2367521
370
    13
100
AcDbLine
 10
117.1427080151342
 20
114.8408782665825
 30
0.0
 11
117.1427080151342
 21
109.8356713647566
 31
0.0
  0
LINE
  5
76
330
1F
100
AcDbEntity
  8
ISS138金台
  6
Continuous
 62
   250
420
  2367521
370
    13
100
AcDbLine
 10
102.1427840257295
 20
103.1354559773738
 30
0.0
 11
102.1427840257295
 21
93.19136026083369
 31
0.0
  0
LINE
  5
77
330
1F
100
AcDbEntity
  8
ISS138金台
  6
Continuous
 62
   250
420
  2367521
370
    13
100
AcDbLine
 10
138.6428596019566
 20
93.69866132946805
 30
0.0
 11
102.3928225928022
 21
93.69866132946805
 31
0.0
  0
LINE
  5
78
330
1F
100
AcDbEntity
  8
ISS138金台
  6
Continuous
 62
   250
420
  2367521
370
    13
100
AcDbLine
 10
138.6428596019566
 20
103.1354559773738
 30
0.0
 11
138.6428596019566
 21
93.19136026083369
 31
0.0
  0
LINE
  5
79
330
1F
100
AcDbEntity
  8
ISS138金台
  6
Continuous
 62
   250
420
  2367521
370
    13
100
AcDbLine
 10
139.642626297011
 20
108.3356875785547
 30
0.0
 11
144.6478331988368
 21
108.3356875785547
 31
0.0
  0
LINE
  5
7A
330
1F
100
AcDbEntity
  8
ISS138金台
  6
Continuous
 62
   250
420
  2367521
370
    13
100
AcDbLine
 10
139.642626297011
 20
105.3355154536095
 30
0.0
 11
144.6478331988368
 21
105.3355154536095
 31
0.0
  0
LINE
  5
7B
330
1F
100
AcDbEntity
  8
ISS138金台
  6
Continuous
 62
   250
420
  2367521
370
    13
100
AcDbLine
 10
139.642626297011
 20
108.8355816920052
 30
0.0
 11
149.6526955911193
 21
108.8355816920052
 31
0.0
  0
LINE
  5
7C
330
1F
100
AcDbEntity
  8
ISS138金台
  6
Continuous
 62
   250
420
  2367521
370
    13
100
AcDbLine
 10
149.1455883091031
 20
104.1359332233616
 30
0.0
 11
149.1455883091031
 21
109.2378073498912
 31
0.0
  0
LINE
  5
7D
330
1F
100
AcDbEntity
  8
ISS138金台
  6
Continuous
 62
   250
420
  2367521
370
    13
100
AcDbLine
 10
139.642626297011
 20
104.1359332233616
 30
0.0
 11
149.6526955911193
 21
104.1359332233616
 31
0.0
  0
HATCH
  5
7E
330
1F
100
AcDbEntity
  8
ISS138金台
  6
Continuous
 62
   250
420
  2367521
370
    13
100
AcDbHatch
 10
0.0
 20
0.0
 30
0.0
210
0.0
220
0.0
230
1.0
  2
SOLID
 70
     1
 71
     0
 91
        1
 92
        3
 72
     0
 73
     1
 93
       67
 10
102.1427840257295
 20
114.0838077789562
 10
102.1683207956367
 20
114.0850996897441
 10
102.193114716841
 20
114.0888785287987
 10
102.2170473641866
 20
114.0950366368876
 10
102.2400003125181
 20
114.1034448229321
 10
102.2618336048335
 20
114.113952364007
 10
102.282428815977
 20
114.126462366803
 10
102.3016567548701
 20
114.1408348743183
 10
102.3193989963572
 20
114.1569622273204
 10
102.3355155834361
 20
114.1747044688075
 10
102.3498880909513
 20
114.1939216417773
 10
102.3624088596706
 20
114.2145276188441
 10
102.3729271666687
 20
114.2363501452362
 10
102.38132458679
 20
114.2593030935677
 10
102.3874826948789
 20
114.2832357409134
 10
102.3912615339335
 20
114.3080404280408
 10
102.3925534447214
 20
114.3335771979481
 10
102.3925534447214
 20
114.3335771979481
 10
102.3912615339335
 20
114.3591785633948
 10
102.3874719289557
 20
114.3840263142152
 10
102.3813138208667
 20
114.408012791177
 10
102.3729271666687
 20
114.4310088032014
 10
102.3624088596706
 20
114.4528636273632
 10
102.3498988568746
 20
114.4734911362765
 10
102.3355155834361
 20
114.4927406070161
 10
102.3193989963572
 20
114.5104936144263
 10
102.3016567548701
 20
114.5266317333517
 10
102.282428815977
 20
114.5410150067902
 10
102.2618336048335
 20
114.5535357755095
 10
102.2400003125181
 20
114.5640540825075
 10
102.2170581301099
 20
114.572462268552
 10
102.193114716841
 20
114.578620376641
 10
102.1683207956367
 20
114.5823992156956
 10
102.1427840257295
 20
114.5836911264835
 10
102.1427840257295
 20
114.5836911264835
 10
102.117193426206
 20
114.5824099816188
 10
102.0923456753856
 20
114.578620376641
 10
102.0683699643471
 20
114.572462268552
 10
102.0454170160156
 20
114.5640648484308
 10
102.023572957777
 20
114.5535357755095
 10
102.0029777466334
 20
114.5410150067902
 10
101.9837605736636
 20
114.5266209674285
 10
101.966039864023
 20
114.5104936144263
 10
101.9499448087906
 20
114.4927406070161
 10
101.9355830671985
 20
114.4734803703533
 10
101.9230945962489
 20
114.4528636273632
 10
101.9125978210973
 20
114.4309980372782
 10
101.9042111668993
 20
114.408012791177
 10
101.8980745906568
 20
114.3840263142152
 10
101.8942957516022
 20
114.3591785633948
 10
101.8930146067376
 20
114.3335771979481
 10
101.8930146067376
 20
114.3335771979481
 10
101.8942957516022
 20
114.3080296621176
 10
101.8980745906568
 20
114.2832357409134
 10
101.9042111668993
 20
114.2593030935677
 10
101.9125978210973
 20
114.2363501452362
 10
101.9230945962489
 20
114.2145168529209
 10
101.9355830671985
 20
114.1939324077005
 10
101.9499448087906
 20
114.1746937028842
 10
101.966039864023
 20
114.1569622273204
 10
101.9837713395868
 20
114.1408456402415
 10
102.0029885125566
 20
114.126462366803
 10
102.023572957777
 20
114.113952364007
 10
102.0454170160156
 20
114.1034340570089
 10
102.0683807302703
 20
114.0950366368876
 10
102.0923456753856
 20
114.0888785287987
 10
102.117193426206
 20
114.0850996897441
 97
        0
 75
     1
 76
     1
 98
        0
  0
LWPOLYLINE
  5
7F
330
1F
100
AcDbEntity
  8
ISS138金台
  6
Continuous
 62
   250
420
  2367521
370
    13
100
AcDbPolyline
 90
       68
 70
     0
 43
0.0
 10
102.1427840257295
 20
114.0838077789562
 10
102.1683207956367
 20
114.0850996897441
 10
102.193114716841
 20
114.0888785287987
 10
102.2170473641866
 20
114.0950366368876
 10
102.2400003125181
 20
114.1034448229321
 10
102.2618336048335
 20
114.113952364007
 10
102.282428815977
 20
114.126462366803
 10
102.3016567548701
 20
114.1408348743183
 10
102.3193989963572
 20
114.1569622273204
 10
102.3355155834361
 20
114.1747044688075
 10
102.3498880909513
 20
114.1939216417773
 10
102.3624088596706
 20
114.2145276188441
 10
102.3729271666687
 20
114.2363501452362
 10
102.38132458679
 20
114.2593030935677
 10
102.3874826948789
 20
114.2832357409134
 10
102.3912615339335
 20
114.3080404280408
 10
102.3925534447214
 20
114.3335771979481
 10
102.3925534447214
 20
114.3335771979481
 10
102.3912615339335
 20
114.3591785633948
 10
102.3874719289557
 20
114.3840263142152
 10
102.3813138208667
 20
114.408012791177
 10
102.3729271666687
 20
114.4310088032014
 10
102.3624088596706
 20
114.4528636273632
 10
102.3498988568746
 20
114.4734911362765
 10
102.3355155834361
 20
114.4927406070161
 10
102.3193989963572
 20
114.5104936144263
 10
102.3016567548701
 20
114.5266317333517
 10
102.282428815977
 20
114.5410150067902
 10
102.2618336048335
 20
114.5535357755095
 10
102.2400003125181
 20
114.5640540825075
 10
102.2170581301099
 20
114.572462268552
 10
102.193114716841
 20
114.578620376641
 10
102.1683207956367
 20
114.5823992156956
 10
102.1427840257295
 20
114.5836911264835
 10
102.1427840257295
 20
114.5836911264835
 10
102.117193426206
 20
114.5824099816188
 10
102.0923456753856
 20
114.578620376641
 10
102.0683699643471
 20
114.572462268552
 10
102.0454170160156
 20
114.5640648484308
 10
102.023572957777
 20
114.5535357755095
 10
102.0029777466334
 20
114.5410150067902
 10
101.9837605736636
 20
114.5266209674285
 10
101.966039864023
 20
114.5104936144263
 10
101.9499448087906
 20
114.4927406070161
 10
101.9355830671985
 20
114.4734803703533
 10
101.9230945962489
 20
114.4528636273632
 10
101.9125978210973
 20
114.4309980372782
 10
101.9042111668993
 20
114.408012791177
 10
101.8980745906568
 20
114.3840263142152
 10
101.8942957516022
 20
114.3591785633948
 10
101.8930146067376
 20
114.3335771979481
 10
101.8930146067376
 20
114.3335771979481
 10
101.8942957516022
 20
114.3080296621176
 10
101.8980745906568
 20
114.2832357409134
 10
101.9042111668993
 20
114.2593030935677
 10
101.9125978210973
 20
114.2363501452362
 10
101.9230945962489
 20
114.2145168529209
 10
101.9355830671985
 20
114.1939324077005
 10
101.9499448087906
 20
114.1746937028842
 10
101.966039864023
 20
114.1569622273204
 10
101.9837713395868
 20
114.1408456402415
 10
102.0029885125566
 20
114.126462366803
 10
102.023572957777
 20
114.113952364007
 10
102.0454170160156
 20
114.1034340570089
 10
102.0683807302703
 20
114.0950366368876
 10
102.0923456753856
 20
114.0888785287987
 10
102.117193426206
 20
114.0850996897441
 10
102.1427840257295
 20
114.0838077789562
  0
HATCH
  5
80
330
1F
100
AcDbEntity
  8
ISS138金台
  6
Continuous
 62
   250
420
  2367521
370
    13
100
AcDbHatch
 10
0.0
 20
0.0
 30
0.0
210
0.0
220
0.0
230
1.0
  2
SOLID
 70
     1
 71
     0
 91
        1
 92
        3
 72
     0
 73
     1
 93
       67
 10
144.1405428961257
 20
105.0854015250742
 10
144.166079666033
 20
105.0866934358621
 10
144.1908843531605
 20
105.0904938067631
 10
144.2148385323526
 20
105.0966626807753
 10
144.2378237784538
 20
105.1050923986663
 10
144.2596678366924
 20
105.1156322375108
 10
144.2802953456056
 20
105.1281745380766
 10
144.2995555822684
 20
105.1425793433615
 10
144.3173301215251
 20
105.1587389941334
 10
144.333489772297
 20
105.1765027674668
 10
144.3478945775819
 20
105.1957630041296
 10
144.3604368781477
 20
105.2163905130429
 10
144.3709767169922
 20
105.2382453372047
 10
144.3794064348832
 20
105.2612198173827
 10
144.3855753088954
 20
105.2851739965748
 10
144.3893756797964
 20
105.3099894496255
 10
144.3906675905843
 20
105.3355262195328
 10
144.3906675905843
 20
105.3355262195328
 10
144.3893649138732
 20
105.3610522235168
 10
144.3855753088954
 20
105.3858676765675
 10
144.3794064348832
 20
105.4098218557596
 10
144.3709767169922
 20
105.4328071018608
 10
144.3604368781477
 20
105.4546619260226
 10
144.3478945775819
 20
105.4752786690127
 10
144.3334790063738
 20
105.4945389056754
 10
144.3173301215251
 20
105.5123026790089
 10
144.2995663481917
 20
105.5284623297808
 10
144.2802953456056
 20
105.542877900989
 10
144.2596678366924
 20
105.5554094356315
 10
144.2378130125306
 20
105.5659600403993
 10
144.2148492982758
 20
105.574378992367
 10
144.1908951190837
 20
105.5805478663792
 10
144.166079666033
 20
105.5843482372802
 10
144.1405428961257
 20
105.5856401480681
 10
144.1405428961257
 20
105.5856401480681
 10
144.1149953602952
 20
105.5843590032034
 10
144.090201439091
 20
105.5805478663792
 10
144.0662364939756
 20
105.574378992367
 10
144.0432727797209
 20
105.5659600403993
 10
144.0214071896359
 20
105.5554094356315
 10
144.0007904466458
 20
105.542877900989
 10
143.981530209983
 20
105.5284623297808
 10
143.9637556707264
 20
105.5123026790089
 10
143.9476067858777
 20
105.4945389056754
 10
143.9331912146695
 20
105.4752786690127
 10
143.9206489141038
 20
105.4546619260226
 10
143.910098309336
 20
105.4327963359376
 10
143.9016793573683
 20
105.4098218557596
 10
143.8955104833561
 20
105.3858784424907
 10
143.8917101124551
 20
105.36106298944
 10
143.8904182016672
 20
105.3355262195328
 10
143.8904182016672
 20
105.3355262195328
 10
143.8917208783783
 20
105.3099894496255
 10
143.8955212492793
 20
105.2851739965748
 10
143.9016793573683
 20
105.2612198173827
 10
143.9101090752592
 20
105.2382561031279
 10
143.9206381481806
 20
105.2163905130429
 10
143.9331912146695
 20
105.1957630041296
 10
143.9475960199545
 20
105.1765027674668
 10
143.9637556707264
 20
105.1587389941334
 10
143.981530209983
 20
105.1425793433615
 10
144.0007904466458
 20
105.1281745380766
 10
144.0214071896359
 20
105.1156322375108
 10
144.0432727797209
 20
105.1050816327431
 10
144.0662364939756
 20
105.0966626807753
 10
144.0901906731677
 20
105.0904938067631
 10
144.1150061262185
 20
105.0866934358621
 97
        0
 75
     1
 76
     1
 98
        0
  0
LWPOLYLINE
  5
81
330
1F
100
AcDbEntity
  8
ISS138金台
  6
Continuous
 62
   250
420
  2367521
370
    13
100
AcDbPolyline
 90
       68
 70
     0
 43
0.0
 10
144.1405428961257
 20
105.0854015250742
 10
144.166079666033
 20
105.0866934358621
 10
144.1908843531605
 20
105.0904938067631
 10
144.2148385323526
 20
105.0966626807753
 10
144.2378237784538
 20
105.1050923986663
 10
144.2596678366924
 20
105.1156322375108
 10
144.2802953456056
 20
105.1281745380766
 10
144.2995555822684
 20
105.1425793433615
 10
144.3173301215251
 20
105.1587389941334
 10
144.333489772297
 20
105.1765027674668
 10
144.3478945775819
 20
105.1957630041296
 10
144.3604368781477
 20
105.2163905130429
 10
144.3709767169922
 20
105.2382453372047
 10
144.3794064348832
 20
105.2612198173827
 10
144.3855753088954
 20
105.2851739965748
 10
144.3893756797964
 20
105.3099894496255
 10
144.3906675905843
 20
105.3355262195328
 10
144.3906675905843
 20
105.3355262195328
 10
144.3893649138732
 20
105.3610522235168
 10
144.3855753088954
 20
105.3858676765675
 10
144.3794064348832
 20
105.4098218557596
 10
144.3709767169922
 20
105.4328071018608
 10
144.3604368781477
 20
105.4546619260226
 10
144.3478945775819
 20
105.4752786690127
 10
144.3334790063738
 20
105.4945389056754
 10
144.3173301215251
 20
105.5123026790089
 10
144.2995663481917
 20
105.5284623297808
 10
144.2802953456056
 20
105.542877900989
 10
144.2596678366924
 20
105.5554094356315
 10
144.2378130125306
 20
105.5659600403993
 10
144.2148492982758
 20
105.574378992367
 10
144.1908951190837
 20
105.5805478663792
 10
144.166079666033
 20
105.5843482372802
 10
144.1405428961257
 20
105.5856401480681
 10
144.1405428961257
 20
105.5856401480681
 10
144.1149953602952
 20
105.5843590032034
 10
144.090201439091
 20
105.5805478663792
 10
144.0662364939756
 20
105.574378992367
 10
144.0432727797209
 20
105.5659600403993
 10
144.0214071896359
 20
105.5554094356315
 10
144.0007904466458
 20
105.542877900989
 10
143.981530209983
 20
105.5284623297808
 10
143.9637556707264
 20
105.5123026790089
 10
143.9476067858777
 20
105.4945389056754
 10
143.9331912146695
 20
105.4752786690127
 10
143.9206489141038
 20
105.4546619260226
 10
143.910098309336
 20
105.4327963359376
 10
143.9016793573683
 20
105.4098218557596
 10
143.8955104833561
 20
105.3858784424907
 10
143.8917101124551
 20
105.36106298944
 10
143.8904182016672
 20
105.3355262195328
 10
143.8904182016672
 20
105.3355262195328
 10
143.8917208783783
 20
105.3099894496255
 10
143.8955212492793
 20
105.2851739965748
 10
143.9016793573683
 20
105.2612198173827
 10
143.9101090752592
 20
105.2382561031279
 10
143.9206381481806
 20
105.2163905130429
 10
143.9331912146695
 20
105.1957630041296
 10
143.9475960199545
 20
105.1765027674668
 10
143.9637556707264
 20
105.1587389941334
 10
143.981530209983
 20
105.1425793433615
 10
144.0007904466458
 20
105.1281745380766
 10
144.0214071896359
 20
105.1156322375108
 10
144.0432727797209
 20
105.1050816327431
 10
144.0662364939756
 20
105.0966626807753
 10
144.0901906731677
 20
105.0904938067631
 10
144.1150061262185
 20
105.0866934358621
 10
144.1405428961257
 20
105.0854015250742
  0
HATCH
  5
82
330
1F
100
AcDbEntity
  8
ISS138金台
  6
Continuous
 62
   250
420
  2367521
370
    13
100
AcDbHatch
 10
0.0
 20
0.0
 30
0.0
210
0.0
220
0.0
230
1.0
  2
SOLID
 70
     1
 71
     0
 91
        1
 92
        3
 72
     0
 73
     1
 93
       67
 10
102.1427840257295
 20
93.44923642001959
 10
102.1683207956367
 20
93.45052833080749
 10
102.193114716841
 20
93.45429640393883
 10
102.2170473641866
 20
93.4604329801813
 10
102.2400003125181
 20
93.46880886845611
 10
102.2618336048335
 20
93.47929487768448
 10
102.282428815977
 20
93.49178334863407
 10
102.3016567548701
 20
93.50613432430288
 10
102.3193989963572
 20
93.5222186136121
 10
102.3355155834361
 20
93.5399285573294
 10
102.3498880909513
 20
93.55911343252956
 10
102.3624088596706
 20
93.5796871118267
 10
102.3729271666687
 20
93.60148810637233
 10
102.38132458679
 20
93.62440875693412
 10
102.3874826948789
 20
93.64833063835653
 10
102.3912615339335
 20
93.67312455956076
 10
102.3925534447214
 20
93.69865056354482
 10
102.3925534447214
 20
93.69865056354482
 10
102.3912615339335
 20
93.72430575860764
 10
102.3874719289557
 20
93.7492073390442
 10
102.3813138208667
 20
93.77321534785247
 10
102.3729271666687
 20
93.79622212580014
 10
102.3624088596706
 20
93.81808771588516
 10
102.3498988568746
 20
93.83871522479845
 10
102.3355155834361
 20
93.85795392961478
 10
102.3193989963572
 20
93.8756961711018
 10
102.3016567548701
 20
93.89181275818069
 10
102.282428815977
 20
93.90618526569597
 10
102.2618336048335
 20
93.91867373664556
 10
102.2400003125181
 20
93.9291812777204
 10
102.2170581301099
 20
93.93756793191844
 10
102.193114716841
 20
93.94370450816092
 10
102.1683207956367
 20
93.9474833472155
 10
102.1427840257295
 20
93.94876449208014
 10
102.1427840257295
 20
93.94876449208014
 10
102.117193426206
 20
93.94747258129226
 10
102.0923456753856
 20
93.94370450816092
 10
102.0683699643471
 20
93.93756793191844
 10
102.0454170160156
 20
93.9291812777204
 10
102.023572957777
 20
93.91867373664556
 10
102.0029777466334
 20
93.90618526569597
 10
101.9837605736636
 20
93.89181275818069
 10
101.966039864023
 20
93.8756961711018
 10
101.9499448087906
 20
93.85796469553802
 10
101.9355830671985
 20
93.83871522479845
 10
101.9230945962489
 20
93.81809848180839
 10
101.9125978210973
 20
93.79622212580014
 10
101.9042111668993
 20
93.77321534785247
 10
101.8980745906568
 20
93.7492073390442
 10
101.8942957516022
 20
93.72430575860764
 10
101.8930146067376
 20
93.69865056354482
 10
101.8930146067376
 20
93.69865056354482
 10
101.8942957516022
 20
93.67311379363754
 10
101.8980745906568
 20
93.64833063835653
 10
101.9042111668993
 20
93.62440875693412
 10
101.9125978210973
 20
93.60148810637233
 10
101.9230945962489
 20
93.57967634590347
 10
101.9355830671985
 20
93.55911343252956
 10
101.9499448087906
 20
93.53991779140617
 10
101.966039864023
 20
93.5222186136121
 10
101.9837713395868
 20
93.50612355837964
 10
102.0029885125566
 20
93.49178334863407
 10
102.023572957777
 20
93.47930564360772
 10
102.0454170160156
 20
93.46880886845611
 10
102.0683807302703
 20
93.4604329801813
 10
102.0923456753856
 20
93.45429640393883
 10
102.117193426206
 20
93.45051756488425
 97
        0
 75
     1
 76
     1
 98
        0
  0
LWPOLYLINE
  5
83
330
1F
100
AcDbEntity
  8
ISS138金台
  6
Continuous
 62
   250
420
  2367521
370
    13
100
AcDbPolyline
 90
       68
 70
     0
 43
0.0
 10
102.1427840257295
 20
93.44923642001959
 10
102.1683207956367
 20
93.45052833080749
 10
102.193114716841
 20
93.45429640393883
 10
102.2170473641866
 20
93.4604329801813
 10
102.2400003125181
 20
93.46880886845611
 10
102.2618336048335
 20
93.47929487768448
 10
102.282428815977
 20
93.49178334863407
 10
102.3016567548701
 20
93.50613432430288
 10
102.3193989963572
 20
93.5222186136121
 10
102.3355155834361
 20
93.5399285573294
 10
102.3498880909513
 20
93.55911343252956
 10
102.3624088596706
 20
93.5796871118267
 10
102.3729271666687
 20
93.60148810637233
 10
102.38132458679
 20
93.62440875693412
 10
102.3874826948789
 20
93.64833063835653
 10
102.3912615339335
 20
93.67312455956076
 10
102.3925534447214
 20
93.69865056354482
 10
102.3925534447214
 20
93.69865056354482
 10
102.3912615339335
 20
93.72430575860764
 10
102.3874719289557
 20
93.7492073390442
 10
102.3813138208667
 20
93.77321534785247
 10
102.3729271666687
 20
93.79622212580014
 10
102.3624088596706
 20
93.81808771588516
 10
102.3498988568746
 20
93.83871522479845
 10
102.3355155834361
 20
93.85795392961478
 10
102.3193989963572
 20
93.8756961711018
 10
102.3016567548701
 20
93.89181275818069
 10
102.282428815977
 20
93.90618526569597
 10
102.2618336048335
 20
93.91867373664556
 10
102.2400003125181
 20
93.9291812777204
 10
102.2170581301099
 20
93.93756793191844
 10
102.193114716841
 20
93.94370450816092
 10
102.1683207956367
 20
93.9474833472155
 10
102.1427840257295
 20
93.94876449208014
 10
102.1427840257295
 20
93.94876449208014
 10
102.117193426206
 20
93.94747258129226
 10
102.0923456753856
 20
93.94370450816092
 10
102.0683699643471
 20
93.93756793191844
 10
102.0454170160156
 20
93.9291812777204
 10
102.023572957777
 20
93.91867373664556
 10
102.0029777466334
 20
93.90618526569597
 10
101.9837605736636
 20
93.89181275818069
 10
101.966039864023
 20
93.8756961711018
 10
101.9499448087906
 20
93.85796469553802
 10
101.9355830671985
 20
93.83871522479845
 10
101.9230945962489
 20
93.81809848180839
 10
101.9125978210973
 20
93.79622212580014
 10
101.9042111668993
 20
93.77321534785247
 10
101.8980745906568
 20
93.7492073390442
 10
101.8942957516022
 20
93.72430575860764
 10
101.8930146067376
 20
93.69865056354482
 10
101.8930146067376
 20
93.69865056354482
 10
101.8942957516022
 20
93.67311379363754
 10
101.8980745906568
 20
93.64833063835653
 10
101.9042111668993
 20
93.62440875693412
 10
101.9125978210973
 20
93.60148810637233
 10
101.9230945962489
 20
93.57967634590347
 10
101.9355830671985
 20
93.55911343252956
 10
101.9499448087906
 20
93.53991779140617
 10
101.966039864023
 20
93.5222186136121
 10
101.9837713395868
 20
93.50612355837964
 10
102.0029885125566
 20
93.49178334863407
 10
102.023572957777
 20
93.47930564360772
 10
102.0454170160156
 20
93.46880886845611
 10
102.0683807302703
 20
93.4604329801813
 10
102.0923456753856
 20
93.45429640393883
 10
102.117193426206
 20
93.45051756488425
 10
102.1427840257295
 20
93.44923642001959
  0
HATCH
  5
84
330
1F
100
AcDbEntity
  8
ISS138金台
  6
Continuous
 62
   250
420
  2367521
370
    13
100
AcDbHatch
 10
0.0
 20
0.0
 30
0.0
210
0.0
220
0.0
230
1.0
  2
SOLID
 70
     1
 71
     0
 91
        1
 92
        3
 72
     0
 73
     1
 93
       67
 10
149.1455883091031
 20
103.8858192948262
 10
149.1711143130871
 20
103.8871219715374
 10
149.1959190002146
 20
103.8909115765152
 10
149.2198193497906
 20
103.8970804505273
 10
149.2427507662756
 20
103.9055101684183
 10
149.2645625267444
 20
103.9160500072628
 10
149.2851254401183
 20
103.9285923078286
 10
149.3043103153185
 20
103.9429971131136
 10
149.3220202590358
 20
103.9591567638854
 10
149.338104548345
 20
103.9769205372189
 10
149.3524555240139
 20
103.9961915398049
 10
149.3649332290402
 20
104.016808282795
 10
149.3754300041918
 20
104.0386631069567
 10
149.3838058924666
 20
104.0616375871347
 10
149.3899424687091
 20
104.0855917663268
 10
149.3937213077637
 20
104.1104072193775
 10
149.3950024526283
 20
104.1359439892848
 10
149.3950024526283
 20
104.1359439892848
 10
149.3937105418404
 20
104.1614807591921
 10
149.3899532346323
 20
104.1862854463195
 10
149.3838058924666
 20
104.2102396255116
 10
149.3754300041918
 20
104.2332248716128
 10
149.3649439949634
 20
104.2550689298514
 10
149.3524555240139
 20
104.2756964387647
 10
149.338104548345
 20
104.2949566754275
 10
149.3220202590358
 20
104.312720448761
 10
149.3043103153185
 20
104.3288800995328
 10
149.2851146741951
 20
104.3432849048178
 10
149.2645517608212
 20
104.3558272053835
 10
149.2427507662756
 20
104.3663778101513
 10
149.2198301157138
 20
104.374796762119
 10
149.1959082342914
 20
104.3809656361312
 10
149.1711250790104
 20
104.3847660070322
 10
149.1455883091031
 20
104.3860579178201
 10
149.1455883091031
 20
104.3860579178201
 10
149.1199331140403
 20
104.3847767729555
 10
149.0950422995269
 20
104.3809656361312
 10
149.0710127588722
 20
104.374796762119
 10
149.0480167468478
 20
104.3663778101513
 10
149.0261403908395
 20
104.3558379713068
 10
149.0055236478495
 20
104.343295670741
 10
148.9862741771099
 20
104.3288693336096
 10
148.9685427015461
 20
104.312720448761
 10
148.952415348544
 20
104.2949566754275
 10
148.9380428410287
 20
104.2756964387647
 10
148.9255543700791
 20
104.2550796957746
 10
148.9150468290043
 20
104.2332141056896
 10
148.9066709407295
 20
104.2102503914349
 10
148.9005235985638
 20
104.1862962122428
 10
148.8967447595092
 20
104.1614807591921
 10
148.8954636146445
 20
104.1359439892848
 10
148.8954636146445
 20
104.1359439892848
 10
148.8967447595092
 20
104.1104072193775
 10
148.9005235985638
 20
104.0855917663268
 10
148.9066601748062
 20
104.0616375871347
 10
148.9150575949275
 20
104.03867387288
 10
148.9255543700791
 20
104.0167975168717
 10
148.9380536069519
 20
103.9961915398049
 10
148.952415348544
 20
103.9769205372189
 10
148.9685319356229
 20
103.9591567638854
 10
148.9862741771099
 20
103.9429971131136
 10
149.0055128819262
 20
103.9285815419054
 10
149.0261403908395
 20
103.9160500072628
 10
149.0480167468478
 20
103.9054994024951
 10
149.0710235247954
 20
103.8970804505273
 10
149.0950315336037
 20
103.8909115765152
 10
149.1199331140403
 20
103.8871112056141
 97
        0
 75
     1
 76
     1
 98
        0
  0
LWPOLYLINE
  5
85
330
1F
100
AcDbEntity
  8
ISS138金台
  6
Continuous
 62
   250
420
  2367521
370
    13
100
AcDbPolyline
 90
       68
 70
     0
 43
0.0
 10
149.1455883091031
 20
103.8858192948262
 10
149.1711143130871
 20
103.8871219715374
 10
149.1959190002146
 20
103.8909115765152
 10
149.2198193497906
 20
103.8970804505273
 10
149.2427507662756
 20
103.9055101684183
 10
149.2645625267444
 20
103.9160500072628
 10
149.2851254401183
 20
103.9285923078286
 10
149.3043103153185
 20
103.9429971131136
 10
149.3220202590358
 20
103.9591567638854
 10
149.338104548345
 20
103.9769205372189
 10
149.3524555240139
 20
103.9961915398049
 10
149.3649332290402
 20
104.016808282795
 10
149.3754300041918
 20
104.0386631069567
 10
149.3838058924666
 20
104.0616375871347
 10
149.3899424687091
 20
104.0855917663268
 10
149.3937213077637
 20
104.1104072193775
 10
149.3950024526283
 20
104.1359439892848
 10
149.3950024526283
 20
104.1359439892848
 10
149.3937105418404
 20
104.1614807591921
 10
149.3899532346323
 20
104.1862854463195
 10
149.3838058924666
 20
104.2102396255116
 10
149.3754300041918
 20
104.2332248716128
 10
149.3649439949634
 20
104.2550689298514
 10
149.3524555240139
 20
104.2756964387647
 10
149.338104548345
 20
104.2949566754275
 10
149.3220202590358
 20
104.312720448761
 10
149.3043103153185
 20
104.3288800995328
 10
149.2851146741951
 20
104.3432849048178
 10
149.2645517608212
 20
104.3558272053835
 10
149.2427507662756
 20
104.3663778101513
 10
149.2198301157138
 20
104.374796762119
 10
149.1959082342914
 20
104.3809656361312
 10
149.1711250790104
 20
104.3847660070322
 10
149.1455883091031
 20
104.3860579178201
 10
149.1455883091031
 20
104.3860579178201
 10
149.1199331140403
 20
104.3847767729555
 10
149.0950422995269
 20
104.3809656361312
 10
149.0710127588722
 20
104.374796762119
 10
149.0480167468478
 20
104.3663778101513
 10
149.0261403908395
 20
104.3558379713068
 10
149.0055236478495
 20
104.343295670741
 10
148.9862741771099
 20
104.3288693336096
 10
148.9685427015461
 20
104.312720448761
 10
148.952415348544
 20
104.2949566754275
 10
148.9380428410287
 20
104.2756964387647
 10
148.9255543700791
 20
104.2550796957746
 10
148.9150468290043
 20
104.2332141056896
 10
148.9066709407295
 20
104.2102503914349
 10
148.9005235985638
 20
104.1862962122428
 10
148.8967447595092
 20
104.1614807591921
 10
148.8954636146445
 20
104.1359439892848
 10
148.8954636146445
 20
104.1359439892848
 10
148.8967447595092
 20
104.1104072193775
 10
148.9005235985638
 20
104.0855917663268
 10
148.9066601748062
 20
104.0616375871347
 10
148.9150575949275
 20
104.03867387288
 10
148.9255543700791
 20
104.0167975168717
 10
148.9380536069519
 20
103.9961915398049
 10
148.952415348544
 20
103.9769205372189
 10
148.9685319356229
 20
103.9591567638854
 10
148.9862741771099
 20
103.9429971131136
 10
149.0055128819262
 20
103.9285815419054
 10
149.0261403908395
 20
103.9160500072628
 10
149.0480167468478
 20
103.9054994024951
 10
149.0710235247954
 20
103.8970804505273
 10
149.0950315336037
 20
103.8909115765152
 10
149.1199331140403
 20
103.8871112056141
 10
149.1455883091031
 20
103.8858192948262
  0
HATCH
  5
86
330
1F
100
AcDbEntity
  8
ISS138金台
  6
Continuous
 62
   250
420
  2367521
370
    13
100
AcDbHatch
 10
0.0
 20
0.0
 30
0.0
210
0.0
220
0.0
230
1.0
  2
SOLID
 70
     1
 71
     0
 91
        1
 92
        3
 72
     0
 73
     1
 93
       67
 10
149.1455883091031
 20
108.5857799752436
 10
149.1711143130871
 20
108.5870718860315
 10
149.1959190002146
 20
108.5908399591628
 10
149.2198193497906
 20
108.5969765354053
 10
149.2427507662756
 20
108.6053631896033
 10
149.2645625267444
 20
108.6158491988317
 10
149.2851254401183
 20
108.6283484357045
 10
149.3043103153185
 20
108.6426994113733
 10
149.3220202590358
 20
108.658805232529
 10
149.338104548345
 20
108.6765367080928
 10
149.3524555240139
 20
108.6957538810627
 10
149.3649332290402
 20
108.716338326283
 10
149.3754300041918
 20
108.7381823845216
 10
149.3838058924666
 20
108.7611460987763
 10
149.3899424687091
 20
108.7851110438917
 10
149.3937213077637
 20
108.809958794712
 10
149.3950024526283
 20
108.8355493942355
 10
149.3950024526283
 20
108.8355493942355
 10
149.3937105418404
 20
108.8611507596822
 10
149.3899532346323
 20
108.8859877445793
 10
149.3838058924666
 20
108.9099526896947
 10
149.3754300041918
 20
108.9329164039494
 10
149.3649439949634
 20
108.9547496962647
 10
149.3524555240139
 20
108.9753449074083
 10
149.338104548345
 20
108.9945620803782
 10
149.3220202590358
 20
109.012293555942
 10
149.3043103153185
 20
109.0283886111744
 10
149.2851146741951
 20
109.0427503527664
 10
149.2645517608212
 20
109.055238823716
 10
149.2427507662756
 20
109.0657248329444
 10
149.2198301157138
 20
109.0741114871424
 10
149.1959082342914
 20
109.0802480633849
 10
149.1711250790104
 20
109.0840269024395
 10
149.1455883091031
 20
109.0853080473041
 10
149.1455883091031
 20
109.0853080473041
 10
149.1199331140403
 20
109.0840269024395
 10
149.0950422995269
 20
109.0802588293081
 10
149.0710127588722
 20
109.0741007212192
 10
149.0480167468478
 20
109.0657248329444
 10
149.0261403908395
 20
109.055238823716
 10
149.0055236478495
 20
109.0427503527664
 10
148.9862741771099
 20
109.0283886111744
 10
148.9685427015461
 20
109.012293555942
 10
148.952415348544
 20
108.9945620803782
 10
148.9380428410287
 20
108.9753449074083
 10
148.9255543700791
 20
108.9547496962647
 10
148.9150468290043
 20
108.9329164039494
 10
148.9066709407295
 20
108.9099526896947
 10
148.9005235985638
 20
108.8859877445793
 10
148.8967447595092
 20
108.8611399937589
 10
148.8954636146445
 20
108.8355493942355
 10
148.8954636146445
 20
108.8355493942355
 10
148.8967447595092
 20
108.8099480287888
 10
148.9005235985638
 20
108.7851110438917
 10
148.9066601748062
 20
108.7611460987763
 10
148.9150575949275
 20
108.7381931504448
 10
148.9255543700791
 20
108.716338326283
 10
148.9380536069519
 20
108.6957431151394
 10
148.952415348544
 20
108.6765259421696
 10
148.9685319356229
 20
108.658805232529
 10
148.9862741771099
 20
108.6427101772966
 10
149.0055128819262
 20
108.6283484357045
 10
149.0261403908395
 20
108.6158491988317
 10
149.0480167468478
 20
108.6053631896033
 10
149.0710235247954
 20
108.5969765354053
 10
149.0950315336037
 20
108.5908399591628
 10
149.1199331140403
 20
108.5870611201083
 97
        0
 75
     1
 76
     1
 98
        0
  0
LWPOLYLINE
  5
87
330
1F
100
AcDbEntity
  8
ISS138金台
  6
Continuous
 62
   250
420
  2367521
370
    13
100
AcDbPolyline
 90
       68
 70
     0
 43
0.0
 10
149.1455883091031
 20
108.5857799752436
 10
149.1711143130871
 20
108.5870718860315
 10
149.1959190002146
 20
108.5908399591628
 10
149.2198193497906
 20
108.5969765354053
 10
149.2427507662756
 20
108.6053631896033
 10
149.2645625267444
 20
108.6158491988317
 10
149.2851254401183
 20
108.6283484357045
 10
149.3043103153185
 20
108.6426994113733
 10
149.3220202590358
 20
108.658805232529
 10
149.338104548345
 20
108.6765367080928
 10
149.3524555240139
 20
108.6957538810627
 10
149.3649332290402
 20
108.716338326283
 10
149.3754300041918
 20
108.7381823845216
 10
149.3838058924666
 20
108.7611460987763
 10
149.3899424687091
 20
108.7851110438917
 10
149.3937213077637
 20
108.809958794712
 10
149.3950024526283
 20
108.8355493942355
 10
149.3950024526283
 20
108.8355493942355
 10
149.3937105418404
 20
108.8611507596822
 10
149.3899532346323
 20
108.8859877445793
 10
149.3838058924666
 20
108.9099526896947
 10
149.3754300041918
 20
108.9329164039494
 10
149.3649439949634
 20
108.9547496962647
 10
149.3524555240139
 20
108.9753449074083
 10
149.338104548345
 20
108.9945620803782
 10
149.3220202590358
 20
109.012293555942
 10
149.3043103153185
 20
109.0283886111744
 10
149.2851146741951
 20
109.0427503527664
 10
149.2645517608212
 20
109.055238823716
 10
149.2427507662756
 20
109.0657248329444
 10
149.2198301157138
 20
109.0741114871424
 10
149.1959082342914
 20
109.0802480633849
 10
149.1711250790104
 20
109.0840269024395
 10
149.1455883091031
 20
109.0853080473041
 10
149.1455883091031
 20
109.0853080473041
 10
149.1199331140403
 20
109.0840269024395
 10
149.0950422995269
 20
109.0802588293081
 10
149.0710127588722
 20
109.0741007212192
 10
149.0480167468478
 20
109.0657248329444
 10
149.0261403908395
 20
109.055238823716
 10
149.0055236478495
 20
109.0427503527664
 10
148.9862741771099
 20
109.0283886111744
 10
148.9685427015461
 20
109.012293555942
 10
148.952415348544
 20
108.9945620803782
 10
148.9380428410287
 20
108.9753449074083
 10
148.9255543700791
 20
108.9547496962647
 10
148.9150468290043
 20
108.9329164039494
 10
148.9066709407295
 20
108.9099526896947
 10
148.9005235985638
 20
108.8859877445793
 10
148.8967447595092
 20
108.8611399937589
 10
148.8954636146445
 20
108.8355493942355
 10
148.8954636146445
 20
108.8355493942355
 10
148.8967447595092
 20
108.8099480287888
 10
148.9005235985638
 20
108.7851110438917
 10
148.9066601748062
 20
108.7611460987763
 10
148.9150575949275
 20
108.7381931504448
 10
148.9255543700791
 20
108.716338326283
 10
148.9380536069519
 20
108.6957431151394
 10
148.952415348544
 20
108.6765259421696
 10
148.9685319356229
 20
108.658805232529
 10
148.9862741771099
 20
108.6427101772966
 10
149.0055128819262
 20
108.6283484357045
 10
149.0261403908395
 20
108.6158491988317
 10
149.0480167468478
 20
108.6053631896033
 10
149.0710235247954
 20
108.5969765354053
 10
149.0950315336037
 20
108.5908399591628
 10
149.1199331140403
 20
108.5870611201083
 10
149.1455883091031
 20
108.5857799752436
  0
HATCH
  5
88
330
1F
100
AcDbEntity
  8
ISS138金台
  6
Continuous
 62
   250
420
  2367521
370
    13
100
AcDbHatch
 10
0.0
 20
0.0
 30
0.0
210
0.0
220
0.0
230
1.0
  2
SOLID
 70
     1
 71
     0
 91
        1
 92
        3
 72
     0
 73
     1
 93
       67
 10
117.1427080151342
 20
114.0838077789562
 10
117.1682447850415
 20
114.0850996897441
 10
117.1930494721689
 20
114.0888785287987
 10
117.2169713535914
 20
114.0950366368876
 10
117.2399243019229
 20
114.1034448229321
 10
117.2617575942382
 20
114.113952364007
 10
117.2823528053818
 20
114.126462366803
 10
117.3015807442749
 20
114.1408348743183
 10
117.3193229857619
 20
114.1569622273204
 10
117.3354395728408
 20
114.1747044688075
 10
117.3498228462793
 20
114.1939216417773
 10
117.3623328490754
 20
114.2145276188441
 10
117.3728511560734
 20
114.2363501452362
 10
117.3812485761947
 20
114.2593030935677
 10
117.3874066842836
 20
114.2832357409134
 10
117.3911855233382
 20
114.3080404280408
 10
117.3924774341261
 20
114.3335771979481
 10
117.3924774341261
 20
114.3335771979481
 10
117.3911855233382
 20
114.3591785633948
 10
117.3874066842836
 20
114.3840263142152
 10
117.3812485761947
 20
114.408012791177
 10
117.3728511560734
 20
114.4310088032014
 10
117.3623328490754
 20
114.4528636273632
 10
117.3498120803561
 20
114.4734911362765
 10
117.3354288069176
 20
114.4927406070161
 10
117.3193229857619
 20
114.5104936144263
 10
117.3015807442749
 20
114.5266317333517
 10
117.2823528053818
 20
114.5410150067902
 10
117.2617575942382
 20
114.5535357755095
 10
117.2399243019229
 20
114.5640540825075
 10
117.2169821195146
 20
114.572462268552
 10
117.1930387062457
 20
114.578620376641
 10
117.1682447850415
 20
114.5823992156956
 10
117.1427080151342
 20
114.5836911264835
 10
117.1427080151342
 20
114.5836911264835
 10
117.1171174156108
 20
114.5824099816188
 10
117.0922588988671
 20
114.578620376641
 10
117.068304719675
 20
114.572462268552
 10
117.0453410054203
 20
114.5640648484308
 10
117.0234969471817
 20
114.5535357755095
 10
117.0029125019614
 20
114.5410150067902
 10
116.9836953289915
 20
114.5266209674285
 10
116.9659638534277
 20
114.5104936144263
 10
116.9498687981953
 20
114.4927406070161
 10
116.9355070566032
 20
114.4734803703533
 10
116.9230185856537
 20
114.4528636273632
 10
116.9125218105021
 20
114.4309980372782
 10
116.904135156304
 20
114.408012791177
 10
116.8979985800615
 20
114.3840263142152
 10
116.894219741007
 20
114.3591785633948
 10
116.8929385961423
 20
114.3335771979481
 10
116.8929385961423
 20
114.3335771979481
 10
116.894219741007
 20
114.3080296621176
 10
116.8979985800615
 20
114.2832357409134
 10
116.9041459222272
 20
114.2593030935677
 10
116.9125218105021
 20
114.2363501452362
 10
116.9230185856537
 20
114.2145168529209
 10
116.93549629068
 20
114.1939324077005
 10
116.9498580322721
 20
114.1746937028842
 10
116.9659638534277
 20
114.1569622273204
 10
116.9836845630683
 20
114.1408456402415
 10
117.0029125019614
 20
114.126462366803
 10
117.0234969471817
 20
114.113952364007
 10
117.0453410054203
 20
114.1034340570089
 10
117.068304719675
 20
114.0950366368876
 10
117.0922696647904
 20
114.0888785287987
 10
117.1171174156108
 20
114.0850996897441
 97
        0
 75
     1
 76
     1
 98
        0
  0
LWPOLYLINE
  5
89
330
1F
100
AcDbEntity
  8
ISS138金台
  6
Continuous
 62
   250
420
  2367521
370
    13
100
AcDbPolyline
 90
       68
 70
     0
 43
0.0
 10
117.1427080151342
 20
114.0838077789562
 10
117.1682447850415
 20
114.0850996897441
 10
117.1930494721689
 20
114.0888785287987
 10
117.2169713535914
 20
114.0950366368876
 10
117.2399243019229
 20
114.1034448229321
 10
117.2617575942382
 20
114.113952364007
 10
117.2823528053818
 20
114.126462366803
 10
117.3015807442749
 20
114.1408348743183
 10
117.3193229857619
 20
114.1569622273204
 10
117.3354395728408
 20
114.1747044688075
 10
117.3498228462793
 20
114.1939216417773
 10
117.3623328490754
 20
114.2145276188441
 10
117.3728511560734
 20
114.2363501452362
 10
117.3812485761947
 20
114.2593030935677
 10
117.3874066842836
 20
114.2832357409134
 10
117.3911855233382
 20
114.3080404280408
 10
117.3924774341261
 20
114.3335771979481
 10
117.3924774341261
 20
114.3335771979481
 10
117.3911855233382
 20
114.3591785633948
 10
117.3874066842836
 20
114.3840263142152
 10
117.3812485761947
 20
114.408012791177
 10
117.3728511560734
 20
114.4310088032014
 10
117.3623328490754
 20
114.4528636273632
 10
117.3498120803561
 20
114.4734911362765
 10
117.3354288069176
 20
114.4927406070161
 10
117.3193229857619
 20
114.5104936144263
 10
117.3015807442749
 20
114.5266317333517
 10
117.2823528053818
 20
114.5410150067902
 10
117.2617575942382
 20
114.5535357755095
 10
117.2399243019229
 20
114.5640540825075
 10
117.2169821195146
 20
114.572462268552
 10
117.1930387062457
 20
114.578620376641
 10
117.1682447850415
 20
114.5823992156956
 10
117.1427080151342
 20
114.5836911264835
 10
117.1427080151342
 20
114.5836911264835
 10
117.1171174156108
 20
114.5824099816188
 10
117.0922588988671
 20
114.578620376641
 10
117.068304719675
 20
114.572462268552
 10
117.0453410054203
 20
114.5640648484308
 10
117.0234969471817
 20
114.5535357755095
 10
117.0029125019614
 20
114.5410150067902
 10
116.9836953289915
 20
114.5266209674285
 10
116.9659638534277
 20
114.5104936144263
 10
116.9498687981953
 20
114.4927406070161
 10
116.9355070566032
 20
114.4734803703533
 10
116.9230185856537
 20
114.4528636273632
 10
116.9125218105021
 20
114.4309980372782
 10
116.904135156304
 20
114.408012791177
 10
116.8979985800615
 20
114.3840263142152
 10
116.894219741007
 20
114.3591785633948
 10
116.8929385961423
 20
114.3335771979481
 10
116.8929385961423
 20
114.3335771979481
 10
116.894219741007
 20
114.3080296621176
 10
116.8979985800615
 20
114.2832357409134
 10
116.9041459222272
 20
114.2593030935677
 10
116.9125218105021
 20
114.2363501452362
 10
116.9230185856537
 20
114.2145168529209
 10
116.93549629068
 20
114.1939324077005
 10
116.9498580322721
 20
114.1746937028842
 10
116.9659638534277
 20
114.1569622273204
 10
116.9836845630683
 20
114.1408456402415
 10
117.0029125019614
 20
114.126462366803
 10
117.0234969471817
 20
114.113952364007
 10
117.0453410054203
 20
114.1034340570089
 10
117.068304719675
 20
114.0950366368876
 10
117.0922696647904
 20
114.0888785287987
 10
117.1171174156108
 20
114.0850996897441
 10
117.1427080151342
 20
114.0838077789562
  0
HATCH
  5
8A
330
1F
100
AcDbEntity
  8
ISS138金台
  6
Continuous
 62
   250
420
  2367521
370
    13
100
AcDbHatch
 10
0.0
 20
0.0
 30
0.0
210
0.0
220
0.0
230
1.0
  2
SOLID
 70
     1
 71
     0
 91
        1
 92
        3
 72
     0
 73
     1
 93
       67
 10
138.6428596019566
 20
93.44856893277918
 10
138.6683963718638
 20
93.44986084356707
 10
138.6932010589913
 20
93.4536612144681
 10
138.7171552381834
 20
93.45983008848029
 10
138.7401404842846
 20
93.46825980637126
 10
138.7619845425232
 20
93.47879964521579
 10
138.7826120514364
 20
93.49134194578154
 10
138.8018830540225
 20
93.50575751698975
 10
138.8196468273559
 20
93.52190640183835
 10
138.8358064781278
 20
93.53967017517184
 10
138.8502112834128
 20
93.55893041183461
 10
138.8627535839785
 20
93.5795579207479
 10
138.873293422823
 20
93.6014127449097
 10
138.881723140714
 20
93.62438722508764
 10
138.8878920147262
 20
93.64834140427976
 10
138.8916923856272
 20
93.67315685733047
 10
138.8929842964151
 20
93.69869362723774
 10
138.8929842964151
 20
93.69869362723774
 10
138.8916923856272
 20
93.72421963122179
 10
138.8878920147262
 20
93.74904585019573
 10
138.881723140714
 20
93.77298926346461
 10
138.873293422823
 20
93.79596374364256
 10
138.8627535839785
 20
93.81782933372759
 10
138.8502112834128
 20
93.83844607671764
 10
138.8357957122045
 20
93.85770631338042
 10
138.8196468273559
 20
93.8754700867139
 10
138.8018830540225
 20
93.89162973748574
 10
138.7826120514364
 20
93.90604530869395
 10
138.7619953084464
 20
93.91857684333647
 10
138.7401297183613
 20
93.92912744810423
 10
138.7171660041066
 20
93.93754640007197
 10
138.6932118249145
 20
93.94371527408416
 10
138.6683963718638
 20
93.94751564498519
 10
138.6428596019566
 20
93.94880755577307
 10
138.6428596019566
 20
93.94880755577307
 10
138.617312066126
 20
93.94752641090841
 10
138.5925073789986
 20
93.94372604000738
 10
138.5685639657297
 20
93.93754640007197
 10
138.5455894855517
 20
93.92912744810423
 10
138.5237238954667
 20
93.9185876092597
 10
138.5031071524766
 20
93.90603454277071
 10
138.4838469158138
 20
93.89162973748574
 10
138.4660723765572
 20
93.8754700867139
 10
138.4499234917085
 20
93.85770631338042
 10
138.4355079205004
 20
93.83844607671764
 10
138.4229656199346
 20
93.81781856780435
 10
138.4124150151668
 20
93.79596374364256
 10
138.4039960631991
 20
93.77300002938783
 10
138.3978271891869
 20
93.74904585019573
 10
138.3940268182859
 20
93.72423039714502
 10
138.392734907498
 20
93.69869362723774
 10
138.392734907498
 20
93.69869362723774
 10
138.3940268182859
 20
93.67315685733047
 10
138.3978164232637
 20
93.64834140427976
 10
138.4040068291223
 20
93.62438722508764
 10
138.4124257810901
 20
93.60142351083292
 10
138.4229656199346
 20
93.5795579207479
 10
138.4355079205004
 20
93.55893041183461
 10
138.4499127257853
 20
93.53967017517184
 10
138.4660723765572
 20
93.52190640183835
 10
138.4838469158138
 20
93.50574675106651
 10
138.5031071524766
 20
93.49134194578154
 10
138.5237238954667
 20
93.47879964521579
 10
138.5455894855517
 20
93.46824904044803
 10
138.5685639657297
 20
93.45983008848029
 10
138.5925073789986
 20
93.4536612144681
 10
138.6173228320493
 20
93.44986084356707
 97
        0
 75
     1
 76
     1
 98
        0
  0
LWPOLYLINE
  5
8B
330
1F
100
AcDbEntity
  8
ISS138金台
  6
Continuous
 62
   250
420
  2367521
370
    13
100
AcDbPolyline
 90
       68
 70
     0
 43
0.0
 10
138.6428596019566
 20
93.44856893277918
 10
138.6683963718638
 20
93.44986084356707
 10
138.6932010589913
 20
93.4536612144681
 10
138.7171552381834
 20
93.45983008848029
 10
138.7401404842846
 20
93.46825980637126
 10
138.7619845425232
 20
93.47879964521579
 10
138.7826120514364
 20
93.49134194578154
 10
138.8018830540225
 20
93.50575751698975
 10
138.8196468273559
 20
93.52190640183835
 10
138.8358064781278
 20
93.53967017517184
 10
138.8502112834128
 20
93.55893041183461
 10
138.8627535839785
 20
93.5795579207479
 10
138.873293422823
 20
93.6014127449097
 10
138.881723140714
 20
93.62438722508764
 10
138.8878920147262
 20
93.64834140427976
 10
138.8916923856272
 20
93.67315685733047
 10
138.8929842964151
 20
93.69869362723774
 10
138.8929842964151
 20
93.69869362723774
 10
138.8916923856272
 20
93.72421963122179
 10
138.8878920147262
 20
93.74904585019573
 10
138.881723140714
 20
93.77298926346461
 10
138.873293422823
 20
93.79596374364256
 10
138.8627535839785
 20
93.81782933372759
 10
138.8502112834128
 20
93.83844607671764
 10
138.8357957122045
 20
93.85770631338042
 10
138.8196468273559
 20
93.8754700867139
 10
138.8018830540225
 20
93.89162973748574
 10
138.7826120514364
 20
93.90604530869395
 10
138.7619953084464
 20
93.91857684333647
 10
138.7401297183613
 20
93.92912744810423
 10
138.7171660041066
 20
93.93754640007197
 10
138.6932118249145
 20
93.94371527408416
 10
138.6683963718638
 20
93.94751564498519
 10
138.6428596019566
 20
93.94880755577307
 10
138.6428596019566
 20
93.94880755577307
 10
138.617312066126
 20
93.94752641090841
 10
138.5925073789986
 20
93.94372604000738
 10
138.5685639657297
 20
93.93754640007197
 10
138.5455894855517
 20
93.92912744810423
 10
138.5237238954667
 20
93.9185876092597
 10
138.5031071524766
 20
93.90603454277071
 10
138.4838469158138
 20
93.89162973748574
 10
138.4660723765572
 20
93.8754700867139
 10
138.4499234917085
 20
93.85770631338042
 10
138.4355079205004
 20
93.83844607671764
 10
138.4229656199346
 20
93.81781856780435
 10
138.4124150151668
 20
93.79596374364256
 10
138.4039960631991
 20
93.77300002938783
 10
138.3978271891869
 20
93.74904585019573
 10
138.3940268182859
 20
93.72423039714502
 10
138.392734907498
 20
93.69869362723774
 10
138.392734907498
 20
93.69869362723774
 10
138.3940268182859
 20
93.67315685733047
 10
138.3978164232637
 20
93.64834140427976
 10
138.4040068291223
 20
93.62438722508764
 10
138.4124257810901
 20
93.60142351083292
 10
138.4229656199346
 20
93.5795579207479
 10
138.4355079205004
 20
93.55893041183461
 10
138.4499127257853
 20
93.53967017517184
 10
138.4660723765572
 20
93.52190640183835
 10
138.4838469158138
 20
93.50574675106651
 10
138.5031071524766
 20
93.49134194578154
 10
138.5237238954667
 20
93.47879964521579
 10
138.5455894855517
 20
93.46824904044803
 10
138.5685639657297
 20
93.45983008848029
 10
138.5925073789986
 20
93.4536612144681
 10
138.6173228320493
 20
93.44986084356707
 10
138.6428596019566
 20
93.44856893277918
  0
HATCH
  5
8C
330
1F
100
AcDbEntity
  8
ISS138金台
  6
Continuous
 62
   250
420
  2367521
370
    13
100
AcDbHatch
 10
0.0
 20
0.0
 30
0.0
210
0.0
220
0.0
230
1.0
  2
SOLID
 70
     1
 71
     0
 91
        1
 92
        3
 72
     0
 73
     1
 93
       67
 10
144.1405428961257
 20
108.0855628840961
 10
144.1660689001098
 20
108.086854794884
 10
144.190862821314
 20
108.0906336339386
 10
144.2147847027364
 20
108.0967917420276
 10
144.2377053532982
 20
108.1051891621488
 10
144.2595063478439
 20
108.1157182350701
 10
144.2800692612178
 20
108.1282390037894
 10
144.2992756682644
 20
108.1426330431512
 10
144.3169748460585
 20
108.1587603961533
 10
144.3330591353677
 20
108.1765241694868
 10
144.3474101110365
 20
108.1957736402263
 10
144.3598878160628
 20
108.2163903832164
 10
144.3703845912144
 20
108.2382667392246
 10
144.3787604794892
 20
108.2612519853258
 10
144.3848970557317
 20
108.2852276963644
 10
144.3886758947863
 20
108.3100862131081
 10
144.3899570396509
 20
108.3356875785547
 10
144.3899570396509
 20
108.3356875785547
 10
144.3886758947863
 20
108.3612135825388
 10
144.3848970557317
 20
108.3860182696662
 10
144.3787604794892
 20
108.4099509170119
 10
144.3703845912144
 20
108.4328930994201
 10
144.3598878160628
 20
108.4547371576587
 10
144.3474101110365
 20
108.4753323688023
 10
144.3330591353677
 20
108.4945603076954
 10
144.3169748460585
 20
108.5122917832592
 10
144.2992756682644
 20
108.5284191362613
 10
144.2800692612178
 20
108.5427916437766
 10
144.2595063478439
 20
108.5553016465726
 10
144.2377053532982
 20
108.5658199535707
 10
144.2147847027364
 20
108.574217373692
 10
144.190862821314
 20
108.5803754817809
 10
144.166079666033
 20
108.5841543208355
 10
144.1405428961257
 20
108.5854462316234
 10
144.1405428961257
 20
108.5854462316234
 10
144.1148877010629
 20
108.5841543208355
 10
144.0899968865496
 20
108.5803754817809
 10
144.0659781118181
 20
108.574217373692
 10
144.0429713338704
 20
108.5658307194939
 10
144.0210949778622
 20
108.5553016465726
 10
144.0004782348721
 20
108.5427916437766
 10
143.9812287641325
 20
108.5284083703381
 10
143.9634865226455
 20
108.5122917832592
 10
143.9473807014899
 20
108.4945603076954
 10
143.9330081939746
 20
108.4753216028791
 10
143.9205089571017
 20
108.4547371576587
 10
143.9100014160269
 20
108.4329038653434
 10
143.9016255277521
 20
108.4099616829351
 10
143.8954781855864
 20
108.3860182696662
 10
143.8916993465318
 20
108.361224348462
 10
143.8904182016672
 20
108.3356875785547
 10
143.8904182016672
 20
108.3356875785547
 10
143.8917101124551
 20
108.3100862131081
 10
143.8954889515096
 20
108.2852276963644
 10
143.9016255277521
 20
108.2612412194026
 10
143.9100121819502
 20
108.2382667392246
 10
143.9204981911785
 20
108.2163903832164
 10
143.9329974280514
 20
108.1957736402263
 10
143.9473699355666
 20
108.1765134035635
 10
143.9634865226455
 20
108.1587603961533
 10
143.9812395300558
 20
108.1426330431512
 10
144.0004782348721
 20
108.1282390037894
 10
144.0210949778622
 20
108.1157182350701
 10
144.0429713338704
 20
108.1051999280721
 10
144.0659781118181
 20
108.0967917420276
 10
144.0899861206263
 20
108.0906336339386
 10
144.1148877010629
 20
108.086854794884
 97
        0
 75
     1
 76
     1
 98
        0
  0
LWPOLYLINE
  5
8D
330
1F
100
AcDbEntity
  8
ISS138金台
  6
Continuous
 62
   250
420
  2367521
370
    13
100
AcDbPolyline
 90
       68
 70
     0
 43
0.0
 10
144.1405428961257
 20
108.0855628840961
 10
144.1660689001098
 20
108.086854794884
 10
144.190862821314
 20
108.0906336339386
 10
144.2147847027364
 20
108.0967917420276
 10
144.2377053532982
 20
108.1051891621488
 10
144.2595063478439
 20
108.1157182350701
 10
144.2800692612178
 20
108.1282390037894
 10
144.2992756682644
 20
108.1426330431512
 10
144.3169748460585
 20
108.1587603961533
 10
144.3330591353677
 20
108.1765241694868
 10
144.3474101110365
 20
108.1957736402263
 10
144.3598878160628
 20
108.2163903832164
 10
144.3703845912144
 20
108.2382667392246
 10
144.3787604794892
 20
108.2612519853258
 10
144.3848970557317
 20
108.2852276963644
 10
144.3886758947863
 20
108.3100862131081
 10
144.3899570396509
 20
108.3356875785547
 10
144.3899570396509
 20
108.3356875785547
 10
144.3886758947863
 20
108.3612135825388
 10
144.3848970557317
 20
108.3860182696662
 10
144.3787604794892
 20
108.4099509170119
 10
144.3703845912144
 20
108.4328930994201
 10
144.3598878160628
 20
108.4547371576587
 10
144.3474101110365
 20
108.4753323688023
 10
144.3330591353677
 20
108.4945603076954
 10
144.3169748460585
 20
108.5122917832592
 10
144.2992756682644
 20
108.5284191362613
 10
144.2800692612178
 20
108.5427916437766
 10
144.2595063478439
 20
108.5553016465726
 10
144.2377053532982
 20
108.5658199535707
 10
144.2147847027364
 20
108.574217373692
 10
144.190862821314
 20
108.5803754817809
 10
144.166079666033
 20
108.5841543208355
 10
144.1405428961257
 20
108.5854462316234
 10
144.1405428961257
 20
108.5854462316234
 10
144.1148877010629
 20
108.5841543208355
 10
144.0899968865496
 20
108.5803754817809
 10
144.0659781118181
 20
108.574217373692
 10
144.0429713338704
 20
108.5658307194939
 10
144.0210949778622
 20
108.5553016465726
 10
144.0004782348721
 20
108.5427916437766
 10
143.9812287641325
 20
108.5284083703381
 10
143.9634865226455
 20
108.5122917832592
 10
143.9473807014899
 20
108.4945603076954
 10
143.9330081939746
 20
108.4753216028791
 10
143.9205089571017
 20
108.4547371576587
 10
143.9100014160269
 20
108.4329038653434
 10
143.9016255277521
 20
108.4099616829351
 10
143.8954781855864
 20
108.3860182696662
 10
143.8916993465318
 20
108.361224348462
 10
143.8904182016672
 20
108.3356875785547
 10
143.8904182016672
 20
108.3356875785547
 10
143.8917101124551
 20
108.3100862131081
 10
143.8954889515096
 20
108.2852276963644
 10
143.9016255277521
 20
108.2612412194026
 10
143.9100121819502
 20
108.2382667392246
 10
143.9204981911785
 20
108.2163903832164
 10
143.9329974280514
 20
108.1957736402263
 10
143.9473699355666
 20
108.1765134035635
 10
143.9634865226455
 20
108.1587603961533
 10
143.9812395300558
 20
108.1426330431512
 10
144.0004782348721
 20
108.1282390037894
 10
144.0210949778622
 20
108.1157182350701
 10
144.0429713338704
 20
108.1051999280721
 10
144.0659781118181
 20
108.0967917420276
 10
144.0899861206263
 20
108.0906336339386
 10
144.1148877010629
 20
108.086854794884
 10
144.1405428961257
 20
108.0855628840961
  0
TEXT
  5
8E
330
1F
100
AcDbEntity
  8
ISS138金台
  6
Continuous
 62
   250
420
  2367521
100
AcDbText
 10
149.4959297100915
 20
110.3930877886436
 30
0.0
 40
2.150533301035563
  1
4.7
 50
90.00000250447816
 41
1.047944625218709
  7
MS Gothic
100
AcDbText
  0
TEXT
  5
8F
330
1F
100
AcDbEntity
  8
ISS138金台
  6
Continuous
 62
   250
420
  2367521
100
AcDbText
 10
144.5570408953773
 20
110.3930877886436
 30
0.0
 40
2.150533301035563
  1
0.5
 50
90.00000250447816
 41
0.9359995524088541
  7
MS Gothic
100
AcDbText
  0
TEXT
  5
90
330
1F
100
AcDbEntity
  8
ISS138金台
  6
Continuous
 62
   250
420
  2367521
100
AcDbText
 10
143.3745334193759
 20
106.1682165345493
 30
0.0
 40
2.150533301035563
  1
3
 50
90.00000250447816
 41
0.8619995117187498
  7
MS Gothic
100
AcDbText
  0
TEXT
  5
91
330
1F
100
AcDbEntity
  8
ISS138金台
  6
Continuous
 62
   250
420
  2367521
100
AcDbText
 10
108.3386266755972
 20
115.4372490909592
 30
0.0
 40
2.150533301035563
  1
15
 41
1.024874210357666
  7
MS Gothic
100
AcDbText
  0
TEXT
  5
92
330
1F
100
AcDbEntity
  8
ISS138金台
  6
Continuous
 62
   250
420
  2367521
100
AcDbText
 10
117.5955119803661
 20
94.75882812669698
 30
0.0
 40
2.150533301035563
  1
36.5
 41
1.024499893188476
  7
MS Gothic
100
AcDbText
  0
LINE
  5
93
330
1F
100
AcDbEntity
  8
ISS138金台
  6
Continuous
 62
   250
420
  2367521
370
    13
100
AcDbLine
 10
144.1405428961257
 20
105.4368120253033
 30
0.0
 11
144.1405428961257
 21
109.1882518052524
 31
0.0
  0
LINE
  5
94
330
1F
100
AcDbEntity
  8
ISS138金台
  6
UserDefined01
 62
   140
420
    44526
370
    13
100
AcDbLine
 10
125.6427919803577
 20
98.12355267129735
 30
0.0
 11
138.6429995589586
 21
98.12355267129735
 31
0.0
  0
TEXT
  5
95
330
1F
100
AcDbEntity
  8
ISS138金台
  6
Continuous
 62
   140
420
    44526
100
AcDbText
 10
130.7608257576592
 20
99.97103909984972
 30
0.0
 40
1.881716638406118
  1
13
 41
1.141253880092076
  7
MS Gothic
100
AcDbText
  0
HATCH
  5
96
330
1F
100
AcDbEntity
  8
ISS138金台
  6
Continuous
 62
   140
420
    44526
370
    50
100
AcDbHatch
 10
0.0
 20
0.0
 30
0.0
210
0.0
220
0.0
230
1.0
  2
SOLID
 70
     1
 71
     0
 91
        1
 92
        3
 72
     0
 73
     1
 93
        3
 10
124.7767165200033
 20
108.6347003304117
 10
126.5085013993222
 20
108.6339897794783
 10
125.6438470408345
 20
107.1357500728401
 97
        0
 75
     1
 76
     1
 98
        0
  0
LWPOLYLINE
  5
97
330
1F
100
AcDbEntity
  8
ISS138金台
  6
Continuous
 62
   140
420
    44526
370
    50
100
AcDbPolyline
 90
        4
 70
     0
 43
0.0
 10
124.7767165200033
 20
108.6347003304117
 10
126.5085013993222
 20
108.6339897794783
 10
125.6438470408345
 20
107.1357500728401
 10
124.7767165200033
 20
108.6347003304117
  0
ENDSEC
  0
SECTION
  2
OBJECTS
  0
DICTIONARY
  5
C
330
0
100
AcDbDictionary
281
     1
  3
ACAD_DETAILVIEWSTYLE
350
9F
  3
ACAD_GROUP
350
D
  3
ACAD_LAYOUT
350
1A
  3
ACAD_MATERIAL
350
43
  3
ACAD_MLEADERSTYLE
350
5B
  3
ACAD_MLINESTYLE
350
17
  3
ACAD_PLOTSETTINGS
350
19
  3
ACAD_PLOTSTYLENAME
350
E
  3
ACAD_SCALELIST
350
47
  3
ACAD_SECTIONVIEWSTYLE
350
A0
  3
ACAD_TABLESTYLE
350
59
  3
ACAD_VISUALSTYLE
350
2A
  3
ACDB_RECOMPOSE_DATA
350
9C
  3
AcDbVariableDictionary
350
98
  0
SUN
  5
5D
330
29
100
AcDbSun
 90
        1
290
     0
 63
     7
421
 16777215
 40
1.0
291
     1
 91
  2455826
 92
 54000000
292
     0
 70
     2
 71
   256
280
     1
  0
DICTIONARY
  5
9F
102
{ACAD_REACTORS
330
C
102
}
330
C
100
AcDbDictionary
281
     1
  0
DICTIONARY
  5
D
102
{ACAD_REACTORS
330
C
102
}
330
C
100
AcDbDictionary
281
     1
  0
DICTIONARY
  5
1A
102
{ACAD_REACTORS
330
C
102
}
330
C
100
AcDbDictionary
281
     1
  3
Layout1
350
1E
  3
Layout2
350
26
  3
Model
350
22
  0
DICTIONARY
  5
43
102
{ACAD_REACTORS
330
C
102
}
330
C
100
AcDbDictionary
281
     1
  3
ByBlock
350
45
  3
ByLayer
350
44
  3
Global
350
46
  0
DICTIONARY
  5
5B
102
{ACAD_REACTORS
330
C
102
}
330
C
100
AcDbDictionary
281
     1
  3
Standard
350
5C
  0
DICTIONARY
  5
17
102
{ACAD_REACTORS
330
C
102
}
330
C
100
AcDbDictionary
281
     1
  3
Standard
350
18
  0
DICTIONARY
  5
19
102
{ACAD_REACTORS
330
C
102
}
330
C
100
AcDbDictionary
281
     1
  0
ACDBDICTIONARYWDFLT
  5
E
102
{ACAD_REACTORS
330
C
102
}
330
C
100
AcDbDictionary
281
     1
  3
Normal
350
F
100
AcDbDictionaryWithDefault
340
F
  0
DICTIONARY
  5
47
102
{ACAD_REACTORS
330
C
102
}
330
C
100
AcDbDictionary
281
     1
  3
A0
350
48
  3
A1
350
49
  3
A2
350
4A
  3
A3
350
4B
  3
A4
350
4C
  3
A5
350
4D
  3
A6
350
4E
  3
A7
350
4F
  3
A8
350
50
  3
A9
350
51
  3
B0
350
52
  3
B1
350
53
  3
B2
350
54
  3
B3
350
55
  3
B4
350
56
  3
B5
350
57
  3
B6
350
58
  0
DICTIONARY
  5
A0
102
{ACAD_REACTORS
330
C
102
}
330
C
100
AcDbDictionary
281
     1
  0
DICTIONARY
  5
59
102
{ACAD_REACTORS
330
C
102
}
330
C
100
AcDbDictionary
281
     1
  3
Standard
350
5A
  0
DICTIONARY
  5
2A
102
{ACAD_REACTORS
330
C
102
}
330
C
100
AcDbDictionary
281
     1
  3
2dWireframe
350
2F
  3
Basic
350
32
  3
Brighten
350
36
  3
ColorChange
350
3A
  3
Conceptual
350
34
  3
Dim
350
35
  3
EdgeColorOff
350
3D
  3
Facepattern
350
39
  3
Flat
350
2B
  3
FlatWithEdges
350
2C
  3
Gouraud
350
2D
  3
GouraudWithEdges
350
2E
  3
Hidden
350
31
  3
JitterOff
350
3B
  3
Linepattern
350
38
  3
OverhangOff
350
3C
  3
Realistic
350
33
  3
Shaded
350
42
  3
Shaded with edges
350
41
  3
Shades of Gray
350
3E
  3
Sketchy
350
3F
  3
Thicken
350
37
  3
Wireframe
350
30
  3
X-Ray
350
40
  0
XRECORD
  5
9C
102
{ACAD_REACTORS
330
C
102
}
330
C
100
AcDbXrecord
280
     1
 90
        1
330
5A
  0
DICTIONARY
  5
98
102
{ACAD_REACTORS
330
C
102
}
330
C
100
AcDbDictionary
281
     1
  3
CANNOSCALE
350
99
  3
CENTEREXE
350
A1
  3
CENTERLTYPEFILE
350
A2
  3
CMLEADERSTYLE
350
9E
  3
CTABLESTYLE
350
9D
  0
LAYOUT
  5
1E
102
{ACAD_REACTORS
330
1A
102
}
330
1A
100
AcDbPlotSettings
  1

  2
none_device
  4

  6

 40
0.0
 41
0.0
 42
0.0
 43
0.0
 44
0.0
 45
0.0
 46
0.0
 47
0.0
 48
0.0
 49
0.0
140
0.0
141
0.0
142
1.0
143
1.0
 70
   688
 72
     1
 73
     0
 74
     5
  7

 75
    16
 76
     0
 77
     5
 78
   300
147
1.0
148
0.0
149
0.0
100
AcDbLayout
  1
Layout1
 70
     1
 71
     1
 10
0.0
 20
0.0
 11
420.0
 21
297.0
 12
0.0
 22
0.0
 32
0.0
 14
1.000000000000000E+20
 24
1.000000000000000E+20
 34
1.000000000000000E+20
 15
-1.000000000000000E+20
 25
-1.000000000000000E+20
 35
-1.000000000000000E+20
146
0.0
 13
0.0
 23
0.0
 33
0.0
 16
1.0
 26
0.0
 36
0.0
 17
0.0
 27
1.0
 37
0.0
 76
     0
330
1B
  0
LAYOUT
  5
26
102
{ACAD_REACTORS
330
1A
102
}
330
1A
100
AcDbPlotSettings
  1

  2
none_device
  4

  6

 40
0.0
 41
0.0
 42
0.0
 43
0.0
 44
0.0
 45
0.0
 46
0.0
 47
0.0
 48
0.0
 49
0.0
140
0.0
141
0.0
142
1.0
143
1.0
 70
   688
 72
     1
 73
     0
 74
     5
  7

 75
    16
 76
     0
 77
     5
 78
   300
147
1.0
148
0.0
149
0.0
100
AcDbLayout
  1
Layout2
 70
     1
 71
     2
 10
0.0
 20
0.0
 11
0.0
 21
0.0
 12
0.0
 22
0.0
 32
0.0
 14
0.0
 24
0.0
 34
0.0
 15
0.0
 25
0.0
 35
0.0
146
0.0
 13
0.0
 23
0.0
 33
0.0
 16
1.0
 26
0.0
 36
0.0
 17
0.0
 27
1.0
 37
0.0
 76
     0
330
23
  0
LAYOUT
  5
22
102
{ACAD_REACTORS
330
1A
102
}
330
1A
100
AcDbPlotSettings
  1

  2
none_device
  4
Letter_(8.50_x_11.00_Inches)
  6

 40
6.35
 41
6.35
 42
6.35000508
 43
6.35000508
 44
215.9
 45
279.4
 46
0.0
 47
0.0
 48
0.0
 49
0.0
140
0.0
141
0.0
142
1.0
143
1.0
 70
  1712
 72
     1
 73
     0
 74
     0
  7

 75
     0
 76
     0
 77
     5
 78
   300
147
1.0
148
0.0
149
0.0
100
AcDbLayout
  1
Model
 70
     1
 71
     0
 10
0.0
 20
0.0
 11
302.9997823349792
 21
216.0016055409748
 12
0.0
 22
0.0
 32
0.0
 14
0.0
 24
0.0
 34
0.0
 15
302.9997823349792
 25
216.0016055409748
 35
0.0
146
0.0
 13
0.0
 23
0.0
 33
0.0
 16
1.0
 26
0.0
 36
0.0
 17
0.0
 27
1.0
 37
0.0
 76
     0
330
1F
331
29
  0
MATERIAL
  5
45
102
{ACAD_REACTORS
330
43
102
}
330
43
100
AcDbMaterial
  1
ByBlock
 72
     1
 94
      127
  0
MATERIAL
  5
44
102
{ACAD_REACTORS
330
43
102
}
330
43
100
AcDbMaterial
  1
ByLayer
 72
     1
 94
      127
  0
MATERIAL
  5
46
102
{ACAD_REACTORS
330
43
102
}
330
43
100
AcDbMaterial
  1
Global
 72
     1
 94
      127
  0
MLEADERSTYLE
  5
5C
102
{ACAD_REACTORS
330
5B
102
}
330
5B
100
AcDbMLeaderStyle
179
     2
170
     2
171
     1
172
     0
 90
        2
 40
0.0
 41
0.0
173
     1
 91
-1056964608
340
14
 92
       -2
290
     1
 42
2.0
291
     1
 43
8.0
  3
Standard
341
0
 44
4.0
300

342
11
174
     1
178
     6
175
     1
176
     0
 93
-1056964608
 45
4.0
292
     0
297
     0
 46
4.0
343
0
 94
-1056964608
 47
1.0
 49
1.0
140
1.0
293
     1
141
0.0
294
     1
177
     0
142
1.0
295
     0
296
     0
143
3.75
271
     0
272
     9
273
     9
298
     0
  0
MLINESTYLE
  5
18
102
{ACAD_REACTORS
330
17
102
}
330
17
100
AcDbMlineStyle
  2
Standard
 70
     0
  3

 62
   256
 51
90.0
 52
90.0
 71
     2
 49
0.5
 62
   256
  6
BYLAYER
 49
-0.5
 62
   256
  6
BYLAYER
  0
ACDBPLACEHOLDER
  5
F
102
{ACAD_REACTORS
330
E
102
}
330
E
  0
SCALE
  5
48
102
{ACAD_REACTORS
330
47
102
}
330
47
100
AcDbScale
 70
     0
300
1:1
140
1.0
141
1.0
290
     1
  0
SCALE
  5
49
102
{ACAD_REACTORS
330
47
102
}
330
47
100
AcDbScale
 70
     0
300
1:2
140
1.0
141
2.0
290
     0
  0
SCALE
  5
4A
102
{ACAD_REACTORS
330
47
102
}
330
47
100
AcDbScale
 70
     0
300
1:4
140
1.0
141
4.0
290
     0
  0
SCALE
  5
4B
102
{ACAD_REACTORS
330
47
102
}
330
47
100
AcDbScale
 70
     0
300
1:5
140
1.0
141
5.0
290
     0
  0
SCALE
  5
4C
102
{ACAD_REACTORS
330
47
102
}
330
47
100
AcDbScale
 70
     0
300
1:8
140
1.0
141
8.0
290
     0
  0
SCALE
  5
4D
102
{ACAD_REACTORS
330
47
102
}
330
47
100
AcDbScale
 70
     0
300
1:10
140
1.0
141
10.0
290
     0
  0
SCALE
  5
4E
102
{ACAD_REACTORS
330
47
102
}
330
47
100
AcDbScale
 70
     0
300
1:16
140
1.0
141
16.0
290
     0
  0
SCALE
  5
4F
102
{ACAD_REACTORS
330
47
102
}
330
47
100
AcDbScale
 70
     0
300
1:20
140
1.0
141
20.0
290
     0
  0
SCALE
  5
50
102
{ACAD_REACTORS
330
47
102
}
330
47
100
AcDbScale
 70
     0
300
1:30
140
1.0
141
30.0
290
     0
  0
SCALE
  5
51
102
{ACAD_REACTORS
330
47
102
}
330
47
100
AcDbScale
 70
     0
300
1:40
140
1.0
141
40.0
290
     0
  0
SCALE
  5
52
102
{ACAD_REACTORS
330
47
102
}
330
47
100
AcDbScale
 70
     0
300
1:50
140
1.0
141
50.0
290
     0
  0
SCALE
  5
53
102
{ACAD_REACTORS
330
47
102
}
330
47
100
AcDbScale
 70
     0
300
1:100
140
1.0
141
100.0
290
     0
  0
SCALE
  5
54
102
{ACAD_REACTORS
330
47
102
}
330
47
100
AcDbScale
 70
     0
300
2:1
140
2.0
141
1.0
290
     0
  0
SCALE
  5
55
102
{ACAD_REACTORS
330
47
102
}
330
47
100
AcDbScale
 70
     0
300
4:1
140
4.0
141
1.0
290
     0
  0
SCALE
  5
56
102
{ACAD_REACTORS
330
47
102
}
330
47
100
AcDbScale
 70
     0
300
8:1
140
8.0
141
1.0
290
     0
  0
SCALE
  5
57
102
{ACAD_REACTORS
330
47
102
}
330
47
100
AcDbScale
 70
     0
300
10:1
140
10.0
141
1.0
290
     0
  0
SCALE
  5
58
102
{ACAD_REACTORS
330
47
102
}
330
47
100
AcDbScale
 70
     0
300
100:1
140
100.0
141
1.0
290
     0
  0
TABLESTYLE
  5
5A
102
{ACAD_REACTORS
330
59
102
}
102
{ACAD_XDICTIONARY
360
9A
102
}
330
59
100
AcDbTableStyle
  3
Standard
 70
     0
 71
     0
 40
0.06
 41
0.06
280
     0
281
     0
  7
Standard
140
4.5
170
     2
 62
     0
 63
   257
283
     0
 90
        4
 91
        0
  1

274
    -2
284
     1
 64
     0
275
    -2
285
     1
 65
     0
276
    -2
286
     1
 66
     0
277
    -2
287
     1
 67
     0
278
    -2
288
     1
 68
     0
279
    -2
289
     1
 69
     0
  7
Standard
140
6.0
170
     5
 62
     0
 63
   257
283
     0
 90
        4
 91
        0
  1

274
    -2
284
     1
 64
     0
275
    -2
285
     1
 65
     0
276
    -2
286
     1
 66
     0
277
    -2
287
     1
 67
     0
278
    -2
288
     1
 68
     0
279
    -2
289
     1
 69
     0
  7
Standard
140
4.5
170
     5
 62
     0
 63
   257
283
     0
 90
        4
 91
        0
  1

274
    -2
284
     1
 64
     0
275
    -2
285
     1
 65
     0
276
    -2
286
     1
 66
     0
277
    -2
287
     1
 67
     0
278
    -2
288
     1
 68
     0
279
    -2
289
     1
 69
     0
  0
VISUALSTYLE
  5
2F
102
{ACAD_REACTORS
330
2A
102
}
330
2A
100
AcDbVisualStyle
  2
2dWireframe
 70
     4
177
     3
291
     0
 70
    58
 90
        0
176
     1
 90
        2
176
     1
 90
        0
176
     1
 90
        0
176
     1
 40
0.6
176
     1
 40
30.0
176
     1
 62
     7
420
 16777215
176
     1
 90
        1
176
     1
 90
        4
176
     1
 62
     7
176
     1
 62
   257
176
     1
 90
        1
176
     1
 90
        1
176
     1
 40
1.0
176
     1
 90
        0
176
     1
 62
   257
176
     1
 40
1.0
176
     1
 90
        1
176
     1
 90
        6
176
     1
 90
        2
176
     1
 62
     7
176
     1
 90
        5
176
     1
 90
        0
176
     1
 90
        0
176
     1
290
     0
176
     1
 90
        1
176
     1
 40
0.0
176
     1
 90
        0
176
     1
290
     1
176
     1
290
     1
176
     1
290
     0
176
     1
290
     0
176
     1
290
     0
176
     1
290
     0
176
     1
290
     0
176
     1
290
     0
176
     1
290
     0
176
     1
 90
       50
176
     1
 40
0.0
176
     1
 40
1.0
176
     1
 90
        0
176
     1
 62
    18
420
        0
176
     1
 90
       50
176
     1
 90
        3
176
     1
 62
     5
420
      255
176
     1
290
     0
176
     1
 90
       50
176
     1
 90
       50
176
     1
 90
       50
176
     1
290
     0
176
     1
 90
       50
176
     1
 62
   256
176
     0
 40
1.0
176
     0
 90
        2
176
     1
  1
strokes_ogs.tif
176
     1
290
     0
176
     1
 40
1.0
176
     1
 40
1.0
176
     1
  0
VISUALSTYLE
  5
32
102
{ACAD_REACTORS
330
2A
102
}
330
2A
100
AcDbVisualStyle
  2
Basic
 70
     7
177
     3
291
     1
 70
    58
 90
        1
176
     1
 90
        0
176
     1
 90
        1
176
     1
 90
        0
176
     1
 40
0.6
176
     1
 40
30.0
176
     1
 62
     7
420
 16777215
176
     1
 90
        0
176
     1
 90
        4
176
     1
 62
     7
176
     1
 62
   257
176
     1
 90
        1
176
     1
 90
        1
176
     1
 40
1.0
176
     1
 90
        8
176
     1
 62
     7
176
     1
 40
1.0
176
     1
 90
        1
176
     1
 90
        6
176
     1
 90
        2
176
     1
 62
     7
176
     1
 90
        5
176
     1
 90
        0
176
     1
 90
        0
176
     1
290
     0
176
     1
 90
        1
176
     1
 40
0.0
176
     1
 90
        0
176
     1
290
     0
176
     1
290
     1
176
     1
290
     1
176
     1
290
     0
176
     1
290
     0
176
     1
290
     0
176
     1
290
     0
176
     1
290
     0
176
     1
290
     0
176
     1
 90
       50
176
     1
 40
0.0
176
     1
 40
1.0
176
     1
 90
        0
176
     1
 62
    18
420
        0
176
     1
 90
       50
176
     1
 90
        3
176
     1
 62
     5
420
      255
176
     1
290
     0
176
     1
 90
       50
176
     1
 90
       50
176
     1
 90
       50
176
     1
290
     0
176
     1
 90
       50
176
     1
 62
   256
176
     0
 40
1.0
176
     0
 90
        2
176
     1
  1
strokes_ogs.tif
176
     1
290
     0
176
     1
 40
1.0
176
     1
 40
1.0
176
     1
  0
VISUALSTYLE
  5
36
102
{ACAD_REACTORS
330
2A
102
}
330
2A
100
AcDbVisualStyle
  2
Brighten
 70
    12
177
     3
291
     1
 70
    58
 90
        2
176
     1
 90
        2
176
     1
 90
        0
176
     1
 90
        0
176
     1
 40
0.6
176
     1
 40
30.0
176
     1
 62
     7
420
 16777215
176
     1
 90
        1
176
     1
 90
        4
176
     1
 62
     7
176
     1
 62
   257
176
     1
 90
        1
176
     1
 90
        1
176
     1
 40
1.0
176
     1
 90
        8
176
     1
 62
     7
176
     1
 40
1.0
176
     1
 90
        1
176
     1
 90
        6
176
     1
 90
        2
176
     1
 62
     7
176
     1
 90
        5
176
     1
 90
        0
176
     1
 90
        0
176
     1
290
     0
176
     1
 90
        1
176
     1
 40
50.0
176
     1
 90
        0
176
     1
290
     0
176
     1
290
     1
176
     1
290
     1
176
     1
290
     0
176
     1
290
     0
176
     1
290
     0
176
     1
290
     0
176
     1
290
     0
176
     1
290
     0
176
     1
 90
       50
176
     1
 40
0.0
176
     1
 40
1.0
176
     1
 90
        0
176
     1
 62
    18
420
        0
176
     1
 90
       50
176
     1
 90
        3
176
     1
 62
     5
420
      255
176
     1
290
     0
176
     1
 90
       50
176
     1
 90
       50
176
     1
 90
       50
176
     1
290
     0
176
     1
 90
       50
176
     1
 62
   256
176
     0
 40
1.0
176
     0
 90
        2
176
     1
  1
strokes_ogs.tif
176
     1
290
     0
176
     1
 40
1.0
176
     1
 40
1.0
176
     1
  0
VISUALSTYLE
  5
3A
102
{ACAD_REACTORS
330
2A
102
}
330
2A
100
AcDbVisualStyle
  2
ColorChange
 70
    16
177
     3
291
     1
 70
    58
 90
        2
176
     1
 90
        2
176
     1
 90
        3
176
     1
 90
        0
176
     1
 40
0.6
176
     1
 40
30.0
176
     1
 62
     8
420
  8421504
176
     1
 90
        1
176
     1
 90
        4
176
     1
 62
     7
176
     1
 62
   257
176
     1
 90
        1
176
     1
 90
        1
176
     1
 40
1.0
176
     1
 90
        8
176
     1
 62
     8
420
  8421504
176
     1
 40
1.0
176
     1
 90
        1
176
     1
 90
        6
176
     1
 90
        2
176
     1
 62
     7
176
     1
 90
        5
176
     1
 90
        0
176
     1
 90
        0
176
     1
290
     0
176
     1
 90
        1
176
     1
 40
0.0
176
     1
 90
        0
176
     1
290
     0
176
     1
290
     1
176
     1
290
     1
176
     1
290
     0
176
     1
290
     0
176
     1
290
     0
176
     1
290
     0
176
     1
290
     0
176
     1
290
     0
176
     1
 90
       50
176
     1
 40
0.0
176
     1
 40
1.0
176
     1
 90
        0
176
     1
 62
    18
420
        0
176
     1
 90
       50
176
     1
 90
        3
176
     1
 62
     5
420
      255
176
     1
290
     0
176
     1
 90
       50
176
     1
 90
       50
176
     1
 90
       50
176
     1
290
     0
176
     1
 90
       50
176
     1
 62
   256
176
     0
 40
1.0
176
     0
 90
        2
176
     1
  1
strokes_ogs.tif
176
     1
290
     0
176
     1
 40
1.0
176
     1
 40
1.0
176
     1
  0
VISUALSTYLE
  5
34
102
{ACAD_REACTORS
330
2A
102
}
330
2A
100
AcDbVisualStyle
  2
Conceptual
 70
     9
177
     3
291
     0
 70
    58
 90
        3
176
     1
 90
        2
176
     1
 90
        0
176
     1
 90
        0
176
     1
 40
0.6
176
     1
 40
30.0
176
     1
 62
     7
420
 16777215
176
     1
 90
        2
176
     1
 90
        2
176
     1
 62
     7
176
     1
 62
   257
176
     1
 90
        1
176
     1
 90
        1
176
     1
 40
179.0
176
     1
 90
        8
176
     1
 62
     7
176
     1
 40
1.0
176
     1
 90
        1
176
     1
 90
        6
176
     1
 90
        2
176
     1
 62
     7
176
     1
 90
        3
176
     1
 90
        0
176
     1
 90
        0
176
     1
290
     0
176
     1
 90
        1
176
     1
 40
0.0
176
     1
 90
        0
176
     1
290
     0
176
     1
290
     1
176
     1
290
     1
176
     1
290
     0
176
     1
290
     0
176
     1
290
     0
176
     1
290
     0
176
     1
290
     0
176
     1
290
     0
176
     1
 90
       50
176
     1
 40
0.0
176
     1
 40
1.0
176
     1
 90
        0
176
     1
 62
    18
420
        0
176
     1
 90
       50
176
     1
 90
        3
176
     1
 62
     5
420
      255
176
     1
290
     0
176
     1
 90
       50
176
     1
 90
       50
176
     1
 90
       50
176
     1
290
     0
176
     1
 90
       50
176
     1
 62
   256
176
     0
 40
1.0
176
     0
 90
        2
176
     1
  1
strokes_ogs.tif
176
     1
290
     0
176
     1
 40
1.0
176
     1
 40
1.0
176
     1
  0
VISUALSTYLE
  5
35
102
{ACAD_REACTORS
330
2A
102
}
330
2A
100
AcDbVisualStyle
  2
Dim
 70
    11
177
     3
291
     1
 70
    58
 90
        2
176
     1
 90
        2
176
     1
 90
        0
176
     1
 90
        0
176
     1
 40
0.6
176
     1
 40
30.0
176
     1
 62
     7
420
 16777215
176
     1
 90
        1
176
     1
 90
        4
176
     1
 62
     7
176
     1
 62
   257
176
     1
 90
        1
176
     1
 90
        1
176
     1
 40
1.0
176
     1
 90
        8
176
     1
 62
     7
176
     1
 40
1.0
176
     1
 90
        1
176
     1
 90
        6
176
     1
 90
        2
176
     1
 62
     7
176
     1
 90
        5
176
     1
 90
        0
176
     1
 90
        0
176
     1
290
     0
176
     1
 90
        1
176
     1
 40
-50.0
176
     1
 90
        0
176
     1
290
     0
176
     1
290
     1
176
     1
290
     1
176
     1
290
     0
176
     1
290
     0
176
     1
290
     0
176
     1
290
     0
176
     1
290
     0
176
     1
290
     0
176
     1
 90
       50
176
     1
 40
0.0
176
     1
 40
1.0
176
     1
 90
        0
176
     1
 62
    18
420
        0
176
     1
 90
       50
176
     1
 90
        3
176
     1
 62
     5
420
      255
176
     1
290
     0
176
     1
 90
       50
176
     1
 90
       50
176
     1
 90
       50
176
     1
290
     0
176
     1
 90
       50
176
     1
 62
   256
176
     0
 40
1.0
176
     0
 90
        2
176
     1
  1
strokes_ogs.tif
176
     1
290
     0
176
     1
 40
1.0
176
     1
 40
1.0
176
     1
  0
VISUALSTYLE
  5
3D
102
{ACAD_REACTORS
330
2A
102
}
330
2A
100
AcDbVisualStyle
  2
EdgeColorOff
 70
    22
177
     3
291
     1
 70
    58
 90
        2
176
     0
 90
        2
176
     0
 90
        0
176
     0
 90
        0
176
     0
 40
0.6
176
     0
 40
30.0
176
     0
 62
     7
420
 16777215
176
     0
 90
        1
176
     0
 90
        4
176
     0
 62
     7
176
     0
 62
   257
176
     0
 90
        1
176
     0
 90
        1
176
     0
 40
1.0
176
     0
 90
        8
176
     2
 62
     7
176
     0
 40
1.0
176
     0
 90
        1
176
     0
 90
        6
176
     0
 90
        2
176
     0
 62
     7
176
     0
 90
        5
176
     0
 90
        0
176
     0
 90
        0
176
     0
290
     0
176
     0
 90
        1
176
     0
 40
0.0
176
     0
 90
        0
176
     0
290
     0
176
     0
290
     1
176
     0
290
     1
176
     0
290
     0
176
     0
290
     0
176
     0
290
     0
176
     0
290
     0
176
     0
290
     0
176
     0
290
     0
176
     0
 90
       50
176
     0
 40
0.0
176
     0
 40
1.0
176
     0
 90
        0
176
     0
 62
    18
420
        0
176
     0
 90
       50
176
     0
 90
        3
176
     0
 62
     5
420
      255
176
     0
290
     0
176
     0
 90
       50
176
     0
 90
       50
176
     0
 90
       50
176
     0
290
     0
176
     0
 90
       50
176
     0
 62
   256
176
     0
 40
1.0
176
     0
 90
        2
176
     0
  1
strokes_ogs.tif
176
     0
290
     0
176
     0
 40
1.0
176
     0
 40
1.0
176
     0
  0
VISUALSTYLE
  5
39
102
{ACAD_REACTORS
330
2A
102
}
330
2A
100
AcDbVisualStyle
  2
Facepattern
 70
    15
177
     3
291
     1
 70
    58
 90
        2
176
     1
 90
        2
176
     1
 90
        0
176
     1
 90
        0
176
     1
 40
0.6
176
     1
 40
30.0
176
     1
 62
     7
420
 16777215
176
     1
 90
        1
176
     1
 90
        4
176
     1
 62
     7
176
     1
 62
   257
176
     1
 90
        1
176
     1
 90
        1
176
     1
 40
1.0
176
     1
 90
        8
176
     1
 62
     7
176
     1
 40
1.0
176
     1
 90
        1
176
     1
 90
        6
176
     1
 90
        2
176
     1
 62
     7
176
     1
 90
        5
176
     1
 90
        0
176
     1
 90
        0
176
     1
290
     0
176
     1
 90
        1
176
     1
 40
0.0
176
     1
 90
        0
176
     1
290
     0
176
     1
290
     1
176
     1
290
     1
176
     1
290
     0
176
     1
290
     0
176
     1
290
     0
176
     1
290
     0
176
     1
290
     0
176
     1
290
     0
176
     1
 90
       50
176
     1
 40
0.0
176
     1
 40
1.0
176
     1
 90
        0
176
     1
 62
    18
420
        0
176
     1
 90
       50
176
     1
 90
        3
176
     1
 62
     5
420
      255
176
     1
290
     0
176
     1
 90
       50
176
     1
 90
       50
176
     1
 90
       50
176
     1
290
     0
176
     1
 90
       50
176
     1
 62
   256
176
     0
 40
1.0
176
     0
 90
        2
176
     1
  1
strokes_ogs.tif
176
     1
290
     0
176
     1
 40
1.0
176
     1
 40
1.0
176
     1
  0
VISUALSTYLE
  5
2B
102
{ACAD_REACTORS
330
2A
102
}
330
2A
100
AcDbVisualStyle
  2
Flat
 70
     0
177
     3
291
     1
 70
    58
 90
        2
176
     1
 90
        1
176
     1
 90
        1
176
     1
 90
        2
176
     1
 40
0.6
176
     1
 40
30.0
176
     1
 62
     7
420
 16777215
176
     1
 90
        0
176
     1
 90
        0
176
     1
 62
     7
176
     1
 62
   257
176
     1
 90
        1
176
     1
 90
        1
176
     1
 40
1.0
176
     1
 90
        8
176
     1
 62
     7
176
     1
 40
1.0
176
     1
 90
        1
176
     1
 90
        6
176
     1
 90
        2
176
     1
 62
     7
176
     1
 90
        5
176
     1
 90
        0
176
     1
 90
        0
176
     1
290
     0
176
     1
 90
       13
176
     1
 40
0.0
176
     1
 90
        0
176
     1
290
     0
176
     1
290
     1
176
     1
290
     1
176
     1
290
     0
176
     1
290
     0
176
     1
290
     0
176
     1
290
     0
176
     1
290
     0
176
     1
290
     0
176
     1
 90
       50
176
     1
 40
0.0
176
     1
 40
1.0
176
     1
 90
        0
176
     1
 62
    18
420
        0
176
     1
 90
       50
176
     1
 90
        3
176
     1
 62
     5
420
      255
176
     1
290
     0
176
     1
 90
       50
176
     1
 90
       50
176
     1
 90
       50
176
     1
290
     0
176
     1
 90
       50
176
     1
 62
   256
176
     0
 40
1.0
176
     0
 90
        2
176
     1
  1
strokes_ogs.tif
176
     1
290
     0
176
     1
 40
1.0
176
     1
 40
1.0
176
     1
  0
VISUALSTYLE
  5
2C
102
{ACAD_REACTORS
330
2A
102
}
330
2A
100
AcDbVisualStyle
  2
FlatWithEdges
 70
     1
177
     3
291
     1
 70
    58
 90
        2
176
     1
 90
        1
176
     1
 90
        1
176
     1
 90
        2
176
     1
 40
0.6
176
     1
 40
30.0
176
     1
 62
     7
420
 16777215
176
     1
 90
        1
176
     1
 90
        0
176
     1
 62
     7
176
     1
 62
   257
176
     1
 90
        1
176
     1
 90
        1
176
     1
 40
1.0
176
     1
 90
        0
176
     1
 62
   257
176
     1
 40
1.0
176
     1
 90
        1
176
     1
 90
        6
176
     1
 90
        2
176
     1
 62
     7
176
     1
 90
        5
176
     1
 90
        0
176
     1
 90
        0
176
     1
290
     0
176
     1
 90
       13
176
     1
 40
0.0
176
     1
 90
        0
176
     1
290
     0
176
     1
290
     1
176
     1
290
     1
176
     1
290
     0
176
     1
290
     0
176
     1
290
     0
176
     1
290
     0
176
     1
290
     0
176
     1
290
     0
176
     1
 90
       50
176
     1
 40
0.0
176
     1
 40
1.0
176
     1
 90
        0
176
     1
 62
    18
420
        0
176
     1
 90
       50
176
     1
 90
        3
176
     1
 62
     5
420
      255
176
     1
290
     0
176
     1
 90
       50
176
     1
 90
       50
176
     1
 90
       50
176
     1
290
     0
176
     1
 90
       50
176
     1
 62
   256
176
     0
 40
1.0
176
     0
 90
        2
176
     1
  1
strokes_ogs.tif
176
     1
290
     0
176
     1
 40
1.0
176
     1
 40
1.0
176
     1
  0
VISUALSTYLE
  5
2D
102
{ACAD_REACTORS
330
2A
102
}
330
2A
100
AcDbVisualStyle
  2
Gouraud
 70
     2
177
     3
291
     1
 70
    58
 90
        2
176
     1
 90
        2
176
     1
 90
        1
176
     1
 90
        2
176
     1
 40
0.6
176
     1
 40
30.0
176
     1
 62
     7
420
 16777215
176
     1
 90
        0
176
     1
 90
        0
176
     1
 62
     7
176
     1
 62
   257
176
     1
 90
        1
176
     1
 90
        1
176
     1
 40
1.0
176
     1
 90
        0
176
     1
 62
     7
176
     1
 40
1.0
176
     1
 90
        1
176
     1
 90
        6
176
     1
 90
        2
176
     1
 62
     7
176
     1
 90
        5
176
     1
 90
        0
176
     1
 90
        0
176
     1
290
     0
176
     1
 90
       13
176
     1
 40
0.0
176
     1
 90
        0
176
     1
290
     0
176
     1
290
     1
176
     1
290
     1
176
     1
290
     0
176
     1
290
     0
176
     1
290
     0
176
     1
290
     0
176
     1
290
     0
176
     1
290
     0
176
     1
 90
       50
176
     1
 40
0.0
176
     1
 40
1.0
176
     1
 90
        0
176
     1
 62
    18
420
        0
176
     1
 90
       50
176
     1
 90
        3
176
     1
 62
     5
420
      255
176
     1
290
     0
176
     1
 90
       50
176
     1
 90
       50
176
     1
 90
       50
176
     1
290
     0
176
     1
 90
       50
176
     1
 62
   256
176
     0
 40
1.0
176
     0
 90
        2
176
     1
  1
strokes_ogs.tif
176
     1
290
     0
176
     1
 40
1.0
176
     1
 40
1.0
176
     1
  0
VISUALSTYLE
  5
2E
102
{ACAD_REACTORS
330
2A
102
}
330
2A
100
AcDbVisualStyle
  2
GouraudWithEdges
 70
     3
177
     3
291
     1
 70
    58
 90
        2
176
     1
 90
        2
176
     1
 90
        1
176
     1
 90
        2
176
     1
 40
0.6
176
     1
 40
30.0
176
     1
 62
     7
420
 16777215
176
     1
 90
        1
176
     1
 90
        0
176
     1
 62
     7
176
     1
 62
   257
176
     1
 90
        1
176
     1
 90
        1
176
     1
 40
1.0
176
     1
 90
        0
176
     1
 62
   257
176
     1
 40
1.0
176
     1
 90
        1
176
     1
 90
        6
176
     1
 90
        2
176
     1
 62
     7
176
     1
 90
        5
176
     1
 90
        0
176
     1
 90
        0
176
     1
290
     0
176
     1
 90
       13
176
     1
 40
0.0
176
     1
 90
        0
176
     1
290
     0
176
     1
290
     1
176
     1
290
     1
176
     1
290
     0
176
     1
290
     0
176
     1
290
     0
176
     1
290
     0
176
     1
290
     0
176
     1
290
     0
176
     1
 90
       50
176
     1
 40
0.0
176
     1
 40
1.0
176
     1
 90
        0
176
     1
 62
    18
420
        0
176
     1
 90
       50
176
     1
 90
        3
176
     1
 62
     5
420
      255
176
     1
290
     0
176
     1
 90
       50
176
     1
 90
       50
176
     1
 90
       50
176
     1
290
     0
176
     1
 90
       50
176
     1
 62
   256
176
     0
 40
1.0
176
     0
 90
        2
176
     1
  1
strokes_ogs.tif
176
     1
290
     0
176
     1
 40
1.0
176
     1
 40
1.0
176
     1
  0
VISUALSTYLE
  5
31
102
{ACAD_REACTORS
330
2A
102
}
330
2A
100
AcDbVisualStyle
  2
Hidden
 70
     6
177
     3
291
     0
 70
    58
 90
        1
176
     1
 90
        2
176
     1
 90
        2
176
     1
 90
        0
176
     1
 40
0.6
176
     1
 40
30.0
176
     1
 62
     7
420
 16777215
176
     1
 90
        2
176
     1
 90
        2
176
     1
 62
     7
176
     1
 62
   257
176
     1
 90
        2
176
     1
 90
        1
176
     1
 40
40.0
176
     1
 90
        0
176
     1
 62
   257
176
     1
 40
1.0
176
     1
 90
        1
176
     1
 90
        6
176
     1
 90
        2
176
     1
 62
     7
176
     1
 90
        3
176
     1
 90
        0
176
     1
 90
        0
176
     1
290
     0
176
     1
 90
        1
176
     1
 40
0.0
176
     1
 90
        0
176
     1
290
     0
176
     1
290
     1
176
     1
290
     1
176
     1
290
     0
176
     1
290
     0
176
     1
290
     0
176
     1
290
     0
176
     1
290
     0
176
     1
290
     0
176
     1
 90
       50
176
     1
 40
0.0
176
     1
 40
1.0
176
     1
 90
        0
176
     1
 62
    18
420
        0
176
     1
 90
       50
176
     1
 90
        3
176
     1
 62
     5
420
      255
176
     1
290
     0
176
     1
 90
       50
176
     1
 90
       50
176
     1
 90
       50
176
     1
290
     0
176
     1
 90
       50
176
     1
 62
   256
176
     0
 40
1.0
176
     0
 90
        2
176
     1
  1
strokes_ogs.tif
176
     1
290
     0
176
     1
 40
1.0
176
     1
 40
1.0
176
     1
  0
VISUALSTYLE
  5
3B
102
{ACAD_REACTORS
330
2A
102
}
330
2A
100
AcDbVisualStyle
  2
JitterOff
 70
    20
177
     3
291
     1
 70
    58
 90
        2
176
     0
 90
        2
176
     0
 90
        0
176
     0
 90
        0
176
     0
 40
0.6
176
     0
 40
30.0
176
     0
 62
     7
420
 16777215
176
     0
 90
        1
176
     0
 90
        4
176
     0
 62
     7
176
     0
 62
   257
176
     0
 90
        1
176
     0
 90
        1
176
     0
 40
1.0
176
     0
 90
       10
176
     2
 62
     7
176
     0
 40
1.0
176
     0
 90
        1
176
     0
 90
        6
176
     0
 90
        2
176
     0
 62
     7
176
     0
 90
        5
176
     0
 90
        0
176
     0
 90
        0
176
     0
290
     0
176
     0
 90
        1
176
     0
 40
0.0
176
     0
 90
        0
176
     0
290
     0
176
     0
290
     1
176
     0
290
     1
176
     0
290
     0
176
     0
290
     0
176
     0
290
     0
176
     0
290
     0
176
     0
290
     0
176
     0
290
     0
176
     0
 90
       50
176
     0
 40
0.0
176
     0
 40
1.0
176
     0
 90
        0
176
     0
 62
    18
420
        0
176
     0
 90
       50
176
     0
 90
        3
176
     0
 62
     5
420
      255
176
     0
290
     0
176
     0
 90
       50
176
     0
 90
       50
176
     0
 90
       50
176
     0
290
     0
176
     0
 90
       50
176
     0
 62
   256
176
     0
 40
1.0
176
     0
 90
        2
176
     0
  1
strokes_ogs.tif
176
     0
290
     0
176
     0
 40
1.0
176
     0
 40
1.0
176
     0
  0
VISUALSTYLE
  5
38
102
{ACAD_REACTORS
330
2A
102
}
330
2A
100
AcDbVisualStyle
  2
Linepattern
 70
    14
177
     3
291
     1
 70
    58
 90
        2
176
     1
 90
        2
176
     1
 90
        0
176
     1
 90
        0
176
     1
 40
0.6
176
     1
 40
30.0
176
     1
 62
     7
420
 16777215
176
     1
 90
        1
176
     1
 90
        4
176
     1
 62
     7
176
     1
 62
   257
176
     1
 90
        7
176
     1
 90
        7
176
     1
 40
1.0
176
     1
 90
        8
176
     1
 62
     7
176
     1
 40
1.0
176
     1
 90
        1
176
     1
 90
        6
176
     1
 90
        2
176
     1
 62
     7
176
     1
 90
        5
176
     1
 90
        0
176
     1
 90
        0
176
     1
290
     0
176
     1
 90
        1
176
     1
 40
0.0
176
     1
 90
        0
176
     1
290
     0
176
     1
290
     1
176
     1
290
     1
176
     1
290
     0
176
     1
290
     0
176
     1
290
     0
176
     1
290
     0
176
     1
290
     0
176
     1
290
     0
176
     1
 90
       50
176
     1
 40
0.0
176
     1
 40
1.0
176
     1
 90
        0
176
     1
 62
    18
420
        0
176
     1
 90
       50
176
     1
 90
        3
176
     1
 62
     5
420
      255
176
     1
290
     0
176
     1
 90
       50
176
     1
 90
       50
176
     1
 90
       50
176
     1
290
     0
176
     1
 90
       50
176
     1
 62
   256
176
     0
 40
1.0
176
     0
 90
        2
176
     1
  1
strokes_ogs.tif
176
     1
290
     0
176
     1
 40
1.0
176
     1
 40
1.0
176
     1
  0
VISUALSTYLE
  5
3C
102
{ACAD_REACTORS
330
2A
102
}
330
2A
100
AcDbVisualStyle
  2
OverhangOff
 70
    21
177
     3
291
     1
 70
    58
 90
        2
176
     0
 90
        2
176
     0
 90
        0
176
     0
 90
        0
176
     0
 40
0.6
176
     0
 40
30.0
176
     0
 62
     7
420
 16777215
176
     0
 90
        1
176
     0
 90
        4
176
     0
 62
     7
176
     0
 62
   257
176
     0
 90
        1
176
     0
 90
        1
176
     0
 40
1.0
176
     0
 90
        9
176
     2
 62
     7
176
     0
 40
1.0
176
     0
 90
        1
176
     0
 90
        6
176
     0
 90
        2
176
     0
 62
     7
176
     0
 90
        5
176
     0
 90
        0
176
     0
 90
        0
176
     0
290
     0
176
     0
 90
        1
176
     0
 40
0.0
176
     0
 90
        0
176
     0
290
     0
176
     0
290
     1
176
     0
290
     1
176
     0
290
     0
176
     0
290
     0
176
     0
290
     0
176
     0
290
     0
176
     0
290
     0
176
     0
290
     0
176
     0
 90
       50
176
     0
 40
0.0
176
     0
 40
1.0
176
     0
 90
        0
176
     0
 62
    18
420
        0
176
     0
 90
       50
176
     0
 90
        3
176
     0
 62
     5
420
      255
176
     0
290
     0
176
     0
 90
       50
176
     0
 90
       50
176
     0
 90
       50
176
     0
290
     0
176
     0
 90
       50
176
     0
 62
   256
176
     0
 40
1.0
176
     0
 90
        2
176
     0
  1
strokes_ogs.tif
176
     0
290
     0
176
     0
 40
1.0
176
     0
 40
1.0
176
     0
  0
VISUALSTYLE
  5
33
102
{ACAD_REACTORS
330
2A
102
}
330
2A
100
AcDbVisualStyle
  2
Realistic
 70
     8
177
     3
291
     0
 70
    58
 90
        2
176
     1
 90
        3
176
     1
 90
        0
176
     1
 90
        2
176
     1
 40
0.6
176
     1
 40
30.0
176
     1
 62
     7
420
 16777215
176
     1
 90
        0
176
     1
 90
        0
176
     1
 62
     7
176
     1
 62
   257
176
     1
 90
        1
176
     1
 90
        1
176
     1
 40
1.0
176
     1
 90
        8
176
     1
 62
   257
176
     1
 40
1.0
176
     1
 90
        1
176
     1
 90
        6
176
     1
 90
        2
176
     1
 62
     7
176
     1
 90
        3
176
     1
 90
        0
176
     1
 90
        0
176
     1
290
     0
176
     1
 90
       13
176
     1
 40
0.0
176
     1
 90
        0
176
     1
290
     0
176
     1
290
     1
176
     1
290
     1
176
     1
290
     0
176
     1
290
     0
176
     1
290
     0
176
     1
290
     0
176
     1
290
     0
176
     1
290
     0
176
     1
 90
       50
176
     1
 40
0.0
176
     1
 40
1.0
176
     1
 90
        0
176
     1
 62
    18
420
        0
176
     1
 90
       50
176
     1
 90
        3
176
     1
 62
     5
420
      255
176
     1
290
     0
176
     1
 90
       50
176
     1
 90
       50
176
     1
 90
       50
176
     1
290
     0
176
     1
 90
       50
176
     1
 62
   256
176
     0
 40
1.0
176
     0
 90
        2
176
     1
  1
strokes_ogs.tif
176
     1
290
     0
176
     1
 40
1.0
176
     1
 40
1.0
176
     1
  0
VISUALSTYLE
  5
42
102
{ACAD_REACTORS
330
2A
102
}
330
2A
100
AcDbVisualStyle
  2
Shaded
 70
    27
177
     3
291
     0
 70
    58
 90
        2
176
     1
 90
        2
176
     1
 90
        1
176
     1
 90
        2
176
     1
 40
0.6
176
     1
 40
30.0
176
     1
 62
     7
420
 16777215
176
     1
 90
        0
176
     1
 90
        4
176
     1
 62
     7
176
     1
 62
   257
176
     1
 90
        1
176
     1
 90
        1
176
     1
 40
1.0
176
     1
 90
        8
176
     1
 62
   257
176
     1
 40
1.0
176
     1
 90
        1
176
     1
 90
        6
176
     1
 90
        2
176
     1
 62
     8
420
  7895160
176
     1
 90
        3
176
     1
 90
        0
176
     1
 90
        0
176
     1
290
     0
176
     1
 90
        5
176
     1
 40
0.0
176
     1
 90
        0
176
     1
290
     0
176
     1
290
     1
176
     1
290
     1
176
     1
290
     0
176
     1
290
     0
176
     1
290
     0
176
     1
290
     0
176
     1
290
     0
176
     1
290
     0
176
     1
 90
       50
176
     1
 40
0.0
176
     1
 40
1.0
176
     1
 90
        0
176
     1
 62
    18
420
        0
176
     1
 90
       50
176
     1
 90
        3
176
     1
 62
     5
420
      255
176
     1
290
     0
176
     1
 90
       50
176
     1
 90
       50
176
     1
 90
       50
176
     1
290
     0
176
     1
 90
       50
176
     1
 62
   256
176
     0
 40
1.0
176
     0
 90
        2
176
     1
  1
strokes_ogs.tif
176
     1
290
     0
176
     1
 40
1.0
176
     1
 40
1.0
176
     1
  0
VISUALSTYLE
  5
41
102
{ACAD_REACTORS
330
2A
102
}
330
2A
100
AcDbVisualStyle
  2
Shaded with edges
 70
    26
177
     3
291
     0
 70
    58
 90
        2
176
     1
 90
        2
176
     1
 90
        1
176
     1
 90
        2
176
     1
 40
0.6
176
     1
 40
30.0
176
     1
 62
     7
420
 16777215
176
     1
 90
        1
176
     1
 90
       10
176
     1
 62
     7
176
     1
 62
   257
176
     1
 90
        2
176
     1
 90
        1
176
     1
 40
1.0
176
     1
 90
        8
176
     1
 62
   257
176
     1
 40
1.0
176
     1
 90
        1
176
     1
 90
        6
176
     1
 90
        2
176
     1
 62
     7
176
     1
 90
        3
176
     1
 90
        0
176
     1
 90
        0
176
     1
290
     0
176
     1
 90
        5
176
     1
 40
0.0
176
     1
 90
        0
176
     1
290
     0
176
     1
290
     1
176
     1
290
     1
176
     1
290
     0
176
     1
290
     0
176
     1
290
     0
176
     1
290
     0
176
     1
290
     0
176
     1
290
     0
176
     1
 90
       50
176
     1
 40
0.0
176
     1
 40
1.0
176
     1
 90
        0
176
     1
 62
    18
420
        0
176
     1
 90
       50
176
     1
 90
        3
176
     1
 62
     5
420
      255
176
     1
290
     0
176
     1
 90
       50
176
     1
 90
       50
176
     1
 90
       50
176
     1
290
     0
176
     1
 90
       50
176
     1
 62
   256
176
     0
 40
1.0
176
     0
 90
        2
176
     1
  1
strokes_ogs.tif
176
     1
290
     0
176
     1
 40
1.0
176
     1
 40
1.0
176
     1
  0
VISUALSTYLE
  5
3E
102
{ACAD_REACTORS
330
2A
102
}
330
2A
100
AcDbVisualStyle
  2
Shades of Gray
 70
    23
177
     3
291
     0
 70
    58
 90
        2
176
     1
 90
        2
176
     1
 90
        3
176
     1
 90
        0
176
     1
 40
0.6
176
     1
 40
30.0
176
     1
 62
     7
420
 16777215
176
     1
 90
        2
176
     1
 90
        2
176
     1
 62
     7
176
     1
 62
     7
176
     1
 90
        1
176
     1
 90
        1
176
     1
 40
40.0
176
     1
 90
        8
176
     1
 62
     7
176
     1
 40
1.0
176
     1
 90
        1
176
     1
 90
        6
176
     1
 90
        2
176
     1
 62
     7
176
     1
 90
        3
176
     1
 90
        0
176
     1
 90
        0
176
     1
290
     0
176
     1
 90
        1
176
     1
 40
0.0
176
     1
 90
        0
176
     1
290
     0
176
     1
290
     1
176
     1
290
     1
176
     1
290
     0
176
     1
290
     0
176
     1
290
     0
176
     1
290
     0
176
     1
290
     0
176
     1
290
     0
176
     1
 90
       50
176
     1
 40
0.0
176
     1
 40
1.0
176
     1
 90
        0
176
     1
 62
    18
420
        0
176
     1
 90
       50
176
     1
 90
        3
176
     1
 62
     5
420
      255
176
     1
290
     0
176
     1
 90
       50
176
     1
 90
       50
176
     1
 90
       50
176
     1
290
     0
176
     1
 90
       50
176
     1
 62
   256
176
     0
 40
1.0
176
     0
 90
        2
176
     1
  1
strokes_ogs.tif
176
     1
290
     0
176
     1
 40
1.0
176
     1
 40
1.0
176
     1
  0
VISUALSTYLE
  5
3F
102
{ACAD_REACTORS
330
2A
102
}
330
2A
100
AcDbVisualStyle
  2
Sketchy
 70
    24
177
     3
291
     0
 70
    58
 90
        1
176
     1
 90
        2
176
     1
 90
        2
176
     1
 90
        0
176
     1
 40
0.6
176
     1
 40
30.0
176
     1
 62
     7
420
 16777215
176
     1
 90
        2
176
     1
 90
        2
176
     1
 62
     7
176
     1
 62
     7
176
     1
 90
        1
176
     1
 90
        1
176
     1
 40
40.0
176
     1
 90
       11
176
     1
 62
     7
176
     1
 40
1.0
176
     1
 90
        1
176
     1
 90
        6
176
     1
 90
        2
176
     1
 62
     7
176
     1
 90
        6
176
     1
 90
        0
176
     1
 90
        0
176
     1
290
     0
176
     1
 90
        1
176
     1
 40
0.0
176
     1
 90
        0
176
     1
290
     0
176
     1
290
     1
176
     1
290
     1
176
     1
290
     0
176
     1
290
     0
176
     1
290
     0
176
     1
290
     0
176
     1
290
     0
176
     1
290
     0
176
     1
 90
       50
176
     1
 40
0.0
176
     1
 40
1.0
176
     1
 90
        0
176
     1
 62
    18
420
        0
176
     1
 90
       50
176
     1
 90
        3
176
     1
 62
     5
420
      255
176
     1
290
     0
176
     1
 90
       50
176
     1
 90
       50
176
     1
 90
       50
176
     1
290
     0
176
     1
 90
       50
176
     1
 62
   256
176
     0
 40
1.0
176
     0
 90
        2
176
     1
  1
strokes_ogs.tif
176
     1
290
     0
176
     1
 40
1.0
176
     1
 40
1.0
176
     1
  0
VISUALSTYLE
  5
37
102
{ACAD_REACTORS
330
2A
102
}
330
2A
100
AcDbVisualStyle
  2
Thicken
 70
    13
177
     3
291
     1
 70
    58
 90
        2
176
     1
 90
        2
176
     1
 90
        0
176
     1
 90
        0
176
     1
 40
0.6
176
     1
 40
30.0
176
     1
 62
     7
420
 16777215
176
     1
 90
        1
176
     1
 90
        4
176
     1
 62
     7
176
     1
 62
   257
176
     1
 90
        1
176
     1
 90
        1
176
     1
 40
1.0
176
     1
 90
       12
176
     1
 62
     7
176
     1
 40
1.0
176
     1
 90
        1
176
     1
 90
        6
176
     1
 90
        2
176
     1
 62
     7
176
     1
 90
        5
176
     1
 90
        0
176
     1
 90
        0
176
     1
290
     0
176
     1
 90
        1
176
     1
 40
0.0
176
     1
 90
        0
176
     1
290
     0
176
     1
290
     1
176
     1
290
     1
176
     1
290
     0
176
     1
290
     0
176
     1
290
     0
176
     1
290
     0
176
     1
290
     0
176
     1
290
     0
176
     1
 90
       50
176
     1
 40
0.0
176
     1
 40
1.0
176
     1
 90
        0
176
     1
 62
    18
420
        0
176
     1
 90
       50
176
     1
 90
        3
176
     1
 62
     5
420
      255
176
     1
290
     0
176
     1
 90
       50
176
     1
 90
       50
176
     1
 90
       50
176
     1
290
     0
176
     1
 90
       50
176
     1
 62
   256
176
     0
 40
1.0
176
     0
 90
        2
176
     1
  1
strokes_ogs.tif
176
     1
290
     0
176
     1
 40
1.0
176
     1
 40
1.0
176
     1
  0
VISUALSTYLE
  5
30
102
{ACAD_REACTORS
330
2A
102
}
330
2A
100
AcDbVisualStyle
  2
Wireframe
 70
     5
177
     3
291
     0
 70
    58
 90
        0
176
     1
 90
        2
176
     1
 90
        0
176
     1
 90
        0
176
     1
 40
0.6
176
     1
 40
30.0
176
     1
 62
     7
420
 16777215
176
     1
 90
        1
176
     1
 90
        4
176
     1
 62
     7
176
     1
 62
   257
176
     1
 90
        1
176
     1
 90
        1
176
     1
 40
1.0
176
     1
 90
        0
176
     1
 62
   257
176
     1
 40
1.0
176
     1
 90
        1
176
     1
 90
        6
176
     1
 90
        2
176
     1
 62
     7
176
     1
 90
        3
176
     1
 90
        0
176
     1
 90
        0
176
     1
290
     0
176
     1
 90
        1
176
     1
 40
0.0
176
     1
 90
        0
176
     1
290
     0
176
     1
290
     1
176
     1
290
     1
176
     1
290
     0
176
     1
290
     0
176
     1
290
     0
176
     1
290
     0
176
     1
290
     0
176
     1
290
     0
176
     1
 90
       50
176
     1
 40
0.0
176
     1
 40
1.0
176
     1
 90
        0
176
     1
 62
    18
420
        0
176
     1
 90
       50
176
     1
 90
        3
176
     1
 62
     5
420
      255
176
     1
290
     0
176
     1
 90
       50
176
     1
 90
       50
176
     1
 90
       50
176
     1
290
     0
176
     1
 90
       50
176
     1
 62
   256
176
     0
 40
1.0
176
     0
 90
        2
176
     1
  1
strokes_ogs.tif
176
     1
290
     0
176
     1
 40
1.0
176
     1
 40
1.0
176
     1
  0
VISUALSTYLE
  5
40
102
{ACAD_REACTORS
330
2A
102
}
330
2A
100
AcDbVisualStyle
  2
X-Ray
 70
    25
177
     3
291
     0
 70
    58
 90
        2
176
     1
 90
        2
176
     1
 90
        1
176
     1
 90
        1
176
     1
 40
0.5
176
     1
 40
30.0
176
     1
 62
     7
420
 16777215
176
     1
 90
        1
176
     1
 90
        0
176
     1
 62
     7
176
     1
 62
   257
176
     1
 90
        1
176
     1
 90
        1
176
     1
 40
1.0
176
     1
 90
        8
176
     1
 62
     7
176
     1
 40
1.0
176
     1
 90
        1
176
     1
 90
        6
176
     1
 90
        2
176
     1
 62
     7
176
     1
 90
        3
176
     1
 90
        0
176
     1
 90
        0
176
     1
290
     0
176
     1
 90
       13
176
     1
 40
0.0
176
     1
 90
        0
176
     1
290
     0
176
     1
290
     1
176
     1
290
     1
176
     1
290
     0
176
     1
290
     0
176
     1
290
     0
176
     1
290
     0
176
     1
290
     0
176
     1
290
     0
176
     1
 90
       50
176
     1
 40
0.0
176
     1
 40
1.0
176
     1
 90
        0
176
     1
 62
    18
420
        0
176
     1
 90
       50
176
     1
 90
        3
176
     1
 62
     5
420
      255
176
     1
290
     0
176
     1
 90
       50
176
     1
 90
       50
176
     1
 90
       50
176
     1
290
     0
176
     1
 90
       50
176
     1
 62
   256
176
     0
 40
1.0
176
     0
 90
        2
176
     1
  1
strokes_ogs.tif
176
     1
290
     0
176
     1
 40
1.0
176
     1
 40
1.0
176
     1
  0
DICTIONARYVAR
  5
99
102
{ACAD_REACTORS
330
98
102
}
330
98
100
DictionaryVariables
280
     0
  1
1:1
  0
DICTIONARYVAR
  5
A1
102
{ACAD_REACTORS
330
98
102
}
330
98
100
DictionaryVariables
280
     0
  1
3.500000
  0
DICTIONARYVAR
  5
A2
102
{ACAD_REACTORS
330
98
102
}
330
98
100
DictionaryVariables
280
     0
  1
acadiso.lin
  0
DICTIONARYVAR
  5
9E
102
{ACAD_REACTORS
330
98
102
}
330
98
100
DictionaryVariables
280
     0
  1
Standard
  0
DICTIONARYVAR
  5
9D
102
{ACAD_REACTORS
330
98
102
}
330
98
100
DictionaryVariables
280
     0
  1
Standard
  0
DICTIONARY
  5
9A
330
5A
100
AcDbDictionary
280
     1
281
     1
  3
ACAD_ROUNDTRIP_2008_TABLESTYLE_CELLSTYLEMAP
360
9B
  0
CELLSTYLEMAP
  5
9B
102
{ACAD_REACTORS
330
9A
102
}
330
9A
100
AcDbCellStyleMap
 90
        3
300
CELLSTYLE
  1
TABLEFORMAT_BEGIN
 90
        5
170
     1
 91
        0
 92
    32768
 62
   257
 93
        1
300
CONTENTFORMAT
  1
CONTENTFORMAT_BEGIN
 90
        0
 91
        0
 92
        4
 93
        0
300

 40
0.0
140
1.0
 94
        5
 62
     0
340
11
144
6.0
309
CONTENTFORMAT_END
171
     1
301
MARGIN
  1
CELLMARGIN_BEGIN
 40
1.5
 40
1.5
 40
1.5
 40
1.5
 40
1.5
 40
1.5
309
CELLMARGIN_END
 94
        6
 95
        1
302
GRIDFORMAT
  1
GRIDFORMAT_BEGIN
 90
        0
 91
        1
 62
     0
 92
       -2
340
14
 93
        0
 40
0.045
309
GRIDFORMAT_END
 95
        2
302
GRIDFORMAT
  1
GRIDFORMAT_BEGIN
 90
        0
 91
        1
 62
     0
 92
       -2
340
14
 93
        0
 40
0.045
309
GRIDFORMAT_END
 95
        4
302
GRIDFORMAT
  1
GRIDFORMAT_BEGIN
 90
        0
 91
        1
 62
     0
 92
       -2
340
14
 93
        0
 40
0.045
309
GRIDFORMAT_END
 95
        8
302
GRIDFORMAT
  1
GRIDFORMAT_BEGIN
 90
        0
 91
        1
 62
     0
 92
       -2
340
14
 93
        0
 40
0.045
309
GRIDFORMAT_END
 95
       16
302
GRIDFORMAT
  1
GRIDFORMAT_BEGIN
 90
        0
 91
        1
 62
     0
 92
       -2
340
14
 93
        0
 40
0.045
309
GRIDFORMAT_END
 95
       32
302
GRIDFORMAT
  1
GRIDFORMAT_BEGIN
 90
        0
 91
        1
 62
     0
 92
       -2
340
14
 93
        0
 40
0.045
309
GRIDFORMAT_END
309
TABLEFORMAT_END
  1
CELLSTYLE_BEGIN
 90
        1
 91
        1
300
_TITLE
309
CELLSTYLE_END
300
CELLSTYLE
  1
TABLEFORMAT_BEGIN
 90
        5
170
     1
 91
        0
 92
        0
 62
   257
 93
        1
300
CONTENTFORMAT
  1
CONTENTFORMAT_BEGIN
 90
        0
 91
        0
 92
        4
 93
        0
300

 40
0.0
140
1.0
 94
        5
 62
     0
340
11
144
4.5
309
CONTENTFORMAT_END
171
     1
301
MARGIN
  1
CELLMARGIN_BEGIN
 40
1.5
 40
1.5
 40
1.5
 40
1.5
 40
1.5
 40
1.5
309
CELLMARGIN_END
 94
        6
 95
        1
302
GRIDFORMAT
  1
GRIDFORMAT_BEGIN
 90
        0
 91
        1
 62
     0
 92
       -2
340
14
 93
        0
 40
0.045
309
GRIDFORMAT_END
 95
        2
302
GRIDFORMAT
  1
GRIDFORMAT_BEGIN
 90
        0
 91
        1
 62
     0
 92
       -2
340
14
 93
        0
 40
0.045
309
GRIDFORMAT_END
 95
        4
302
GRIDFORMAT
  1
GRIDFORMAT_BEGIN
 90
        0
 91
        1
 62
     0
 92
       -2
340
14
 93
        0
 40
0.045
309
GRIDFORMAT_END
 95
        8
302
GRIDFORMAT
  1
GRIDFORMAT_BEGIN
 90
        0
 91
        1
 62
     0
 92
       -2
340
14
 93
        0
 40
0.045
309
GRIDFORMAT_END
 95
       16
302
GRIDFORMAT
  1
GRIDFORMAT_BEGIN
 90
        0
 91
        1
 62
     0
 92
       -2
340
14
 93
        0
 40
0.045
309
GRIDFORMAT_END
 95
       32
302
GRIDFORMAT
  1
GRIDFORMAT_BEGIN
 90
        0
 91
        1
 62
     0
 92
       -2
340
14
 93
        0
 40
0.045
309
GRIDFORMAT_END
309
TABLEFORMAT_END
  1
CELLSTYLE_BEGIN
 90
        2
 91
        1
300
_HEADER
309
CELLSTYLE_END
300
CELLSTYLE
  1
TABLEFORMAT_BEGIN
 90
        5
170
     1
 91
        0
 92
        0
 62
   257
 93
        1
300
CONTENTFORMAT
  1
CONTENTFORMAT_BEGIN
 90
        0
 91
        0
 92
        4
 93
        0
300

 40
0.0
140
1.0
 94
        2
 62
     0
340
11
144
4.5
309
CONTENTFORMAT_END
171
     1
301
MARGIN
  1
CELLMARGIN_BEGIN
 40
1.5
 40
1.5
 40
1.5
 40
1.5
 40
1.5
 40
1.5
309
CELLMARGIN_END
 94
        6
 95
        1
302
GRIDFORMAT
  1
GRIDFORMAT_BEGIN
 90
        0
 91
        1
 62
     0
 92
       -2
340
14
 93
        0
 40
0.045
309
GRIDFORMAT_END
 95
        2
302
GRIDFORMAT
  1
GRIDFORMAT_BEGIN
 90
        0
 91
        1
 62
     0
 92
       -2
340
14
 93
        0
 40
0.045
309
GRIDFORMAT_END
 95
        4
302
GRIDFORMAT
  1
GRIDFORMAT_BEGIN
 90
        0
 91
        1
 62
     0
 92
       -2
340
14
 93
        0
 40
0.045
309
GRIDFORMAT_END
 95
        8
302
GRIDFORMAT
  1
GRIDFORMAT_BEGIN
 90
        0
 91
        1
 62
     0
 92
       -2
340
14
 93
        0
 40
0.045
309
GRIDFORMAT_END
 95
       16
302
GRIDFORMAT
  1
GRIDFORMAT_BEGIN
 90
        0
 91
        1
 62
     0
 92
       -2
340
14
 93
        0
 40
0.045
309
GRIDFORMAT_END
 95
       32
302
GRIDFORMAT
  1
GRIDFORMAT_BEGIN
 90
        0
 91
        1
 62
     0
 92
       -2
340
14
 93
        0
 40
0.045
309
GRIDFORMAT_END
309
TABLEFORMAT_END
  1
CELLSTYLE_BEGIN
 90
        3
 91
        2
300
_DATA
309
CELLSTYLE_END
  0
ENDSEC
  0
EOF
