  0
SECTION
  2
HEADER
  9
$ACADVER
  1
AC1027
  9
$ACADMAINTVER
 70
   105
  9
$DWGCODEPAGE
  3
ANSI_932
  9
$LASTSAVEDBY
  1
a.yasuda
  9
$REQUIREDVERSIONS
160
                 0
  9
$INSBASE
 10
0.0
 20
0.0
 30
0.0
  9
$EXTMIN
 10
0.0
 20
0.0
 30
0.0
  9
$EXTMAX
 10
302.9997823349792
 20
216.0016055409748
 30
0.0
  9
$LIMMIN
 10
0.0
 20
0.0
  9
$LIMMAX
 10
302.9997823349792
 20
216.0016055409748
  9
$ORTHOMODE
 70
     0
  9
$REGENMODE
 70
     1
  9
$FILLMODE
 70
     1
  9
$QTEXTMODE
 70
     0
  9
$MIRRTEXT
 70
     1
  9
$LTSCALE
 40
1.0
  9
$ATTMODE
 70
     1
  9
$TEXTSIZE
 40
2.5
  9
$TRACEWID
 40
1.0
  9
$TEXTSTYLE
  7
Standard
  9
$CLAYER
  8
0
  9
$CELTYPE
  6
ByLayer
  9
$CECOLOR
 62
   256
  9
$CELTSCALE
 40
1.0
  9
$DISPSILH
 70
     0
  9
$DIMSCALE
 40
1.0
  9
$DIMASZ
 40
2.5
  9
$DIMEXO
 40
0.625
  9
$DIMDLI
 40
3.75
  9
$DIMRND
 40
0.0
  9
$DIMDLE
 40
0.0
  9
$DIMEXE
 40
1.25
  9
$DIMTP
 40
0.0
  9
$DIMTM
 40
0.0
  9
$DIMTXT
 40
2.5
  9
$DIMCEN
 40
2.5
  9
$DIMTSZ
 40
0.0
  9
$DIMTOL
 70
     0
  9
$DIMLIM
 70
     0
  9
$DIMTIH
 70
     0
  9
$DIMTOH
 70
     0
  9
$DIMSE1
 70
     0
  9
$DIMSE2
 70
     0
  9
$DIMTAD
 70
     1
  9
$DIMZIN
 70
     8
  9
$DIMBLK
  1

  9
$DIMASO
 70
     1
  9
$DIMSHO
 70
     1
  9
$DIMPOST
  1

  9
$DIMAPOST
  1

  9
$DIMALT
 70
     0
  9
$DIMALTD
 70
     3
  9
$DIMALTF
 40
0.03937007874016
  9
$DIMLFAC
 40
1.0
  9
$DIMTOFL
 70
     1
  9
$DIMTVP
 40
0.0
  9
$DIMTIX
 70
     0
  9
$DIMSOXD
 70
     0
  9
$DIMSAH
 70
     0
  9
$DIMBLK1
  1

  9
$DIMBLK2
  1

  9
$DIMSTYLE
  2
ISO-25
  9
$DIMCLRD
 70
     0
  9
$DIMCLRE
 70
     0
  9
$DIMCLRT
 70
     0
  9
$DIMTFAC
 40
1.0
  9
$DIMGAP
 40
0.625
  9
$DIMJUST
 70
     0
  9
$DIMSD1
 70
     0
  9
$DIMSD2
 70
     0
  9
$DIMTOLJ
 70
     0
  9
$DIMTZIN
 70
     8
  9
$DIMALTZ
 70
     0
  9
$DIMALTTZ
 70
     0
  9
$DIMUPT
 70
     0
  9
$DIMDEC
 70
     2
  9
$DIMTDEC
 70
     2
  9
$DIMALTU
 70
     2
  9
$DIMALTTD
 70
     3
  9
$DIMTXSTY
  7
Standard
  9
$DIMAUNIT
 70
     0
  9
$DIMADEC
 70
     0
  9
$DIMALTRND
 40
0.0
  9
$DIMAZIN
 70
     0
  9
$DIMDSEP
 70
    44
  9
$DIMATFIT
 70
     3
  9
$DIMFRAC
 70
     0
  9
$DIMLDRBLK
  1

  9
$DIMLUNIT
 70
     2
  9
$DIMLWD
 70
    -2
  9
$DIMLWE
 70
    -2
  9
$DIMTMOVE
 70
     0
  9
$DIMFXL
 40
1.0
  9
$DIMFXLON
 70
     0
  9
$DIMJOGANG
 40
0.7853981633974483
  9
$DIMTFILL
 70
     0
  9
$DIMTFILLCLR
 70
     0
  9
$DIMARCSYM
 70
     0
  9
$DIMLTYPE
  6

  9
$DIMLTEX1
  6

  9
$DIMLTEX2
  6

  9
$DIMTXTDIRECTION
 70
     0
  9
$LUNITS
 70
     2
  9
$LUPREC
 70
     4
  9
$SKETCHINC
 40
1.0
  9
$FILLETRAD
 40
0.0
  9
$AUNITS
 70
     0
  9
$AUPREC
 70
     0
  9
$MENU
  1
.
  9
$ELEVATION
 40
0.0
  9
$PELEVATION
 40
0.0
  9
$THICKNESS
 40
0.0
  9
$LIMCHECK
 70
     0
  9
$CHAMFERA
 40
0.0
  9
$CHAMFERB
 40
0.0
  9
$CHAMFERC
 40
0.0
  9
$CHAMFERD
 40
0.0
  9
$SKPOLY
 70
     0
  9
$TDCREATE
 40
2459866.618865475
  9
$TDUCREATE
 40
2459866.243865475
  9
$TDUPDATE
 40
2459866.618865532
  9
$TDUUPDATE
 40
2459866.243865532
  9
$TDINDWG
 40
0.0000000116
  9
$TDUSRTIMER
 40
0.0000000116
  9
$USRTIMER
 70
     1
  9
$ANGBASE
 50
0.0
  9
$ANGDIR
 70
     0
  9
$PDMODE
 70
     0
  9
$PDSIZE
 40
0.0
  9
$PLINEWID
 40
0.0
  9
$SPLFRAME
 70
     0
  9
$SPLINETYPE
 70
     6
  9
$SPLINESEGS
 70
     8
  9
$HANDSEED
  5
C8
  9
$SURFTAB1
 70
     6
  9
$SURFTAB2
 70
     6
  9
$SURFTYPE
 70
     6
  9
$SURFU
 70
     6
  9
$SURFV
 70
     6
  9
$UCSBASE
  2

  9
$UCSNAME
  2

  9
$UCSORG
 10
0.0
 20
0.0
 30
0.0
  9
$UCSXDIR
 10
1.0
 20
0.0
 30
0.0
  9
$UCSYDIR
 10
0.0
 20
1.0
 30
0.0
  9
$UCSORTHOREF
  2

  9
$UCSORTHOVIEW
 70
     0
  9
$UCSORGTOP
 10
0.0
 20
0.0
 30
0.0
  9
$UCSORGBOTTOM
 10
0.0
 20
0.0
 30
0.0
  9
$UCSORGLEFT
 10
0.0
 20
0.0
 30
0.0
  9
$UCSORGRIGHT
 10
0.0
 20
0.0
 30
0.0
  9
$UCSORGFRONT
 10
0.0
 20
0.0
 30
0.0
  9
$UCSORGBACK
 10
0.0
 20
0.0
 30
0.0
  9
$PUCSBASE
  2

  9
$PUCSNAME
  2

  9
$PUCSORG
 10
0.0
 20
0.0
 30
0.0
  9
$PUCSXDIR
 10
1.0
 20
0.0
 30
0.0
  9
$PUCSYDIR
 10
0.0
 20
1.0
 30
0.0
  9
$PUCSORTHOREF
  2

  9
$PUCSORTHOVIEW
 70
     0
  9
$PUCSORGTOP
 10
0.0
 20
0.0
 30
0.0
  9
$PUCSORGBOTTOM
 10
0.0
 20
0.0
 30
0.0
  9
$PUCSORGLEFT
 10
0.0
 20
0.0
 30
0.0
  9
$PUCSORGRIGHT
 10
0.0
 20
0.0
 30
0.0
  9
$PUCSORGFRONT
 10
0.0
 20
0.0
 30
0.0
  9
$PUCSORGBACK
 10
0.0
 20
0.0
 30
0.0
  9
$USERI1
 70
     0
  9
$USERI2
 70
     0
  9
$USERI3
 70
     0
  9
$USERI4
 70
     0
  9
$USERI5
 70
     0
  9
$USERR1
 40
0.0
  9
$USERR2
 40
0.0
  9
$USERR3
 40
0.0
  9
$USERR4
 40
0.0
  9
$USERR5
 40
0.0
  9
$WORLDVIEW
 70
     1
  9
$SHADEDGE
 70
     3
  9
$SHADEDIF
 70
    70
  9
$TILEMODE
 70
     1
  9
$MAXACTVP
 70
    64
  9
$PINSBASE
 10
0.0
 20
0.0
 30
0.0
  9
$PLIMCHECK
 70
     0
  9
$PEXTMIN
 10
1.000000000000000E+20
 20
1.000000000000000E+20
 30
1.000000000000000E+20
  9
$PEXTMAX
 10
-1.000000000000000E+20
 20
-1.000000000000000E+20
 30
-1.000000000000000E+20
  9
$PLIMMIN
 10
0.0
 20
0.0
  9
$PLIMMAX
 10
420.0
 20
297.0
  9
$UNITMODE
 70
     0
  9
$VISRETAIN
 70
     1
  9
$PLINEGEN
 70
     0
  9
$PSLTSCALE
 70
     1
  9
$TREEDEPTH
 70
  3020
  9
$CMLSTYLE
  2
Standard
  9
$CMLJUST
 70
     0
  9
$CMLSCALE
 40
20.0
  9
$PROXYGRAPHICS
 70
     1
  9
$MEASUREMENT
 70
     1
  9
$CELWEIGHT
370
    -1
  9
$ENDCAPS
280
     0
  9
$JOINSTYLE
280
     0
  9
$LWDISPLAY
290
     0
  9
$INSUNITS
 70
     4
  9
$HYPERLINKBASE
  1

  9
$STYLESHEET
  1

  9
$XEDIT
290
     1
  9
$CEPSNTYPE
380
     0
  9
$PSTYLEMODE
290
     1
  9
$FINGERPRINTGUID
  2
{87275f1a-eccb-4754-ac71-684ac725f4fb}
  9
$VERSIONGUID
  2
{FAEB1C32-E019-11D5-929B-00C0DF256EC4}
  9
$EXTNAMES
290
     1
  9
$PSVPSCALE
 40
0.0
  9
$OLESTARTUP
290
     0
  9
$SORTENTS
280
   127
  9
$INDEXCTL
280
     0
  9
$HIDETEXT
280
     1
  9
$XCLIPFRAME
280
     2
  9
$HALOGAP
280
     0
  9
$OBSCOLOR
 70
   257
  9
$OBSLTYPE
280
     0
  9
$INTERSECTIONDISPLAY
280
     0
  9
$INTERSECTIONCOLOR
 70
   257
  9
$DIMASSOC
280
     2
  9
$PROJECTNAME
  1

  9
$CAMERADISPLAY
290
     0
  9
$LENSLENGTH
 40
50.0
  9
$CAMERAHEIGHT
 40
0.0
  9
$STEPSPERSEC
 40
2.0
  9
$STEPSIZE
 40
6.0
  9
$3DDWFPREC
 40
2.0
  9
$PSOLWIDTH
 40
5.0
  9
$PSOLHEIGHT
 40
80.0
  9
$LOFTANG1
 40
1.570796326794897
  9
$LOFTANG2
 40
1.570796326794897
  9
$LOFTMAG1
 40
0.0
  9
$LOFTMAG2
 40
0.0
  9
$LOFTPARAM
 70
     7
  9
$LOFTNORMALS
280
     1
  9
$LATITUDE
 40
37.795
  9
$LONGITUDE
 40
-122.394
  9
$NORTHDIRECTION
 40
0.0
  9
$TIMEZONE
 70
 -8000
  9
$LIGHTGLYPHDISPLAY
280
     1
  9
$TILEMODELIGHTSYNCH
280
     1
  9
$CMATERIAL
347
44
  9
$SOLIDHIST
280
     0
  9
$SHOWHIST
280
     1
  9
$DWFFRAME
280
     2
  9
$DGNFRAME
280
     2
  9
$REALWORLDSCALE
290
     1
  9
$INTERFERECOLOR
 62
   256
  9
$CSHADOW
280
     0
  9
$SHADOWPLANELOCATION
 40
0.0
  0
ENDSEC
  0
SECTION
  2
CLASSES
  0
CLASS
  1
ACDBDICTIONARYWDFLT
  2
AcDbDictionaryWithDefault
  3
ObjectDBX Classes
 90
        0
 91
        3
280
     0
281
     0
  0
CLASS
  1
VISUALSTYLE
  2
AcDbVisualStyle
  3
ObjectDBX Classes
 90
     4095
 91
        3
280
     0
281
     0
  0
CLASS
  1
MATERIAL
  2
AcDbMaterial
  3
ObjectDBX Classes
 90
     1153
 91
        3
280
     0
281
     0
  0
CLASS
  1
SCALE
  2
AcDbScale
  3
ObjectDBX Classes
 90
     1153
 91
        3
280
     0
281
     0
  0
CLASS
  1
TABLESTYLE
  2
AcDbTableStyle
  3
ObjectDBX Classes
 90
     4095
 91
        3
280
     0
281
     0
  0
CLASS
  1
MLEADERSTYLE
  2
AcDbMLeaderStyle
  3
ACDB_MLEADERSTYLE_CLASS
 90
     4095
 91
        3
280
     0
281
     0
  0
CLASS
  1
SUN
  2
AcDbSun
  3
SCENEOE
 90
     1153
 91
        3
280
     0
281
     0
  0
CLASS
  1
DICTIONARYVAR
  2
AcDbDictionaryVar
  3
ObjectDBX Classes
 90
        0
 91
        3
280
     0
281
     0
  0
CLASS
  1
CELLSTYLEMAP
  2
AcDbCellStyleMap
  3
ObjectDBX Classes
 90
     1152
 91
        3
280
     0
281
     0
  0
ENDSEC
  0
SECTION
  2
TABLES
  0
TABLE
  2
VPORT
  5
8
330
0
100
AcDbSymbolTable
 70
     1
  0
VPORT
  5
29
330
8
100
AcDbSymbolTableRecord
100
AcDbViewportTableRecord
  2
*Active
 70
     0
 10
0.0
 20
0.0
 11
1.0
 21
1.0
 12
151.4998911674896
 22
108.0008027704874
 13
0.0
 23
0.0
 14
10.0
 24
10.0
 15
10.0
 25
10.0
 16
0.0
 26
0.0
 36
1.0
 17
0.0
 27
0.0
 37
0.0
 40
237.6017660950723
 41
1.402766343222857
 42
50.0
 43
0.0
 44
0.0
 50
0.0
 51
0.0
 71
     0
 72
 10000
 73
     1
 74
     3
 75
     0
 76
     0
 77
     0
 78
     0
281
     0
 65
     1
110
0.0
120
0.0
130
0.0
111
1.0
121
0.0
131
0.0
112
0.0
122
1.0
132
0.0
 79
     0
146
0.0
348
2F
 60
     3
 61
     5
292
     1
282
     1
141
0.0
142
0.0
 63
   250
361
5D
  0
ENDTAB
  0
TABLE
  2
LTYPE
  5
5
330
0
100
AcDbSymbolTable
 70
     2
  0
LTYPE
  5
14
330
5
100
AcDbSymbolTableRecord
100
AcDbLinetypeTableRecord
  2
ByBlock
 70
     0
  3

 72
    65
 73
     0
 40
0.0
  0
LTYPE
  5
15
330
5
100
AcDbSymbolTableRecord
100
AcDbLinetypeTableRecord
  2
ByLayer
 70
     0
  3

 72
    65
 73
     0
 40
0.0
  0
LTYPE
  5
16
330
5
100
AcDbSymbolTableRecord
100
AcDbLinetypeTableRecord
  2
Continuous
 70
     0
  3
Solid line
 72
    65
 73
     0
 40
0.0
  0
LTYPE
  5
5F
330
5
100
AcDbSymbolTableRecord
100
AcDbLinetypeTableRecord
  2
UserDefined01
 70
     0
  3
----------------                
 72
    65
 73
     2
 40
0.7055555449591743
 49
0.3527777724795871
 74
     0
 49
-0.3527777724795871
 74
     0
  0
ENDTAB
  0
TABLE
  2
LAYER
  5
2
330
0
100
AcDbSymbolTable
 70
     4
  0
LAYER
  5
10
330
2
100
AcDbSymbolTableRecord
100
AcDbLayerTableRecord
  2
0
 70
     0
 62
     7
  6
Continuous
370
    -3
390
F
347
46
348
0
  0
LAYER
  5
60
330
2
100
AcDbSymbolTableRecord
100
AcDbLayerTableRecord
  2
外枠
 70
     0
 62
     7
  6
Continuous
370
    -3
390
F
347
46
348
0
  0
LAYER
  5
61
330
2
100
AcDbSymbolTableRecord
100
AcDbLayerTableRecord
  2
レイヤー_1
 70
     0
 62
     7
  6
Continuous
370
    -3
390
F
347
46
348
0
  0
LAYER
  5
62
330
2
100
AcDbSymbolTableRecord
100
AcDbLayerTableRecord
  2
レイヤー_2
 70
     0
 62
     7
  6
Continuous
370
    -3
390
F
347
46
348
0
  0
ENDTAB
  0
TABLE
  2
STYLE
  5
3
330
0
100
AcDbSymbolTable
 70
     2
  0
STYLE
  5
11
330
3
100
AcDbSymbolTableRecord
100
AcDbTextStyleTableRecord
  2
Standard
 70
     0
 40
0.0
 41
1.0
 50
0.0
 71
     0
 42
2.5
  3

  4

  0
STYLE
  5
5E
330
3
100
AcDbSymbolTableRecord
100
AcDbTextStyleTableRecord
  2
MS Gothic
 70
     0
 40
1.0
 41
1.0
 50
0.0
 71
     0
 42
2.5
  3
msgothic.ttc
  4

1001
ACAD
1000
MS Gothic
1071
    32817
  0
ENDTAB
  0
TABLE
  2
VIEW
  5
6
330
0
100
AcDbSymbolTable
 70
     0
  0
ENDTAB
  0
TABLE
  2
UCS
  5
7
330
0
100
AcDbSymbolTable
 70
     0
  0
ENDTAB
  0
TABLE
  2
APPID
  5
9
330
0
100
AcDbSymbolTable
 70
     1
  0
APPID
  5
12
330
9
100
AcDbSymbolTableRecord
100
AcDbRegAppTableRecord
  2
ACAD
 70
     0
  0
ENDTAB
  0
TABLE
  2
DIMSTYLE
  5
A
330
0
100
AcDbSymbolTable
 70
     1
100
AcDbDimStyleTable
  0
DIMSTYLE
105
27
330
A
100
AcDbSymbolTableRecord
100
AcDbDimStyleTableRecord
  2
ISO-25
 70
     0
 41
2.5
 42
0.625
 43
3.75
 44
1.25
 73
     0
 74
     0
 77
     1
 78
     8
140
2.5
141
2.5
143
0.03937007874016
147
0.625
171
     3
172
     1
178
     0
271
     2
272
     2
274
     3
278
    44
283
     0
284
     8
340
11
  0
ENDTAB
  0
TABLE
  2
BLOCK_RECORD
  5
1
330
0
100
AcDbSymbolTable
 70
     1
  0
BLOCK_RECORD
  5
1F
330
1
100
AcDbSymbolTableRecord
100
AcDbBlockTableRecord
  2
*Model_Space
340
22
 70
     0
280
     1
281
     0
  0
BLOCK_RECORD
  5
1B
330
1
100
AcDbSymbolTableRecord
100
AcDbBlockTableRecord
  2
*Paper_Space
340
1E
 70
     0
280
     1
281
     0
  0
BLOCK_RECORD
  5
23
330
1
100
AcDbSymbolTableRecord
100
AcDbBlockTableRecord
  2
*Paper_Space0
340
26
 70
     0
280
     1
281
     0
  0
ENDTAB
  0
ENDSEC
  0
SECTION
  2
BLOCKS
  0
BLOCK
  5
20
330
1F
100
AcDbEntity
  8
0
100
AcDbBlockBegin
  2
*Model_Space
 70
     0
 10
0.0
 20
0.0
 30
0.0
  3
*Model_Space
  1

  0
ENDBLK
  5
21
330
1F
100
AcDbEntity
  8
0
100
AcDbBlockEnd
  0
BLOCK
  5
1C
330
1B
100
AcDbEntity
 67
     1
  8
0
100
AcDbBlockBegin
  2
*Paper_Space
 70
     0
 10
0.0
 20
0.0
 30
0.0
  3
*Paper_Space
  1

  0
ENDBLK
  5
1D
330
1B
100
AcDbEntity
 67
     1
  8
0
100
AcDbBlockEnd
  0
BLOCK
  5
24
330
23
100
AcDbEntity
  8
0
100
AcDbBlockBegin
  2
*Paper_Space0
 70
     0
 10
0.0
 20
0.0
 30
0.0
  3
*Paper_Space0
  1

  0
ENDBLK
  5
25
330
23
100
AcDbEntity
  8
0
100
AcDbBlockEnd
  0
ENDSEC
  0
SECTION
  2
ENTITIES
  0
LWPOLYLINE
  5
63
330
1F
100
AcDbEntity
  8
外枠
  6
Continuous
 62
   250
420
  2367521
370
   100
100
AcDbPolyline
 90
        5
 70
     0
 43
0.0
 10
281.9999662644599
 20
13.29407825637392
 10
20.99981607051935
 20
13.29407825637392
 10
20.99981607051935
 20
193.0018900389566
 10
281.9999662644599
 20
193.0018900389566
 10
281.9999662644599
 20
13.29407825637392
  0
LINE
  5
64
330
1F
100
AcDbEntity
  8
外枠
  6
Continuous
 62
   250
420
  2367521
370
    25
100
AcDbLine
 10
223.3097080177524
 20
174.0786160074276
 30
0.0
 11
281.9999232007669
 21
174.0786160074276
 31
0.0
  0
LINE
  5
65
330
1F
100
AcDbEntity
  8
外枠
  6
Continuous
 62
   250
420
  2367521
370
    25
100
AcDbLine
 10
223.3097080177524
 20
50.37109023844297
 30
0.0
 11
281.9999232007669
 21
50.37109023844297
 31
0.0
  0
LINE
  5
66
330
1F
100
AcDbEntity
  8
外枠
  6
Continuous
 62
   250
420
  2367521
370
    25
100
AcDbLine
 10
223.3097080177524
 20
36.25997933925949
 30
0.0
 11
281.9999232007669
 21
36.25997933925949
 31
0.0
  0
LINE
  5
67
330
1F
100
AcDbEntity
  8
外枠
  6
Continuous
 62
   250
420
  2367521
370
    50
100
AcDbLine
 10
223.0158413772006
 20
193.3637327187979
 30
0.0
 11
223.0158413772006
 21
13.29396655992039
 31
0.0
  0
TEXT
  5
68
330
1F
100
AcDbEntity
  8
外枠
  6
Continuous
 62
   250
420
  2367521
100
AcDbText
 10
224.7190965599536
 20
186.6888051931772
 30
0.0
 40
2.688166626294454
  1
品名：
 41
0.974166170756022
  7
MS Gothic
100
AcDbText
  0
TEXT
  5
69
330
1F
100
AcDbEntity
  8
外枠
  6
Continuous
 62
   250
420
  2367521
100
AcDbText
 10
224.7190965599536
 20
168.1080059455944
 30
0.0
 40
2.688166626294454
  1
仕様：
 41
0.9978878657023111
  7
MS Gothic
100
AcDbText
  0
TEXT
  5
6A
330
1F
100
AcDbEntity
  8
外枠
  6
Continuous
 62
   250
420
  2367521
100
AcDbText
 10
224.7190965599536
 20
44.16660664327048
 30
0.0
 40
2.688166626294454
  1
縮尺：
 41
0.9939999262491861
  7
MS Gothic
100
AcDbText
  0
TEXT
  5
6B
330
1F
100
AcDbEntity
  8
外枠
  6
Continuous
 62
   250
420
  2367521
100
AcDbText
 10
250.2379519709696
 20
40.59738467878129
 30
0.0
 40
2.150533301035563
  1
1/1
 41
1.000003814697266
  7
MS Gothic
100
AcDbText
  0
TEXT
  5
6C
330
1F
100
AcDbEntity
  8
外枠
  6
Continuous
 62
   250
420
  2367521
100
AcDbText
 10
232.7757967427735
 20
181.9845273775436
 30
0.0
 40
2.688166626294454
  1
アドロック104B
 41
1.093959372384208
  7
MS Gothic
100
AcDbText
  0
TEXT
  5
6D
330
1F
100
AcDbEntity
  8
外枠
  6
Continuous
 62
   250
420
  2367521
100
AcDbText
 10
226.1633020978884
 20
24.25683874973963
 30
0.0
 40
2.553758294979732
  1
ヤスダインテリアサプライ株式会社
 41
1.0194908945184
  7
MS Gothic
100
AcDbText
  0
TEXT
  5
6E
330
1F
100
AcDbEntity
  8
外枠
  6
Continuous
 62
   250
420
  2367521
100
AcDbText
 10
227.7635273953072
 20
161.7763665048245
 30
0.0
 40
2.150533301035563
  1
材質
 41
1.028502464294433
  7
MS Gothic
100
AcDbText
  0
TEXT
  5
6F
330
1F
100
AcDbEntity
  8
外枠
  6
Continuous
 62
   250
420
  2367521
100
AcDbText
 10
232.7757967427735
 20
156.199681315683
 30
0.0
 40
2.016124969720841
  1
アルミ押出形材（A6063S-T5）/
 41
1.030580357142857
  7
MS Gothic
100
AcDbText
  0
TEXT
  5
70
330
1F
100
AcDbEntity
  8
外枠
  6
Continuous
 62
   250
420
  2367521
100
AcDbText
 10
232.7757967427735
 20
151.9663480459279
 30
0.0
 40
2.016124969720841
  1
シルバー仕上(アルマイト)
 41
1.052132924397786
  7
MS Gothic
100
AcDbText
  0
HATCH
  5
71
330
1F
100
AcDbEntity
  8
レイヤー_1
  6
Continuous
 62
     7
420
 16777215
370
    50
100
AcDbHatch
 10
0.0
 20
0.0
 30
0.0
210
0.0
220
0.0
230
1.0
  2
SOLID
 70
     1
 71
     0
 91
        1
 92
        3
 72
     0
 73
     1
 93
      214
 10
137.4279682288721
 20
103.9002779297274
 10
127.8722747247876
 20
104.6044231387431
 10
113.8722896852091
 20
104.6044231387431
 10
113.8726449606757
 20
106.35455315125
 10
113.8842506259203
 20
106.5845778670337
 10
113.9183570707206
 20
106.8079707741062
 10
113.973780043521
 20
107.0235799186816
 10
114.0494214201519
 20
107.2302964106671
 10
114.1441507786739
 20
107.4269682962768
 10
114.256816165301
 20
107.6124866854176
 10
114.3863302217869
 20
107.7856996243039
 10
114.5314979306527
 20
107.9454982228425
 10
114.6912426995752
 20
108.0907197613245
 10
114.8644018088453
 20
108.2202553496568
 10
115.04986636837
 20
108.3329745659002
 10
115.2464844243635
 20
108.4277254562686
 10
115.4531363208096
 20
108.5033991306692
 10
115.6686808698457
 20
108.5588436353161
 10
115.8919984154555
 20
108.5929500801164
 10
116.1219585356998
 20
108.6045665112841
 10
116.3720724642351
 20
108.6045665112841
 10
116.3720724642351
 20
109.3044807124695
 10
113.3724063376819
 20
109.3044807124695
 10
101.3723207296021
 20
106.4042917165837
 10
101.8722040771293
 20
103.4046255900305
 10
105.3724641021432
 20
103.4046255900305
 10
105.3724641021432
 20
105.9721367921116
 10
111.2317532258425
 20
107.424524431703
 10
111.2402367733497
 20
107.4270221258929
 10
111.2487203208568
 20
107.4294767563899
 10
111.2572469320569
 20
107.4318775572707
 10
111.2657950751034
 20
107.4342137626122
 10
111.2743970477661
 20
107.436431542798
 10
111.283009786352
 20
107.4385631955981
 10
111.2916871204773
 20
107.4405656573193
 10
111.3004182842188
 20
107.4424389279617
 10
111.3091925116532
 20
107.4441399438325
 10
111.3180205687038
 20
107.4456687049314
 10
111.3269132212938
 20
107.4470036794123
 10
111.3358812353464
 20
107.4481341013517
 10
111.3449138449384
 20
107.4490492048264
 10
111.3540325819162
 20
107.4497166920668
 10
111.3632266803567
 20
107.4501365630729
 10
111.372506906183
 20
107.4502765200749
 10
111.372506906183
 20
107.4502765200749
 10
111.4235912119208
 20
107.4476926984992
 10
111.4731898202525
 20
107.4401242544668
 10
111.5210874127135
 20
107.4278188042121
 10
111.5669933093765
 20
107.4110131980463
 10
111.6107029577001
 20
107.389965818127
 10
111.6519149118337
 20
107.3649458125349
 10
111.6903923214664
 20
107.3361792656578
 10
111.7259091022101
 20
107.3039137937303
 10
111.7581745741376
 20
107.2684293107563
 10
111.7869626528611
 20
107.2299519011237
 10
111.8120149562229
 20
107.1887291810668
 10
111.8330731020655
 20
107.1450302986664
 10
111.8499002400778
 20
107.0990921042337
 10
111.8622272221789
 20
107.0511729799263
 10
111.8698064321345
 20
107.0015313079016
 10
111.8723902537103
 20
106.9503931725477
 10
111.8723902537103
 20
103.4046255900305
 10
115.6220751881726
 20
103.4046255900305
 10
115.6233778648837
 20
103.4301623599377
 10
115.6271567039382
 20
103.4549670470652
 10
115.6333255779504
 20
103.4788889284876
 10
115.6417445299182
 20
103.5018526427423
 10
115.6522951346859
 20
103.5236751691344
 10
115.6648159034052
 20
103.544270380278
 10
115.6792207086902
 20
103.5634983191711
 10
115.6953588276156
 20
103.5812405606581
 10
115.7131118350258
 20
103.5973571477371
 10
115.7323505398421
 20
103.6117296552523
 10
115.7529457509857
 20
103.6242504239716
 10
115.7747682773778
 20
103.6347687309697
 10
115.7976996938629
 20
103.643166151091
 10
115.8216000434388
 20
103.6493242591799
 10
115.8463509009501
 20
103.6531030982345
 10
115.8718338412412
 20
103.6543950090224
 10
115.8718338412412
 20
103.6543950090224
 10
115.8974782703808
 20
103.6531030982345
 10
115.9223906167406
 20
103.6493134932567
 10
115.9463986255489
 20
103.643166151091
 10
115.9694054034965
 20
103.6347687309697
 10
115.9912817595048
 20
103.6242396580484
 10
116.0118985024949
 20
103.6117404211756
 10
116.0311479732344
 20
103.5973571477371
 10
116.0488902147214
 20
103.5812405606581
 10
116.0650068018003
 20
103.5634983191711
 10
116.0793685433924
 20
103.544270380278
 10
116.0918677802652
 20
103.5236751691344
 10
116.10237532134
 20
103.5018418768191
 10
116.1107619755381
 20
103.4788996944109
 10
116.1168985517806
 20
103.454956281142
 10
116.1206773908351
 20
103.4301623599377
 10
116.1219585356998
 20
103.4046255900305
 10
118.6220858242693
 20
103.4046255900305
 10
118.6233885009804
 20
103.4301623599377
 10
118.6271781059582
 20
103.4549670470652
 10
118.6333362140471
 20
103.4788889284876
 10
118.6417659319381
 20
103.5018526427423
 10
118.6523057707826
 20
103.5236751691344
 10
118.6648373054252
 20
103.544270380278
 10
118.6792421107101
 20
103.5634983191711
 10
118.6953802296355
 20
103.5812405606581
 10
118.7131224711225
 20
103.5973571477371
 10
118.7323719418621
 20
103.6117296552523
 10
118.7529563870824
 20
103.6242504239716
 10
118.7747896793978
 20
103.6347687309697
 10
118.7977210958828
 20
103.643166151091
 10
118.8216214454587
 20
103.6493242591799
 10
118.8463830688933
 20
103.6531030982345
 10
118.8718552432612
 20
103.6543950090224
 10
118.8718552432612
 20
103.6543950090224
 10
118.897510438324
 20
103.6531030982345
 10
118.9224120187606
 20
103.6493134932567
 10
118.9464092616456
 20
103.643166151091
 10
118.9694268055165
 20
103.6347687309697
 10
118.991313927448
 20
103.6242396580484
 10
119.0119199045148
 20
103.6117404211756
 10
119.0311693752544
 20
103.5973571477371
 10
119.0489116167413
 20
103.5812405606581
 10
119.065017437897
 20
103.5634983191711
 10
119.0793899454123
 20
103.544270380278
 10
119.0918891822851
 20
103.5236751691344
 10
119.10239672336
 20
103.5018418768191
 10
119.1107726116348
 20
103.4788996944109
 10
119.1169199538005
 20
103.454956281142
 10
119.1206987928551
 20
103.4301623599377
 10
119.1219799377197
 20
103.4046255900305
 10
121.6221179922124
 20
103.4046255900305
 10
121.6234099030003
 20
103.4301623599377
 10
121.6272102739014
 20
103.4549670470652
 10
121.6333791479135
 20
103.4788889284876
 10
121.641787333958
 20
103.5018526427423
 10
121.6523379387258
 20
103.5236751691344
 10
121.6648694733683
 20
103.544270380278
 10
121.6792635127301
 20
103.5634983191711
 10
121.6954016316554
 20
103.5812405606581
 10
121.7131654049889
 20
103.5973571477371
 10
121.732393343882
 20
103.6117296552523
 10
121.7529885550256
 20
103.6242504239716
 10
121.7748110814177
 20
103.6347687309697
 10
121.7977424979027
 20
103.643166151091
 10
121.8216428474787
 20
103.6493242591799
 10
121.84639370499
 20
103.6531030982345
 10
121.8718766452811
 20
103.6543950090224
 10
121.8718766452811
 20
103.6543950090224
 10
121.8975318403439
 20
103.6531030982345
 10
121.9224334207805
 20
103.6493134932567
 10
121.9464414295887
 20
103.643166151091
 10
121.9694374416132
 20
103.6347687309697
 10
121.9913245635447
 20
103.6242396580484
 10
122.0119413065347
 20
103.6117404211756
 10
122.0311907772743
 20
103.5973571477371
 10
122.0489330187613
 20
103.5812405606581
 10
122.0650496058402
 20
103.5634983191711
 10
122.0794221133555
 20
103.544270380278
 10
122.0919105843051
 20
103.5236751691344
 10
122.1024181253799
 20
103.5018418768191
 10
122.1107940136547
 20
103.4788996944109
 10
122.1169413558204
 20
103.454956281142
 10
122.120720194875
 20
103.4301623599377
 10
122.1220013397397
 20
103.4046255900305
 10
124.6221393942324
 20
103.4046255900305
 10
124.6234959005596
 20
103.4301623599377
 10
124.6273285692304
 20
103.4549670470652
 10
124.6335297410123
 20
103.4788889284876
 10
124.6419594589032
 20
103.5018526427423
 10
124.652510063671
 20
103.5236751691344
 10
124.6650415983135
 20
103.544270380278
 10
124.679424871752
 20
103.5634983191711
 10
124.6955522247542
 20
103.5812405606581
 10
124.7132944662412
 20
103.5973571477371
 10
124.732511639211
 20
103.6117296552523
 10
124.7530745525849
 20
103.6242504239716
 10
124.7748755471305
 20
103.6347687309697
 10
124.7977854317691
 20
103.643166151091
 10
124.8216857813451
 20
103.6493242591799
 10
124.8464258729331
 20
103.6531030982345
 10
124.871898047301
 20
103.6543950090224
 10
124.871898047301
 20
103.6543950090224
 10
124.8974994127477
 20
103.6531030982345
 10
124.9223471635681
 20
103.6493134932567
 10
124.9463336405299
 20
103.643166151091
 10
124.9693188866311
 20
103.6347687309697
 10
124.9911952426394
 20
103.6242396580484
 10
125.0118119856294
 20
103.6117404211756
 10
125.0310722222922
 20
103.5973571477371
 10
125.0488144637792
 20
103.5812405606581
 10
125.0649525827046
 20
103.5634983191711
 10
125.0793466220663
 20
103.544270380278
 10
125.0918673907856
 20
103.5236751691344
 10
125.1023856977837
 20
103.5018418768191
 10
125.1107938838282
 20
103.4788996944109
 10
125.1169519919171
 20
103.454956281142
 10
125.1207308309717
 20
103.4301623599377
 10
125.1220227417596
 20
103.4046255900305
 10
137.8724716672918
 20
103.4046255900305
 10
137.8701892915665
 20
103.4518233974813
 10
137.8635144191624
 20
103.497804655607
 10
137.8526516026209
 20
103.5423432800195
 10
137.8378053944834
 20
103.5852562500238
 10
137.8191911132146
 20
103.6263282471555
 10
137.7970240772791
 20
103.6653762507194
 10
137.7715626688344
 20
103.7021957081743
 10
137.7429576108059
 20
103.7365928329018
 10
137.7114672853511
 20
103.7683415405142
 10
137.6772854790882
 20
103.7972695762397
 10
137.6406490423283
 20
103.8231831534601
 10
137.6017517616896
 20
103.8458561877875
 10
137.56081972156
 20
103.8650948926038
 10
137.5180682404041
 20
103.8807162472141
 10
137.4737126366866
 20
103.8925156990768
 97
        0
 75
     1
 76
     1
 98
        0
  0
LWPOLYLINE
  5
72
330
1F
100
AcDbEntity
  8
レイヤー_1
  6
Continuous
 62
     7
420
 16777215
370
    50
100
AcDbPolyline
 90
      215
 70
     0
 43
0.0
 10
137.4279682288721
 20
103.9002779297274
 10
127.8722747247876
 20
104.6044231387431
 10
113.8722896852091
 20
104.6044231387431
 10
113.8726449606757
 20
106.35455315125
 10
113.8842506259203
 20
106.5845778670337
 10
113.9183570707206
 20
106.8079707741062
 10
113.973780043521
 20
107.0235799186816
 10
114.0494214201519
 20
107.2302964106671
 10
114.1441507786739
 20
107.4269682962768
 10
114.256816165301
 20
107.6124866854176
 10
114.3863302217869
 20
107.7856996243039
 10
114.5314979306527
 20
107.9454982228425
 10
114.6912426995752
 20
108.0907197613245
 10
114.8644018088453
 20
108.2202553496568
 10
115.04986636837
 20
108.3329745659002
 10
115.2464844243635
 20
108.4277254562686
 10
115.4531363208096
 20
108.5033991306692
 10
115.6686808698457
 20
108.5588436353161
 10
115.8919984154555
 20
108.5929500801164
 10
116.1219585356998
 20
108.6045665112841
 10
116.3720724642351
 20
108.6045665112841
 10
116.3720724642351
 20
109.3044807124695
 10
113.3724063376819
 20
109.3044807124695
 10
101.3723207296021
 20
106.4042917165837
 10
101.8722040771293
 20
103.4046255900305
 10
105.3724641021432
 20
103.4046255900305
 10
105.3724641021432
 20
105.9721367921116
 10
111.2317532258425
 20
107.424524431703
 10
111.2402367733497
 20
107.4270221258929
 10
111.2487203208568
 20
107.4294767563899
 10
111.2572469320569
 20
107.4318775572707
 10
111.2657950751034
 20
107.4342137626122
 10
111.2743970477661
 20
107.436431542798
 10
111.283009786352
 20
107.4385631955981
 10
111.2916871204773
 20
107.4405656573193
 10
111.3004182842188
 20
107.4424389279617
 10
111.3091925116532
 20
107.4441399438325
 10
111.3180205687038
 20
107.4456687049314
 10
111.3269132212938
 20
107.4470036794123
 10
111.3358812353464
 20
107.4481341013517
 10
111.3449138449384
 20
107.4490492048264
 10
111.3540325819162
 20
107.4497166920668
 10
111.3632266803567
 20
107.4501365630729
 10
111.372506906183
 20
107.4502765200749
 10
111.372506906183
 20
107.4502765200749
 10
111.4235912119208
 20
107.4476926984992
 10
111.4731898202525
 20
107.4401242544668
 10
111.5210874127135
 20
107.4278188042121
 10
111.5669933093765
 20
107.4110131980463
 10
111.6107029577001
 20
107.389965818127
 10
111.6519149118337
 20
107.3649458125349
 10
111.6903923214664
 20
107.3361792656578
 10
111.7259091022101
 20
107.3039137937303
 10
111.7581745741376
 20
107.2684293107563
 10
111.7869626528611
 20
107.2299519011237
 10
111.8120149562229
 20
107.1887291810668
 10
111.8330731020655
 20
107.1450302986664
 10
111.8499002400778
 20
107.0990921042337
 10
111.8622272221789
 20
107.0511729799263
 10
111.8698064321345
 20
107.0015313079016
 10
111.8723902537103
 20
106.9503931725477
 10
111.8723902537103
 20
103.4046255900305
 10
115.6220751881726
 20
103.4046255900305
 10
115.6233778648837
 20
103.4301623599377
 10
115.6271567039382
 20
103.4549670470652
 10
115.6333255779504
 20
103.4788889284876
 10
115.6417445299182
 20
103.5018526427423
 10
115.6522951346859
 20
103.5236751691344
 10
115.6648159034052
 20
103.544270380278
 10
115.6792207086902
 20
103.5634983191711
 10
115.6953588276156
 20
103.5812405606581
 10
115.7131118350258
 20
103.5973571477371
 10
115.7323505398421
 20
103.6117296552523
 10
115.7529457509857
 20
103.6242504239716
 10
115.7747682773778
 20
103.6347687309697
 10
115.7976996938629
 20
103.643166151091
 10
115.8216000434388
 20
103.6493242591799
 10
115.8463509009501
 20
103.6531030982345
 10
115.8718338412412
 20
103.6543950090224
 10
115.8718338412412
 20
103.6543950090224
 10
115.8974782703808
 20
103.6531030982345
 10
115.9223906167406
 20
103.6493134932567
 10
115.9463986255489
 20
103.643166151091
 10
115.9694054034965
 20
103.6347687309697
 10
115.9912817595048
 20
103.6242396580484
 10
116.0118985024949
 20
103.6117404211756
 10
116.0311479732344
 20
103.5973571477371
 10
116.0488902147214
 20
103.5812405606581
 10
116.0650068018003
 20
103.5634983191711
 10
116.0793685433924
 20
103.544270380278
 10
116.0918677802652
 20
103.5236751691344
 10
116.10237532134
 20
103.5018418768191
 10
116.1107619755381
 20
103.4788996944109
 10
116.1168985517806
 20
103.454956281142
 10
116.1206773908351
 20
103.4301623599377
 10
116.1219585356998
 20
103.4046255900305
 10
118.6220858242693
 20
103.4046255900305
 10
118.6233885009804
 20
103.4301623599377
 10
118.6271781059582
 20
103.4549670470652
 10
118.6333362140471
 20
103.4788889284876
 10
118.6417659319381
 20
103.5018526427423
 10
118.6523057707826
 20
103.5236751691344
 10
118.6648373054252
 20
103.544270380278
 10
118.6792421107101
 20
103.5634983191711
 10
118.6953802296355
 20
103.5812405606581
 10
118.7131224711225
 20
103.5973571477371
 10
118.7323719418621
 20
103.6117296552523
 10
118.7529563870824
 20
103.6242504239716
 10
118.7747896793978
 20
103.6347687309697
 10
118.7977210958828
 20
103.643166151091
 10
118.8216214454587
 20
103.6493242591799
 10
118.8463830688933
 20
103.6531030982345
 10
118.8718552432612
 20
103.6543950090224
 10
118.8718552432612
 20
103.6543950090224
 10
118.897510438324
 20
103.6531030982345
 10
118.9224120187606
 20
103.6493134932567
 10
118.9464092616456
 20
103.643166151091
 10
118.9694268055165
 20
103.6347687309697
 10
118.991313927448
 20
103.6242396580484
 10
119.0119199045148
 20
103.6117404211756
 10
119.0311693752544
 20
103.5973571477371
 10
119.0489116167413
 20
103.5812405606581
 10
119.065017437897
 20
103.5634983191711
 10
119.0793899454123
 20
103.544270380278
 10
119.0918891822851
 20
103.5236751691344
 10
119.10239672336
 20
103.5018418768191
 10
119.1107726116348
 20
103.4788996944109
 10
119.1169199538005
 20
103.454956281142
 10
119.1206987928551
 20
103.4301623599377
 10
119.1219799377197
 20
103.4046255900305
 10
121.6221179922124
 20
103.4046255900305
 10
121.6234099030003
 20
103.4301623599377
 10
121.6272102739014
 20
103.4549670470652
 10
121.6333791479135
 20
103.4788889284876
 10
121.641787333958
 20
103.5018526427423
 10
121.6523379387258
 20
103.5236751691344
 10
121.6648694733683
 20
103.544270380278
 10
121.6792635127301
 20
103.5634983191711
 10
121.6954016316554
 20
103.5812405606581
 10
121.7131654049889
 20
103.5973571477371
 10
121.732393343882
 20
103.6117296552523
 10
121.7529885550256
 20
103.6242504239716
 10
121.7748110814177
 20
103.6347687309697
 10
121.7977424979027
 20
103.643166151091
 10
121.8216428474787
 20
103.6493242591799
 10
121.84639370499
 20
103.6531030982345
 10
121.8718766452811
 20
103.6543950090224
 10
121.8718766452811
 20
103.6543950090224
 10
121.8975318403439
 20
103.6531030982345
 10
121.9224334207805
 20
103.6493134932567
 10
121.9464414295887
 20
103.643166151091
 10
121.9694374416132
 20
103.6347687309697
 10
121.9913245635447
 20
103.6242396580484
 10
122.0119413065347
 20
103.6117404211756
 10
122.0311907772743
 20
103.5973571477371
 10
122.0489330187613
 20
103.5812405606581
 10
122.0650496058402
 20
103.5634983191711
 10
122.0794221133555
 20
103.544270380278
 10
122.0919105843051
 20
103.5236751691344
 10
122.1024181253799
 20
103.5018418768191
 10
122.1107940136547
 20
103.4788996944109
 10
122.1169413558204
 20
103.454956281142
 10
122.120720194875
 20
103.4301623599377
 10
122.1220013397397
 20
103.4046255900305
 10
124.6221393942324
 20
103.4046255900305
 10
124.6234959005596
 20
103.4301623599377
 10
124.6273285692304
 20
103.4549670470652
 10
124.6335297410123
 20
103.4788889284876
 10
124.6419594589032
 20
103.5018526427423
 10
124.652510063671
 20
103.5236751691344
 10
124.6650415983135
 20
103.544270380278
 10
124.679424871752
 20
103.5634983191711
 10
124.6955522247542
 20
103.5812405606581
 10
124.7132944662412
 20
103.5973571477371
 10
124.732511639211
 20
103.6117296552523
 10
124.7530745525849
 20
103.6242504239716
 10
124.7748755471305
 20
103.6347687309697
 10
124.7977854317691
 20
103.643166151091
 10
124.8216857813451
 20
103.6493242591799
 10
124.8464258729331
 20
103.6531030982345
 10
124.871898047301
 20
103.6543950090224
 10
124.871898047301
 20
103.6543950090224
 10
124.8974994127477
 20
103.6531030982345
 10
124.9223471635681
 20
103.6493134932567
 10
124.9463336405299
 20
103.643166151091
 10
124.9693188866311
 20
103.6347687309697
 10
124.9911952426394
 20
103.6242396580484
 10
125.0118119856294
 20
103.6117404211756
 10
125.0310722222922
 20
103.5973571477371
 10
125.0488144637792
 20
103.5812405606581
 10
125.0649525827046
 20
103.5634983191711
 10
125.0793466220663
 20
103.544270380278
 10
125.0918673907856
 20
103.5236751691344
 10
125.1023856977837
 20
103.5018418768191
 10
125.1107938838282
 20
103.4788996944109
 10
125.1169519919171
 20
103.454956281142
 10
125.1207308309717
 20
103.4301623599377
 10
125.1220227417596
 20
103.4046255900305
 10
137.8724716672918
 20
103.4046255900305
 10
137.8701892915665
 20
103.4518233974813
 10
137.8635144191624
 20
103.497804655607
 10
137.8526516026209
 20
103.5423432800195
 10
137.8378053944834
 20
103.5852562500238
 10
137.8191911132146
 20
103.6263282471555
 10
137.7970240772791
 20
103.6653762507194
 10
137.7715626688344
 20
103.7021957081743
 10
137.7429576108059
 20
103.7365928329018
 10
137.7114672853511
 20
103.7683415405142
 10
137.6772854790882
 20
103.7972695762397
 10
137.6406490423283
 20
103.8231831534601
 10
137.6017517616896
 20
103.8458561877875
 10
137.56081972156
 20
103.8650948926038
 10
137.5180682404041
 20
103.8807162472141
 10
137.4737126366866
 20
103.8925156990768
 10
137.4279682288721
 20
103.9002779297274
  0
LWPOLYLINE
  5
73
330
1F
100
AcDbEntity
  8
レイヤー_1
  6
Continuous
 62
   250
420
  2367521
370
    25
100
AcDbPolyline
 90
      215
 70
     0
 43
0.0
 10
137.4279682288721
 20
103.9002779297274
 10
127.8722747247876
 20
104.6044231387431
 10
113.8722896852091
 20
104.6044231387431
 10
113.8726449606757
 20
106.35455315125
 10
113.8842506259203
 20
106.5845778670337
 10
113.9183570707206
 20
106.8079707741062
 10
113.973780043521
 20
107.0235799186816
 10
114.0494214201519
 20
107.2302964106671
 10
114.1441507786739
 20
107.4269682962768
 10
114.256816165301
 20
107.6124866854176
 10
114.3863302217869
 20
107.7856996243039
 10
114.5314979306527
 20
107.9454982228425
 10
114.6912426995752
 20
108.0907197613245
 10
114.8644018088453
 20
108.2202553496568
 10
115.04986636837
 20
108.3329745659002
 10
115.2464844243635
 20
108.4277254562686
 10
115.4531363208096
 20
108.5033991306692
 10
115.6686808698457
 20
108.5588436353161
 10
115.8919984154555
 20
108.5929500801164
 10
116.1219585356998
 20
108.6045665112841
 10
116.3720724642351
 20
108.6045665112841
 10
116.3720724642351
 20
109.3044807124695
 10
113.3724063376819
 20
109.3044807124695
 10
101.3723207296021
 20
106.4042917165837
 10
101.8722040771293
 20
103.4046255900305
 10
105.3724641021432
 20
103.4046255900305
 10
105.3724641021432
 20
105.9721367921116
 10
111.2317532258425
 20
107.424524431703
 10
111.2402367733497
 20
107.4270221258929
 10
111.2487203208568
 20
107.4294767563899
 10
111.2572469320569
 20
107.4318775572707
 10
111.2657950751034
 20
107.4342137626122
 10
111.2743970477661
 20
107.436431542798
 10
111.283009786352
 20
107.4385631955981
 10
111.2916871204773
 20
107.4405656573193
 10
111.3004182842188
 20
107.4424389279617
 10
111.3091925116532
 20
107.4441399438325
 10
111.3180205687038
 20
107.4456687049314
 10
111.3269132212938
 20
107.4470036794123
 10
111.3358812353464
 20
107.4481341013517
 10
111.3449138449384
 20
107.4490492048264
 10
111.3540325819162
 20
107.4497166920668
 10
111.3632266803567
 20
107.4501365630729
 10
111.372506906183
 20
107.4502765200749
 10
111.372506906183
 20
107.4502765200749
 10
111.4235912119208
 20
107.4476926984992
 10
111.4731898202525
 20
107.4401242544668
 10
111.5210874127135
 20
107.4278188042121
 10
111.5669933093765
 20
107.4110131980463
 10
111.6107029577001
 20
107.389965818127
 10
111.6519149118337
 20
107.3649458125349
 10
111.6903923214664
 20
107.3361792656578
 10
111.7259091022101
 20
107.3039137937303
 10
111.7581745741376
 20
107.2684293107563
 10
111.7869626528611
 20
107.2299519011237
 10
111.8120149562229
 20
107.1887291810668
 10
111.8330731020655
 20
107.1450302986664
 10
111.8499002400778
 20
107.0990921042337
 10
111.8622272221789
 20
107.0511729799263
 10
111.8698064321345
 20
107.0015313079016
 10
111.8723902537103
 20
106.9503931725477
 10
111.8723902537103
 20
103.4046255900305
 10
115.6220751881726
 20
103.4046255900305
 10
115.6233778648837
 20
103.4301623599377
 10
115.6271567039382
 20
103.4549670470652
 10
115.6333255779504
 20
103.4788889284876
 10
115.6417445299182
 20
103.5018526427423
 10
115.6522951346859
 20
103.5236751691344
 10
115.6648159034052
 20
103.544270380278
 10
115.6792207086902
 20
103.5634983191711
 10
115.6953588276156
 20
103.5812405606581
 10
115.7131118350258
 20
103.5973571477371
 10
115.7323505398421
 20
103.6117296552523
 10
115.7529457509857
 20
103.6242504239716
 10
115.7747682773778
 20
103.6347687309697
 10
115.7976996938629
 20
103.643166151091
 10
115.8216000434388
 20
103.6493242591799
 10
115.8463509009501
 20
103.6531030982345
 10
115.8718338412412
 20
103.6543950090224
 10
115.8718338412412
 20
103.6543950090224
 10
115.8974782703808
 20
103.6531030982345
 10
115.9223906167406
 20
103.6493134932567
 10
115.9463986255489
 20
103.643166151091
 10
115.9694054034965
 20
103.6347687309697
 10
115.9912817595048
 20
103.6242396580484
 10
116.0118985024949
 20
103.6117404211756
 10
116.0311479732344
 20
103.5973571477371
 10
116.0488902147214
 20
103.5812405606581
 10
116.0650068018003
 20
103.5634983191711
 10
116.0793685433924
 20
103.544270380278
 10
116.0918677802652
 20
103.5236751691344
 10
116.10237532134
 20
103.5018418768191
 10
116.1107619755381
 20
103.4788996944109
 10
116.1168985517806
 20
103.454956281142
 10
116.1206773908351
 20
103.4301623599377
 10
116.1219585356998
 20
103.4046255900305
 10
118.6220858242693
 20
103.4046255900305
 10
118.6233885009804
 20
103.4301623599377
 10
118.6271781059582
 20
103.4549670470652
 10
118.6333362140471
 20
103.4788889284876
 10
118.6417659319381
 20
103.5018526427423
 10
118.6523057707826
 20
103.5236751691344
 10
118.6648373054252
 20
103.544270380278
 10
118.6792421107101
 20
103.5634983191711
 10
118.6953802296355
 20
103.5812405606581
 10
118.7131224711225
 20
103.5973571477371
 10
118.7323719418621
 20
103.6117296552523
 10
118.7529563870824
 20
103.6242504239716
 10
118.7747896793978
 20
103.6347687309697
 10
118.7977210958828
 20
103.643166151091
 10
118.8216214454587
 20
103.6493242591799
 10
118.8463830688933
 20
103.6531030982345
 10
118.8718552432612
 20
103.6543950090224
 10
118.8718552432612
 20
103.6543950090224
 10
118.897510438324
 20
103.6531030982345
 10
118.9224120187606
 20
103.6493134932567
 10
118.9464092616456
 20
103.643166151091
 10
118.9694268055165
 20
103.6347687309697
 10
118.991313927448
 20
103.6242396580484
 10
119.0119199045148
 20
103.6117404211756
 10
119.0311693752544
 20
103.5973571477371
 10
119.0489116167413
 20
103.5812405606581
 10
119.065017437897
 20
103.5634983191711
 10
119.0793899454123
 20
103.544270380278
 10
119.0918891822851
 20
103.5236751691344
 10
119.10239672336
 20
103.5018418768191
 10
119.1107726116348
 20
103.4788996944109
 10
119.1169199538005
 20
103.454956281142
 10
119.1206987928551
 20
103.4301623599377
 10
119.1219799377197
 20
103.4046255900305
 10
121.6221179922124
 20
103.4046255900305
 10
121.6234099030003
 20
103.4301623599377
 10
121.6272102739014
 20
103.4549670470652
 10
121.6333791479135
 20
103.4788889284876
 10
121.641787333958
 20
103.5018526427423
 10
121.6523379387258
 20
103.5236751691344
 10
121.6648694733683
 20
103.544270380278
 10
121.6792635127301
 20
103.5634983191711
 10
121.6954016316554
 20
103.5812405606581
 10
121.7131654049889
 20
103.5973571477371
 10
121.732393343882
 20
103.6117296552523
 10
121.7529885550256
 20
103.6242504239716
 10
121.7748110814177
 20
103.6347687309697
 10
121.7977424979027
 20
103.643166151091
 10
121.8216428474787
 20
103.6493242591799
 10
121.84639370499
 20
103.6531030982345
 10
121.8718766452811
 20
103.6543950090224
 10
121.8718766452811
 20
103.6543950090224
 10
121.8975318403439
 20
103.6531030982345
 10
121.9224334207805
 20
103.6493134932567
 10
121.9464414295887
 20
103.643166151091
 10
121.9694374416132
 20
103.6347687309697
 10
121.9913245635447
 20
103.6242396580484
 10
122.0119413065347
 20
103.6117404211756
 10
122.0311907772743
 20
103.5973571477371
 10
122.0489330187613
 20
103.5812405606581
 10
122.0650496058402
 20
103.5634983191711
 10
122.0794221133555
 20
103.544270380278
 10
122.0919105843051
 20
103.5236751691344
 10
122.1024181253799
 20
103.5018418768191
 10
122.1107940136547
 20
103.4788996944109
 10
122.1169413558204
 20
103.454956281142
 10
122.120720194875
 20
103.4301623599377
 10
122.1220013397397
 20
103.4046255900305
 10
124.6221393942324
 20
103.4046255900305
 10
124.6234959005596
 20
103.4301623599377
 10
124.6273285692304
 20
103.4549670470652
 10
124.6335297410123
 20
103.4788889284876
 10
124.6419594589032
 20
103.5018526427423
 10
124.652510063671
 20
103.5236751691344
 10
124.6650415983135
 20
103.544270380278
 10
124.679424871752
 20
103.5634983191711
 10
124.6955522247542
 20
103.5812405606581
 10
124.7132944662412
 20
103.5973571477371
 10
124.732511639211
 20
103.6117296552523
 10
124.7530745525849
 20
103.6242504239716
 10
124.7748755471305
 20
103.6347687309697
 10
124.7977854317691
 20
103.643166151091
 10
124.8216857813451
 20
103.6493242591799
 10
124.8464258729331
 20
103.6531030982345
 10
124.871898047301
 20
103.6543950090224
 10
124.871898047301
 20
103.6543950090224
 10
124.8974994127477
 20
103.6531030982345
 10
124.9223471635681
 20
103.6493134932567
 10
124.9463336405299
 20
103.643166151091
 10
124.9693188866311
 20
103.6347687309697
 10
124.9911952426394
 20
103.6242396580484
 10
125.0118119856294
 20
103.6117404211756
 10
125.0310722222922
 20
103.5973571477371
 10
125.0488144637792
 20
103.5812405606581
 10
125.0649525827046
 20
103.5634983191711
 10
125.0793466220663
 20
103.544270380278
 10
125.0918673907856
 20
103.5236751691344
 10
125.1023856977837
 20
103.5018418768191
 10
125.1107938838282
 20
103.4788996944109
 10
125.1169519919171
 20
103.454956281142
 10
125.1207308309717
 20
103.4301623599377
 10
125.1220227417596
 20
103.4046255900305
 10
137.8724716672918
 20
103.4046255900305
 10
137.8701892915665
 20
103.4518233974813
 10
137.8635144191624
 20
103.497804655607
 10
137.8526516026209
 20
103.5423432800195
 10
137.8378053944834
 20
103.5852562500238
 10
137.8191911132146
 20
103.6263282471555
 10
137.7970240772791
 20
103.6653762507194
 10
137.7715626688344
 20
103.7021957081743
 10
137.7429576108059
 20
103.7365928329018
 10
137.7114672853511
 20
103.7683415405142
 10
137.6772854790882
 20
103.7972695762397
 10
137.6406490423283
 20
103.8231831534601
 10
137.6017517616896
 20
103.8458561877875
 10
137.56081972156
 20
103.8650948926038
 10
137.5180682404041
 20
103.8807162472141
 10
137.4737126366866
 20
103.8925156990768
 10
137.4279682288721
 20
103.9002779297274
  0
LINE
  5
74
330
1F
100
AcDbEntity
  8
レイヤー_1
  6
Continuous
 62
   250
420
  2367521
370
    13
100
AcDbLine
 10
101.3722668999859
 20
110.104550297486
 30
0.0
 11
101.3722668999859
 21
115.1097571993119
 31
0.0
  0
LINE
  5
75
330
1F
100
AcDbEntity
  8
レイヤー_1
  6
Continuous
 62
   250
420
  2367521
370
    13
100
AcDbLine
 10
116.3722124212371
 20
114.6024561306775
 30
0.0
 11
101.6222193396728
 21
114.6024561306775
 31
0.0
  0
LINE
  5
76
330
1F
100
AcDbEntity
  8
レイヤー_1
  6
Continuous
 62
   250
420
  2367521
370
    13
100
AcDbLine
 10
116.3722124212371
 20
115.1095849445402
 30
0.0
 11
116.3722124212371
 21
110.1043780427143
 31
0.0
  0
LINE
  5
77
330
1F
100
AcDbEntity
  8
レイヤー_1
  6
Continuous
 62
   250
420
  2367521
370
    13
100
AcDbLine
 10
101.3722668999859
 20
102.4044390239699
 30
0.0
 11
101.3722668999859
 21
92.46034330742987
 31
0.0
  0
LINE
  5
78
330
1F
100
AcDbEntity
  8
レイヤー_1
  6
Continuous
 62
   250
420
  2367521
370
    13
100
AcDbLine
 10
137.8723640080595
 20
92.967633610141
 30
0.0
 11
101.6223269989051
 21
92.967633610141
 31
0.0
  0
LINE
  5
79
330
1F
100
AcDbEntity
  8
レイヤー_1
  6
Continuous
 62
   250
420
  2367521
370
    13
100
AcDbLine
 10
137.8723640080595
 20
102.4044390239699
 30
0.0
 11
137.8723640080595
 21
92.46034330742987
 31
0.0
  0
LINE
  5
7A
330
1F
100
AcDbEntity
  8
レイヤー_1
  6
Continuous
 62
   250
420
  2367521
370
    13
100
AcDbLine
 10
138.8721307031139
 20
108.6045665112841
 30
0.0
 11
143.8773376049398
 21
108.6045665112841
 31
0.0
  0
LINE
  5
7B
330
1F
100
AcDbEntity
  8
レイヤー_1
  6
Continuous
 62
   250
420
  2367521
370
    13
100
AcDbLine
 10
138.8721307031139
 20
104.6044769683592
 30
0.0
 11
143.8773376049398
 21
104.6044769683592
 31
0.0
  0
LINE
  5
7C
330
1F
100
AcDbEntity
  8
レイヤー_1
  6
Continuous
 62
   250
420
  2367521
370
    13
100
AcDbLine
 10
138.8721307031139
 20
109.1044713906578
 30
0.0
 11
148.8821999972222
 21
109.1044713906578
 31
0.0
  0
LINE
  5
7D
330
1F
100
AcDbEntity
  8
レイヤー_1
  6
Continuous
 62
   250
420
  2367521
370
    13
100
AcDbLine
 10
148.3750819492828
 20
103.4045394626446
 30
0.0
 11
148.3750819492828
 21
110.0067741826893
 31
0.0
  0
LINE
  5
7E
330
1F
100
AcDbEntity
  8
レイヤー_1
  6
Continuous
 62
   250
420
  2367521
370
    13
100
AcDbLine
 10
138.8721307031139
 20
103.4045394626446
 30
0.0
 11
148.8821999972222
 21
103.4045394626446
 31
0.0
  0
HATCH
  5
7F
330
1F
100
AcDbEntity
  8
レイヤー_1
  6
Continuous
 62
   250
420
  2367521
370
    13
100
AcDbHatch
 10
0.0
 20
0.0
 30
0.0
210
0.0
220
0.0
230
1.0
  2
SOLID
 70
     1
 71
     0
 91
        1
 92
        3
 72
     0
 73
     1
 93
       67
 10
101.3722668999859
 20
114.3525252228371
 10
101.39779290397
 20
114.353817133625
 10
101.4225975910975
 20
114.3575959726796
 10
101.4465302384431
 20
114.3637540807686
 10
101.4694831867746
 20
114.3721622668131
 10
101.4913057131667
 20
114.3826698078879
 10
101.5119116902335
 20
114.3951905766072
 10
101.5311396291266
 20
114.4095523181992
 10
101.5488711046904
 20
114.4256796712014
 10
101.5649984576925
 20
114.4434111467651
 10
101.579381731131
 20
114.4626498515815
 10
101.5918917339271
 20
114.4832342968018
 10
101.6024100409252
 20
114.5050675891172
 10
101.6108074610464
 20
114.5280205374487
 10
101.6169655691354
 20
114.5519531847943
 10
101.6207444081899
 20
114.5767578719218
 10
101.6220363189778
 20
114.6022946418291
 10
101.6220363189778
 20
114.6022946418291
 10
101.6207444081899
 20
114.6278960072757
 10
101.6169655691354
 20
114.6527437580961
 10
101.6108074610464
 20
114.6767302350579
 10
101.6023992750019
 20
114.6997262470824
 10
101.5918809680039
 20
114.7215810712441
 10
101.579381731131
 20
114.7422085801575
 10
101.5649984576925
 20
114.761458050897
 10
101.5488711046904
 20
114.7792110583072
 10
101.5311396291266
 20
114.7953384113094
 10
101.5119116902335
 20
114.8097324506711
 10
101.4913164790899
 20
114.8222532193904
 10
101.4694831867746
 20
114.8327715263885
 10
101.4465410043663
 20
114.841179712433
 10
101.4225975910975
 20
114.8473378205219
 10
101.3978036698932
 20
114.8511166595765
 10
101.3722668999859
 20
114.8524085703644
 10
101.3722668999859
 20
114.8524085703644
 10
101.3466763004625
 20
114.8511274254997
 10
101.3218285496421
 20
114.8473378205219
 10
101.2978636045268
 20
114.841179712433
 10
101.274899890272
 20
114.8327822923117
 10
101.2530558320335
 20
114.8222532193904
 10
101.2324606208899
 20
114.8097432165944
 10
101.2132542138433
 20
114.7953384113094
 10
101.1955227382795
 20
114.7792110583072
 10
101.1794169171238
 20
114.7614472849738
 10
101.165065941455
 20
114.7422085801575
 10
101.1525774705054
 20
114.7215810712441
 10
101.1420806953538
 20
114.6997154811591
 10
101.1336940411557
 20
114.6767302350579
 10
101.1275574649133
 20
114.6527437580961
 10
101.1237786258587
 20
114.6278960072757
 10
101.122497480994
 20
114.6022946418291
 10
101.122497480994
 20
114.6022946418291
 10
101.1237786258587
 20
114.5767578719218
 10
101.1275682308365
 20
114.5519639507175
 10
101.133704807079
 20
114.5280205374487
 10
101.1420699294306
 20
114.5050675891172
 10
101.1525667045822
 20
114.4832450627251
 10
101.165065941455
 20
114.4626390856582
 10
101.179427683047
 20
114.4434219126884
 10
101.1955227382795
 20
114.4256796712014
 10
101.21324344792
 20
114.4095523181992
 10
101.2324713868131
 20
114.395179810684
 10
101.2530558320335
 20
114.3826698078879
 10
101.274899890272
 20
114.3721515008898
 10
101.2978636045268
 20
114.3637540807686
 10
101.3218285496421
 20
114.3575959726796
 10
101.3466763004625
 20
114.353817133625
 97
        0
 75
     1
 76
     1
 98
        0
  0
LWPOLYLINE
  5
80
330
1F
100
AcDbEntity
  8
レイヤー_1
  6
Continuous
 62
   250
420
  2367521
370
    13
100
AcDbPolyline
 90
       68
 70
     0
 43
0.0
 10
101.3722668999859
 20
114.3525252228371
 10
101.39779290397
 20
114.353817133625
 10
101.4225975910975
 20
114.3575959726796
 10
101.4465302384431
 20
114.3637540807686
 10
101.4694831867746
 20
114.3721622668131
 10
101.4913057131667
 20
114.3826698078879
 10
101.5119116902335
 20
114.3951905766072
 10
101.5311396291266
 20
114.4095523181992
 10
101.5488711046904
 20
114.4256796712014
 10
101.5649984576925
 20
114.4434111467651
 10
101.579381731131
 20
114.4626498515815
 10
101.5918917339271
 20
114.4832342968018
 10
101.6024100409252
 20
114.5050675891172
 10
101.6108074610464
 20
114.5280205374487
 10
101.6169655691354
 20
114.5519531847943
 10
101.6207444081899
 20
114.5767578719218
 10
101.6220363189778
 20
114.6022946418291
 10
101.6220363189778
 20
114.6022946418291
 10
101.6207444081899
 20
114.6278960072757
 10
101.6169655691354
 20
114.6527437580961
 10
101.6108074610464
 20
114.6767302350579
 10
101.6023992750019
 20
114.6997262470824
 10
101.5918809680039
 20
114.7215810712441
 10
101.579381731131
 20
114.7422085801575
 10
101.5649984576925
 20
114.761458050897
 10
101.5488711046904
 20
114.7792110583072
 10
101.5311396291266
 20
114.7953384113094
 10
101.5119116902335
 20
114.8097324506711
 10
101.4913164790899
 20
114.8222532193904
 10
101.4694831867746
 20
114.8327715263885
 10
101.4465410043663
 20
114.841179712433
 10
101.4225975910975
 20
114.8473378205219
 10
101.3978036698932
 20
114.8511166595765
 10
101.3722668999859
 20
114.8524085703644
 10
101.3722668999859
 20
114.8524085703644
 10
101.3466763004625
 20
114.8511274254997
 10
101.3218285496421
 20
114.8473378205219
 10
101.2978636045268
 20
114.841179712433
 10
101.274899890272
 20
114.8327822923117
 10
101.2530558320335
 20
114.8222532193904
 10
101.2324606208899
 20
114.8097432165944
 10
101.2132542138433
 20
114.7953384113094
 10
101.1955227382795
 20
114.7792110583072
 10
101.1794169171238
 20
114.7614472849738
 10
101.165065941455
 20
114.7422085801575
 10
101.1525774705054
 20
114.7215810712441
 10
101.1420806953538
 20
114.6997154811591
 10
101.1336940411557
 20
114.6767302350579
 10
101.1275574649133
 20
114.6527437580961
 10
101.1237786258587
 20
114.6278960072757
 10
101.122497480994
 20
114.6022946418291
 10
101.122497480994
 20
114.6022946418291
 10
101.1237786258587
 20
114.5767578719218
 10
101.1275682308365
 20
114.5519639507175
 10
101.133704807079
 20
114.5280205374487
 10
101.1420699294306
 20
114.5050675891172
 10
101.1525667045822
 20
114.4832450627251
 10
101.165065941455
 20
114.4626390856582
 10
101.179427683047
 20
114.4434219126884
 10
101.1955227382795
 20
114.4256796712014
 10
101.21324344792
 20
114.4095523181992
 10
101.2324713868131
 20
114.395179810684
 10
101.2530558320335
 20
114.3826698078879
 10
101.274899890272
 20
114.3721515008898
 10
101.2978636045268
 20
114.3637540807686
 10
101.3218285496421
 20
114.3575959726796
 10
101.3466763004625
 20
114.353817133625
 10
101.3722668999859
 20
114.3525252228371
  0
HATCH
  5
81
330
1F
100
AcDbEntity
  8
レイヤー_1
  6
Continuous
 62
   250
420
  2367521
370
    13
100
AcDbHatch
 10
0.0
 20
0.0
 30
0.0
210
0.0
220
0.0
230
1.0
  2
SOLID
 70
     1
 71
     0
 91
        1
 92
        3
 72
     0
 73
     1
 93
       67
 10
143.3700473022287
 20
104.3543415079775
 10
143.3955840721359
 20
104.3556334187654
 10
143.4203995251866
 20
104.3594122578199
 10
143.4443429384555
 20
104.3655811318321
 10
143.4673174186335
 20
104.3739677860301
 10
143.4891722427953
 20
104.3845076248747
 10
143.5097997517086
 20
104.3970176276707
 10
143.5290599883713
 20
104.4114116670325
 10
143.5468345276281
 20
104.4275390200346
 10
143.5629941783999
 20
104.4452920274449
 10
143.5773989836849
 20
104.4645522641076
 10
143.5899412842506
 20
104.4851690070977
 10
143.6004918890184
 20
104.5070345971827
 10
143.6089108409861
 20
104.5300306092071
 10
143.6150797149983
 20
104.5540063202457
 10
143.6188800858993
 20
104.5788648369893
 10
143.6201719966872
 20
104.604466202436
 10
143.6201719966872
 20
104.604466202436
 10
143.6188693199761
 20
104.6300029723433
 10
143.6150904809215
 20
104.6547968935475
 10
143.6089108409861
 20
104.6787510727396
 10
143.6004811230952
 20
104.7016824892247
 10
143.5899412842506
 20
104.72351578154
 10
143.5774097496081
 20
104.7441002267604
 10
143.5629941783999
 20
104.7633281656534
 10
143.5468345276281
 20
104.7810704071405
 10
143.5290707542946
 20
104.7971869942194
 10
143.5097997517086
 20
104.8115702676579
 10
143.4891722427953
 20
104.8240802704539
 10
143.4673174186335
 20
104.834598577452
 10
143.4443537043788
 20
104.8429959975733
 10
143.4203995251866
 20
104.8491541056622
 10
143.3955840721359
 20
104.8529329447168
 10
143.3700473022287
 20
104.8542248555047
 10
143.3700473022287
 20
104.8542248555047
 10
143.3445105323214
 20
104.8529329447168
 10
143.3196950792707
 20
104.8491541056622
 10
143.2957516660018
 20
104.8430067634965
 10
143.2727664199006
 20
104.834598577452
 10
143.2509115957388
 20
104.8240802704539
 10
143.2302948527488
 20
104.8115702676579
 10
143.211034616086
 20
104.7971977601426
 10
143.1932600768293
 20
104.7810704071405
 10
143.1771111919807
 20
104.7633389315767
 10
143.1626956207725
 20
104.7441109926836
 10
143.1501533202067
 20
104.72351578154
 10
143.1396134813622
 20
104.7016824892247
 10
143.1311837634712
 20
104.6787295408932
 10
143.125014889459
 20
104.6547968935475
 10
143.121214518558
 20
104.6300029723433
 10
143.1199226077701
 20
104.604466202436
 10
143.1199226077701
 20
104.604466202436
 10
143.1212037526348
 20
104.5788648369893
 10
143.1250256553823
 20
104.5540063202457
 10
143.1311837634712
 20
104.5300306092071
 10
143.1396027154389
 20
104.5070345971827
 10
143.1501425542835
 20
104.4851797730209
 10
143.1626956207725
 20
104.4645522641076
 10
143.1771111919807
 20
104.4452920274449
 10
143.1932600768293
 20
104.4275497859578
 10
143.211034616086
 20
104.4114009011092
 10
143.2302840868255
 20
104.3970176276707
 10
143.2509115957388
 20
104.3844968589514
 10
143.2727771858238
 20
104.3739785519534
 10
143.2957409000786
 20
104.3655703659089
 10
143.3197058451939
 20
104.3594122578199
 10
143.3445105323214
 20
104.3556334187654
 97
        0
 75
     1
 76
     1
 98
        0
  0
LWPOLYLINE
  5
82
330
1F
100
AcDbEntity
  8
レイヤー_1
  6
Continuous
 62
   250
420
  2367521
370
    13
100
AcDbPolyline
 90
       68
 70
     0
 43
0.0
 10
143.3700473022287
 20
104.3543415079775
 10
143.3955840721359
 20
104.3556334187654
 10
143.4203995251866
 20
104.3594122578199
 10
143.4443429384555
 20
104.3655811318321
 10
143.4673174186335
 20
104.3739677860301
 10
143.4891722427953
 20
104.3845076248747
 10
143.5097997517086
 20
104.3970176276707
 10
143.5290599883713
 20
104.4114116670325
 10
143.5468345276281
 20
104.4275390200346
 10
143.5629941783999
 20
104.4452920274449
 10
143.5773989836849
 20
104.4645522641076
 10
143.5899412842506
 20
104.4851690070977
 10
143.6004918890184
 20
104.5070345971827
 10
143.6089108409861
 20
104.5300306092071
 10
143.6150797149983
 20
104.5540063202457
 10
143.6188800858993
 20
104.5788648369893
 10
143.6201719966872
 20
104.604466202436
 10
143.6201719966872
 20
104.604466202436
 10
143.6188693199761
 20
104.6300029723433
 10
143.6150904809215
 20
104.6547968935475
 10
143.6089108409861
 20
104.6787510727396
 10
143.6004811230952
 20
104.7016824892247
 10
143.5899412842506
 20
104.72351578154
 10
143.5774097496081
 20
104.7441002267604
 10
143.5629941783999
 20
104.7633281656534
 10
143.5468345276281
 20
104.7810704071405
 10
143.5290707542946
 20
104.7971869942194
 10
143.5097997517086
 20
104.8115702676579
 10
143.4891722427953
 20
104.8240802704539
 10
143.4673174186335
 20
104.834598577452
 10
143.4443537043788
 20
104.8429959975733
 10
143.4203995251866
 20
104.8491541056622
 10
143.3955840721359
 20
104.8529329447168
 10
143.3700473022287
 20
104.8542248555047
 10
143.3700473022287
 20
104.8542248555047
 10
143.3445105323214
 20
104.8529329447168
 10
143.3196950792707
 20
104.8491541056622
 10
143.2957516660018
 20
104.8430067634965
 10
143.2727664199006
 20
104.834598577452
 10
143.2509115957388
 20
104.8240802704539
 10
143.2302948527488
 20
104.8115702676579
 10
143.211034616086
 20
104.7971977601426
 10
143.1932600768293
 20
104.7810704071405
 10
143.1771111919807
 20
104.7633389315767
 10
143.1626956207725
 20
104.7441109926836
 10
143.1501533202067
 20
104.72351578154
 10
143.1396134813622
 20
104.7016824892247
 10
143.1311837634712
 20
104.6787295408932
 10
143.125014889459
 20
104.6547968935475
 10
143.121214518558
 20
104.6300029723433
 10
143.1199226077701
 20
104.604466202436
 10
143.1199226077701
 20
104.604466202436
 10
143.1212037526348
 20
104.5788648369893
 10
143.1250256553823
 20
104.5540063202457
 10
143.1311837634712
 20
104.5300306092071
 10
143.1396027154389
 20
104.5070345971827
 10
143.1501425542835
 20
104.4851797730209
 10
143.1626956207725
 20
104.4645522641076
 10
143.1771111919807
 20
104.4452920274449
 10
143.1932600768293
 20
104.4275497859578
 10
143.211034616086
 20
104.4114009011092
 10
143.2302840868255
 20
104.3970176276707
 10
143.2509115957388
 20
104.3844968589514
 10
143.2727771858238
 20
104.3739785519534
 10
143.2957409000786
 20
104.3655703659089
 10
143.3197058451939
 20
104.3594122578199
 10
143.3445105323214
 20
104.3556334187654
 10
143.3700473022287
 20
104.3543415079775
  0
HATCH
  5
83
330
1F
100
AcDbEntity
  8
レイヤー_1
  6
Continuous
 62
   250
420
  2367521
370
    13
100
AcDbHatch
 10
0.0
 20
0.0
 30
0.0
210
0.0
220
0.0
230
1.0
  2
SOLID
 70
     1
 71
     0
 91
        1
 92
        3
 72
     0
 73
     1
 93
       67
 10
101.3722668999859
 20
92.71786419114909
 10
101.39779290397
 20
92.71914533601375
 10
101.4225975910975
 20
92.72293494099156
 10
101.4465302384431
 20
92.72909304908049
 10
101.4694831867746
 20
92.73750123512501
 10
101.4913057131667
 20
92.74800877619984
 10
101.5119116902335
 20
92.7605187789959
 10
101.5311396291266
 20
92.7749020524344
 10
101.5488711046904
 20
92.79101863951331
 10
101.5649984576925
 20
92.80876088100032
 10
101.579381731131
 20
92.82797805397018
 10
101.5918917339271
 20
92.848584031037
 10
101.6024100409252
 20
92.8704065574291
 10
101.6108074610464
 20
92.8933595057606
 10
101.6169655691354
 20
92.91729215310625
 10
101.6207444081899
 20
92.94209684023372
 10
101.6220363189778
 20
92.967633610141
 10
101.6220363189778
 20
92.967633610141
 10
101.6207444081899
 20
92.99322420966442
 10
101.6169655691354
 20
93.01808272640807
 10
101.6108074610464
 20
93.04206920336986
 10
101.6023992750019
 20
93.0650652153943
 10
101.5918809680039
 20
93.08692003955608
 10
101.579381731131
 20
93.10753678254615
 10
101.5649984576925
 20
93.12679701920894
 10
101.5488711046904
 20
93.14455002661917
 10
101.5311396291266
 20
93.16068814554455
 10
101.5119116902335
 20
93.17507141898305
 10
101.4913164790899
 20
93.18759218770234
 10
101.4694831867746
 20
93.19811049470042
 10
101.4465410043663
 20
93.20651868074492
 10
101.4225975910975
 20
93.21267678883386
 10
101.3978036698932
 20
93.21645562788844
 10
101.3722668999859
 20
93.21774753867632
 10
101.3722668999859
 20
93.21774753867632
 10
101.3466763004625
 20
93.21645562788844
 10
101.3218285496421
 20
93.21267678883386
 10
101.2978636045268
 20
93.20651868074492
 10
101.274899890272
 20
93.19812126062365
 10
101.2530558320335
 20
93.18759218770234
 10
101.2324606208899
 20
93.17507141898305
 10
101.2132542138433
 20
93.16067737962132
 10
101.1955227382795
 20
93.14455002661917
 10
101.1794169171238
 20
93.12679701920894
 10
101.165065941455
 20
93.10753678254615
 10
101.1525774705054
 20
93.08692003955608
 10
101.1420806953538
 20
93.06505444947106
 10
101.1336940411557
 20
93.04206920336986
 10
101.1275574649133
 20
93.01808272640807
 10
101.1237786258587
 20
92.99323497558765
 10
101.122497480994
 20
92.967633610141
 10
101.122497480994
 20
92.967633610141
 10
101.1237786258587
 20
92.94209684023372
 10
101.1275682308365
 20
92.91730291902948
 10
101.133704807079
 20
92.89337027168384
 10
101.1420699294306
 20
92.87041732335234
 10
101.1525667045822
 20
92.84857326511377
 10
101.165065941455
 20
92.82797805397018
 10
101.179427683047
 20
92.80875011507709
 10
101.1955227382795
 20
92.79101863951331
 10
101.21324344792
 20
92.7749020524344
 10
101.2324713868131
 20
92.7605187789959
 10
101.2530558320335
 20
92.74800877619984
 10
101.274899890272
 20
92.73749046920179
 10
101.2978636045268
 20
92.72909304908049
 10
101.3218285496421
 20
92.72293494099156
 10
101.3466763004625
 20
92.71915610193699
 97
        0
 75
     1
 76
     1
 98
        0
  0
LWPOLYLINE
  5
84
330
1F
100
AcDbEntity
  8
レイヤー_1
  6
Continuous
 62
   250
420
  2367521
370
    13
100
AcDbPolyline
 90
       68
 70
     0
 43
0.0
 10
101.3722668999859
 20
92.71786419114909
 10
101.39779290397
 20
92.71914533601375
 10
101.4225975910975
 20
92.72293494099156
 10
101.4465302384431
 20
92.72909304908049
 10
101.4694831867746
 20
92.73750123512501
 10
101.4913057131667
 20
92.74800877619984
 10
101.5119116902335
 20
92.7605187789959
 10
101.5311396291266
 20
92.7749020524344
 10
101.5488711046904
 20
92.79101863951331
 10
101.5649984576925
 20
92.80876088100032
 10
101.579381731131
 20
92.82797805397018
 10
101.5918917339271
 20
92.848584031037
 10
101.6024100409252
 20
92.8704065574291
 10
101.6108074610464
 20
92.8933595057606
 10
101.6169655691354
 20
92.91729215310625
 10
101.6207444081899
 20
92.94209684023372
 10
101.6220363189778
 20
92.967633610141
 10
101.6220363189778
 20
92.967633610141
 10
101.6207444081899
 20
92.99322420966442
 10
101.6169655691354
 20
93.01808272640807
 10
101.6108074610464
 20
93.04206920336986
 10
101.6023992750019
 20
93.0650652153943
 10
101.5918809680039
 20
93.08692003955608
 10
101.579381731131
 20
93.10753678254615
 10
101.5649984576925
 20
93.12679701920894
 10
101.5488711046904
 20
93.14455002661917
 10
101.5311396291266
 20
93.16068814554455
 10
101.5119116902335
 20
93.17507141898305
 10
101.4913164790899
 20
93.18759218770234
 10
101.4694831867746
 20
93.19811049470042
 10
101.4465410043663
 20
93.20651868074492
 10
101.4225975910975
 20
93.21267678883386
 10
101.3978036698932
 20
93.21645562788844
 10
101.3722668999859
 20
93.21774753867632
 10
101.3722668999859
 20
93.21774753867632
 10
101.3466763004625
 20
93.21645562788844
 10
101.3218285496421
 20
93.21267678883386
 10
101.2978636045268
 20
93.20651868074492
 10
101.274899890272
 20
93.19812126062365
 10
101.2530558320335
 20
93.18759218770234
 10
101.2324606208899
 20
93.17507141898305
 10
101.2132542138433
 20
93.16067737962132
 10
101.1955227382795
 20
93.14455002661917
 10
101.1794169171238
 20
93.12679701920894
 10
101.165065941455
 20
93.10753678254615
 10
101.1525774705054
 20
93.08692003955608
 10
101.1420806953538
 20
93.06505444947106
 10
101.1336940411557
 20
93.04206920336986
 10
101.1275574649133
 20
93.01808272640807
 10
101.1237786258587
 20
92.99323497558765
 10
101.122497480994
 20
92.967633610141
 10
101.122497480994
 20
92.967633610141
 10
101.1237786258587
 20
92.94209684023372
 10
101.1275682308365
 20
92.91730291902948
 10
101.133704807079
 20
92.89337027168384
 10
101.1420699294306
 20
92.87041732335234
 10
101.1525667045822
 20
92.84857326511377
 10
101.165065941455
 20
92.82797805397018
 10
101.179427683047
 20
92.80875011507709
 10
101.1955227382795
 20
92.79101863951331
 10
101.21324344792
 20
92.7749020524344
 10
101.2324713868131
 20
92.7605187789959
 10
101.2530558320335
 20
92.74800877619984
 10
101.274899890272
 20
92.73749046920179
 10
101.2978636045268
 20
92.72909304908049
 10
101.3218285496421
 20
92.72293494099156
 10
101.3466763004625
 20
92.71915610193699
 10
101.3722668999859
 20
92.71786419114909
  0
HATCH
  5
85
330
1F
100
AcDbEntity
  8
レイヤー_1
  6
Continuous
 62
   250
420
  2367521
370
    13
100
AcDbHatch
 10
0.0
 20
0.0
 30
0.0
210
0.0
220
0.0
230
1.0
  2
SOLID
 70
     1
 71
     0
 91
        1
 92
        3
 72
     0
 73
     1
 93
       67
 10
148.3750819492828
 20
103.1547592777295
 10
148.4006079532668
 20
103.1560511885174
 10
148.4254018744711
 20
103.1598300275719
 10
148.4493129899703
 20
103.1659989015841
 10
148.4722336405321
 20
103.1743855557822
 10
148.4940454010009
 20
103.1849038627802
 10
148.5146190802981
 20
103.1974138655763
 10
148.5338039554982
 20
103.2117971390148
 10
148.5515138992155
 20
103.2279137260937
 10
148.567608954448
 20
103.2456559675807
 10
148.5819491641935
 20
103.2648839064738
 10
148.5944268692199
 20
103.2854791176174
 10
148.6049236443715
 20
103.3073124099327
 10
148.6132995326463
 20
103.330254592341
 10
148.6194361088888
 20
103.3541872396866
 10
148.6232149479434
 20
103.3789919268141
 10
148.624496092808
 20
103.4045286967214
 10
148.624496092808
 20
103.4045286967214
 10
148.6232041820201
 20
103.430130062168
 10
148.619446874812
 20
103.4549885789117
 10
148.6133102985696
 20
103.4789642899502
 10
148.6049128784483
 20
103.5019495360514
 10
148.5944376351432
 20
103.5238151261365
 10
148.5819491641935
 20
103.5444318691265
 10
148.5675981885248
 20
103.5636921057893
 10
148.5515138992155
 20
103.5814451131995
 10
148.5338039554982
 20
103.5975832321249
 10
148.5146083143748
 20
103.6119665055634
 10
148.4940561669242
 20
103.6244872742827
 10
148.4722444064553
 20
103.6350055812808
 10
148.4493237558935
 20
103.6434137673253
 10
148.4254018744711
 20
103.6495718754143
 10
148.4006187191901
 20
103.6533507144688
 10
148.3750819492828
 20
103.6546426252567
 10
148.3750819492828
 20
103.6546426252567
 10
148.3494159882968
 20
103.653361480392
 10
148.3245251737834
 20
103.649561109491
 10
148.3005063990519
 20
103.6434137673253
 10
148.2774996211043
 20
103.6350055812808
 10
148.2556340310192
 20
103.6244872742827
 10
148.2350172880292
 20
103.6119665055634
 10
148.2157785832129
 20
103.5975724662017
 10
148.1980255758026
 20
103.5814451131995
 10
148.1819197546469
 20
103.5636921057893
 10
148.1675364812084
 20
103.5444426350498
 10
148.1550480102588
 20
103.5238151261365
 10
148.144540469184
 20
103.5019495360514
 10
148.1361645809092
 20
103.4789642899502
 10
148.1300172387435
 20
103.4549778129884
 10
148.1262383996889
 20
103.430130062168
 10
148.1249572548242
 20
103.4045286967214
 10
148.1249572548242
 20
103.4045286967214
 10
148.1262491656121
 20
103.3789919268141
 10
148.1300280046667
 20
103.3541872396866
 10
148.136153814986
 20
103.330254592341
 10
148.1445297032608
 20
103.3073016440095
 10
148.1550372443356
 20
103.2854683516941
 10
148.1675472471317
 20
103.2648839064738
 10
148.1819089887237
 20
103.2456452016575
 10
148.1980255758026
 20
103.2279137260937
 10
148.2157678172896
 20
103.2117971390148
 10
148.2350065221059
 20
103.1974138655763
 10
148.2556340310192
 20
103.1849038627802
 10
148.2775103870275
 20
103.1743855557822
 10
148.3005171649751
 20
103.1659881356609
 10
148.3245359397067
 20
103.1598300275719
 10
148.34942675422
 20
103.1560511885174
 97
        0
 75
     1
 76
     1
 98
        0
  0
LWPOLYLINE
  5
86
330
1F
100
AcDbEntity
  8
レイヤー_1
  6
Continuous
 62
   250
420
  2367521
370
    13
100
AcDbPolyline
 90
       68
 70
     0
 43
0.0
 10
148.3750819492828
 20
103.1547592777295
 10
148.4006079532668
 20
103.1560511885174
 10
148.4254018744711
 20
103.1598300275719
 10
148.4493129899703
 20
103.1659989015841
 10
148.4722336405321
 20
103.1743855557822
 10
148.4940454010009
 20
103.1849038627802
 10
148.5146190802981
 20
103.1974138655763
 10
148.5338039554982
 20
103.2117971390148
 10
148.5515138992155
 20
103.2279137260937
 10
148.567608954448
 20
103.2456559675807
 10
148.5819491641935
 20
103.2648839064738
 10
148.5944268692199
 20
103.2854791176174
 10
148.6049236443715
 20
103.3073124099327
 10
148.6132995326463
 20
103.330254592341
 10
148.6194361088888
 20
103.3541872396866
 10
148.6232149479434
 20
103.3789919268141
 10
148.624496092808
 20
103.4045286967214
 10
148.624496092808
 20
103.4045286967214
 10
148.6232041820201
 20
103.430130062168
 10
148.619446874812
 20
103.4549885789117
 10
148.6133102985696
 20
103.4789642899502
 10
148.6049128784483
 20
103.5019495360514
 10
148.5944376351432
 20
103.5238151261365
 10
148.5819491641935
 20
103.5444318691265
 10
148.5675981885248
 20
103.5636921057893
 10
148.5515138992155
 20
103.5814451131995
 10
148.5338039554982
 20
103.5975832321249
 10
148.5146083143748
 20
103.6119665055634
 10
148.4940561669242
 20
103.6244872742827
 10
148.4722444064553
 20
103.6350055812808
 10
148.4493237558935
 20
103.6434137673253
 10
148.4254018744711
 20
103.6495718754143
 10
148.4006187191901
 20
103.6533507144688
 10
148.3750819492828
 20
103.6546426252567
 10
148.3750819492828
 20
103.6546426252567
 10
148.3494159882968
 20
103.653361480392
 10
148.3245251737834
 20
103.649561109491
 10
148.3005063990519
 20
103.6434137673253
 10
148.2774996211043
 20
103.6350055812808
 10
148.2556340310192
 20
103.6244872742827
 10
148.2350172880292
 20
103.6119665055634
 10
148.2157785832129
 20
103.5975724662017
 10
148.1980255758026
 20
103.5814451131995
 10
148.1819197546469
 20
103.5636921057893
 10
148.1675364812084
 20
103.5444426350498
 10
148.1550480102588
 20
103.5238151261365
 10
148.144540469184
 20
103.5019495360514
 10
148.1361645809092
 20
103.4789642899502
 10
148.1300172387435
 20
103.4549778129884
 10
148.1262383996889
 20
103.430130062168
 10
148.1249572548242
 20
103.4045286967214
 10
148.1249572548242
 20
103.4045286967214
 10
148.1262491656121
 20
103.3789919268141
 10
148.1300280046667
 20
103.3541872396866
 10
148.136153814986
 20
103.330254592341
 10
148.1445297032608
 20
103.3073016440095
 10
148.1550372443356
 20
103.2854683516941
 10
148.1675472471317
 20
103.2648839064738
 10
148.1819089887237
 20
103.2456452016575
 10
148.1980255758026
 20
103.2279137260937
 10
148.2157678172896
 20
103.2117971390148
 10
148.2350065221059
 20
103.1974138655763
 10
148.2556340310192
 20
103.1849038627802
 10
148.2775103870275
 20
103.1743855557822
 10
148.3005171649751
 20
103.1659881356609
 10
148.3245359397067
 20
103.1598300275719
 10
148.34942675422
 20
103.1560511885174
 10
148.3750819492828
 20
103.1547592777295
  0
HATCH
  5
87
330
1F
100
AcDbEntity
  8
レイヤー_1
  6
Continuous
 62
   250
420
  2367521
370
    13
100
AcDbHatch
 10
0.0
 20
0.0
 30
0.0
210
0.0
220
0.0
230
1.0
  2
SOLID
 70
     1
 71
     0
 91
        1
 92
        3
 72
     0
 73
     1
 93
       67
 10
148.3750819492828
 20
108.8546912057427
 10
148.4006079532668
 20
108.8559723506074
 10
148.4254018744711
 20
108.8597404237387
 10
148.4493129899703
 20
108.8658877659044
 10
148.4722336405321
 20
108.8742744201025
 10
148.4940454010009
 20
108.8847604293308
 10
148.5146190802981
 20
108.8972596662037
 10
148.5338039554982
 20
108.9116214077957
 10
148.5515138992155
 20
108.9277164630281
 10
148.567608954448
 20
108.9454479385919
 10
148.5819491641935
 20
108.9646543456386
 10
148.5944268692199
 20
108.9852495567821
 10
148.6049236443715
 20
109.0070936150207
 10
148.6132995326463
 20
109.0300573292754
 10
148.6194361088888
 20
109.0540222743908
 10
148.6232149479434
 20
109.0788700252112
 10
148.624496092808
 20
109.1044606247346
 10
148.624496092808
 20
109.1044606247346
 10
148.6232041820201
 20
109.1300619901813
 10
148.619446874812
 20
109.1548989750784
 10
148.6133102985696
 20
109.1788639201938
 10
148.6049128784483
 20
109.2018276344485
 10
148.5944376351432
 20
109.2236609267638
 10
148.5819491641935
 20
109.2442561379074
 10
148.5675981885248
 20
109.2634733108773
 10
148.5515138992155
 20
109.2812047864411
 10
148.5338039554982
 20
109.2972998416735
 10
148.5146083143748
 20
109.3116615832656
 10
148.4940561669242
 20
109.3241500542151
 10
148.4722444064553
 20
109.3346468293667
 10
148.4493237558935
 20
109.3430227176416
 10
148.4254018744711
 20
109.349159293884
 10
148.4006187191901
 20
109.3529381329386
 10
148.3750819492828
 20
109.3542192778033
 10
148.3750819492828
 20
109.3542192778033
 10
148.3494159882968
 20
109.3529273670154
 10
148.3245251737834
 20
109.3491485279608
 10
148.3005063990519
 20
109.3430227176416
 10
148.2774996211043
 20
109.3346468293667
 10
148.2556340310192
 20
109.3241392882919
 10
148.2350172880292
 20
109.3116615832656
 10
148.2157785832129
 20
109.2972998416735
 10
148.1980255758026
 20
109.2811940205178
 10
148.1819197546469
 20
109.2634733108773
 10
148.1675364812084
 20
109.2442561379074
 10
148.1550480102588
 20
109.2236609267638
 10
148.144540469184
 20
109.2018276344485
 10
148.1361645809092
 20
109.1788639201938
 10
148.1300172387435
 20
109.1548989750784
 10
148.1262383996889
 20
109.1300512242581
 10
148.1249572548242
 20
109.1044606247346
 10
148.1249572548242
 20
109.1044606247346
 10
148.1262491656121
 20
109.0788700252112
 10
148.1300280046667
 20
109.0540222743908
 10
148.136153814986
 20
109.0300573292754
 10
148.1445297032608
 20
109.0070936150207
 10
148.1550372443356
 20
108.9852495567821
 10
148.1675472471317
 20
108.9646543456386
 10
148.1819089887237
 20
108.9454371726687
 10
148.1980255758026
 20
108.9277164630281
 10
148.2157678172896
 20
108.9116106418725
 10
148.2350065221059
 20
108.8972596662037
 10
148.2556340310192
 20
108.8847711952541
 10
148.2775103870275
 20
108.8742744201025
 10
148.3005171649751
 20
108.8658877659044
 10
148.3245359397067
 20
108.8597511896619
 10
148.34942675422
 20
108.8559723506074
 97
        0
 75
     1
 76
     1
 98
        0
  0
LWPOLYLINE
  5
88
330
1F
100
AcDbEntity
  8
レイヤー_1
  6
Continuous
 62
   250
420
  2367521
370
    13
100
AcDbPolyline
 90
       68
 70
     0
 43
0.0
 10
148.3750819492828
 20
108.8546912057427
 10
148.4006079532668
 20
108.8559723506074
 10
148.4254018744711
 20
108.8597404237387
 10
148.4493129899703
 20
108.8658877659044
 10
148.4722336405321
 20
108.8742744201025
 10
148.4940454010009
 20
108.8847604293308
 10
148.5146190802981
 20
108.8972596662037
 10
148.5338039554982
 20
108.9116214077957
 10
148.5515138992155
 20
108.9277164630281
 10
148.567608954448
 20
108.9454479385919
 10
148.5819491641935
 20
108.9646543456386
 10
148.5944268692199
 20
108.9852495567821
 10
148.6049236443715
 20
109.0070936150207
 10
148.6132995326463
 20
109.0300573292754
 10
148.6194361088888
 20
109.0540222743908
 10
148.6232149479434
 20
109.0788700252112
 10
148.624496092808
 20
109.1044606247346
 10
148.624496092808
 20
109.1044606247346
 10
148.6232041820201
 20
109.1300619901813
 10
148.619446874812
 20
109.1548989750784
 10
148.6133102985696
 20
109.1788639201938
 10
148.6049128784483
 20
109.2018276344485
 10
148.5944376351432
 20
109.2236609267638
 10
148.5819491641935
 20
109.2442561379074
 10
148.5675981885248
 20
109.2634733108773
 10
148.5515138992155
 20
109.2812047864411
 10
148.5338039554982
 20
109.2972998416735
 10
148.5146083143748
 20
109.3116615832656
 10
148.4940561669242
 20
109.3241500542151
 10
148.4722444064553
 20
109.3346468293667
 10
148.4493237558935
 20
109.3430227176416
 10
148.4254018744711
 20
109.349159293884
 10
148.4006187191901
 20
109.3529381329386
 10
148.3750819492828
 20
109.3542192778033
 10
148.3750819492828
 20
109.3542192778033
 10
148.3494159882968
 20
109.3529273670154
 10
148.3245251737834
 20
109.3491485279608
 10
148.3005063990519
 20
109.3430227176416
 10
148.2774996211043
 20
109.3346468293667
 10
148.2556340310192
 20
109.3241392882919
 10
148.2350172880292
 20
109.3116615832656
 10
148.2157785832129
 20
109.2972998416735
 10
148.1980255758026
 20
109.2811940205178
 10
148.1819197546469
 20
109.2634733108773
 10
148.1675364812084
 20
109.2442561379074
 10
148.1550480102588
 20
109.2236609267638
 10
148.144540469184
 20
109.2018276344485
 10
148.1361645809092
 20
109.1788639201938
 10
148.1300172387435
 20
109.1548989750784
 10
148.1262383996889
 20
109.1300512242581
 10
148.1249572548242
 20
109.1044606247346
 10
148.1249572548242
 20
109.1044606247346
 10
148.1262491656121
 20
109.0788700252112
 10
148.1300280046667
 20
109.0540222743908
 10
148.136153814986
 20
109.0300573292754
 10
148.1445297032608
 20
109.0070936150207
 10
148.1550372443356
 20
108.9852495567821
 10
148.1675472471317
 20
108.9646543456386
 10
148.1819089887237
 20
108.9454371726687
 10
148.1980255758026
 20
108.9277164630281
 10
148.2157678172896
 20
108.9116106418725
 10
148.2350065221059
 20
108.8972596662037
 10
148.2556340310192
 20
108.8847711952541
 10
148.2775103870275
 20
108.8742744201025
 10
148.3005171649751
 20
108.8658877659044
 10
148.3245359397067
 20
108.8597511896619
 10
148.34942675422
 20
108.8559723506074
 10
148.3750819492828
 20
108.8546912057427
  0
HATCH
  5
89
330
1F
100
AcDbEntity
  8
レイヤー_1
  6
Continuous
 62
   250
420
  2367521
370
    13
100
AcDbHatch
 10
0.0
 20
0.0
 30
0.0
210
0.0
220
0.0
230
1.0
  2
SOLID
 70
     1
 71
     0
 91
        1
 92
        3
 72
     0
 73
     1
 93
       67
 10
116.3722124212371
 20
114.3525252228371
 10
116.3977599570676
 20
114.353817133625
 10
116.4225646441951
 20
114.3575959726796
 10
116.4465188233872
 20
114.3637540807686
 10
116.469482537642
 20
114.3721622668131
 10
116.491348127727
 20
114.3826698078879
 10
116.5119648707171
 20
114.3951905766072
 10
116.531235873303
 20
114.4095523181992
 10
116.5489996466365
 20
114.4256796712014
 10
116.5651592974084
 20
114.4434111467651
 10
116.5795641026933
 20
114.4626498515815
 10
116.5921064032591
 20
114.4832342968018
 10
116.6026570080269
 20
114.5050675891172
 10
116.6110759599946
 20
114.5280205374487
 10
116.6172448340068
 20
114.5519531847943
 10
116.6210452049078
 20
114.5767578719218
 10
116.6223371156957
 20
114.6022946418291
 10
116.6223371156957
 20
114.6022946418291
 10
116.6210344389846
 20
114.6278960072757
 10
116.6172448340068
 20
114.6527437580961
 10
116.6110759599946
 20
114.6767302350579
 10
116.6026462421036
 20
114.6997262470824
 10
116.5921064032591
 20
114.7215810712441
 10
116.5795641026933
 20
114.7422085801575
 10
116.5651485314851
 20
114.761458050897
 10
116.5489996466365
 20
114.7792110583072
 10
116.5312251073798
 20
114.7953384113094
 10
116.5119648707171
 20
114.8097324506711
 10
116.491348127727
 20
114.8222532193904
 10
116.469482537642
 20
114.8327715263885
 10
116.4465188233872
 20
114.841179712433
 10
116.4225646441951
 20
114.8473378205219
 10
116.3977491911444
 20
114.8511166595765
 10
116.3722124212371
 20
114.8524085703644
 10
116.3722124212371
 20
114.8524085703644
 10
116.3466110557905
 20
114.8511274254997
 10
116.3217740708933
 20
114.8473378205219
 10
116.2977768280083
 20
114.841179712433
 10
116.2747808159838
 20
114.8327822923117
 10
116.252925991822
 20
114.8222532193904
 10
116.2322984829087
 20
114.8097432165944
 10
116.2130490121692
 20
114.7953384113094
 10
116.195296004759
 20
114.7792110583072
 10
116.1791578858336
 20
114.7614472849738
 10
116.1647638464718
 20
114.7422085801575
 10
116.1522430777525
 20
114.7215810712441
 10
116.1417247707545
 20
114.6997154811591
 10
116.13331658471
 20
114.6767302350579
 10
116.127158476621
 20
114.6527437580961
 10
116.1233796375665
 20
114.6278960072757
 10
116.1220877267786
 20
114.6022946418291
 10
116.1220877267786
 20
114.6022946418291
 10
116.1233796375665
 20
114.5767578719218
 10
116.1271692425443
 20
114.5519639507175
 10
116.13331658471
 20
114.5280205374487
 10
116.1417140048313
 20
114.5050675891172
 10
116.1522430777525
 20
114.4832450627251
 10
116.1647638464718
 20
114.4626390856582
 10
116.1791471199103
 20
114.4434219126884
 10
116.195296004759
 20
114.4256796712014
 10
116.2130490121692
 20
114.4095523181992
 10
116.2322984829087
 20
114.395179810684
 10
116.252925991822
 20
114.3826698078879
 10
116.2747915819071
 20
114.3721515008898
 10
116.2977768280083
 20
114.3637540807686
 10
116.3217633049701
 20
114.3575959726796
 10
116.3466110557905
 20
114.353817133625
 97
        0
 75
     1
 76
     1
 98
        0
  0
LWPOLYLINE
  5
8A
330
1F
100
AcDbEntity
  8
レイヤー_1
  6
Continuous
 62
   250
420
  2367521
370
    13
100
AcDbPolyline
 90
       68
 70
     0
 43
0.0
 10
116.3722124212371
 20
114.3525252228371
 10
116.3977599570676
 20
114.353817133625
 10
116.4225646441951
 20
114.3575959726796
 10
116.4465188233872
 20
114.3637540807686
 10
116.469482537642
 20
114.3721622668131
 10
116.491348127727
 20
114.3826698078879
 10
116.5119648707171
 20
114.3951905766072
 10
116.531235873303
 20
114.4095523181992
 10
116.5489996466365
 20
114.4256796712014
 10
116.5651592974084
 20
114.4434111467651
 10
116.5795641026933
 20
114.4626498515815
 10
116.5921064032591
 20
114.4832342968018
 10
116.6026570080269
 20
114.5050675891172
 10
116.6110759599946
 20
114.5280205374487
 10
116.6172448340068
 20
114.5519531847943
 10
116.6210452049078
 20
114.5767578719218
 10
116.6223371156957
 20
114.6022946418291
 10
116.6223371156957
 20
114.6022946418291
 10
116.6210344389846
 20
114.6278960072757
 10
116.6172448340068
 20
114.6527437580961
 10
116.6110759599946
 20
114.6767302350579
 10
116.6026462421036
 20
114.6997262470824
 10
116.5921064032591
 20
114.7215810712441
 10
116.5795641026933
 20
114.7422085801575
 10
116.5651485314851
 20
114.761458050897
 10
116.5489996466365
 20
114.7792110583072
 10
116.5312251073798
 20
114.7953384113094
 10
116.5119648707171
 20
114.8097324506711
 10
116.491348127727
 20
114.8222532193904
 10
116.469482537642
 20
114.8327715263885
 10
116.4465188233872
 20
114.841179712433
 10
116.4225646441951
 20
114.8473378205219
 10
116.3977491911444
 20
114.8511166595765
 10
116.3722124212371
 20
114.8524085703644
 10
116.3722124212371
 20
114.8524085703644
 10
116.3466110557905
 20
114.8511274254997
 10
116.3217740708933
 20
114.8473378205219
 10
116.2977768280083
 20
114.841179712433
 10
116.2747808159838
 20
114.8327822923117
 10
116.252925991822
 20
114.8222532193904
 10
116.2322984829087
 20
114.8097432165944
 10
116.2130490121692
 20
114.7953384113094
 10
116.195296004759
 20
114.7792110583072
 10
116.1791578858336
 20
114.7614472849738
 10
116.1647638464718
 20
114.7422085801575
 10
116.1522430777525
 20
114.7215810712441
 10
116.1417247707545
 20
114.6997154811591
 10
116.13331658471
 20
114.6767302350579
 10
116.127158476621
 20
114.6527437580961
 10
116.1233796375665
 20
114.6278960072757
 10
116.1220877267786
 20
114.6022946418291
 10
116.1220877267786
 20
114.6022946418291
 10
116.1233796375665
 20
114.5767578719218
 10
116.1271692425443
 20
114.5519639507175
 10
116.13331658471
 20
114.5280205374487
 10
116.1417140048313
 20
114.5050675891172
 10
116.1522430777525
 20
114.4832450627251
 10
116.1647638464718
 20
114.4626390856582
 10
116.1791471199103
 20
114.4434219126884
 10
116.195296004759
 20
114.4256796712014
 10
116.2130490121692
 20
114.4095523181992
 10
116.2322984829087
 20
114.395179810684
 10
116.252925991822
 20
114.3826698078879
 10
116.2747915819071
 20
114.3721515008898
 10
116.2977768280083
 20
114.3637540807686
 10
116.3217633049701
 20
114.3575959726796
 10
116.3466110557905
 20
114.353817133625
 10
116.3722124212371
 20
114.3525252228371
  0
HATCH
  5
8B
330
1F
100
AcDbEntity
  8
レイヤー_1
  6
Continuous
 62
   250
420
  2367521
370
    13
100
AcDbHatch
 10
0.0
 20
0.0
 30
0.0
210
0.0
220
0.0
230
1.0
  2
SOLID
 70
     1
 71
     0
 91
        1
 92
        3
 72
     0
 73
     1
 93
       67
 10
137.8723640080595
 20
92.71750891568243
 10
137.8979007779668
 20
92.71880082647031
 10
137.9227054650942
 20
92.72257966552489
 10
137.9466704102095
 20
92.72874853953707
 10
137.9696341244643
 20
92.73714595965833
 10
137.9914997145493
 20
92.74766426665641
 10
138.0121272234626
 20
92.7601850353757
 10
138.0313874601254
 20
92.77457907473743
 10
138.0491512334589
 20
92.79070642773958
 10
138.0653001183075
 20
92.80847020107305
 10
138.0797264554389
 20
92.82770890588937
 10
138.0922579900814
 20
92.84833641480267
 10
138.1028085948492
 20
92.87020200488769
 10
138.1112275468169
 20
92.89319801691212
 10
138.1173964208291
 20
92.91717372795068
 10
138.1211967917301
 20
92.94203224469433
 10
138.122488702518
 20
92.967633610141
 10
138.122488702518
 20
92.967633610141
 10
138.1212075576534
 20
92.99317038004827
 10
138.1173964208291
 20
93.0179643012525
 10
138.1112383127402
 20
93.04189694859815
 10
138.102797828926
 20
93.06484989692964
 10
138.0922579900814
 20
93.08668318924498
 10
138.0797156895157
 20
93.10727840038857
 10
138.0653001183075
 20
93.12649557335843
 10
138.0491512334589
 20
93.14423781484544
 10
138.0313766942022
 20
93.16035440192435
 10
138.0121164575394
 20
93.17473767536285
 10
137.9914997145493
 20
93.18724767815891
 10
137.9696341244643
 20
93.19776598515696
 10
137.9466704102095
 20
93.20616340527826
 10
137.9227162310174
 20
93.21232151336719
 10
137.8979007779668
 20
93.21610035242176
 10
137.8723640080595
 20
93.21739226320966
 10
137.8723640080595
 20
93.21739226320966
 10
137.8468272381522
 20
93.21610035242176
 10
137.8220117851015
 20
93.21232151336719
 10
137.7980683718326
 20
93.20616340527826
 10
137.7750831257314
 20
93.19776598515696
 10
137.7532283015696
 20
93.18724767815891
 10
137.7326115585795
 20
93.17473767536285
 10
137.7133513219168
 20
93.16035440192435
 10
137.6955767826601
 20
93.14423781484544
 10
137.6794171318882
 20
93.12649557335843
 10
137.6650123266033
 20
93.10726763446533
 10
137.6524700260375
 20
93.08668318924498
 10
137.641930187193
 20
93.06484989692964
 10
137.633500469302
 20
93.04190771452139
 10
137.6273315952898
 20
93.0179643012525
 10
137.6235312243888
 20
92.99317038004827
 10
137.6222393136009
 20
92.967633610141
 10
137.6222393136009
 20
92.967633610141
 10
137.623541990312
 20
92.94204301061755
 10
137.6273315952898
 20
92.91718449387392
 10
137.6335112352252
 20
92.89318725098889
 10
137.6419194212697
 20
92.87021277081092
 10
137.6524700260375
 20
92.84833641480267
 10
137.6650123266033
 20
92.8277196718126
 10
137.6794171318882
 20
92.80847020107305
 10
137.6955767826601
 20
92.79070642773958
 10
137.7133405559936
 20
92.77457907473743
 10
137.7326007926563
 20
92.7601850353757
 10
137.7532283015696
 20
92.74766426665641
 10
137.7750938916546
 20
92.73714595965833
 10
137.7980576059094
 20
92.72873777361383
 10
137.8220117851015
 20
92.72257966552489
 10
137.8468272381522
 20
92.71880082647031
 97
        0
 75
     1
 76
     1
 98
        0
  0
LWPOLYLINE
  5
8C
330
1F
100
AcDbEntity
  8
レイヤー_1
  6
Continuous
 62
   250
420
  2367521
370
    13
100
AcDbPolyline
 90
       68
 70
     0
 43
0.0
 10
137.8723640080595
 20
92.71750891568243
 10
137.8979007779668
 20
92.71880082647031
 10
137.9227054650942
 20
92.72257966552489
 10
137.9466704102095
 20
92.72874853953707
 10
137.9696341244643
 20
92.73714595965833
 10
137.9914997145493
 20
92.74766426665641
 10
138.0121272234626
 20
92.7601850353757
 10
138.0313874601254
 20
92.77457907473743
 10
138.0491512334589
 20
92.79070642773958
 10
138.0653001183075
 20
92.80847020107305
 10
138.0797264554389
 20
92.82770890588937
 10
138.0922579900814
 20
92.84833641480267
 10
138.1028085948492
 20
92.87020200488769
 10
138.1112275468169
 20
92.89319801691212
 10
138.1173964208291
 20
92.91717372795068
 10
138.1211967917301
 20
92.94203224469433
 10
138.122488702518
 20
92.967633610141
 10
138.122488702518
 20
92.967633610141
 10
138.1212075576534
 20
92.99317038004827
 10
138.1173964208291
 20
93.0179643012525
 10
138.1112383127402
 20
93.04189694859815
 10
138.102797828926
 20
93.06484989692964
 10
138.0922579900814
 20
93.08668318924498
 10
138.0797156895157
 20
93.10727840038857
 10
138.0653001183075
 20
93.12649557335843
 10
138.0491512334589
 20
93.14423781484544
 10
138.0313766942022
 20
93.16035440192435
 10
138.0121164575394
 20
93.17473767536285
 10
137.9914997145493
 20
93.18724767815891
 10
137.9696341244643
 20
93.19776598515696
 10
137.9466704102095
 20
93.20616340527826
 10
137.9227162310174
 20
93.21232151336719
 10
137.8979007779668
 20
93.21610035242176
 10
137.8723640080595
 20
93.21739226320966
 10
137.8723640080595
 20
93.21739226320966
 10
137.8468272381522
 20
93.21610035242176
 10
137.8220117851015
 20
93.21232151336719
 10
137.7980683718326
 20
93.20616340527826
 10
137.7750831257314
 20
93.19776598515696
 10
137.7532283015696
 20
93.18724767815891
 10
137.7326115585795
 20
93.17473767536285
 10
137.7133513219168
 20
93.16035440192435
 10
137.6955767826601
 20
93.14423781484544
 10
137.6794171318882
 20
93.12649557335843
 10
137.6650123266033
 20
93.10726763446533
 10
137.6524700260375
 20
93.08668318924498
 10
137.641930187193
 20
93.06484989692964
 10
137.633500469302
 20
93.04190771452139
 10
137.6273315952898
 20
93.0179643012525
 10
137.6235312243888
 20
92.99317038004827
 10
137.6222393136009
 20
92.967633610141
 10
137.6222393136009
 20
92.967633610141
 10
137.623541990312
 20
92.94204301061755
 10
137.6273315952898
 20
92.91718449387392
 10
137.6335112352252
 20
92.89318725098889
 10
137.6419194212697
 20
92.87021277081092
 10
137.6524700260375
 20
92.84833641480267
 10
137.6650123266033
 20
92.8277196718126
 10
137.6794171318882
 20
92.80847020107305
 10
137.6955767826601
 20
92.79070642773958
 10
137.7133405559936
 20
92.77457907473743
 10
137.7326007926563
 20
92.7601850353757
 10
137.7532283015696
 20
92.74766426665641
 10
137.7750938916546
 20
92.73714595965833
 10
137.7980576059094
 20
92.72873777361383
 10
137.8220117851015
 20
92.72257966552489
 10
137.8468272381522
 20
92.71880082647031
 10
137.8723640080595
 20
92.71750891568243
  0
HATCH
  5
8D
330
1F
100
AcDbEntity
  8
レイヤー_1
  6
Continuous
 62
   250
420
  2367521
370
    13
100
AcDbHatch
 10
0.0
 20
0.0
 30
0.0
210
0.0
220
0.0
230
1.0
  2
SOLID
 70
     1
 71
     0
 91
        1
 92
        3
 72
     0
 73
     1
 93
       67
 10
143.3700473022287
 20
108.354463348672
 10
143.3955840721359
 20
108.3557552594599
 10
143.4203672274169
 20
108.3595448644377
 10
143.4442891088394
 20
108.3657029725267
 10
143.4671989934779
 20
108.374100392648
 10
143.4890107539468
 20
108.3846294655693
 10
143.5095844332439
 20
108.3971394683653
 10
143.5287800743673
 20
108.411533507727
 10
143.5464792521614
 20
108.4276608607292
 10
143.5625635414706
 20
108.4454138681394
 10
143.5769145171394
 20
108.4646741048022
 10
143.5893922221658
 20
108.4852908477923
 10
143.5998889973174
 20
108.5071564378773
 10
143.6082648855922
 20
108.5301524499017
 10
143.6144014618347
 20
108.5541389268635
 10
143.6181803008892
 20
108.5789866776839
 10
143.6194614457539
 20
108.6045880431306
 10
143.6194614457539
 20
108.6045880431306
 10
143.6181803008892
 20
108.6301355789611
 10
143.6144122277579
 20
108.6549187342421
 10
143.6082648855922
 20
108.678862147511
 10
143.5998782313941
 20
108.7018150958425
 10
143.5893922221658
 20
108.7236376222346
 10
143.5769145171394
 20
108.7442328333782
 10
143.5625743073938
 20
108.763450006348
 10
143.5464792521614
 20
108.7811922478351
 10
143.5287800743673
 20
108.797308834914
 10
143.5095736673207
 20
108.8116921083525
 10
143.4890107539468
 20
108.8242021111485
 10
143.4672097594012
 20
108.8347204181466
 10
143.4442891088394
 20
108.8431178382679
 10
143.4203672274169
 20
108.8492759463568
 10
143.3955840721359
 20
108.8530547854114
 10
143.3700473022287
 20
108.8543466961993
 10
143.3700473022287
 20
108.8543466961993
 10
143.3444028730891
 20
108.8530547854114
 10
143.3194905267293
 20
108.8492651804336
 10
143.295482517921
 20
108.8431178382679
 10
143.2724649740501
 20
108.8347204181466
 10
143.2505886180418
 20
108.8242128770718
 10
143.229982640975
 20
108.8116813424292
 10
143.2107331702355
 20
108.7973196008372
 10
143.1929909287485
 20
108.7811922478351
 10
143.1768743416695
 20
108.763450006348
 10
143.1625018341543
 20
108.7442328333782
 10
143.1500133632047
 20
108.7236376222346
 10
143.1395058221298
 20
108.7018043299193
 10
143.131129933855
 20
108.6788513815878
 10
143.1249825916893
 20
108.6549187342421
 10
143.1212037526348
 20
108.6301248130379
 10
143.1199226077701
 20
108.6045880431306
 10
143.1199226077701
 20
108.6045880431306
 10
143.1212037526348
 20
108.5789866776839
 10
143.1249933576126
 20
108.5541281609403
 10
143.1311191679318
 20
108.5301524499017
 10
143.1394950562066
 20
108.5071564378773
 10
143.1500025972815
 20
108.4853016137155
 10
143.1625126000775
 20
108.464663338879
 10
143.1768743416695
 20
108.4454246340627
 10
143.1929909287485
 20
108.4276608607292
 10
143.2107331702355
 20
108.4115227418038
 10
143.2299718750518
 20
108.3971394683653
 10
143.2505993839651
 20
108.384618699646
 10
143.2724757399733
 20
108.374100392648
 10
143.295482517921
 20
108.3656922066035
 10
143.3195012926525
 20
108.3595340985145
 10
143.3443921071658
 20
108.3557552594599
 97
        0
 75
     1
 76
     1
 98
        0
  0
LWPOLYLINE
  5
8E
330
1F
100
AcDbEntity
  8
レイヤー_1
  6
Continuous
 62
   250
420
  2367521
370
    13
100
AcDbPolyline
 90
       68
 70
     0
 43
0.0
 10
143.3700473022287
 20
108.354463348672
 10
143.3955840721359
 20
108.3557552594599
 10
143.4203672274169
 20
108.3595448644377
 10
143.4442891088394
 20
108.3657029725267
 10
143.4671989934779
 20
108.374100392648
 10
143.4890107539468
 20
108.3846294655693
 10
143.5095844332439
 20
108.3971394683653
 10
143.5287800743673
 20
108.411533507727
 10
143.5464792521614
 20
108.4276608607292
 10
143.5625635414706
 20
108.4454138681394
 10
143.5769145171394
 20
108.4646741048022
 10
143.5893922221658
 20
108.4852908477923
 10
143.5998889973174
 20
108.5071564378773
 10
143.6082648855922
 20
108.5301524499017
 10
143.6144014618347
 20
108.5541389268635
 10
143.6181803008892
 20
108.5789866776839
 10
143.6194614457539
 20
108.6045880431306
 10
143.6194614457539
 20
108.6045880431306
 10
143.6181803008892
 20
108.6301355789611
 10
143.6144122277579
 20
108.6549187342421
 10
143.6082648855922
 20
108.678862147511
 10
143.5998782313941
 20
108.7018150958425
 10
143.5893922221658
 20
108.7236376222346
 10
143.5769145171394
 20
108.7442328333782
 10
143.5625743073938
 20
108.763450006348
 10
143.5464792521614
 20
108.7811922478351
 10
143.5287800743673
 20
108.797308834914
 10
143.5095736673207
 20
108.8116921083525
 10
143.4890107539468
 20
108.8242021111485
 10
143.4672097594012
 20
108.8347204181466
 10
143.4442891088394
 20
108.8431178382679
 10
143.4203672274169
 20
108.8492759463568
 10
143.3955840721359
 20
108.8530547854114
 10
143.3700473022287
 20
108.8543466961993
 10
143.3700473022287
 20
108.8543466961993
 10
143.3444028730891
 20
108.8530547854114
 10
143.3194905267293
 20
108.8492651804336
 10
143.295482517921
 20
108.8431178382679
 10
143.2724649740501
 20
108.8347204181466
 10
143.2505886180418
 20
108.8242128770718
 10
143.229982640975
 20
108.8116813424292
 10
143.2107331702355
 20
108.7973196008372
 10
143.1929909287485
 20
108.7811922478351
 10
143.1768743416695
 20
108.763450006348
 10
143.1625018341543
 20
108.7442328333782
 10
143.1500133632047
 20
108.7236376222346
 10
143.1395058221298
 20
108.7018043299193
 10
143.131129933855
 20
108.6788513815878
 10
143.1249825916893
 20
108.6549187342421
 10
143.1212037526348
 20
108.6301248130379
 10
143.1199226077701
 20
108.6045880431306
 10
143.1199226077701
 20
108.6045880431306
 10
143.1212037526348
 20
108.5789866776839
 10
143.1249933576126
 20
108.5541281609403
 10
143.1311191679318
 20
108.5301524499017
 10
143.1394950562066
 20
108.5071564378773
 10
143.1500025972815
 20
108.4853016137155
 10
143.1625126000775
 20
108.464663338879
 10
143.1768743416695
 20
108.4454246340627
 10
143.1929909287485
 20
108.4276608607292
 10
143.2107331702355
 20
108.4115227418038
 10
143.2299718750518
 20
108.3971394683653
 10
143.2505993839651
 20
108.384618699646
 10
143.2724757399733
 20
108.374100392648
 10
143.295482517921
 20
108.3656922066035
 10
143.3195012926525
 20
108.3595340985145
 10
143.3443921071658
 20
108.3557552594599
 10
143.3700473022287
 20
108.354463348672
  0
HATCH
  5
8F
330
1F
100
AcDbEntity
  8
レイヤー_1
  6
Continuous
 62
   250
420
  2367521
370
    13
100
AcDbHatch
 10
0.0
 20
0.0
 30
0.0
210
0.0
220
0.0
230
1.0
  2
SOLID
 70
     1
 71
     0
 91
        1
 92
        3
 72
     0
 73
     1
 93
      140
 10
149.157118612885
 20
110.757751157766
 10
149.1565049552608
 20
110.7223958658708
 10
149.1547178120042
 20
110.6871051695149
 10
149.1518325445779
 20
110.6519221323914
 10
149.1479137485213
 20
110.616835988577
 10
149.1430260193738
 20
110.5818790358414
 10
149.1372662504444
 20
110.5470620401077
 10
149.1306990372727
 20
110.5124065332226
 10
149.1233889753979
 20
110.477912515186
 10
149.1154006603594
 20
110.4436122837675
 10
149.1068417513897
 20
110.4095166048905
 10
149.0977445462583
 20
110.3756577763246
 10
149.0882059382744
 20
110.3420250321465
 10
149.0783012889005
 20
110.308650670126
 10
149.068084427753
 20
110.2755562221096
 10
149.0576414822175
 20
110.2427416880972
 10
149.0470478137569
 20
110.2102393658586
 10
148.891824732592
 20
110.2412882884609
 10
148.9028275061355
 20
110.2706469611156
 10
148.9135826634447
 20
110.3003824410836
 10
148.9240256089801
 20
110.3304624305949
 10
148.9340809812792
 20
110.3608653978032
 10
148.943705716649
 20
110.3915698108621
 10
148.9528136877036
 20
110.4225756697714
 10
148.9613510648269
 20
110.4538399108383
 10
148.9692640184027
 20
110.4853625340628
 10
148.9764879528917
 20
110.5171004757519
 10
148.9829367409079
 20
110.5490537359058
 10
148.9885780846816
 20
110.5811900167545
 10
148.9933258568271
 20
110.6134985523749
 10
148.9971369936514
 20
110.6459578109207
 10
148.9999361336918
 20
110.6785354946219
 10
149.001658681409
 20
110.7112208375555
 10
149.0022508071868
 20
110.743992307875
 10
149.0022508071868
 20
110.743992307875
 10
149.0004851957767
 20
110.7985863045865
 10
148.9952852548554
 20
110.8501335450233
 10
148.9868232391948
 20
110.8985694336459
 10
148.9752175739502
 20
110.9438401408382
 10
148.9606405138936
 20
110.9858595392143
 10
148.9432104841803
 20
111.024573799158
 10
148.9231320373518
 20
111.05991832513
 10
148.9005128326405
 20
111.0918177556677
 10
148.8755251248181
 20
111.120229027078
 10
148.8483088708866
 20
111.1450552460519
 10
148.8190147937712
 20
111.1662425829733
 10
148.787782850474
 20
111.1837264423027
 10
148.7547852957667
 20
111.1974422285008
 10
148.7201728525744
 20
111.2073253460282
 10
148.6840747119762
 20
111.2133004334222
 10
148.6466523628203
 20
111.2153028951434
 10
148.6466523628203
 20
111.2153028951434
 10
148.6128043001776
 20
111.2135049859636
 10
148.5792792152319
 20
111.20819738581
 10
148.546346256064
 20
111.1993693287594
 10
148.5142422729849
 20
111.1870638785048
 10
148.483257945922
 20
111.1713456305855
 10
148.45360859334
 20
111.1522468827712
 10
148.4255741292428
 20
111.1297784009851
 10
148.3993914039416
 20
111.1040047807667
 10
148.3753510973636
 20
111.0749583198857
 10
148.3536792938968
 20
111.0426713161117
 10
148.3346451416219
 20
111.0071868331377
 10
148.31848549085
 20
110.9685479346566
 10
148.3054802555853
 20
110.9267869184381
 10
148.295877052062
 20
110.8819360822518
 10
148.2899234965145
 20
110.8340492557141
 10
148.2878779711003
 20
110.7831479706713
 10
148.2878779711003
 20
110.7831479706713
 10
148.2878995029467
 20
110.773964638154
 10
148.2880932895649
 20
110.7624128025256
 10
148.2885885220336
 20
110.7485355274791
 10
148.2895574551246
 20
110.7325158337092
 10
148.2911615776862
 20
110.7144506145253
 10
148.2935408467205
 20
110.6944582950827
 10
148.2968567510761
 20
110.6726142368441
 10
148.3012815455247
 20
110.6490906945813
 10
148.3069659529913
 20
110.6239845616033
 10
148.3140606964015
 20
110.5973927312193
 10
148.3227164986804
 20
110.5694443945079
 10
148.3331163805229
 20
110.5402687425481
 10
148.3454002989311
 20
110.5099519027256
 10
148.3597189768302
 20
110.4786338320425
 10
148.3762339030687
 20
110.4464221897312
 10
148.3951173324183
 20
110.4134354009471
 10
148.3700757949798
 20
110.3037306432088
 10
147.508941893389
 20
110.3037306432088
 10
147.508941893389
 20
111.2798661367681
 10
147.6645202500206
 20
111.2798661367681
 10
147.6645202500206
 20
110.458598448907
 10
148.2173181102351
 20
110.458598448907
 10
148.208005586639
 20
110.4785046409638
 10
148.1991129340491
 20
110.4990137247215
 10
148.1906616843116
 20
110.520114934257
 10
148.1827056670429
 20
110.5417221421845
 10
148.1752556481661
 20
110.5638138166574
 10
148.1683116276811
 20
110.5863468939828
 10
148.1619166692811
 20
110.6092567786214
 10
148.1561030707356
 20
110.6325111728034
 10
148.1508815979679
 20
110.6560670128359
 10
148.1462845487476
 20
110.679881235026
 10
148.1423226889981
 20
110.7039000097575
 10
148.139028316489
 20
110.7280802733375
 10
148.1364229630668
 20
110.7523574302266
 10
148.1345389265011
 20
110.7767314804247
 10
148.1333869727152
 20
110.8011162965461
 10
148.1329993994788
 20
110.8254795808211
 10
148.1329993994788
 20
110.8254795808211
 10
148.1357877735961
 20
110.8897090788256
 10
148.1439268115598
 20
110.9500628444665
 10
148.1571043015962
 20
111.0065301118205
 10
148.1750187978549
 20
111.0590247535017
 10
148.197304258946
 20
111.1075575354334
 10
148.2236700049422
 20
111.1520746279995
 10
148.2537930581465
 20
111.1925329675068
 10
148.2873396749387
 20
111.2288894902627
 10
148.323997643545
 20
111.2611011325741
 10
148.3634439862686
 20
111.2891571285177
 10
148.4053664913356
 20
111.3130036484775
 10
148.4494098832794
 20
111.3325976287605
 10
148.4952942480959
 20
111.3478960056737
 10
148.5426750762417
 20
111.3588772473708
 10
148.5912401559431
 20
111.3654875242355
 10
148.6406557435799
 20
111.3677053044214
 10
148.6406557435799
 20
111.3677053044214
 10
148.6776151580368
 20
111.3661657773991
 10
148.7171368622229
 20
111.3612780482516
 10
148.7585318370515
 20
111.3527622029748
 10
148.8011110634357
 20
111.3402737320252
 10
148.8442285859815
 20
111.3234465940129
 10
148.8871738537556
 20
111.3019578112411
 10
148.9292363158246
 20
111.2754844060126
 10
148.9697915486411
 20
111.2437034006305
 10
149.0081290012717
 20
111.2062595196282
 10
149.0435704205528
 20
111.1628190193854
 10
149.0754160214743
 20
111.1130696881284
 10
149.1030090827189
 20
111.0566562503906
 10
149.1256605851999
 20
110.9932557284749
 10
149.1426815098304
 20
110.922523612838
 10
149.1533936034466
 20
110.8441369257828
 97
        0
 75
     1
 76
     1
 98
        0
  0
LWPOLYLINE
  5
90
330
1F
100
AcDbEntity
  8
レイヤー_1
  6
Continuous
 62
   250
420
  2367521
370
    13
100
AcDbPolyline
 90
      141
 70
     0
 43
0.0
 10
149.157118612885
 20
110.757751157766
 10
149.1565049552608
 20
110.7223958658708
 10
149.1547178120042
 20
110.6871051695149
 10
149.1518325445779
 20
110.6519221323914
 10
149.1479137485213
 20
110.616835988577
 10
149.1430260193738
 20
110.5818790358414
 10
149.1372662504444
 20
110.5470620401077
 10
149.1306990372727
 20
110.5124065332226
 10
149.1233889753979
 20
110.477912515186
 10
149.1154006603594
 20
110.4436122837675
 10
149.1068417513897
 20
110.4095166048905
 10
149.0977445462583
 20
110.3756577763246
 10
149.0882059382744
 20
110.3420250321465
 10
149.0783012889005
 20
110.308650670126
 10
149.068084427753
 20
110.2755562221096
 10
149.0576414822175
 20
110.2427416880972
 10
149.0470478137569
 20
110.2102393658586
 10
148.891824732592
 20
110.2412882884609
 10
148.9028275061355
 20
110.2706469611156
 10
148.9135826634447
 20
110.3003824410836
 10
148.9240256089801
 20
110.3304624305949
 10
148.9340809812792
 20
110.3608653978032
 10
148.943705716649
 20
110.3915698108621
 10
148.9528136877036
 20
110.4225756697714
 10
148.9613510648269
 20
110.4538399108383
 10
148.9692640184027
 20
110.4853625340628
 10
148.9764879528917
 20
110.5171004757519
 10
148.9829367409079
 20
110.5490537359058
 10
148.9885780846816
 20
110.5811900167545
 10
148.9933258568271
 20
110.6134985523749
 10
148.9971369936514
 20
110.6459578109207
 10
148.9999361336918
 20
110.6785354946219
 10
149.001658681409
 20
110.7112208375555
 10
149.0022508071868
 20
110.743992307875
 10
149.0022508071868
 20
110.743992307875
 10
149.0004851957767
 20
110.7985863045865
 10
148.9952852548554
 20
110.8501335450233
 10
148.9868232391948
 20
110.8985694336459
 10
148.9752175739502
 20
110.9438401408382
 10
148.9606405138936
 20
110.9858595392143
 10
148.9432104841803
 20
111.024573799158
 10
148.9231320373518
 20
111.05991832513
 10
148.9005128326405
 20
111.0918177556677
 10
148.8755251248181
 20
111.120229027078
 10
148.8483088708866
 20
111.1450552460519
 10
148.8190147937712
 20
111.1662425829733
 10
148.787782850474
 20
111.1837264423027
 10
148.7547852957667
 20
111.1974422285008
 10
148.7201728525744
 20
111.2073253460282
 10
148.6840747119762
 20
111.2133004334222
 10
148.6466523628203
 20
111.2153028951434
 10
148.6466523628203
 20
111.2153028951434
 10
148.6128043001776
 20
111.2135049859636
 10
148.5792792152319
 20
111.20819738581
 10
148.546346256064
 20
111.1993693287594
 10
148.5142422729849
 20
111.1870638785048
 10
148.483257945922
 20
111.1713456305855
 10
148.45360859334
 20
111.1522468827712
 10
148.4255741292428
 20
111.1297784009851
 10
148.3993914039416
 20
111.1040047807667
 10
148.3753510973636
 20
111.0749583198857
 10
148.3536792938968
 20
111.0426713161117
 10
148.3346451416219
 20
111.0071868331377
 10
148.31848549085
 20
110.9685479346566
 10
148.3054802555853
 20
110.9267869184381
 10
148.295877052062
 20
110.8819360822518
 10
148.2899234965145
 20
110.8340492557141
 10
148.2878779711003
 20
110.7831479706713
 10
148.2878779711003
 20
110.7831479706713
 10
148.2878995029467
 20
110.773964638154
 10
148.2880932895649
 20
110.7624128025256
 10
148.2885885220336
 20
110.7485355274791
 10
148.2895574551246
 20
110.7325158337092
 10
148.2911615776862
 20
110.7144506145253
 10
148.2935408467205
 20
110.6944582950827
 10
148.2968567510761
 20
110.6726142368441
 10
148.3012815455247
 20
110.6490906945813
 10
148.3069659529913
 20
110.6239845616033
 10
148.3140606964015
 20
110.5973927312193
 10
148.3227164986804
 20
110.5694443945079
 10
148.3331163805229
 20
110.5402687425481
 10
148.3454002989311
 20
110.5099519027256
 10
148.3597189768302
 20
110.4786338320425
 10
148.3762339030687
 20
110.4464221897312
 10
148.3951173324183
 20
110.4134354009471
 10
148.3700757949798
 20
110.3037306432088
 10
147.508941893389
 20
110.3037306432088
 10
147.508941893389
 20
111.2798661367681
 10
147.6645202500206
 20
111.2798661367681
 10
147.6645202500206
 20
110.458598448907
 10
148.2173181102351
 20
110.458598448907
 10
148.208005586639
 20
110.4785046409638
 10
148.1991129340491
 20
110.4990137247215
 10
148.1906616843116
 20
110.520114934257
 10
148.1827056670429
 20
110.5417221421845
 10
148.1752556481661
 20
110.5638138166574
 10
148.1683116276811
 20
110.5863468939828
 10
148.1619166692811
 20
110.6092567786214
 10
148.1561030707356
 20
110.6325111728034
 10
148.1508815979679
 20
110.6560670128359
 10
148.1462845487476
 20
110.679881235026
 10
148.1423226889981
 20
110.7039000097575
 10
148.139028316489
 20
110.7280802733375
 10
148.1364229630668
 20
110.7523574302266
 10
148.1345389265011
 20
110.7767314804247
 10
148.1333869727152
 20
110.8011162965461
 10
148.1329993994788
 20
110.8254795808211
 10
148.1329993994788
 20
110.8254795808211
 10
148.1357877735961
 20
110.8897090788256
 10
148.1439268115598
 20
110.9500628444665
 10
148.1571043015962
 20
111.0065301118205
 10
148.1750187978549
 20
111.0590247535017
 10
148.197304258946
 20
111.1075575354334
 10
148.2236700049422
 20
111.1520746279995
 10
148.2537930581465
 20
111.1925329675068
 10
148.2873396749387
 20
111.2288894902627
 10
148.323997643545
 20
111.2611011325741
 10
148.3634439862686
 20
111.2891571285177
 10
148.4053664913356
 20
111.3130036484775
 10
148.4494098832794
 20
111.3325976287605
 10
148.4952942480959
 20
111.3478960056737
 10
148.5426750762417
 20
111.3588772473708
 10
148.5912401559431
 20
111.3654875242355
 10
148.6406557435799
 20
111.3677053044214
 10
148.6406557435799
 20
111.3677053044214
 10
148.6776151580368
 20
111.3661657773991
 10
148.7171368622229
 20
111.3612780482516
 10
148.7585318370515
 20
111.3527622029748
 10
148.8011110634357
 20
111.3402737320252
 10
148.8442285859815
 20
111.3234465940129
 10
148.8871738537556
 20
111.3019578112411
 10
148.9292363158246
 20
111.2754844060126
 10
148.9697915486411
 20
111.2437034006305
 10
149.0081290012717
 20
111.2062595196282
 10
149.0435704205528
 20
111.1628190193854
 10
149.0754160214743
 20
111.1130696881284
 10
149.1030090827189
 20
111.0566562503906
 10
149.1256605851999
 20
110.9932557284749
 10
149.1426815098304
 20
110.922523612838
 10
149.1533936034466
 20
110.8441369257828
 10
149.157118612885
 20
110.757751157766
  0
HATCH
  5
91
330
1F
100
AcDbEntity
  8
レイヤー_1
  6
Continuous
 62
   250
420
  2367521
370
    13
100
AcDbHatch
 10
0.0
 20
0.0
 30
0.0
210
0.0
220
0.0
230
1.0
  2
SOLID
 70
     1
 71
     0
 91
        1
 92
        3
 72
     0
 73
     1
 93
       67
 10
149.157118612885
 20
112.2282686120808
 10
149.156192743487
 20
112.2064676175352
 10
149.1534474330628
 20
112.1856355560804
 10
149.1490334045375
 20
112.1657724277166
 10
149.1430583171435
 20
112.1469535939064
 10
149.1356298301131
 20
112.1292651820356
 10
149.1268556026787
 20
112.1127825535667
 10
149.1168540599958
 20
112.0975487721929
 10
149.1057543931432
 20
112.0836284334534
 10
149.0936427295067
 20
112.0711076647341
 10
149.0806590260884
 20
112.0600402956512
 10
149.0669001761974
 20
112.050490921744
 10
149.0524953709125
 20
112.0425349044753
 10
149.0375522694659
 20
112.0362260734611
 10
149.02217853109
 20
112.031639790164
 10
149.0064925809404
 20
112.0288406501236
 10
148.9906128441726
 20
112.0278932488792
 10
148.9906128441726
 20
112.0278932488792
 10
148.9734196647704
 20
112.0289375434327
 10
148.9567001859905
 20
112.0319842997075
 10
148.9405297692954
 20
112.0369473903176
 10
148.9250160739175
 20
112.0436760923379
 10
148.9102344613194
 20
112.0521058102289
 10
148.8962495270405
 20
112.062118118835
 10
148.883211994006
 20
112.073605358924
 10
148.8711433940625
 20
112.0864491053403
 10
148.8601836842119
 20
112.1005524647747
 10
148.8503974599937
 20
112.115807777995
 10
148.8418600828704
 20
112.1321073857689
 10
148.8346899779976
 20
112.1493328629408
 10
148.8289517409147
 20
112.1673873162015
 10
148.8247422649308
 20
112.1861630863188
 10
148.8221584433551
 20
112.2055525140604
 10
148.82127563765
 20
112.2254479401939
 10
148.82127563765
 20
112.2254479401939
 10
148.8222445707409
 20
112.246204640186
 10
148.825076008551
 20
112.2661000663195
 10
148.8296622918481
 20
112.2850803889782
 10
148.8358634636299
 20
112.3030702466996
 10
148.8435933965108
 20
112.3199727461745
 10
148.852679835719
 20
112.3357771214796
 10
148.8630366538685
 20
112.350386479306
 10
148.8745346598807
 20
112.3637362241142
 10
148.8870769604465
 20
112.3757617603648
 10
148.9005128326405
 20
112.3864092584416
 10
148.9147346172306
 20
112.3955818250357
 10
148.929623889061
 20
112.4032471623771
 10
148.9450622229762
 20
112.4093299090034
 10
148.9609204278976
 20
112.4137439375287
 10
148.9770800786694
 20
112.4164461842601
 10
148.9934335160595
 20
112.4173612877348
 10
148.9934335160595
 20
112.4173612877348
 10
149.0111434597768
 20
112.4162308657954
 10
149.0281213207143
 20
112.4129364932863
 10
149.0443025033326
 20
112.4076611909024
 10
149.0596331780155
 20
112.4005126178761
 10
149.0740702810702
 20
112.3916845608255
 10
149.0875492169572
 20
112.3813492745224
 10
149.0999946242138
 20
112.3696251841223
 10
149.111395736917
 20
112.356684544397
 10
149.1216448958342
 20
112.3426888441948
 10
149.1307205691191
 20
112.3277888064412
 10
149.1385473953091
 20
112.3121459199845
 10
149.1450823107112
 20
112.29591090775
 10
149.1502714857092
 20
112.2792560245095
 10
149.1540395588406
 20
112.2623212272649
 10
149.1563434664123
 20
112.245278770788
 97
        0
 75
     1
 76
     1
 98
        0
  0
LWPOLYLINE
  5
92
330
1F
100
AcDbEntity
  8
レイヤー_1
  6
Continuous
 62
   250
420
  2367521
370
    13
100
AcDbPolyline
 90
       68
 70
     0
 43
0.0
 10
149.157118612885
 20
112.2282686120808
 10
149.156192743487
 20
112.2064676175352
 10
149.1534474330628
 20
112.1856355560804
 10
149.1490334045375
 20
112.1657724277166
 10
149.1430583171435
 20
112.1469535939064
 10
149.1356298301131
 20
112.1292651820356
 10
149.1268556026787
 20
112.1127825535667
 10
149.1168540599958
 20
112.0975487721929
 10
149.1057543931432
 20
112.0836284334534
 10
149.0936427295067
 20
112.0711076647341
 10
149.0806590260884
 20
112.0600402956512
 10
149.0669001761974
 20
112.050490921744
 10
149.0524953709125
 20
112.0425349044753
 10
149.0375522694659
 20
112.0362260734611
 10
149.02217853109
 20
112.031639790164
 10
149.0064925809404
 20
112.0288406501236
 10
148.9906128441726
 20
112.0278932488792
 10
148.9906128441726
 20
112.0278932488792
 10
148.9734196647704
 20
112.0289375434327
 10
148.9567001859905
 20
112.0319842997075
 10
148.9405297692954
 20
112.0369473903176
 10
148.9250160739175
 20
112.0436760923379
 10
148.9102344613194
 20
112.0521058102289
 10
148.8962495270405
 20
112.062118118835
 10
148.883211994006
 20
112.073605358924
 10
148.8711433940625
 20
112.0864491053403
 10
148.8601836842119
 20
112.1005524647747
 10
148.8503974599937
 20
112.115807777995
 10
148.8418600828704
 20
112.1321073857689
 10
148.8346899779976
 20
112.1493328629408
 10
148.8289517409147
 20
112.1673873162015
 10
148.8247422649308
 20
112.1861630863188
 10
148.8221584433551
 20
112.2055525140604
 10
148.82127563765
 20
112.2254479401939
 10
148.82127563765
 20
112.2254479401939
 10
148.8222445707409
 20
112.246204640186
 10
148.825076008551
 20
112.2661000663195
 10
148.8296622918481
 20
112.2850803889782
 10
148.8358634636299
 20
112.3030702466996
 10
148.8435933965108
 20
112.3199727461745
 10
148.852679835719
 20
112.3357771214796
 10
148.8630366538685
 20
112.350386479306
 10
148.8745346598807
 20
112.3637362241142
 10
148.8870769604465
 20
112.3757617603648
 10
148.9005128326405
 20
112.3864092584416
 10
148.9147346172306
 20
112.3955818250357
 10
148.929623889061
 20
112.4032471623771
 10
148.9450622229762
 20
112.4093299090034
 10
148.9609204278976
 20
112.4137439375287
 10
148.9770800786694
 20
112.4164461842601
 10
148.9934335160595
 20
112.4173612877348
 10
148.9934335160595
 20
112.4173612877348
 10
149.0111434597768
 20
112.4162308657954
 10
149.0281213207143
 20
112.4129364932863
 10
149.0443025033326
 20
112.4076611909024
 10
149.0596331780155
 20
112.4005126178761
 10
149.0740702810702
 20
112.3916845608255
 10
149.0875492169572
 20
112.3813492745224
 10
149.0999946242138
 20
112.3696251841223
 10
149.111395736917
 20
112.356684544397
 10
149.1216448958342
 20
112.3426888441948
 10
149.1307205691191
 20
112.3277888064412
 10
149.1385473953091
 20
112.3121459199845
 10
149.1450823107112
 20
112.29591090775
 10
149.1502714857092
 20
112.2792560245095
 10
149.1540395588406
 20
112.2623212272649
 10
149.1563434664123
 20
112.245278770788
 10
149.157118612885
 20
112.2282686120808
  0
HATCH
  5
93
330
1F
100
AcDbEntity
  8
レイヤー_1
  6
Continuous
 62
   250
420
  2367521
370
    13
100
AcDbHatch
 10
0.0
 20
0.0
 30
0.0
210
0.0
220
0.0
230
1.0
  2
SOLID
 70
     1
 71
     0
 91
        2
 92
        3
 72
     0
 73
     1
 93
       84
 10
147.76876668468
 20
113.941353082745
 10
147.7514012505061
 20
113.9275081054681
 10
147.7352631315807
 20
113.9125219403286
 10
147.7203307960574
 20
113.8964484169426
 10
147.7066257757825
 20
113.8794382582354
 10
147.6940834752168
 20
113.8615668256696
 10
147.6827254262066
 20
113.8429310125543
 10
147.6725300969055
 20
113.8236384781218
 10
147.6634544236205
 20
113.803775349758
 10
147.6555199381983
 20
113.7834492866952
 10
147.6486943428689
 20
113.7627571822425
 10
147.6429453398628
 20
113.7418066956323
 10
147.6382944610264
 20
113.7206839542503
 10
147.6346986426668
 20
113.6995073832521
 10
147.6321471188607
 20
113.6783523441005
 10
147.6306291236849
 20
113.6573372619508
 10
147.630123125293
 20
113.636548264189
 10
147.630123125293
 20
113.636548264189
 10
147.6317703115476
 20
113.5960576269119
 10
147.6365934451557
 20
113.5572141758894
 10
147.6445171646548
 20
113.5201686340467
 10
147.6554015130427
 20
113.4850286606161
 10
147.6691388310873
 20
113.4519449785229
 10
147.6855999277096
 20
113.4210467788459
 10
147.7046771436774
 20
113.3924632526638
 10
147.7262520538352
 20
113.3663235910555
 10
147.7502169989505
 20
113.342767751023
 10
147.7764427879447
 20
113.3219141577218
 10
147.8048109956621
 20
113.3039135340773
 10
147.8352139628704
 20
113.2888843052448
 10
147.8675332644141
 20
113.2769664282265
 10
147.9016397092144
 20
113.2682890941012
 10
147.9374364039621
 20
113.2629922598709
 10
147.9747941575786
 20
113.2611943506911
 10
147.9747941575786
 20
113.2611943506911
 10
148.0118074016516
 20
113.2627446436365
 10
148.0476148623226
 20
113.2673739906265
 10
148.0820119870502
 20
113.2750608598144
 10
148.1149018825252
 20
113.2857621875074
 10
148.1460584643598
 20
113.299456441859
 10
148.1753633073984
 20
113.3161113250996
 10
148.2026441568693
 20
113.3357160713058
 10
148.2277395239241
 20
113.3582168508615
 10
148.2504879197141
 20
113.3835921319203
 10
148.2707170894678
 20
113.4118203826357
 10
148.2882763102599
 20
113.4428585393147
 10
148.3030040932418
 20
113.4766958360342
 10
148.3147497154884
 20
113.5132999750244
 10
148.3233301563046
 20
113.5526386585156
 10
148.3286054586885
 20
113.5946688228149
 10
148.3303926019451
 20
113.6393797019991
 10
148.3303926019451
 20
113.6393797019991
 10
148.3288746067693
 20
113.6765544349206
 10
148.3244821100905
 20
113.7128786599068
 10
148.3174519622197
 20
113.7481585903394
 10
148.3080425453146
 20
113.7822973329094
 10
148.2964368800701
 20
113.8151118669218
 10
148.2829148804902
 20
113.8465052990675
 10
148.2677026309628
 20
113.8762623108818
 10
148.2510262158758
 20
113.9043075409023
 10
148.233111719617
 20
113.930468734357
 10
148.2142282902674
 20
113.9545844023976
 10
148.1945804803682
 20
113.9765361198685
 10
148.1744159061539
 20
113.9961623979212
 10
148.1539821838588
 20
114.0133340454769
 10
148.1334946319475
 20
114.0278788077639
 10
148.1132008666544
 20
114.0396890255498
 10
148.0933269723674
 20
114.048592444063
 10
148.0933269723674
 20
114.048592444063
 10
148.0719673806743
 20
114.0475804472792
 10
148.0503171090539
 20
114.0455995174044
 10
148.0284299871225
 20
114.0427250159013
 10
148.0064459718819
 20
114.0389784746165
 10
147.9844296588716
 20
114.0344029572427
 10
147.9625102391704
 20
114.029041527473
 10
147.9407523083177
 20
114.0229480149234
 10
147.9192742914691
 20
114.0161439514405
 10
147.8981515500871
 20
114.0086724007172
 10
147.8775025093273
 20
114.0005871923697
 10
147.8574132965757
 20
113.9919206241676
 10
147.8379808051411
 20
113.9827157598039
 10
147.8193019283329
 20
113.9730156629715
 10
147.80147355946
 20
113.9628633973633
 10
147.7846033577549
 20
113.9522912607491
 97
        0
 92
        3
 72
     0
 73
     1
 93
      171
 10
149.1206113672039
 20
113.6083307793969
 10
149.1252407141939
 20
113.5877032704836
 10
149.1295686153333
 20
113.5670542297238
 10
149.1336596661616
 20
113.5464267208105
 10
149.1374385052162
 20
113.5258207437437
 10
149.1409481961899
 20
113.5052255326001
 10
149.14414567539
 20
113.4846518533029
 10
149.1470847724324
 20
113.4641104717755
 10
149.1497116577011
 20
113.4435798561713
 10
149.1520478630426
 20
113.42309230426
 10
149.1540718566102
 20
113.4026370501185
 10
149.1557944043274
 20
113.382235625593
 10
149.1572155061941
 20
113.3618664988373
 10
149.1583351622103
 20
113.3415512016978
 10
149.1591210746062
 20
113.3213005000976
 10
149.1596055411517
 20
113.3010928621904
 10
149.1597670300002
 20
113.2809498198225
 10
149.1597670300002
 20
113.0918679100917
 10
148.9992578805282
 20
113.0918679100917
 10
148.9992578805282
 20
113.2386182096727
 10
148.9993224760676
 20
113.2422893894949
 10
148.9994947308393
 20
113.245906739701
 10
148.9997746448433
 20
113.249470260291
 10
149.0001406862332
 20
113.252990717188
 10
149.0005605572393
 20
113.2564788763153
 10
149.0010342578615
 20
113.2599562695193
 10
149.0015510221767
 20
113.2633905990305
 10
149.0020785524151
 20
113.2668356944648
 10
149.0025953167303
 20
113.2702807898992
 10
149.0031120810454
 20
113.2737258853336
 10
149.0035965475909
 20
113.2771925126144
 10
149.0040164185969
 20
113.2806806717417
 10
149.0043824599868
 20
113.2842118945619
 10
149.0046623739909
 20
113.2877754151519
 10
149.0048346287626
 20
113.291392765358
 10
149.004899224302
 20
113.2950639451802
 10
149.004899224302
 20
113.2950639451802
 10
149.0047700332232
 20
113.3125262726632
 10
149.0043609281404
 20
113.3299670682997
 10
149.0037042068232
 20
113.3473863320897
 10
149.0027783374252
 20
113.3647517662636
 10
149.0015833199464
 20
113.3820310730516
 10
149.0001406862332
 20
113.3992457843002
 10
148.9984289044393
 20
113.4163636022398
 10
148.9964264427181
 20
113.4333522291005
 10
148.9941763647625
 20
113.4502224308057
 10
148.9916786705726
 20
113.4669419095856
 10
148.9888902964554
 20
113.4834891335938
 10
148.9858435401806
 20
113.4998533369071
 10
148.9825384017483
 20
113.5160237536022
 10
148.9789748811583
 20
113.5319788518326
 10
148.9751314465644
 20
113.5477078656752
 10
148.9710296298128
 20
113.5631784973601
 10
148.9710296298128
 20
113.5631784973601
 10
148.9564956334491
 20
113.610699282508
 10
148.9392055607378
 20
113.6568527954053
 10
148.9188902635983
 20
113.701445249434
 10
148.8952698280264
 20
113.7442828579757
 10
148.8681181696342
 20
113.7851826003356
 10
148.837166140341
 20
113.823972221742
 10
148.8021661239125
 20
113.8604471696534
 10
148.7628489722677
 20
113.8944351892981
 10
148.7189670691724
 20
113.9257317281347
 10
148.670262032469
 20
113.954186063238
 10
148.6164754799999
 20
113.97957211022
 10
148.5573382636842
 20
114.0017176143091
 10
148.492613533211
 20
114.0204503207335
 10
148.4220321404993
 20
114.035576442875
 10
148.3453464693149
 20
114.0469021941155
 10
148.2622981375001
 20
114.05424455376
 10
148.2622981375001
 20
114.05424455376
 10
148.2895359232781
 20
114.0357809954164
 10
148.3150619272621
 20
114.015422634584
 10
148.3388438516825
 20
113.9932986623414
 10
148.3608816965393
 20
113.9695705675371
 10
148.3811862277556
 20
113.9443998390198
 10
148.3997466794083
 20
113.9179264337913
 10
148.4165415196508
 20
113.8902795429304
 10
148.4315922803297
 20
113.861631421209
 10
148.4448774295985
 20
113.832122025629
 10
148.4564184993037
 20
113.8018913131924
 10
148.4661831916754
 20
113.7711115386709
 10
148.4741822726371
 20
113.7399118931434
 10
148.4804157421887
 20
113.7084538654583
 10
148.4848728344069
 20
113.6768774126176
 10
148.4875427833686
 20
113.6453332575467
 10
148.4884363549968
 20
113.6139721231706
 10
148.4884363549968
 20
113.6139721231706
 10
148.4855187898009
 20
113.5520250008914
 10
148.4770244763705
 20
113.4942227590566
 10
148.4632979242492
 20
113.4405438658198
 10
148.4447374725965
 20
113.3909775552577
 10
148.4216876309559
 20
113.3454807636776
 10
148.3945252066405
 20
113.3040642570025
 10
148.3636270069635
 20
113.2666957374628
 10
148.3293375414683
 20
113.2333321413656
 10
148.2920443833912
 20
113.2039734687108
 10
148.252102808199
 20
113.178598187652
 10
148.2098896232047
 20
113.1571847663428
 10
148.1657708697983
 20
113.1397116729365
 10
148.1201233552929
 20
113.126157375587
 10
148.0733023551551
 20
113.1165003424475
 10
148.025673910775
 20
113.1107190416717
 10
147.9776148294655
 20
113.1088027073363
 10
147.9776148294655
 20
113.1088027073363
 10
147.9282423055217
 20
113.1112465719101
 10
147.8798602465152
 20
113.1185028041687
 10
147.8327485664502
 20
113.1303991493405
 10
147.7872087111771
 20
113.1467633526538
 10
147.7435528924697
 20
113.1674554571065
 10
147.7020717902552
 20
113.1922816760804
 10
147.6631099140771
 20
113.2211343503433
 10
147.6269471779395
 20
113.2537873955072
 10
147.593895793616
 20
113.2901223864165
 10
147.5642572069571
 20
113.3299670682997
 10
147.5383328638135
 20
113.3731707182313
 10
147.516445741882
 20
113.4195503155166
 10
147.49888652109
 20
113.4689551372301
 10
147.4859566472878
 20
113.5212344604467
 10
147.4779790981726
 20
113.5762052644714
 10
147.4752553195948
 20
113.6337275923021
 10
147.4752553195948
 20
113.6337275923021
 10
147.4757936157564
 20
113.6591244052074
 10
147.4773546746251
 20
113.68444585665
 10
147.4799815598938
 20
113.7096488829371
 10
147.4836419737929
 20
113.7346581226059
 10
147.4883036185525
 20
113.7594305119637
 10
147.4939987919424
 20
113.783901455471
 10
147.5007167280394
 20
113.8079848257419
 10
147.5084143631506
 20
113.8316375590835
 10
147.5171132291224
 20
113.8547950599564
 10
147.5268025600316
 20
113.8773927328212
 10
147.5374500581084
 20
113.8993767480618
 10
147.5490772551994
 20
113.9206717442155
 10
147.5616518535349
 20
113.9412238916662
 10
147.5751953849613
 20
113.9609685948744
 10
147.5896755517089
 20
113.9798520242241
 10
147.6050815878544
 20
113.9977988182525
 10
147.6050815878544
 20
113.9977988182525
 10
147.6337189436526
 20
114.0271251931376
 10
147.6644664204044
 20
114.0537708531378
 10
147.6971086996451
 20
114.0778542234087
 10
147.7314519947565
 20
114.0994937291058
 10
147.7672917531971
 20
114.1187647316919
 10
147.8044449542722
 20
114.135817954092
 10
147.8426962795169
 20
114.1507179918456
 10
147.8818304104668
 20
114.1636048019548
 10
147.9216643264267
 20
114.1745752777287
 10
147.9620042407785
 20
114.1837263124762
 10
148.0026240691344
 20
114.191176331353
 10
148.0433300248761
 20
114.1970329935915
 10
148.0839175554623
 20
114.2014039584238
 10
148.124203640198
 20
114.2043861191592
 10
148.1639729606185
 20
114.2060979009532
 10
148.2030317301057
 20
114.206646963038
 10
148.2030317301057
 20
114.206646963038
 10
148.2999358051206
 20
114.2035786749168
 10
148.3915430459052
 20
114.1945998949409
 10
148.4778534524594
 20
114.1799690052681
 10
148.5588670247833
 20
114.1599874517487
 10
148.6346268265697
 20
114.1349459143102
 10
148.7051005600491
 20
114.1051458388029
 10
148.7702989911446
 20
114.0708563733076
 10
148.8302328857794
 20
114.0323681977518
 10
148.8848914780303
 20
113.989993523909
 10
148.9343070656671
 20
113.9439907339369
 10
148.9784581168432
 20
113.8946720396092
 10
149.0173769293283
 20
113.8423065890068
 10
149.0510419712761
 20
113.7872065939033
 10
149.0794640086096
 20
113.7296519683029
 10
149.1026538072522
 20
113.6699333921327
 97
        0
 75
     1
 76
     1
 98
        0
  0
LWPOLYLINE
  5
94
330
1F
100
AcDbEntity
  8
レイヤー_1
  6
Continuous
 62
   250
420
  2367521
370
    13
100
AcDbPolyline
 90
       85
 70
     0
 43
0.0
 10
147.76876668468
 20
113.941353082745
 10
147.7514012505061
 20
113.9275081054681
 10
147.7352631315807
 20
113.9125219403286
 10
147.7203307960574
 20
113.8964484169426
 10
147.7066257757825
 20
113.8794382582354
 10
147.6940834752168
 20
113.8615668256696
 10
147.6827254262066
 20
113.8429310125543
 10
147.6725300969055
 20
113.8236384781218
 10
147.6634544236205
 20
113.803775349758
 10
147.6555199381983
 20
113.7834492866952
 10
147.6486943428689
 20
113.7627571822425
 10
147.6429453398628
 20
113.7418066956323
 10
147.6382944610264
 20
113.7206839542503
 10
147.6346986426668
 20
113.6995073832521
 10
147.6321471188607
 20
113.6783523441005
 10
147.6306291236849
 20
113.6573372619508
 10
147.630123125293
 20
113.636548264189
 10
147.630123125293
 20
113.636548264189
 10
147.6317703115476
 20
113.5960576269119
 10
147.6365934451557
 20
113.5572141758894
 10
147.6445171646548
 20
113.5201686340467
 10
147.6554015130427
 20
113.4850286606161
 10
147.6691388310873
 20
113.4519449785229
 10
147.6855999277096
 20
113.4210467788459
 10
147.7046771436774
 20
113.3924632526638
 10
147.7262520538352
 20
113.3663235910555
 10
147.7502169989505
 20
113.342767751023
 10
147.7764427879447
 20
113.3219141577218
 10
147.8048109956621
 20
113.3039135340773
 10
147.8352139628704
 20
113.2888843052448
 10
147.8675332644141
 20
113.2769664282265
 10
147.9016397092144
 20
113.2682890941012
 10
147.9374364039621
 20
113.2629922598709
 10
147.9747941575786
 20
113.2611943506911
 10
147.9747941575786
 20
113.2611943506911
 10
148.0118074016516
 20
113.2627446436365
 10
148.0476148623226
 20
113.2673739906265
 10
148.0820119870502
 20
113.2750608598144
 10
148.1149018825252
 20
113.2857621875074
 10
148.1460584643598
 20
113.299456441859
 10
148.1753633073984
 20
113.3161113250996
 10
148.2026441568693
 20
113.3357160713058
 10
148.2277395239241
 20
113.3582168508615
 10
148.2504879197141
 20
113.3835921319203
 10
148.2707170894678
 20
113.4118203826357
 10
148.2882763102599
 20
113.4428585393147
 10
148.3030040932418
 20
113.4766958360342
 10
148.3147497154884
 20
113.5132999750244
 10
148.3233301563046
 20
113.5526386585156
 10
148.3286054586885
 20
113.5946688228149
 10
148.3303926019451
 20
113.6393797019991
 10
148.3303926019451
 20
113.6393797019991
 10
148.3288746067693
 20
113.6765544349206
 10
148.3244821100905
 20
113.7128786599068
 10
148.3174519622197
 20
113.7481585903394
 10
148.3080425453146
 20
113.7822973329094
 10
148.2964368800701
 20
113.8151118669218
 10
148.2829148804902
 20
113.8465052990675
 10
148.2677026309628
 20
113.8762623108818
 10
148.2510262158758
 20
113.9043075409023
 10
148.233111719617
 20
113.930468734357
 10
148.2142282902674
 20
113.9545844023976
 10
148.1945804803682
 20
113.9765361198685
 10
148.1744159061539
 20
113.9961623979212
 10
148.1539821838588
 20
114.0133340454769
 10
148.1334946319475
 20
114.0278788077639
 10
148.1132008666544
 20
114.0396890255498
 10
148.0933269723674
 20
114.048592444063
 10
148.0933269723674
 20
114.048592444063
 10
148.0719673806743
 20
114.0475804472792
 10
148.0503171090539
 20
114.0455995174044
 10
148.0284299871225
 20
114.0427250159013
 10
148.0064459718819
 20
114.0389784746165
 10
147.9844296588716
 20
114.0344029572427
 10
147.9625102391704
 20
114.029041527473
 10
147.9407523083177
 20
114.0229480149234
 10
147.9192742914691
 20
114.0161439514405
 10
147.8981515500871
 20
114.0086724007172
 10
147.8775025093273
 20
114.0005871923697
 10
147.8574132965757
 20
113.9919206241676
 10
147.8379808051411
 20
113.9827157598039
 10
147.8193019283329
 20
113.9730156629715
 10
147.80147355946
 20
113.9628633973633
 10
147.7846033577549
 20
113.9522912607491
 10
147.76876668468
 20
113.941353082745
  0
LWPOLYLINE
  5
95
330
1F
100
AcDbEntity
  8
レイヤー_1
  6
Continuous
 62
   250
420
  2367521
370
    13
100
AcDbPolyline
 90
      172
 70
     0
 43
0.0
 10
149.1206113672039
 20
113.6083307793969
 10
149.1252407141939
 20
113.5877032704836
 10
149.1295686153333
 20
113.5670542297238
 10
149.1336596661616
 20
113.5464267208105
 10
149.1374385052162
 20
113.5258207437437
 10
149.1409481961899
 20
113.5052255326001
 10
149.14414567539
 20
113.4846518533029
 10
149.1470847724324
 20
113.4641104717755
 10
149.1497116577011
 20
113.4435798561713
 10
149.1520478630426
 20
113.42309230426
 10
149.1540718566102
 20
113.4026370501185
 10
149.1557944043274
 20
113.382235625593
 10
149.1572155061941
 20
113.3618664988373
 10
149.1583351622103
 20
113.3415512016978
 10
149.1591210746062
 20
113.3213005000976
 10
149.1596055411517
 20
113.3010928621904
 10
149.1597670300002
 20
113.2809498198225
 10
149.1597670300002
 20
113.0918679100917
 10
148.9992578805282
 20
113.0918679100917
 10
148.9992578805282
 20
113.2386182096727
 10
148.9993224760676
 20
113.2422893894949
 10
148.9994947308393
 20
113.245906739701
 10
148.9997746448433
 20
113.249470260291
 10
149.0001406862332
 20
113.252990717188
 10
149.0005605572393
 20
113.2564788763153
 10
149.0010342578615
 20
113.2599562695193
 10
149.0015510221767
 20
113.2633905990305
 10
149.0020785524151
 20
113.2668356944648
 10
149.0025953167303
 20
113.2702807898992
 10
149.0031120810454
 20
113.2737258853336
 10
149.0035965475909
 20
113.2771925126144
 10
149.0040164185969
 20
113.2806806717417
 10
149.0043824599868
 20
113.2842118945619
 10
149.0046623739909
 20
113.2877754151519
 10
149.0048346287626
 20
113.291392765358
 10
149.004899224302
 20
113.2950639451802
 10
149.004899224302
 20
113.2950639451802
 10
149.0047700332232
 20
113.3125262726632
 10
149.0043609281404
 20
113.3299670682997
 10
149.0037042068232
 20
113.3473863320897
 10
149.0027783374252
 20
113.3647517662636
 10
149.0015833199464
 20
113.3820310730516
 10
149.0001406862332
 20
113.3992457843002
 10
148.9984289044393
 20
113.4163636022398
 10
148.9964264427181
 20
113.4333522291005
 10
148.9941763647625
 20
113.4502224308057
 10
148.9916786705726
 20
113.4669419095856
 10
148.9888902964554
 20
113.4834891335938
 10
148.9858435401806
 20
113.4998533369071
 10
148.9825384017483
 20
113.5160237536022
 10
148.9789748811583
 20
113.5319788518326
 10
148.9751314465644
 20
113.5477078656752
 10
148.9710296298128
 20
113.5631784973601
 10
148.9710296298128
 20
113.5631784973601
 10
148.9564956334491
 20
113.610699282508
 10
148.9392055607378
 20
113.6568527954053
 10
148.9188902635983
 20
113.701445249434
 10
148.8952698280264
 20
113.7442828579757
 10
148.8681181696342
 20
113.7851826003356
 10
148.837166140341
 20
113.823972221742
 10
148.8021661239125
 20
113.8604471696534
 10
148.7628489722677
 20
113.8944351892981
 10
148.7189670691724
 20
113.9257317281347
 10
148.670262032469
 20
113.954186063238
 10
148.6164754799999
 20
113.97957211022
 10
148.5573382636842
 20
114.0017176143091
 10
148.492613533211
 20
114.0204503207335
 10
148.4220321404993
 20
114.035576442875
 10
148.3453464693149
 20
114.0469021941155
 10
148.2622981375001
 20
114.05424455376
 10
148.2622981375001
 20
114.05424455376
 10
148.2895359232781
 20
114.0357809954164
 10
148.3150619272621
 20
114.015422634584
 10
148.3388438516825
 20
113.9932986623414
 10
148.3608816965393
 20
113.9695705675371
 10
148.3811862277556
 20
113.9443998390198
 10
148.3997466794083
 20
113.9179264337913
 10
148.4165415196508
 20
113.8902795429304
 10
148.4315922803297
 20
113.861631421209
 10
148.4448774295985
 20
113.832122025629
 10
148.4564184993037
 20
113.8018913131924
 10
148.4661831916754
 20
113.7711115386709
 10
148.4741822726371
 20
113.7399118931434
 10
148.4804157421887
 20
113.7084538654583
 10
148.4848728344069
 20
113.6768774126176
 10
148.4875427833686
 20
113.6453332575467
 10
148.4884363549968
 20
113.6139721231706
 10
148.4884363549968
 20
113.6139721231706
 10
148.4855187898009
 20
113.5520250008914
 10
148.4770244763705
 20
113.4942227590566
 10
148.4632979242492
 20
113.4405438658198
 10
148.4447374725965
 20
113.3909775552577
 10
148.4216876309559
 20
113.3454807636776
 10
148.3945252066405
 20
113.3040642570025
 10
148.3636270069635
 20
113.2666957374628
 10
148.3293375414683
 20
113.2333321413656
 10
148.2920443833912
 20
113.2039734687108
 10
148.252102808199
 20
113.178598187652
 10
148.2098896232047
 20
113.1571847663428
 10
148.1657708697983
 20
113.1397116729365
 10
148.1201233552929
 20
113.126157375587
 10
148.0733023551551
 20
113.1165003424475
 10
148.025673910775
 20
113.1107190416717
 10
147.9776148294655
 20
113.1088027073363
 10
147.9776148294655
 20
113.1088027073363
 10
147.9282423055217
 20
113.1112465719101
 10
147.8798602465152
 20
113.1185028041687
 10
147.8327485664502
 20
113.1303991493405
 10
147.7872087111771
 20
113.1467633526538
 10
147.7435528924697
 20
113.1674554571065
 10
147.7020717902552
 20
113.1922816760804
 10
147.6631099140771
 20
113.2211343503433
 10
147.6269471779395
 20
113.2537873955072
 10
147.593895793616
 20
113.2901223864165
 10
147.5642572069571
 20
113.3299670682997
 10
147.5383328638135
 20
113.3731707182313
 10
147.516445741882
 20
113.4195503155166
 10
147.49888652109
 20
113.4689551372301
 10
147.4859566472878
 20
113.5212344604467
 10
147.4779790981726
 20
113.5762052644714
 10
147.4752553195948
 20
113.6337275923021
 10
147.4752553195948
 20
113.6337275923021
 10
147.4757936157564
 20
113.6591244052074
 10
147.4773546746251
 20
113.68444585665
 10
147.4799815598938
 20
113.7096488829371
 10
147.4836419737929
 20
113.7346581226059
 10
147.4883036185525
 20
113.7594305119637
 10
147.4939987919424
 20
113.783901455471
 10
147.5007167280394
 20
113.8079848257419
 10
147.5084143631506
 20
113.8316375590835
 10
147.5171132291224
 20
113.8547950599564
 10
147.5268025600316
 20
113.8773927328212
 10
147.5374500581084
 20
113.8993767480618
 10
147.5490772551994
 20
113.9206717442155
 10
147.5616518535349
 20
113.9412238916662
 10
147.5751953849613
 20
113.9609685948744
 10
147.5896755517089
 20
113.9798520242241
 10
147.6050815878544
 20
113.9977988182525
 10
147.6050815878544
 20
113.9977988182525
 10
147.6337189436526
 20
114.0271251931376
 10
147.6644664204044
 20
114.0537708531378
 10
147.6971086996451
 20
114.0778542234087
 10
147.7314519947565
 20
114.0994937291058
 10
147.7672917531971
 20
114.1187647316919
 10
147.8044449542722
 20
114.135817954092
 10
147.8426962795169
 20
114.1507179918456
 10
147.8818304104668
 20
114.1636048019548
 10
147.9216643264267
 20
114.1745752777287
 10
147.9620042407785
 20
114.1837263124762
 10
148.0026240691344
 20
114.191176331353
 10
148.0433300248761
 20
114.1970329935915
 10
148.0839175554623
 20
114.2014039584238
 10
148.124203640198
 20
114.2043861191592
 10
148.1639729606185
 20
114.2060979009532
 10
148.2030317301057
 20
114.206646963038
 10
148.2030317301057
 20
114.206646963038
 10
148.2999358051206
 20
114.2035786749168
 10
148.3915430459052
 20
114.1945998949409
 10
148.4778534524594
 20
114.1799690052681
 10
148.5588670247833
 20
114.1599874517487
 10
148.6346268265697
 20
114.1349459143102
 10
148.7051005600491
 20
114.1051458388029
 10
148.7702989911446
 20
114.0708563733076
 10
148.8302328857794
 20
114.0323681977518
 10
148.8848914780303
 20
113.989993523909
 10
148.9343070656671
 20
113.9439907339369
 10
148.9784581168432
 20
113.8946720396092
 10
149.0173769293283
 20
113.8423065890068
 10
149.0510419712761
 20
113.7872065939033
 10
149.0794640086096
 20
113.7296519683029
 10
149.1026538072522
 20
113.6699333921327
 10
149.1206113672039
 20
113.6083307793969
  0
HATCH
  5
96
330
1F
100
AcDbEntity
  8
レイヤー_1
  6
Continuous
 62
   250
420
  2367521
370
    13
100
AcDbHatch
 10
0.0
 20
0.0
 30
0.0
210
0.0
220
0.0
230
1.0
  2
SOLID
 70
     1
 71
     0
 91
        2
 92
        3
 72
     0
 73
     1
 93
      101
 10
142.8677631538206
 20
111.1077836198213
 10
142.8476524092225
 20
111.0960810612677
 10
142.8286505547173
 20
111.0832696126211
 10
142.8107360584585
 20
111.0693708057281
 10
142.7939950478321
 20
111.0544277042815
 10
142.7783952250684
 20
111.0385264356672
 10
142.7640227175531
 20
111.021699297655
 10
142.7508882912096
 20
111.0040108857841
 10
142.7389919460377
 20
110.9854934978244
 10
142.7284090435003
 20
110.9662224952384
 10
142.7191288176739
 20
110.946240941719
 10
142.7111943322517
 20
110.9255919009593
 10
142.7046486509264
 20
110.9043292025753
 10
142.6995025396213
 20
110.8825282080296
 10
142.6957882961061
 20
110.8602104491688
 10
142.6935382181505
 20
110.8374405215323
 10
142.6927846035243
 20
110.8142722547361
 10
142.6927846035243
 20
110.8142722547361
 10
142.6968541225061
 20
110.7587631545499
 10
142.7087181699082
 20
110.7085185908242
 10
142.7277738540296
 20
110.6633124791713
 10
142.7534721127853
 20
110.6228972033568
 10
142.7852423522442
 20
110.5870359130697
 10
142.822524744398
 20
110.555502523922
 10
142.8647486953155
 20
110.528081717449
 10
142.9113328451422
 20
110.5045258774165
 10
142.9617281317931
 20
110.4846089194365
 10
143.0153531954137
 20
110.4681047591213
 10
143.0716374420728
 20
110.4547765461596
 10
143.1300425756086
 20
110.4443874302403
 10
143.1899764702434
 20
110.4367005610523
 10
143.2508685320459
 20
110.4315006201311
 10
143.3121696989312
 20
110.4285507571654
 10
143.3732986110448
 20
110.4276248877674
 10
143.3732986110448
 20
110.4276248877674
 10
143.3996966548107
 20
110.4278509721553
 10
143.4260731667301
 20
110.4285292253189
 10
143.4524281468031
 20
110.4296704131816
 10
143.4787615950295
 20
110.4312422379735
 10
143.5050196817934
 20
110.4332554656179
 10
143.5311916411713
 20
110.4356777983452
 10
143.55729900501
 20
110.4385307680018
 10
143.583287943693
 20
110.441782076818
 10
143.6091476912972
 20
110.445442490717
 10
143.6348674818994
 20
110.4494904778524
 10
143.6604365495764
 20
110.4539152723009
 10
143.6858333624817
 20
110.4587276399858
 10
143.7110363887688
 20
110.4639168149839
 10
143.7360348625144
 20
110.4694612654485
 10
143.7608072518722
 20
110.4753609913799
 10
143.7853427909188
 20
110.4816052268547
 10
143.7853427909188
 20
110.4816052268547
 10
143.7995861073553
 20
110.4854378955254
 10
143.8166931593716
 20
110.4908316230649
 10
143.8361364167293
 20
110.4979586642447
 10
143.8574206469598
 20
110.5069805079135
 10
143.879986022055
 20
110.5180478769964
 10
143.9033480754693
 20
110.5313437921884
 10
143.9269685110412
 20
110.5470297423381
 10
143.9503090326091
 20
110.5652564503705
 10
143.9728528758577
 20
110.5862069369808
 10
143.9941048083185
 20
110.6100319250941
 10
144.0135050019833
 20
110.6369144354054
 10
144.0305582243834
 20
110.6669944249168
 10
144.0447369452805
 20
110.7004549143231
 10
144.0555028685129
 20
110.7374573924729
 10
144.0623392297655
 20
110.7781633482146
 10
144.0647400306463
 20
110.8227342703968
 10
144.0647400306463
 20
110.8227342703968
 10
144.060186045119
 20
110.8819468481751
 10
144.0470839165452
 20
110.9348182971694
 10
144.0261441958581
 20
110.9816931269233
 10
143.998109731761
 20
111.0229158469802
 10
143.9637341388799
 20
111.0588309668835
 10
143.9237925636876
 20
111.0897937621
 10
143.8789847911943
 20
111.1161487421729
 10
143.8301074997192
 20
111.138251182569
 10
143.7778712401956
 20
111.1564563587551
 10
143.7230403931729
 20
111.1710872484279
 10
143.6663578073542
 20
111.1825206589007
 10
143.6085878632892
 20
111.1910903337937
 10
143.5504518778341
 20
111.1971515485736
 10
143.4927142315387
 20
111.2010380468604
 10
143.436117773106
 20
111.2031266359675
 10
143.3814053512389
 20
111.2037402935918
 10
143.3563638138003
 20
111.2037402935918
 10
143.3240337463333
 20
111.2031051041211
 10
143.2917575084826
 20
111.2020392777211
 10
143.2595458661712
 20
111.2004997506988
 10
143.2274957127083
 20
111.1984111615917
 10
143.1955747503242
 20
111.1957412126301
 10
143.1639121700977
 20
111.1923930105048
 10
143.1324864401823
 20
111.1883019596765
 10
143.101340624271
 20
111.183414230529
 10
143.070539317903
 20
111.1776544615997
 10
143.0401255847715
 20
111.1709795891956
 10
143.0101209567227
 20
111.1633034859309
 10
142.9805684974498
 20
111.1545723221894
 10
142.9515220365687
 20
111.1447215024317
 10
142.9230031059261
 20
111.1336864311185
 10
142.8950763010612
 20
111.1213917467871
 97
        0
 92
        3
 72
     0
 73
     1
 93
      118
 10
144.2196078363446
 20
110.8142722547361
 10
144.2130406231728
 20
110.7281879325698
 10
144.1942217893625
 20
110.6516099206177
 10
144.1644324797784
 20
110.5840106886414
 10
144.1249753711317
 20
110.5248196427096
 10
144.0771639060565
 20
110.4734984866607
 10
144.0222792294177
 20
110.4294981584098
 10
143.9616240179263
 20
110.3922803617954
 10
143.8965117142167
 20
110.3613068006558
 10
143.8282126972303
 20
110.3360068810596
 10
143.7580511755247
 20
110.3158638386918
 10
143.6873082939645
 20
110.3003070796209
 10
143.6172974951842
 20
110.2888090736087
 10
143.5493106899715
 20
110.280809992647
 10
143.4846397891144
 20
110.2757715405743
 10
143.4245874693241
 20
110.2731554212288
 10
143.3704671732347
 20
110.2724018066025
 10
143.3704671732347
 20
110.2724018066025
 10
143.3625003900427
 20
110.2724986999116
 10
143.3526172725154
 20
110.2727893798389
 10
143.3409900754244
 20
110.2732523145379
 10
143.3278448831576
 20
110.2738982699318
 10
143.3133431845636
 20
110.2747057141743
 10
143.2976787662604
 20
110.2756854131884
 10
143.2810346489431
 20
110.2767943032813
 10
143.2636153851531
 20
110.2780431503763
 10
143.2456147615085
 20
110.2794427203965
 10
143.2272050327811
 20
110.2809499496491
 10
143.2085907515122
 20
110.2825756040572
 10
143.1899441724737
 20
110.2843089176976
 10
143.1714698482069
 20
110.2861391246471
 10
143.1533507994067
 20
110.2880662249057
 10
143.1357808126915
 20
110.2900794525501
 10
143.118942908756
 20
110.292157275734
 10
143.118942908756
 20
110.292157275734
 10
143.0753624515112
 20
110.2988106162916
 10
143.0314805484159
 20
110.3072295682594
 10
142.9876094112438
 20
110.3174787271766
 10
142.9440720176919
 20
110.3296442204292
 10
142.9011482817643
 20
110.3438337072496
 10
142.8592042448508
 20
110.3601333150234
 10
142.8184875231859
 20
110.3786399370599
 10
142.7793533922361
 20
110.3994504666682
 10
142.7420925319287
 20
110.4226402653108
 10
142.7070279199608
 20
110.4482954603736
 10
142.6744610021827
 20
110.476523711089
 10
142.6447255222148
 20
110.507421910766
 10
142.6181121599843
 20
110.5410546549441
 10
142.5949223613417
 20
110.5775403687787
 10
142.5755006358304
 20
110.6169651796558
 10
142.5601376633778
 20
110.6594044490379
 10
142.5601376633778
 20
110.6594044490379
 10
142.5575646077252
 20
110.6689322910986
 10
142.5551099772282
 20
110.6785893242381
 10
142.5528060696565
 20
110.6883755484563
 10
142.55065288501
 20
110.698269431907
 10
142.5486504232888
 20
110.7082709745898
 10
142.5467986844928
 20
110.7183694105818
 10
142.5450976686221
 20
110.7285647398829
 10
142.5435581415998
 20
110.7388246647234
 10
142.5421908693493
 20
110.7491599510265
 10
142.5409850859473
 20
110.759559832869
 10
142.539951557317
 20
110.7700135443277
 10
142.5391118153049
 20
110.7804995535561
 10
142.5384335621412
 20
110.7910286264774
 10
142.537959861519
 20
110.8015792312451
 10
142.5376584156685
 20
110.8121513678594
 10
142.5375615223594
 20
110.8227342703968
 10
142.5375615223594
 20
110.8227342703968
 10
142.5384873917574
 20
110.857486670591
 10
142.5412865317978
 20
110.8907856711489
 10
142.5459589424807
 20
110.9226420379936
 10
142.5525153897292
 20
110.9531526644342
 10
142.5609666394666
 20
110.9823498482405
 10
142.5713665213091
 20
111.0103197167983
 10
142.583682737487
 20
111.0371053338006
 10
142.5979260539235
 20
111.0627605288634
 10
142.6141287683883
 20
111.0873606634494
 10
142.6323231786511
 20
111.1109488012517
 10
142.6524769869421
 20
111.1336003037326
 10
142.6746332569544
 20
111.1553690005086
 10
142.698791988688
 20
111.1763087211956
 10
142.7249747139892
 20
111.1964840613331
 10
142.7531814328581
 20
111.2159596164606
 10
142.7834444430644
 20
111.2347784502708
 10
142.7834444430644
 20
111.2347784502708
 10
142.8184982891091
 20
111.2542755372447
 10
142.8548009822488
 20
111.2715979077257
 10
142.8921156721723
 20
111.2868639868692
 10
142.9301409130292
 20
111.3001706679845
 10
142.9686075567386
 20
111.3117009717664
 10
143.0072895189126
 20
111.321551791524
 10
143.0458638218544
 20
111.3298523183362
 10
143.0841043811759
 20
111.336742509205
 10
143.1217205169499
 20
111.3423300233626
 10
143.1584430810956
 20
111.3467655837343
 10
143.1940029255323
 20
111.3501676154758
 10
143.2281524340255
 20
111.3526545437425
 10
143.2605901607247
 20
111.3543770914597
 10
143.2910684893957
 20
111.3554429178597
 10
143.3193182719576
 20
111.3559919799445
 10
143.3450703603295
 20
111.3561427028698
 10
143.3450703603295
 20
111.3561427028698
 10
143.3985447010248
 20
111.3557981933263
 10
143.458726211894
 20
111.3542694322273
 10
143.5241614933006
 20
111.3508889323324
 10
143.5934832729941
 20
111.3448923130919
 10
143.6653027468775
 20
111.3356228531888
 10
143.7381988130841
 20
111.3223592357665
 10
143.8108041993635
 20
111.3043909098916
 10
143.8816978038489
 20
111.2809965587076
 10
143.9494800565201
 20
111.2514979290508
 10
144.012751387357
 20
111.2151737040646
 10
144.0701337581858
 20
111.1713025668925
 10
144.120216833063
 20
111.1192062643709
 10
144.1616010419683
 20
111.0581634796432
 10
144.1928975808049
 20
110.9874636617759
 10
144.2126961136293
 20
110.9063962598359
 97
        0
 75
     1
 76
     1
 98
        0
  0
LWPOLYLINE
  5
97
330
1F
100
AcDbEntity
  8
レイヤー_1
  6
Continuous
 62
   250
420
  2367521
370
    13
100
AcDbPolyline
 90
      102
 70
     0
 43
0.0
 10
142.8677631538206
 20
111.1077836198213
 10
142.8476524092225
 20
111.0960810612677
 10
142.8286505547173
 20
111.0832696126211
 10
142.8107360584585
 20
111.0693708057281
 10
142.7939950478321
 20
111.0544277042815
 10
142.7783952250684
 20
111.0385264356672
 10
142.7640227175531
 20
111.021699297655
 10
142.7508882912096
 20
111.0040108857841
 10
142.7389919460377
 20
110.9854934978244
 10
142.7284090435003
 20
110.9662224952384
 10
142.7191288176739
 20
110.946240941719
 10
142.7111943322517
 20
110.9255919009593
 10
142.7046486509264
 20
110.9043292025753
 10
142.6995025396213
 20
110.8825282080296
 10
142.6957882961061
 20
110.8602104491688
 10
142.6935382181505
 20
110.8374405215323
 10
142.6927846035243
 20
110.8142722547361
 10
142.6927846035243
 20
110.8142722547361
 10
142.6968541225061
 20
110.7587631545499
 10
142.7087181699082
 20
110.7085185908242
 10
142.7277738540296
 20
110.6633124791713
 10
142.7534721127853
 20
110.6228972033568
 10
142.7852423522442
 20
110.5870359130697
 10
142.822524744398
 20
110.555502523922
 10
142.8647486953155
 20
110.528081717449
 10
142.9113328451422
 20
110.5045258774165
 10
142.9617281317931
 20
110.4846089194365
 10
143.0153531954137
 20
110.4681047591213
 10
143.0716374420728
 20
110.4547765461596
 10
143.1300425756086
 20
110.4443874302403
 10
143.1899764702434
 20
110.4367005610523
 10
143.2508685320459
 20
110.4315006201311
 10
143.3121696989312
 20
110.4285507571654
 10
143.3732986110448
 20
110.4276248877674
 10
143.3732986110448
 20
110.4276248877674
 10
143.3996966548107
 20
110.4278509721553
 10
143.4260731667301
 20
110.4285292253189
 10
143.4524281468031
 20
110.4296704131816
 10
143.4787615950295
 20
110.4312422379735
 10
143.5050196817934
 20
110.4332554656179
 10
143.5311916411713
 20
110.4356777983452
 10
143.55729900501
 20
110.4385307680018
 10
143.583287943693
 20
110.441782076818
 10
143.6091476912972
 20
110.445442490717
 10
143.6348674818994
 20
110.4494904778524
 10
143.6604365495764
 20
110.4539152723009
 10
143.6858333624817
 20
110.4587276399858
 10
143.7110363887688
 20
110.4639168149839
 10
143.7360348625144
 20
110.4694612654485
 10
143.7608072518722
 20
110.4753609913799
 10
143.7853427909188
 20
110.4816052268547
 10
143.7853427909188
 20
110.4816052268547
 10
143.7995861073553
 20
110.4854378955254
 10
143.8166931593716
 20
110.4908316230649
 10
143.8361364167293
 20
110.4979586642447
 10
143.8574206469598
 20
110.5069805079135
 10
143.879986022055
 20
110.5180478769964
 10
143.9033480754693
 20
110.5313437921884
 10
143.9269685110412
 20
110.5470297423381
 10
143.9503090326091
 20
110.5652564503705
 10
143.9728528758577
 20
110.5862069369808
 10
143.9941048083185
 20
110.6100319250941
 10
144.0135050019833
 20
110.6369144354054
 10
144.0305582243834
 20
110.6669944249168
 10
144.0447369452805
 20
110.7004549143231
 10
144.0555028685129
 20
110.7374573924729
 10
144.0623392297655
 20
110.7781633482146
 10
144.0647400306463
 20
110.8227342703968
 10
144.0647400306463
 20
110.8227342703968
 10
144.060186045119
 20
110.8819468481751
 10
144.0470839165452
 20
110.9348182971694
 10
144.0261441958581
 20
110.9816931269233
 10
143.998109731761
 20
111.0229158469802
 10
143.9637341388799
 20
111.0588309668835
 10
143.9237925636876
 20
111.0897937621
 10
143.8789847911943
 20
111.1161487421729
 10
143.8301074997192
 20
111.138251182569
 10
143.7778712401956
 20
111.1564563587551
 10
143.7230403931729
 20
111.1710872484279
 10
143.6663578073542
 20
111.1825206589007
 10
143.6085878632892
 20
111.1910903337937
 10
143.5504518778341
 20
111.1971515485736
 10
143.4927142315387
 20
111.2010380468604
 10
143.436117773106
 20
111.2031266359675
 10
143.3814053512389
 20
111.2037402935918
 10
143.3563638138003
 20
111.2037402935918
 10
143.3240337463333
 20
111.2031051041211
 10
143.2917575084826
 20
111.2020392777211
 10
143.2595458661712
 20
111.2004997506988
 10
143.2274957127083
 20
111.1984111615917
 10
143.1955747503242
 20
111.1957412126301
 10
143.1639121700977
 20
111.1923930105048
 10
143.1324864401823
 20
111.1883019596765
 10
143.101340624271
 20
111.183414230529
 10
143.070539317903
 20
111.1776544615997
 10
143.0401255847715
 20
111.1709795891956
 10
143.0101209567227
 20
111.1633034859309
 10
142.9805684974498
 20
111.1545723221894
 10
142.9515220365687
 20
111.1447215024317
 10
142.9230031059261
 20
111.1336864311185
 10
142.8950763010612
 20
111.1213917467871
 10
142.8677631538206
 20
111.1077836198213
  0
LWPOLYLINE
  5
98
330
1F
100
AcDbEntity
  8
レイヤー_1
  6
Continuous
 62
   250
420
  2367521
370
    13
100
AcDbPolyline
 90
      119
 70
     0
 43
0.0
 10
144.2196078363446
 20
110.8142722547361
 10
144.2130406231728
 20
110.7281879325698
 10
144.1942217893625
 20
110.6516099206177
 10
144.1644324797784
 20
110.5840106886414
 10
144.1249753711317
 20
110.5248196427096
 10
144.0771639060565
 20
110.4734984866607
 10
144.0222792294177
 20
110.4294981584098
 10
143.9616240179263
 20
110.3922803617954
 10
143.8965117142167
 20
110.3613068006558
 10
143.8282126972303
 20
110.3360068810596
 10
143.7580511755247
 20
110.3158638386918
 10
143.6873082939645
 20
110.3003070796209
 10
143.6172974951842
 20
110.2888090736087
 10
143.5493106899715
 20
110.280809992647
 10
143.4846397891144
 20
110.2757715405743
 10
143.4245874693241
 20
110.2731554212288
 10
143.3704671732347
 20
110.2724018066025
 10
143.3704671732347
 20
110.2724018066025
 10
143.3625003900427
 20
110.2724986999116
 10
143.3526172725154
 20
110.2727893798389
 10
143.3409900754244
 20
110.2732523145379
 10
143.3278448831576
 20
110.2738982699318
 10
143.3133431845636
 20
110.2747057141743
 10
143.2976787662604
 20
110.2756854131884
 10
143.2810346489431
 20
110.2767943032813
 10
143.2636153851531
 20
110.2780431503763
 10
143.2456147615085
 20
110.2794427203965
 10
143.2272050327811
 20
110.2809499496491
 10
143.2085907515122
 20
110.2825756040572
 10
143.1899441724737
 20
110.2843089176976
 10
143.1714698482069
 20
110.2861391246471
 10
143.1533507994067
 20
110.2880662249057
 10
143.1357808126915
 20
110.2900794525501
 10
143.118942908756
 20
110.292157275734
 10
143.118942908756
 20
110.292157275734
 10
143.0753624515112
 20
110.2988106162916
 10
143.0314805484159
 20
110.3072295682594
 10
142.9876094112438
 20
110.3174787271766
 10
142.9440720176919
 20
110.3296442204292
 10
142.9011482817643
 20
110.3438337072496
 10
142.8592042448508
 20
110.3601333150234
 10
142.8184875231859
 20
110.3786399370599
 10
142.7793533922361
 20
110.3994504666682
 10
142.7420925319287
 20
110.4226402653108
 10
142.7070279199608
 20
110.4482954603736
 10
142.6744610021827
 20
110.476523711089
 10
142.6447255222148
 20
110.507421910766
 10
142.6181121599843
 20
110.5410546549441
 10
142.5949223613417
 20
110.5775403687787
 10
142.5755006358304
 20
110.6169651796558
 10
142.5601376633778
 20
110.6594044490379
 10
142.5601376633778
 20
110.6594044490379
 10
142.5575646077252
 20
110.6689322910986
 10
142.5551099772282
 20
110.6785893242381
 10
142.5528060696565
 20
110.6883755484563
 10
142.55065288501
 20
110.698269431907
 10
142.5486504232888
 20
110.7082709745898
 10
142.5467986844928
 20
110.7183694105818
 10
142.5450976686221
 20
110.7285647398829
 10
142.5435581415998
 20
110.7388246647234
 10
142.5421908693493
 20
110.7491599510265
 10
142.5409850859473
 20
110.759559832869
 10
142.539951557317
 20
110.7700135443277
 10
142.5391118153049
 20
110.7804995535561
 10
142.5384335621412
 20
110.7910286264774
 10
142.537959861519
 20
110.8015792312451
 10
142.5376584156685
 20
110.8121513678594
 10
142.5375615223594
 20
110.8227342703968
 10
142.5375615223594
 20
110.8227342703968
 10
142.5384873917574
 20
110.857486670591
 10
142.5412865317978
 20
110.8907856711489
 10
142.5459589424807
 20
110.9226420379936
 10
142.5525153897292
 20
110.9531526644342
 10
142.5609666394666
 20
110.9823498482405
 10
142.5713665213091
 20
111.0103197167983
 10
142.583682737487
 20
111.0371053338006
 10
142.5979260539235
 20
111.0627605288634
 10
142.6141287683883
 20
111.0873606634494
 10
142.6323231786511
 20
111.1109488012517
 10
142.6524769869421
 20
111.1336003037326
 10
142.6746332569544
 20
111.1553690005086
 10
142.698791988688
 20
111.1763087211956
 10
142.7249747139892
 20
111.1964840613331
 10
142.7531814328581
 20
111.2159596164606
 10
142.7834444430644
 20
111.2347784502708
 10
142.7834444430644
 20
111.2347784502708
 10
142.8184982891091
 20
111.2542755372447
 10
142.8548009822488
 20
111.2715979077257
 10
142.8921156721723
 20
111.2868639868692
 10
142.9301409130292
 20
111.3001706679845
 10
142.9686075567386
 20
111.3117009717664
 10
143.0072895189126
 20
111.321551791524
 10
143.0458638218544
 20
111.3298523183362
 10
143.0841043811759
 20
111.336742509205
 10
143.1217205169499
 20
111.3423300233626
 10
143.1584430810956
 20
111.3467655837343
 10
143.1940029255323
 20
111.3501676154758
 10
143.2281524340255
 20
111.3526545437425
 10
143.2605901607247
 20
111.3543770914597
 10
143.2910684893957
 20
111.3554429178597
 10
143.3193182719576
 20
111.3559919799445
 10
143.3450703603295
 20
111.3561427028698
 10
143.3450703603295
 20
111.3561427028698
 10
143.3985447010248
 20
111.3557981933263
 10
143.458726211894
 20
111.3542694322273
 10
143.5241614933006
 20
111.3508889323324
 10
143.5934832729941
 20
111.3448923130919
 10
143.6653027468775
 20
111.3356228531888
 10
143.7381988130841
 20
111.3223592357665
 10
143.8108041993635
 20
111.3043909098916
 10
143.8816978038489
 20
111.2809965587076
 10
143.9494800565201
 20
111.2514979290508
 10
144.012751387357
 20
111.2151737040646
 10
144.0701337581858
 20
111.1713025668925
 10
144.120216833063
 20
111.1192062643709
 10
144.1616010419683
 20
111.0581634796432
 10
144.1928975808049
 20
110.9874636617759
 10
144.2126961136293
 20
110.9063962598359
 10
144.2196078363446
 20
110.8142722547361
  0
HATCH
  5
99
330
1F
100
AcDbEntity
  8
レイヤー_1
  6
Continuous
 62
   250
420
  2367521
370
    13
100
AcDbHatch
 10
0.0
 20
0.0
 30
0.0
210
0.0
220
0.0
230
1.0
  2
SOLID
 70
     1
 71
     0
 91
        1
 92
        3
 72
     0
 73
     1
 93
       67
 10
144.2196078363446
 20
112.2282686120808
 10
144.2186712010233
 20
112.2064676175352
 10
144.2159474224455
 20
112.1856355560804
 10
144.211522627997
 20
112.1657724277166
 10
144.205547540603
 20
112.1469535939064
 10
144.1981190535727
 20
112.1292651820356
 10
144.1893448261382
 20
112.1127825535667
 10
144.1793540493786
 20
112.0975487721929
 10
144.1682436166027
 20
112.0836284334534
 10
144.1561319529663
 20
112.0711076647341
 10
144.143148249548
 20
112.0600402956512
 10
144.129389399657
 20
112.050490921744
 10
144.114984594372
 20
112.0425349044753
 10
144.1000414929254
 20
112.0362260734611
 10
144.0846677545495
 20
112.031639790164
 10
144.0689818043999
 20
112.0288406501236
 10
144.0531020676321
 20
112.0278932488792
 10
144.0531020676321
 20
112.0278932488792
 10
144.0359088882299
 20
112.0289375434327
 10
144.01918940945
 20
112.0319842997075
 10
144.0030189927549
 20
112.0369473903176
 10
143.987505297377
 20
112.0436760923379
 10
143.9727129188557
 20
112.0521058102289
 10
143.9587495164233
 20
112.062118118835
 10
143.9456904515424
 20
112.073605358924
 10
143.9336326175221
 20
112.0864491053403
 10
143.9226836735947
 20
112.1005524647747
 10
143.91287591753
 20
112.115807777995
 10
143.9043493063299
 20
112.1321073857689
 10
143.8971792014571
 20
112.1493328629408
 10
143.8914409643742
 20
112.1673873162015
 10
143.8872314883904
 20
112.1861630863188
 10
143.8846476668146
 20
112.2055525140604
 10
143.8837648611095
 20
112.2254479401939
 10
143.8837648611095
 20
112.2254479401939
 10
143.8847337942005
 20
112.246204640186
 10
143.8875759979338
 20
112.2661000663195
 10
143.8921515153076
 20
112.2850803889782
 10
143.8983526870895
 20
112.3030702466996
 10
143.9060826199703
 20
112.3199727461745
 10
143.9151690591785
 20
112.3357771214796
 10
143.9255258773281
 20
112.350386479306
 10
143.9370238833403
 20
112.3637362241142
 10
143.949566183906
 20
112.3757617603648
 10
143.9630020561001
 20
112.3864092584416
 10
143.9772238406901
 20
112.3955818250357
 10
143.9921131125205
 20
112.4032471623771
 10
144.0075406805125
 20
112.4093299090034
 10
144.0233988854339
 20
112.4137439375287
 10
144.039569302129
 20
112.4164461842601
 10
144.055922739519
 20
112.4173612877348
 10
144.055922739519
 20
112.4173612877348
 10
144.0736326832363
 20
112.4162308657954
 10
144.0906105441738
 20
112.4129364932863
 10
144.1067917267921
 20
112.4076611909024
 10
144.1221224014751
 20
112.4005126178761
 10
144.1365487386065
 20
112.3916845608255
 10
144.1500276744935
 20
112.3813492745224
 10
144.1624946135966
 20
112.3696251841223
 10
144.1738849603765
 20
112.356684544397
 10
144.1841341192938
 20
112.3426888441948
 10
144.1932097925787
 20
112.3277888064412
 10
144.2010473846919
 20
112.3121459199845
 10
144.2075715341707
 20
112.29591090775
 10
144.2127499432455
 20
112.2792560245095
 10
144.2165180163768
 20
112.2623212272649
 10
144.2188326898718
 20
112.245278770788
 97
        0
 75
     1
 76
     1
 98
        0
  0
LWPOLYLINE
  5
9A
330
1F
100
AcDbEntity
  8
レイヤー_1
  6
Continuous
 62
   250
420
  2367521
370
    13
100
AcDbPolyline
 90
       68
 70
     0
 43
0.0
 10
144.2196078363446
 20
112.2282686120808
 10
144.2186712010233
 20
112.2064676175352
 10
144.2159474224455
 20
112.1856355560804
 10
144.211522627997
 20
112.1657724277166
 10
144.205547540603
 20
112.1469535939064
 10
144.1981190535727
 20
112.1292651820356
 10
144.1893448261382
 20
112.1127825535667
 10
144.1793540493786
 20
112.0975487721929
 10
144.1682436166027
 20
112.0836284334534
 10
144.1561319529663
 20
112.0711076647341
 10
144.143148249548
 20
112.0600402956512
 10
144.129389399657
 20
112.050490921744
 10
144.114984594372
 20
112.0425349044753
 10
144.1000414929254
 20
112.0362260734611
 10
144.0846677545495
 20
112.031639790164
 10
144.0689818043999
 20
112.0288406501236
 10
144.0531020676321
 20
112.0278932488792
 10
144.0531020676321
 20
112.0278932488792
 10
144.0359088882299
 20
112.0289375434327
 10
144.01918940945
 20
112.0319842997075
 10
144.0030189927549
 20
112.0369473903176
 10
143.987505297377
 20
112.0436760923379
 10
143.9727129188557
 20
112.0521058102289
 10
143.9587495164233
 20
112.062118118835
 10
143.9456904515424
 20
112.073605358924
 10
143.9336326175221
 20
112.0864491053403
 10
143.9226836735947
 20
112.1005524647747
 10
143.91287591753
 20
112.115807777995
 10
143.9043493063299
 20
112.1321073857689
 10
143.8971792014571
 20
112.1493328629408
 10
143.8914409643742
 20
112.1673873162015
 10
143.8872314883904
 20
112.1861630863188
 10
143.8846476668146
 20
112.2055525140604
 10
143.8837648611095
 20
112.2254479401939
 10
143.8837648611095
 20
112.2254479401939
 10
143.8847337942005
 20
112.246204640186
 10
143.8875759979338
 20
112.2661000663195
 10
143.8921515153076
 20
112.2850803889782
 10
143.8983526870895
 20
112.3030702466996
 10
143.9060826199703
 20
112.3199727461745
 10
143.9151690591785
 20
112.3357771214796
 10
143.9255258773281
 20
112.350386479306
 10
143.9370238833403
 20
112.3637362241142
 10
143.949566183906
 20
112.3757617603648
 10
143.9630020561001
 20
112.3864092584416
 10
143.9772238406901
 20
112.3955818250357
 10
143.9921131125205
 20
112.4032471623771
 10
144.0075406805125
 20
112.4093299090034
 10
144.0233988854339
 20
112.4137439375287
 10
144.039569302129
 20
112.4164461842601
 10
144.055922739519
 20
112.4173612877348
 10
144.055922739519
 20
112.4173612877348
 10
144.0736326832363
 20
112.4162308657954
 10
144.0906105441738
 20
112.4129364932863
 10
144.1067917267921
 20
112.4076611909024
 10
144.1221224014751
 20
112.4005126178761
 10
144.1365487386065
 20
112.3916845608255
 10
144.1500276744935
 20
112.3813492745224
 10
144.1624946135966
 20
112.3696251841223
 10
144.1738849603765
 20
112.356684544397
 10
144.1841341192938
 20
112.3426888441948
 10
144.1932097925787
 20
112.3277888064412
 10
144.2010473846919
 20
112.3121459199845
 10
144.2075715341707
 20
112.29591090775
 10
144.2127499432455
 20
112.2792560245095
 10
144.2165180163768
 20
112.2623212272649
 10
144.2188326898718
 20
112.245278770788
 10
144.2196078363446
 20
112.2282686120808
  0
HATCH
  5
9B
330
1F
100
AcDbEntity
  8
レイヤー_1
  6
Continuous
 62
   250
420
  2367521
370
    13
100
AcDbHatch
 10
0.0
 20
0.0
 30
0.0
210
0.0
220
0.0
230
1.0
  2
SOLID
 70
     1
 71
     0
 91
        1
 92
        3
 72
     0
 73
     1
 93
        9
 10
144.1858566670109
 20
113.6506085599305
 10
144.1858566670109
 20
113.4784506815211
 10
142.726772623169
 20
114.0316038172023
 10
142.726772623169
 20
113.2159882390382
 10
142.9585414185163
 20
113.2159882390382
 10
142.9585414185163
 20
113.0635858297602
 10
142.5715495420041
 20
113.0635858297602
 10
142.5715495420041
 20
114.1981203518379
 10
142.7352346388296
 20
114.1981203518379
 97
        0
 75
     1
 76
     1
 98
        0
  0
LWPOLYLINE
  5
9C
330
1F
100
AcDbEntity
  8
レイヤー_1
  6
Continuous
 62
   250
420
  2367521
370
    13
100
AcDbPolyline
 90
       10
 70
     0
 43
0.0
 10
144.1858566670109
 20
113.6506085599305
 10
144.1858566670109
 20
113.4784506815211
 10
142.726772623169
 20
114.0316038172023
 10
142.726772623169
 20
113.2159882390382
 10
142.9585414185163
 20
113.2159882390382
 10
142.9585414185163
 20
113.0635858297602
 10
142.5715495420041
 20
113.0635858297602
 10
142.5715495420041
 20
114.1981203518379
 10
142.7352346388296
 20
114.1981203518379
 10
144.1858566670109
 20
113.6506085599305
  0
HATCH
  5
9D
330
1F
100
AcDbEntity
  8
レイヤー_1
  6
Continuous
 62
   250
420
  2367521
370
    13
100
AcDbHatch
 10
0.0
 20
0.0
 30
0.0
210
0.0
220
0.0
230
1.0
  2
SOLID
 70
     1
 71
     0
 91
        2
 92
        3
 72
     0
 73
     1
 93
        3
 10
141.8976242795017
 20
106.1853989654224
 10
141.8976242795017
 20
106.7865358209504
 10
141.0312043096039
 20
106.7865358209504
 97
        0
 92
        3
 72
     0
 73
     1
 93
       15
 10
142.5100438225774
 20
106.4760896586207
 10
142.3548207414125
 20
106.4760896586207
 10
142.3548207414125
 20
106.7865358209504
 10
142.0528473606666
 20
106.7865358209504
 10
142.0528473606666
 20
106.0135963624796
 10
141.914914352213
 20
106.0135963624796
 10
140.8957366975705
 20
106.7159759600852
 10
140.8957366975705
 20
106.9421034116587
 10
141.8976242795017
 20
106.9421034116587
 10
141.8976242795017
 20
107.2070420164851
 10
142.0528473606666
 20
107.2070420164851
 10
142.0528473606666
 20
106.9421034116587
 10
142.3548207414125
 20
106.9421034116587
 10
142.3548207414125
 20
107.2070420164851
 10
142.5100438225774
 20
107.2070420164851
 97
        0
 75
     1
 76
     1
 98
        0
  0
LWPOLYLINE
  5
9E
330
1F
100
AcDbEntity
  8
レイヤー_1
  6
Continuous
 62
   250
420
  2367521
370
    13
100
AcDbPolyline
 90
        4
 70
     0
 43
0.0
 10
141.8976242795017
 20
106.1853989654224
 10
141.8976242795017
 20
106.7865358209504
 10
141.0312043096039
 20
106.7865358209504
 10
141.8976242795017
 20
106.1853989654224
  0
LWPOLYLINE
  5
9F
330
1F
100
AcDbEntity
  8
レイヤー_1
  6
Continuous
 62
   250
420
  2367521
370
    13
100
AcDbPolyline
 90
       16
 70
     0
 43
0.0
 10
142.5100438225774
 20
106.4760896586207
 10
142.3548207414125
 20
106.4760896586207
 10
142.3548207414125
 20
106.7865358209504
 10
142.0528473606666
 20
106.7865358209504
 10
142.0528473606666
 20
106.0135963624796
 10
141.914914352213
 20
106.0135963624796
 10
140.8957366975705
 20
106.7159759600852
 10
140.8957366975705
 20
106.9421034116587
 10
141.8976242795017
 20
106.9421034116587
 10
141.8976242795017
 20
107.2070420164851
 10
142.0528473606666
 20
107.2070420164851
 10
142.0528473606666
 20
106.9421034116587
 10
142.3548207414125
 20
106.9421034116587
 10
142.3548207414125
 20
107.2070420164851
 10
142.5100438225774
 20
107.2070420164851
 10
142.5100438225774
 20
106.4760896586207
  0
HATCH
  5
A0
330
1F
100
AcDbEntity
  8
レイヤー_1
  6
Continuous
 62
   250
420
  2367521
370
    13
100
AcDbHatch
 10
0.0
 20
0.0
 30
0.0
210
0.0
220
0.0
230
1.0
  2
SOLID
 70
     1
 71
     0
 91
        1
 92
        3
 72
     0
 73
     1
 93
       10
 10
107.8642047365146
 20
115.6607894481163
 10
107.8642047365146
 20
115.8160125292812
 10
108.3609121366883
 20
115.8160125292812
 10
108.3609121366883
 20
117.1114114762976
 10
107.8642047365146
 20
117.0098134587533
 10
107.8642047365146
 20
117.1650365399182
 10
108.5164904933198
 20
117.3089661676123
 10
108.5164904933198
 20
115.8160125292812
 10
108.999094534059
 20
115.8160125292812
 10
108.999094534059
 20
115.6607894481163
 97
        0
 75
     1
 76
     1
 98
        0
  0
LWPOLYLINE
  5
A1
330
1F
100
AcDbEntity
  8
レイヤー_1
  6
Continuous
 62
   250
420
  2367521
370
    13
100
AcDbPolyline
 90
       11
 70
     0
 43
0.0
 10
107.8642047365146
 20
115.6607894481163
 10
107.8642047365146
 20
115.8160125292812
 10
108.3609121366883
 20
115.8160125292812
 10
108.3609121366883
 20
117.1114114762976
 10
107.8642047365146
 20
117.0098134587533
 10
107.8642047365146
 20
117.1650365399182
 10
108.5164904933198
 20
117.3089661676123
 10
108.5164904933198
 20
115.8160125292812
 10
108.999094534059
 20
115.8160125292812
 10
108.999094534059
 20
115.6607894481163
 10
107.8642047365146
 20
115.6607894481163
  0
HATCH
  5
A2
330
1F
100
AcDbEntity
  8
レイヤー_1
  6
Continuous
 62
   250
420
  2367521
370
    13
100
AcDbHatch
 10
0.0
 20
0.0
 30
0.0
210
0.0
220
0.0
230
1.0
  2
SOLID
 70
     1
 71
     0
 91
        1
 92
        3
 72
     0
 73
     1
 93
      140
 10
110.0628861745766
 20
115.6268767899342
 10
110.0275201167581
 20
115.6275012134817
 10
109.9922401863255
 20
115.6292883567383
 10
109.9570140855091
 20
115.632195156011
 10
109.9219279416947
 20
115.6361354839141
 10
109.8869386911893
 20
115.6410339789848
 10
109.8521109295325
 20
115.6468260456839
 10
109.8174231248777
 20
115.6534147907021
 10
109.7829075749946
 20
115.6607463844234
 10
109.7485965776529
 20
115.6687346994618
 10
109.7145008987758
 20
115.677315140278
 10
109.6806313042867
 20
115.6864015794862
 10
109.6470093260319
 20
115.6959294215469
 10
109.6136564958579
 20
115.7058233049975
 10
109.5805835796879
 20
115.7160078683753
 10
109.5478228752917
 20
115.7264077502178
 10
109.5153743826692
 20
115.7369475890624
 10
109.5464233052715
 20
115.8921706702272
 10
109.5757927438495
 20
115.8811678966837
 10
109.6055174578942
 20
115.8704235052978
 10
109.6355866814823
 20
115.8600020916088
 10
109.6659788827674
 20
115.8499682511562
 10
109.6966940617494
 20
115.8403758135561
 10
109.7276891547356
 20
115.8313001402712
 10
109.7589533958025
 20
115.8227842949943
 10
109.7904437212573
 20
115.8149036391882
 10
109.8221816629464
 20
115.8077335343154
 10
109.8541026253305
 20
115.8012955122225
 10
109.8862173743328
 20
115.7956864662184
 10
109.9184828462603
 20
115.7909602259194
 10
109.9508990411131
 20
115.7871813868648
 10
109.9834336611214
 20
115.7843930127476
 10
110.0160651744389
 20
115.7826812309536
 10
110.0487720492189
 20
115.7820998710991
 10
110.0487720492189
 20
115.7820998710991
 10
110.1034306414699
 20
115.7838654825092
 10
110.1550101796763
 20
115.789043891584
 10
110.2034891319919
 20
115.7975059072447
 10
110.2487706051074
 20
115.8090900406427
 10
110.2908007694067
 20
115.823645568853
 10
110.3295150293504
 20
115.8410433007965
 10
110.3648487893992
 20
115.8611002157785
 10
110.3967482199369
 20
115.8836978886433
 10
110.4251271935775
 20
115.9086748305425
 10
110.449931880705
 20
115.9358910844741
 10
110.4710976857799
 20
115.9651851615894
 10
110.4885600132628
 20
115.9964063389634
 10
110.5022542676145
 20
116.0294254255172
 10
110.5121158532954
 20
116.0640809324023
 10
110.5180801747661
 20
116.1002221366935
 10
110.5200826364873
 20
116.1376983154656
 10
110.5200826364873
 20
116.1376983154656
 10
110.518306259154
 20
116.1714925484921
 10
110.5129878930772
 20
116.2049530378984
 10
110.5041706019498
 20
116.2378429333734
 10
110.4918974494649
 20
116.2699038527596
 10
110.4762114993153
 20
116.3008558820527
 10
110.4571342833474
 20
116.3304729368651
 10
110.4346980993311
 20
116.3584858691158
 10
110.4089567768824
 20
116.3846470625706
 10
110.3799426137711
 20
116.4086658373021
 10
110.34769867369
 20
116.4303376407689
 10
110.3122464884857
 20
116.4493717930438
 10
110.273629121851
 20
116.4655099119692
 10
110.231889637479
 20
116.4785151472339
 10
110.1870603331392
 20
116.4881291166805
 10
110.1391735066015
 20
116.4940719063048
 10
110.0882829874819
 20
116.4961174317189
 10
110.0882829874819
 20
116.4961174317189
 10
110.0791104208878
 20
116.4960851339492
 10
110.067537053413
 20
116.4959128791775
 10
110.0536920761361
 20
116.4954068807856
 10
110.0376508505199
 20
116.4944487136179
 10
110.0195748654126
 20
116.4928445910563
 10
109.9995610141236
 20
116.4904653220219
 10
109.9777384877315
 20
116.4871386517431
 10
109.954182647699
 20
116.4827138572946
 10
109.9290549828745
 20
116.4770294498279
 10
109.902441620644
 20
116.4699347064177
 10
109.8744717520862
 20
116.4612681382156
 10
109.8452530364335
 20
116.4508790222963
 10
109.8149038988413
 20
116.4385951038882
 10
109.7835427644653
 20
116.4242764259891
 10
109.7512772925378
 20
116.4077507338273
 10
109.7182259082143
 20
116.3888780704009
 10
109.6085103845528
 20
116.4142748833062
 10
109.6085103845528
 20
117.2750535094302
 10
110.5850011535788
 20
117.2750535094302
 10
110.5850011535788
 20
117.1198304282653
 10
109.7637334657177
 20
117.1198304282653
 10
109.7637334657177
 20
116.5666772925841
 10
109.7836288918512
 20
116.5759898161802
 10
109.8041487415321
 20
116.5849040006166
 10
109.8252391851444
 20
116.5933660162773
 10
109.8468571589951
 20
116.6013435653925
 10
109.8689380675448
 20
116.6088151161158
 10
109.8914603789469
 20
116.6158022002936
 10
109.9143594976623
 20
116.6222079246169
 10
109.9376031259211
 20
116.6280645868553
 10
109.9611374341071
 20
116.6333183573928
 10
109.9849301244507
 20
116.6379477043827
 10
110.0089166014125
 20
116.6419418619019
 10
110.0330645672228
 20
116.6452577662575
 10
110.0573094263422
 20
116.647873885603
 10
110.0816296469242
 20
116.6497902199383
 10
110.1059606334295
 20
116.6509421737242
 10
110.1302700880883
 20
116.6513405128838
 10
110.1302700880883
 20
116.6513405128838
 10
110.194510352016
 20
116.6485521387666
 10
110.2548641176569
 20
116.6403808030332
 10
110.3113421509342
 20
116.6271925470735
 10
110.3638798563083
 20
116.6092672848915
 10
110.4124234041632
 20
116.5869495260308
 10
110.456972794499
 20
116.5605514822649
 10
110.4974526658528
 20
116.5304068972142
 10
110.5338414863784
 20
116.4968279826523
 10
110.5661069583059
 20
116.460126950353
 10
110.594184486096
 20
116.420659075783
 10
110.6180525379023
 20
116.3787150388695
 10
110.6376788159549
 20
116.334639349156
 10
110.6529987247147
 20
116.288733452493
 10
110.6639907323349
 20
116.241341858424
 10
110.6706225410461
 20
116.1927660127993
 10
110.672840321232
 20
116.1433396592393
 10
110.672840321232
 20
116.1433396592393
 10
110.6713007942098
 20
116.1063802447825
 10
110.6664238309855
 20
116.0668585405963
 10
110.6579079857086
 20
116.0254635657677
 10
110.6453979829126
 20
115.9828843393835
 10
110.6285708449003
 20
115.9397668168377
 10
110.6070928280517
 20
115.8968323149869
 10
110.5806301887464
 20
115.8547483210714
 10
110.5488384174411
 20
115.8142038541781
 10
110.511405302362
 20
115.7758664015475
 10
110.4679648021192
 20
115.7404357481897
 10
110.418204704939
 20
115.708579381345
 10
110.3617912672012
 20
115.6809863201003
 10
110.2983799793623
 20
115.6583348176193
 10
110.2276586296486
 20
115.6413138929889
 10
110.1492719425935
 20
115.6306017993726
 97
        0
 75
     1
 76
     1
 98
        0
  0
LWPOLYLINE
  5
A3
330
1F
100
AcDbEntity
  8
レイヤー_1
  6
Continuous
 62
   250
420
  2367521
370
    13
100
AcDbPolyline
 90
      141
 70
     0
 43
0.0
 10
110.0628861745766
 20
115.6268767899342
 10
110.0275201167581
 20
115.6275012134817
 10
109.9922401863255
 20
115.6292883567383
 10
109.9570140855091
 20
115.632195156011
 10
109.9219279416947
 20
115.6361354839141
 10
109.8869386911893
 20
115.6410339789848
 10
109.8521109295325
 20
115.6468260456839
 10
109.8174231248777
 20
115.6534147907021
 10
109.7829075749946
 20
115.6607463844234
 10
109.7485965776529
 20
115.6687346994618
 10
109.7145008987758
 20
115.677315140278
 10
109.6806313042867
 20
115.6864015794862
 10
109.6470093260319
 20
115.6959294215469
 10
109.6136564958579
 20
115.7058233049975
 10
109.5805835796879
 20
115.7160078683753
 10
109.5478228752917
 20
115.7264077502178
 10
109.5153743826692
 20
115.7369475890624
 10
109.5464233052715
 20
115.8921706702272
 10
109.5757927438495
 20
115.8811678966837
 10
109.6055174578942
 20
115.8704235052978
 10
109.6355866814823
 20
115.8600020916088
 10
109.6659788827674
 20
115.8499682511562
 10
109.6966940617494
 20
115.8403758135561
 10
109.7276891547356
 20
115.8313001402712
 10
109.7589533958025
 20
115.8227842949943
 10
109.7904437212573
 20
115.8149036391882
 10
109.8221816629464
 20
115.8077335343154
 10
109.8541026253305
 20
115.8012955122225
 10
109.8862173743328
 20
115.7956864662184
 10
109.9184828462603
 20
115.7909602259194
 10
109.9508990411131
 20
115.7871813868648
 10
109.9834336611214
 20
115.7843930127476
 10
110.0160651744389
 20
115.7826812309536
 10
110.0487720492189
 20
115.7820998710991
 10
110.0487720492189
 20
115.7820998710991
 10
110.1034306414699
 20
115.7838654825092
 10
110.1550101796763
 20
115.789043891584
 10
110.2034891319919
 20
115.7975059072447
 10
110.2487706051074
 20
115.8090900406427
 10
110.2908007694067
 20
115.823645568853
 10
110.3295150293504
 20
115.8410433007965
 10
110.3648487893992
 20
115.8611002157785
 10
110.3967482199369
 20
115.8836978886433
 10
110.4251271935775
 20
115.9086748305425
 10
110.449931880705
 20
115.9358910844741
 10
110.4710976857799
 20
115.9651851615894
 10
110.4885600132628
 20
115.9964063389634
 10
110.5022542676145
 20
116.0294254255172
 10
110.5121158532954
 20
116.0640809324023
 10
110.5180801747661
 20
116.1002221366935
 10
110.5200826364873
 20
116.1376983154656
 10
110.5200826364873
 20
116.1376983154656
 10
110.518306259154
 20
116.1714925484921
 10
110.5129878930772
 20
116.2049530378984
 10
110.5041706019498
 20
116.2378429333734
 10
110.4918974494649
 20
116.2699038527596
 10
110.4762114993153
 20
116.3008558820527
 10
110.4571342833474
 20
116.3304729368651
 10
110.4346980993311
 20
116.3584858691158
 10
110.4089567768824
 20
116.3846470625706
 10
110.3799426137711
 20
116.4086658373021
 10
110.34769867369
 20
116.4303376407689
 10
110.3122464884857
 20
116.4493717930438
 10
110.273629121851
 20
116.4655099119692
 10
110.231889637479
 20
116.4785151472339
 10
110.1870603331392
 20
116.4881291166805
 10
110.1391735066015
 20
116.4940719063048
 10
110.0882829874819
 20
116.4961174317189
 10
110.0882829874819
 20
116.4961174317189
 10
110.0791104208878
 20
116.4960851339492
 10
110.067537053413
 20
116.4959128791775
 10
110.0536920761361
 20
116.4954068807856
 10
110.0376508505199
 20
116.4944487136179
 10
110.0195748654126
 20
116.4928445910563
 10
109.9995610141236
 20
116.4904653220219
 10
109.9777384877315
 20
116.4871386517431
 10
109.954182647699
 20
116.4827138572946
 10
109.9290549828745
 20
116.4770294498279
 10
109.902441620644
 20
116.4699347064177
 10
109.8744717520862
 20
116.4612681382156
 10
109.8452530364335
 20
116.4508790222963
 10
109.8149038988413
 20
116.4385951038882
 10
109.7835427644653
 20
116.4242764259891
 10
109.7512772925378
 20
116.4077507338273
 10
109.7182259082143
 20
116.3888780704009
 10
109.6085103845528
 20
116.4142748833062
 10
109.6085103845528
 20
117.2750535094302
 10
110.5850011535788
 20
117.2750535094302
 10
110.5850011535788
 20
117.1198304282653
 10
109.7637334657177
 20
117.1198304282653
 10
109.7637334657177
 20
116.5666772925841
 10
109.7836288918512
 20
116.5759898161802
 10
109.8041487415321
 20
116.5849040006166
 10
109.8252391851444
 20
116.5933660162773
 10
109.8468571589951
 20
116.6013435653925
 10
109.8689380675448
 20
116.6088151161158
 10
109.8914603789469
 20
116.6158022002936
 10
109.9143594976623
 20
116.6222079246169
 10
109.9376031259211
 20
116.6280645868553
 10
109.9611374341071
 20
116.6333183573928
 10
109.9849301244507
 20
116.6379477043827
 10
110.0089166014125
 20
116.6419418619019
 10
110.0330645672228
 20
116.6452577662575
 10
110.0573094263422
 20
116.647873885603
 10
110.0816296469242
 20
116.6497902199383
 10
110.1059606334295
 20
116.6509421737242
 10
110.1302700880883
 20
116.6513405128838
 10
110.1302700880883
 20
116.6513405128838
 10
110.194510352016
 20
116.6485521387666
 10
110.2548641176569
 20
116.6403808030332
 10
110.3113421509342
 20
116.6271925470735
 10
110.3638798563083
 20
116.6092672848915
 10
110.4124234041632
 20
116.5869495260308
 10
110.456972794499
 20
116.5605514822649
 10
110.4974526658528
 20
116.5304068972142
 10
110.5338414863784
 20
116.4968279826523
 10
110.5661069583059
 20
116.460126950353
 10
110.594184486096
 20
116.420659075783
 10
110.6180525379023
 20
116.3787150388695
 10
110.6376788159549
 20
116.334639349156
 10
110.6529987247147
 20
116.288733452493
 10
110.6639907323349
 20
116.241341858424
 10
110.6706225410461
 20
116.1927660127993
 10
110.672840321232
 20
116.1433396592393
 10
110.672840321232
 20
116.1433396592393
 10
110.6713007942098
 20
116.1063802447825
 10
110.6664238309855
 20
116.0668585405963
 10
110.6579079857086
 20
116.0254635657677
 10
110.6453979829126
 20
115.9828843393835
 10
110.6285708449003
 20
115.9397668168377
 10
110.6070928280517
 20
115.8968323149869
 10
110.5806301887464
 20
115.8547483210714
 10
110.5488384174411
 20
115.8142038541781
 10
110.511405302362
 20
115.7758664015475
 10
110.4679648021192
 20
115.7404357481897
 10
110.418204704939
 20
115.708579381345
 10
110.3617912672012
 20
115.6809863201003
 10
110.2983799793623
 20
115.6583348176193
 10
110.2276586296486
 20
115.6413138929889
 10
110.1492719425935
 20
115.6306017993726
 10
110.0628861745766
 20
115.6268767899342
  0
HATCH
  5
A4
330
1F
100
AcDbEntity
  8
レイヤー_1
  6
Continuous
 62
   250
420
  2367521
370
    13
100
AcDbHatch
 10
0.0
 20
0.0
 30
0.0
210
0.0
220
0.0
230
1.0
  2
SOLID
 70
     1
 71
     0
 91
        1
 92
        3
 72
     0
 73
     1
 93
      240
 10
119.1220768310288
 20
93.94810777076296
 10
119.1088562772994
 20
93.94831232330438
 10
119.0926427969114
 20
93.94896904462156
 10
119.0736624742527
 20
93.95012099840743
 10
119.052184457404
 20
93.95181124835491
 10
119.0284348307533
 20
93.95409362408019
 10
119.0026719764582
 20
93.9570219551994
 10
118.9751219789064
 20
93.9606393054055
 10
118.9460539861789
 20
93.96499950431462
 10
118.9156725508171
 20
93.97015638154295
 10
118.8842575868249
 20
93.97613146893693
 10
118.8520459445135
 20
93.98301089388244
 10
118.8192637082708
 20
93.99082695414917
 10
118.7861692602544
 20
93.99962271343006
 10
118.7530102166986
 20
94.00945200134123
 10
118.7200234279145
 20
94.02037941342213
 10
118.6874565101364
 20
94.0324264815192
 10
118.5858584925922
 20
94.07228192932558
 10
118.6253694308551
 20
94.2049288694721
 10
118.6512184125362
 20
94.19541179333464
 10
118.6777779451505
 20
94.18597007865982
 10
118.7050049650053
 20
94.17666832098702
 10
118.7328456424843
 20
94.16757111585562
 10
118.7612353820481
 20
94.15877535657475
 10
118.7901311200039
 20
94.15035640460701
 10
118.8194467289658
 20
94.14236808956856
 10
118.8491606770872
 20
94.1349073047685
 10
118.8791868369824
 20
94.12803864574622
 10
118.9095036768049
 20
94.12183747396435
 10
118.9400250691688
 20
94.11638991680876
 10
118.9706971844579
 20
94.11176056981881
 10
119.0014769589794
 20
94.10803556038042
 10
119.0322997971937
 20
94.10526871810967
 10
119.0631118694849
 20
94.10355693631573
 10
119.0938593462367
 20
94.10297557646118
 10
119.0938593462367
 20
94.10297557646118
 10
119.1421229800875
 20
94.10450433756017
 10
119.188373386294
 20
94.10903679124102
 10
119.2324706078539
 20
94.11644374642492
 10
119.2742639218421
 20
94.12661754387955
 10
119.3135810734869
 20
94.13943975844936
 10
119.3502928717094
 20
94.15478119905552
 10
119.3842162958147
 20
94.17255573831224
 10
119.4152329206473
 20
94.19262341921745
 10
119.4431704914354
 20
94.21488734846207
 10
119.4678782852538
 20
94.23921833496732
 10
119.4892055791772
 20
94.26549795357764
 10
119.5070016502804
 20
94.2936293109839
 10
119.5211050097148
 20
94.32348321610738
 10
119.5313649345553
 20
94.35494124379248
 10
119.5376414677998
 20
94.38789573480689
 10
119.5397623546766
 20
94.42223902991827
 10
119.5397623546766
 20
94.42223902991827
 10
119.5382335935776
 20
94.45051034432657
 10
119.5337442035897
 20
94.47714523840355
 10
119.5266171624098
 20
94.50215447807244
 10
119.5170570225794
 20
94.52555959517971
 10
119.5053329321793
 20
94.54737135564856
 10
119.4916925074439
 20
94.56760052540227
 10
119.4763941305306
 20
94.58629016813373
 10
119.4596854176739
 20
94.60342951791972
 10
119.4418139851081
 20
94.61907240437641
 10
119.4230382149908
 20
94.63319729565734
 10
119.4036164894795
 20
94.64585802137864
 10
119.3837856588855
 20
94.65704381561713
 10
119.3638148712893
 20
94.66678697614245
 10
119.3439409770023
 20
94.6751090348011
 10
119.3244223581819
 20
94.68200999159308
 10
119.3055173969858
 20
94.6875329102113
 10
119.3055173969858
 20
94.6875329102113
 10
119.2906711888483
 20
94.6910210693386
 10
119.2757603851715
 20
94.69419701669216
 10
119.2607849859552
 20
94.69708228411845
 10
119.2457557571227
 20
94.69968763754069
 10
119.2306942305206
 20
94.70202384288213
 10
119.2155788743023
 20
94.70409090014275
 10
119.2004096884678
 20
94.70592110709225
 10
119.1852297367101
 20
94.70750369780743
 10
119.1699959553363
 20
94.70886020413471
 10
119.1547406421159
 20
94.71001215792057
 10
119.1394530311259
 20
94.71094879324178
 10
119.1241438882894
 20
94.71169164194484
 10
119.108834745453
 20
94.71225146995292
 10
119.0934933048468
 20
94.71263904318928
 10
119.0781518642406
 20
94.71285436165394
 10
119.0628104236344
 20
94.71292972311656
 10
119.0176581415977
 20
94.71292972311656
 10
119.0176581415977
 20
94.86779752881476
 10
119.026475432725
 20
94.86779752881476
 10
119.0808433450487
 20
94.86981075645923
 10
119.1308941221562
 20
94.87560282315826
 10
119.176746189203
 20
94.88490458083106
 10
119.2184964394983
 20
94.89740381770389
 10
119.2562740641208
 20
94.91277755607976
 10
119.2901759563796
 20
94.93071358418496
 10
119.3203313073536
 20
94.95093198801543
 10
119.3468477762751
 20
94.97309902395097
 10
119.3698114905298
 20
94.99692401206428
 10
119.3893624071198
 20
95.02210550650489
 10
119.4055974193543
 20
95.0483205295758
 10
119.4186349523888
 20
95.07526763542651
 10
119.4285826654555
 20
95.10263461228331
 10
119.4355482177869
 20
95.13013078021888
 10
119.4396392686152
 20
95.15743316153626
 10
119.4409850090192
 20
95.18424031038498
 10
119.4409850090192
 20
95.18424031038498
 10
119.4397038641546
 20
95.21125201177509
 10
119.4357958340212
 20
95.23817758577934
 10
119.4292393867727
 20
95.26476941616339
 10
119.419991458716
 20
95.29082295038583
 10
119.4080520498513
 20
95.31609057221229
 10
119.3933673305623
 20
95.34035696317814
 10
119.3758942371561
 20
95.3633960388955
 10
119.3556112377862
 20
95.38497094905324
 10
119.3324968006063
 20
95.4048556092635
 10
119.306497096
 20
95.42283470106162
 10
119.2775798261977
 20
95.43866060821327
 10
119.245723459353
 20
95.45212877817701
 10
119.2108956976962
 20
95.46300236064175
 10
119.1730534775343
 20
95.47104450529636
 10
119.1321645010976
 20
95.47603989367619
 10
119.0882072365396
 20
95.47775167547015
 10
119.0882072365396
 20
95.47775167547015
 10
119.0540038984303
 20
95.47665355130044
 10
119.0202634950199
 20
95.47354219948627
 10
118.9871367492338
 20
95.46862217256907
 10
118.9547420862275
 20
95.46213032085993
 10
118.923219463003
 20
95.45431426059318
 10
118.8927196024856
 20
95.44536777838707
 10
118.863371695754
 20
95.43553849047586
 10
118.8353156998104
 20
95.42505248124749
 10
118.8086808057334
 20
95.41414660101307
 10
118.7836177364483
 20
95.40304693416046
 10
118.7602449171108
 20
95.39196879915431
 10
118.7387130706459
 20
95.38115981222896
 10
118.7191513881327
 20
95.37083529184909
 10
118.7017105924962
 20
95.36123208832578
 10
118.686509108892
 20
95.35257628604691
 10
118.6736976602454
 20
95.34510473532363
 10
118.6225487589683
 20
95.46928965980948
 10
118.6507877756069
 20
95.48691347614093
 10
118.6794466632515
 20
95.50375138007641
 10
118.7085038900558
 20
95.51977107384624
 10
118.7379917537894
 20
95.534907961911
 10
118.7679102544522
 20
95.54912974650102
 10
118.7982593920444
 20
95.56236106615364
 10
118.8290606984123
 20
95.5745696230992
 10
118.860314173556
 20
95.5857015877215
 10
118.8920305833987
 20
95.59572466225089
 10
118.9242314597868
 20
95.60455271930147
 10
118.9568952708739
 20
95.61217499295
 10
118.9900543144298
 20
95.6185161217339
 10
119.0236978245311
 20
95.6235330419602
 10
119.0578580989475
 20
95.62718268993598
 10
119.0925243717559
 20
95.62940047012185
 10
119.1277181748026
 20
95.63015408474813
 10
119.1277181748026
 20
95.63015408474813
 10
119.1627397230776
 20
95.62899136503903
 10
119.1968138701082
 20
95.62554626960465
 10
119.2298867862782
 20
95.61996952137028
 10
119.2619154078946
 20
95.61236877956819
 10
119.2927813098019
 20
95.60290553304691
 10
119.3224414283072
 20
95.59166590919227
 10
119.3508096360246
 20
95.57878986500631
 10
119.3778428692612
 20
95.5644065915678
 10
119.4034442347078
 20
95.54863451403233
 10
119.4275599027484
 20
95.53160282347866
 10
119.4501037459971
 20
95.51345147690881
 10
119.4710219348377
 20
95.4942773676319
 10
119.4902283418843
 20
95.47422045264992
 10
119.5076691375208
 20
95.45340992304168
 10
119.5232581943613
 20
95.43197496988594
 10
119.5369416827897
 20
95.41002325241506
 10
119.5369416827897
 20
95.41002325241506
 10
119.542701451719
 20
95.39921426548972
 10
119.5482889658767
 20
95.3880500030977
 10
119.5536826934161
 20
95.37656276300874
 10
119.5588503365677
 20
95.36470948152984
 10
119.5637918953313
 20
95.35249015866106
 10
119.5684427741677
 20
95.33987249663268
 10
119.5727922071536
 20
95.3268564954447
 10
119.5768078965193
 20
95.3134421550971
 10
119.5804467785719
 20
95.29960794374347
 10
119.5837088533113
 20
95.28533232953728
 10
119.5865510570446
 20
95.27060454655535
 10
119.588930326079
 20
95.2554353607209
 10
119.5908358944911
 20
95.23978170834097
 10
119.5922354645114
 20
95.22364358941559
 10
119.5930967383699
 20
95.20702100394475
 10
119.5933874182972
 20
95.18988165415875
 10
119.5933874182972
 20
95.18988165415875
 10
119.5921170393558
 20
95.15018769520086
 10
119.5884243276871
 20
95.11355125844096
 10
119.5824707721396
 20
95.0797462594912
 10
119.5744178615617
 20
95.04858967765662
 10
119.5644378507253
 20
95.01988772631901
 10
119.552659930709
 20
94.99341432109051
 10
119.5392886540544
 20
94.96899720719941
 10
119.5244639777633
 20
94.94642106618105
 10
119.5083473906844
 20
94.92550287734048
 10
119.4911219135126
 20
94.90603808813628
 10
119.4729275032498
 20
94.88781138010381
 10
119.4539364146678
 20
94.87065049847135
 10
119.4343101366151
 20
94.85434012477425
 10
119.4142209238635
 20
94.8386757064711
 10
119.3938087334148
 20
94.82347422286693
 10
119.3732565859642
 20
94.80853112142034
 10
119.3732565859642
 20
94.80853112142034
 10
119.392613715936
 20
94.80358956265667
 10
119.414382412712
 20
94.79700081763843
 10
119.4380351460536
 20
94.78853880197777
 10
119.4630659175689
 20
94.77799896313323
 10
119.489011792559
 20
94.7651982804099
 10
119.515323708939
 20
94.74991066941988
 10
119.5415279660867
 20
94.73195310946822
 10
119.5671077996869
 20
94.71112104801351
 10
119.5915679772709
 20
94.68720993251432
 10
119.6143917345237
 20
94.66000444450603
 10
119.6350946048996
 20
94.62933232921691
 10
119.6531490581603
 20
94.59496750225904
 10
119.6680706277605
 20
94.55670541109106
 10
119.679353315308
 20
94.514363035018
 10
119.6865018883343
 20
94.4677250555752
 10
119.688988816601
 20
94.41659768614448
 10
119.688988816601
 20
94.41659768614448
 10
119.6855437211667
 20
94.35877391246322
 10
119.675509880714
 20
94.30491199853148
 10
119.6594040595584
 20
94.25493658288664
 10
119.6377214901683
 20
94.20885843145192
 10
119.6109358731661
 20
94.16663448053441
 10
119.5795639728668
 20
94.12822166644118
 10
119.544090255816
 20
94.09360922324899
 10
119.5050207204056
 20
94.06276485318813
 10
119.462839833181
 20
94.03565625848893
 10
119.4180320606877
 20
94.01225114138165
 10
119.3711141672409
 20
93.99253873594313
 10
119.3225813853092
 20
93.97646521255714
 10
119.2729074155149
 20
93.96401980530047
 10
119.222609022173
 20
93.9551594504802
 10
119.172159905906
 20
93.94986261624985
 97
        0
 75
     1
 76
     1
 98
        0
  0
LWPOLYLINE
  5
A5
330
1F
100
AcDbEntity
  8
レイヤー_1
  6
Continuous
 62
   250
420
  2367521
370
    13
100
AcDbPolyline
 90
      241
 70
     0
 43
0.0
 10
119.1220768310288
 20
93.94810777076296
 10
119.1088562772994
 20
93.94831232330438
 10
119.0926427969114
 20
93.94896904462156
 10
119.0736624742527
 20
93.95012099840743
 10
119.052184457404
 20
93.95181124835491
 10
119.0284348307533
 20
93.95409362408019
 10
119.0026719764582
 20
93.9570219551994
 10
118.9751219789064
 20
93.9606393054055
 10
118.9460539861789
 20
93.96499950431462
 10
118.9156725508171
 20
93.97015638154295
 10
118.8842575868249
 20
93.97613146893693
 10
118.8520459445135
 20
93.98301089388244
 10
118.8192637082708
 20
93.99082695414917
 10
118.7861692602544
 20
93.99962271343006
 10
118.7530102166986
 20
94.00945200134123
 10
118.7200234279145
 20
94.02037941342213
 10
118.6874565101364
 20
94.0324264815192
 10
118.5858584925922
 20
94.07228192932558
 10
118.6253694308551
 20
94.2049288694721
 10
118.6512184125362
 20
94.19541179333464
 10
118.6777779451505
 20
94.18597007865982
 10
118.7050049650053
 20
94.17666832098702
 10
118.7328456424843
 20
94.16757111585562
 10
118.7612353820481
 20
94.15877535657475
 10
118.7901311200039
 20
94.15035640460701
 10
118.8194467289658
 20
94.14236808956856
 10
118.8491606770872
 20
94.1349073047685
 10
118.8791868369824
 20
94.12803864574622
 10
118.9095036768049
 20
94.12183747396435
 10
118.9400250691688
 20
94.11638991680876
 10
118.9706971844579
 20
94.11176056981881
 10
119.0014769589794
 20
94.10803556038042
 10
119.0322997971937
 20
94.10526871810967
 10
119.0631118694849
 20
94.10355693631573
 10
119.0938593462367
 20
94.10297557646118
 10
119.0938593462367
 20
94.10297557646118
 10
119.1421229800875
 20
94.10450433756017
 10
119.188373386294
 20
94.10903679124102
 10
119.2324706078539
 20
94.11644374642492
 10
119.2742639218421
 20
94.12661754387955
 10
119.3135810734869
 20
94.13943975844936
 10
119.3502928717094
 20
94.15478119905552
 10
119.3842162958147
 20
94.17255573831224
 10
119.4152329206473
 20
94.19262341921745
 10
119.4431704914354
 20
94.21488734846207
 10
119.4678782852538
 20
94.23921833496732
 10
119.4892055791772
 20
94.26549795357764
 10
119.5070016502804
 20
94.2936293109839
 10
119.5211050097148
 20
94.32348321610738
 10
119.5313649345553
 20
94.35494124379248
 10
119.5376414677998
 20
94.38789573480689
 10
119.5397623546766
 20
94.42223902991827
 10
119.5397623546766
 20
94.42223902991827
 10
119.5382335935776
 20
94.45051034432657
 10
119.5337442035897
 20
94.47714523840355
 10
119.5266171624098
 20
94.50215447807244
 10
119.5170570225794
 20
94.52555959517971
 10
119.5053329321793
 20
94.54737135564856
 10
119.4916925074439
 20
94.56760052540227
 10
119.4763941305306
 20
94.58629016813373
 10
119.4596854176739
 20
94.60342951791972
 10
119.4418139851081
 20
94.61907240437641
 10
119.4230382149908
 20
94.63319729565734
 10
119.4036164894795
 20
94.64585802137864
 10
119.3837856588855
 20
94.65704381561713
 10
119.3638148712893
 20
94.66678697614245
 10
119.3439409770023
 20
94.6751090348011
 10
119.3244223581819
 20
94.68200999159308
 10
119.3055173969858
 20
94.6875329102113
 10
119.3055173969858
 20
94.6875329102113
 10
119.2906711888483
 20
94.6910210693386
 10
119.2757603851715
 20
94.69419701669216
 10
119.2607849859552
 20
94.69708228411845
 10
119.2457557571227
 20
94.69968763754069
 10
119.2306942305206
 20
94.70202384288213
 10
119.2155788743023
 20
94.70409090014275
 10
119.2004096884678
 20
94.70592110709225
 10
119.1852297367101
 20
94.70750369780743
 10
119.1699959553363
 20
94.70886020413471
 10
119.1547406421159
 20
94.71001215792057
 10
119.1394530311259
 20
94.71094879324178
 10
119.1241438882894
 20
94.71169164194484
 10
119.108834745453
 20
94.71225146995292
 10
119.0934933048468
 20
94.71263904318928
 10
119.0781518642406
 20
94.71285436165394
 10
119.0628104236344
 20
94.71292972311656
 10
119.0176581415977
 20
94.71292972311656
 10
119.0176581415977
 20
94.86779752881476
 10
119.026475432725
 20
94.86779752881476
 10
119.0808433450487
 20
94.86981075645923
 10
119.1308941221562
 20
94.87560282315826
 10
119.176746189203
 20
94.88490458083106
 10
119.2184964394983
 20
94.89740381770389
 10
119.2562740641208
 20
94.91277755607976
 10
119.2901759563796
 20
94.93071358418496
 10
119.3203313073536
 20
94.95093198801543
 10
119.3468477762751
 20
94.97309902395097
 10
119.3698114905298
 20
94.99692401206428
 10
119.3893624071198
 20
95.02210550650489
 10
119.4055974193543
 20
95.0483205295758
 10
119.4186349523888
 20
95.07526763542651
 10
119.4285826654555
 20
95.10263461228331
 10
119.4355482177869
 20
95.13013078021888
 10
119.4396392686152
 20
95.15743316153626
 10
119.4409850090192
 20
95.18424031038498
 10
119.4409850090192
 20
95.18424031038498
 10
119.4397038641546
 20
95.21125201177509
 10
119.4357958340212
 20
95.23817758577934
 10
119.4292393867727
 20
95.26476941616339
 10
119.419991458716
 20
95.29082295038583
 10
119.4080520498513
 20
95.31609057221229
 10
119.3933673305623
 20
95.34035696317814
 10
119.3758942371561
 20
95.3633960388955
 10
119.3556112377862
 20
95.38497094905324
 10
119.3324968006063
 20
95.4048556092635
 10
119.306497096
 20
95.42283470106162
 10
119.2775798261977
 20
95.43866060821327
 10
119.245723459353
 20
95.45212877817701
 10
119.2108956976962
 20
95.46300236064175
 10
119.1730534775343
 20
95.47104450529636
 10
119.1321645010976
 20
95.47603989367619
 10
119.0882072365396
 20
95.47775167547015
 10
119.0882072365396
 20
95.47775167547015
 10
119.0540038984303
 20
95.47665355130044
 10
119.0202634950199
 20
95.47354219948627
 10
118.9871367492338
 20
95.46862217256907
 10
118.9547420862275
 20
95.46213032085993
 10
118.923219463003
 20
95.45431426059318
 10
118.8927196024856
 20
95.44536777838707
 10
118.863371695754
 20
95.43553849047586
 10
118.8353156998104
 20
95.42505248124749
 10
118.8086808057334
 20
95.41414660101307
 10
118.7836177364483
 20
95.40304693416046
 10
118.7602449171108
 20
95.39196879915431
 10
118.7387130706459
 20
95.38115981222896
 10
118.7191513881327
 20
95.37083529184909
 10
118.7017105924962
 20
95.36123208832578
 10
118.686509108892
 20
95.35257628604691
 10
118.6736976602454
 20
95.34510473532363
 10
118.6225487589683
 20
95.46928965980948
 10
118.6507877756069
 20
95.48691347614093
 10
118.6794466632515
 20
95.50375138007641
 10
118.7085038900558
 20
95.51977107384624
 10
118.7379917537894
 20
95.534907961911
 10
118.7679102544522
 20
95.54912974650102
 10
118.7982593920444
 20
95.56236106615364
 10
118.8290606984123
 20
95.5745696230992
 10
118.860314173556
 20
95.5857015877215
 10
118.8920305833987
 20
95.59572466225089
 10
118.9242314597868
 20
95.60455271930147
 10
118.9568952708739
 20
95.61217499295
 10
118.9900543144298
 20
95.6185161217339
 10
119.0236978245311
 20
95.6235330419602
 10
119.0578580989475
 20
95.62718268993598
 10
119.0925243717559
 20
95.62940047012185
 10
119.1277181748026
 20
95.63015408474813
 10
119.1277181748026
 20
95.63015408474813
 10
119.1627397230776
 20
95.62899136503903
 10
119.1968138701082
 20
95.62554626960465
 10
119.2298867862782
 20
95.61996952137028
 10
119.2619154078946
 20
95.61236877956819
 10
119.2927813098019
 20
95.60290553304691
 10
119.3224414283072
 20
95.59166590919227
 10
119.3508096360246
 20
95.57878986500631
 10
119.3778428692612
 20
95.5644065915678
 10
119.4034442347078
 20
95.54863451403233
 10
119.4275599027484
 20
95.53160282347866
 10
119.4501037459971
 20
95.51345147690881
 10
119.4710219348377
 20
95.4942773676319
 10
119.4902283418843
 20
95.47422045264992
 10
119.5076691375208
 20
95.45340992304168
 10
119.5232581943613
 20
95.43197496988594
 10
119.5369416827897
 20
95.41002325241506
 10
119.5369416827897
 20
95.41002325241506
 10
119.542701451719
 20
95.39921426548972
 10
119.5482889658767
 20
95.3880500030977
 10
119.5536826934161
 20
95.37656276300874
 10
119.5588503365677
 20
95.36470948152984
 10
119.5637918953313
 20
95.35249015866106
 10
119.5684427741677
 20
95.33987249663268
 10
119.5727922071536
 20
95.3268564954447
 10
119.5768078965193
 20
95.3134421550971
 10
119.5804467785719
 20
95.29960794374347
 10
119.5837088533113
 20
95.28533232953728
 10
119.5865510570446
 20
95.27060454655535
 10
119.588930326079
 20
95.2554353607209
 10
119.5908358944911
 20
95.23978170834097
 10
119.5922354645114
 20
95.22364358941559
 10
119.5930967383699
 20
95.20702100394475
 10
119.5933874182972
 20
95.18988165415875
 10
119.5933874182972
 20
95.18988165415875
 10
119.5921170393558
 20
95.15018769520086
 10
119.5884243276871
 20
95.11355125844096
 10
119.5824707721396
 20
95.0797462594912
 10
119.5744178615617
 20
95.04858967765662
 10
119.5644378507253
 20
95.01988772631901
 10
119.552659930709
 20
94.99341432109051
 10
119.5392886540544
 20
94.96899720719941
 10
119.5244639777633
 20
94.94642106618105
 10
119.5083473906844
 20
94.92550287734048
 10
119.4911219135126
 20
94.90603808813628
 10
119.4729275032498
 20
94.88781138010381
 10
119.4539364146678
 20
94.87065049847135
 10
119.4343101366151
 20
94.85434012477425
 10
119.4142209238635
 20
94.8386757064711
 10
119.3938087334148
 20
94.82347422286693
 10
119.3732565859642
 20
94.80853112142034
 10
119.3732565859642
 20
94.80853112142034
 10
119.392613715936
 20
94.80358956265667
 10
119.414382412712
 20
94.79700081763843
 10
119.4380351460536
 20
94.78853880197777
 10
119.4630659175689
 20
94.77799896313323
 10
119.489011792559
 20
94.7651982804099
 10
119.515323708939
 20
94.74991066941988
 10
119.5415279660867
 20
94.73195310946822
 10
119.5671077996869
 20
94.71112104801351
 10
119.5915679772709
 20
94.68720993251432
 10
119.6143917345237
 20
94.66000444450603
 10
119.6350946048996
 20
94.62933232921691
 10
119.6531490581603
 20
94.59496750225904
 10
119.6680706277605
 20
94.55670541109106
 10
119.679353315308
 20
94.514363035018
 10
119.6865018883343
 20
94.4677250555752
 10
119.688988816601
 20
94.41659768614448
 10
119.688988816601
 20
94.41659768614448
 10
119.6855437211667
 20
94.35877391246322
 10
119.675509880714
 20
94.30491199853148
 10
119.6594040595584
 20
94.25493658288664
 10
119.6377214901683
 20
94.20885843145192
 10
119.6109358731661
 20
94.16663448053441
 10
119.5795639728668
 20
94.12822166644118
 10
119.544090255816
 20
94.09360922324899
 10
119.5050207204056
 20
94.06276485318813
 10
119.462839833181
 20
94.03565625848893
 10
119.4180320606877
 20
94.01225114138165
 10
119.3711141672409
 20
93.99253873594313
 10
119.3225813853092
 20
93.97646521255714
 10
119.2729074155149
 20
93.96401980530047
 10
119.222609022173
 20
93.9551594504802
 10
119.172159905906
 20
93.94986261624985
 10
119.1220768310288
 20
93.94810777076296
  0
HATCH
  5
A6
330
1F
100
AcDbEntity
  8
レイヤー_1
  6
Continuous
 62
   250
420
  2367521
370
    13
100
AcDbHatch
 10
0.0
 20
0.0
 30
0.0
210
0.0
220
0.0
230
1.0
  2
SOLID
 70
     1
 71
     0
 91
        2
 92
        3
 72
     0
 73
     1
 93
      101
 10
121.2218840301244
 20
94.61955687092187
 10
121.2089864540919
 20
94.63802042926545
 10
121.1947754354252
 20
94.65528897013024
 10
121.1793801652028
 20
94.6713840253627
 10
121.1628652389643
 20
94.68628406311635
 10
121.1453275500187
 20
94.70001061523766
 10
121.1268316939054
 20
94.71254214988019
 10
121.1074745639336
 20
94.72387866704392
 10
121.087342287489
 20
94.73404169857531
 10
121.0665209919575
 20
94.74299894670467
 10
121.045096804725
 20
94.75076117735524
 10
121.0231450872541
 20
94.75734992237348
 10
121.0007734987772
 20
94.76273288398968
 10
120.9780466348335
 20
94.7669208281271
 10
120.9550506228091
 20
94.7699137547857
 10
120.931882356013
 20
94.7717116639655
 10
120.9086171959077
 20
94.77231455566653
 10
120.9086171959077
 20
94.77231455566653
 10
120.8744461555681
 20
94.77100111303217
 10
120.8407703476971
 20
94.76716844436143
 10
120.8076974315271
 20
94.76091344296341
 10
120.7753458322137
 20
94.75236529991687
 10
120.7438232089892
 20
94.74165320630063
 10
120.7132479870092
 20
94.72889558727022
 10
120.683684761813
 20
94.71420010205799
 10
120.6552842563259
 20
94.6976959417427
 10
120.6281325979338
 20
94.67951229740316
 10
120.6023374458689
 20
94.6597568282717
 10
120.5780064593637
 20
94.63855872542707
 10
120.5552472976504
 20
94.61604717994811
 10
120.5341783858845
 20
94.59231908514388
 10
120.5148966173753
 20
94.56751439801641
 10
120.4974988854317
 20
94.54174077779803
 10
120.4821143811326
 20
94.51513818149073
 10
120.4821143811326
 20
94.51513818149073
 10
120.4839768858518
 20
94.50286502900579
 10
120.4862592615771
 20
94.49033349436326
 10
120.4889076786923
 20
94.47762970494901
 10
120.4918898394276
 20
94.46480749037923
 10
120.4951303823206
 20
94.45195297803971
 10
120.4985970096014
 20
94.43916306123961
 10
120.5022574235005
 20
94.42650233551831
 10
120.5060470284782
 20
94.41405692826164
 10
120.5099550586116
 20
94.40192373277873
 10
120.5138953865147
 20
94.39015657868569
 10
120.5178357144177
 20
94.37885235929167
 10
120.5217437445511
 20
94.36808643605926
 10
120.5255764132219
 20
94.35794493637432
 10
120.5292691248906
 20
94.3485032216995
 10
120.5327895817876
 20
94.33983665349741
 10
120.5360839542967
 20
94.33204212507715
 10
120.5360839542967
 20
94.33204212507715
 10
120.5481525542402
 20
94.30660224847897
 10
120.5620190633636
 20
94.28227126197372
 10
120.5776404179738
 20
94.2591783566402
 10
120.5948981929153
 20
94.23733429840163
 10
120.6137170267256
 20
94.21685751241361
 10
120.6340000260954
 20
94.19778029644577
 10
120.6556395317926
 20
94.18019954380725
 10
120.6785709482776
 20
94.16415831819096
 10
120.702675850395
 20
94.14976427882922
 10
120.727878876682
 20
94.13704972349174
 10
120.7540831338297
 20
94.12610077956438
 10
120.7812024944522
 20
94.11699280850976
 10
120.8091508311635
 20
94.10977963994407
 10
120.8378204847314
 20
94.10454740125311
 10
120.86712532777
 20
94.10134992205309
 10
120.8969792328935
 20
94.10027332972984
 10
120.8969792328935
 20
94.10027332972984
 10
120.9472991580818
 20
94.10234038699046
 10
120.9934419050559
 20
94.10832624030769
 10
121.0355258989714
 20
94.11794020975422
 10
121.0737126286767
 20
94.13088084947958
 10
121.1080882215578
 20
94.14682518178678
 10
121.1387926346166
 20
94.16548252674855
 10
121.1659658248552
 20
94.18652990666791
 10
121.1897477492756
 20
94.20967664161759
 10
121.2102353011869
 20
94.23461051982385
 10
121.2275792035143
 20
94.26103009543618
 10
121.2418978814134
 20
94.28863392260408
 10
121.253320525963
 20
94.3171097895538
 10
121.2619870941651
 20
94.34615625043483
 10
121.2680160111752
 20
94.37546109347346
 10
121.2715472339955
 20
94.40472287281915
 10
121.2726884218581
 20
94.43364014262139
 10
121.2726884218581
 20
94.43364014262139
 10
121.2724623374702
 20
94.44581640179726
 10
121.2717840843066
 20
94.4580895542822
 10
121.2706536623672
 20
94.47041653638331
 10
121.2691249012682
 20
94.48278658217734
 10
121.2671547373167
 20
94.49513509612493
 10
121.2647970001288
 20
94.50744054637957
 10
121.2620516897045
 20
94.51965986924834
 10
121.2589295719671
 20
94.53176076696158
 10
121.2554414128398
 20
94.54368940990308
 10
121.2516087441691
 20
94.55542426622641
 10
121.2474208000316
 20
94.56693303816186
 10
121.2429206441205
 20
94.57815113017003
 10
121.2380975105124
 20
94.58906777632768
 10
121.232983696977
 20
94.59962914701867
 10
121.2275684375911
 20
94.6098029444733
 97
        0
 92
        3
 72
     0
 73
     1
 93
      187
 10
121.3545309702709
 20
95.47186271546201
 10
121.3434313034183
 20
95.47184118361555
 10
121.3324285298747
 20
95.47175505622968
 10
121.3215872451797
 20
95.47160433330444
 10
121.3110043426423
 20
95.4714213126095
 10
121.3007767155715
 20
95.47120599414484
 10
121.29097972543
 20
95.47096914383373
 10
121.2817102655269
 20
95.47071076167614
 10
121.2730436973248
 20
95.47045237951858
 10
121.2650769141328
 20
95.470193997361
 10
121.2578745114903
 20
95.46993561520341
 10
121.2515549145529
 20
95.4696987648923
 10
121.2461827188599
 20
95.46948344642766
 10
121.2418655836437
 20
95.46930042573271
 10
121.2386573385205
 20
95.46916046873068
 10
121.2366764086457
 20
95.46907434134482
 10
121.2359981554821
 20
95.46904204357512
 10
121.2359981554821
 20
95.46904204357512
 10
121.2349646268518
 20
95.46910663911453
 10
121.2339956937608
 20
95.46930042573271
 10
121.2330805902861
 20
95.46959110565999
 10
121.2322085505043
 20
95.46997867889635
 10
121.2313580425689
 20
95.4704308476721
 10
121.23052906648
 20
95.47093684606403
 10
121.2297323881608
 20
95.47147514222564
 10
121.2289357098416
 20
95.47203497023374
 10
121.2281390315224
 20
95.47259479824183
 10
121.2273423532032
 20
95.47314386032667
 10
121.2265133771143
 20
95.4736498587186
 10
121.2256736351022
 20
95.47410202749435
 10
121.2247908293971
 20
95.47448960073072
 10
121.2238757259224
 20
95.474780280658
 10
121.2229067928315
 20
95.47497406727618
 10
121.2218840301244
 20
95.47503866281558
 10
121.2218840301244
 20
95.47503866281558
 10
121.1978867872393
 20
95.47457572811658
 10
121.1735558007341
 20
95.47322998771253
 10
121.1489771979945
 20
95.47100144160342
 10
121.1242048086367
 20
95.46793315348219
 10
121.0993462918931
 20
95.46406818704176
 10
121.0744447114565
 20
95.45940654228212
 10
121.0496184924826
 20
95.45400204881945
 10
121.024899932741
 20
95.44787623850021
 10
121.000396691464
 20
95.44105064317085
 10
120.9761625982679
 20
95.4335575606011
 10
120.9522837805384
 20
95.42544005448386
 10
120.9288463656614
 20
95.41669812481915
 10
120.9059041832532
 20
95.40738560122313
 10
120.8835433606994
 20
95.39752401554223
 10
120.8618500253861
 20
95.38713489962296
 10
120.8408887728526
 20
95.37626131715822
 10
120.8408887728526
 20
95.37626131715822
 10
120.7991600544038
 20
95.35138126856813
 10
120.7597352435267
 20
95.32351905924264
 10
120.7226466379911
 20
95.29279311433734
 10
120.6879695992595
 20
95.25933262493103
 10
120.6557256591784
 20
95.22324525025599
 10
120.6259794132873
 20
95.1846494154678
 10
120.5987846912022
 20
95.14367431164524
 10
120.5741845566162
 20
95.1004383639439
 10
120.5522328391453
 20
95.05504923159606
 10
120.5329833684057
 20
95.00763610568052
 10
120.516457676244
 20
94.95830664542963
 10
120.5027526559691
 20
94.90720080784538
 10
120.4918683075812
 20
94.85442625216011
 10
120.483890758466
 20
94.80010140352937
 10
120.4788630723164
 20
94.74434468710874
 10
120.4768175469023
 20
94.68728529397696
 10
120.4768175469023
 20
94.68728529397696
 10
120.4927726451327
 20
94.7076651866559
 10
120.5099981223045
 20
94.72837882295507
 10
120.5285801058037
 20
94.74924318217947
 10
120.5485939570927
 20
94.7700106480948
 10
120.5701581013273
 20
94.79045513631314
 10
120.5933586658931
 20
94.81031826467694
 10
120.6182494804064
 20
94.829406246568
 10
120.644959735946
 20
94.84744993390551
 10
120.6735432621281
 20
94.86424477414806
 10
120.7041184841081
 20
94.87955391698455
 10
120.7367607633488
 20
94.89314051210386
 10
120.7715454613127
 20
94.90477847511809
 10
120.8085802372322
 20
94.91423095571614
 10
120.8479404525699
 20
94.92127186951015
 10
120.8897230006348
 20
94.92566436618895
 10
120.934014008813
 20
94.92718236136474
 10
120.934014008813
 20
94.92718236136474
 10
120.9905997013225
 20
94.92456624201927
 10
121.0440094464785
 20
94.91686860690808
 10
121.0941894146648
 20
94.90439090188173
 10
121.1410642444187
 20
94.88741304094421
 10
121.1845693402008
 20
94.86622570402284
 10
121.2246616383184
 20
94.84109803919839
 10
121.2612334795388
 20
94.81233149232139
 10
121.2942418001694
 20
94.78020597739588
 10
121.3236220046707
 20
94.7450014084259
 10
121.3492987315799
 20
94.70698693349226
 10
121.3712073853579
 20
94.66646399844548
 10
121.3892833704651
 20
94.62372328321281
 10
121.403451325439
 20
94.57902316995185
 10
121.4136574206633
 20
94.53267587043632
 10
121.4198370605987
 20
94.48493976682383
 10
121.4219041178593
 20
94.43611630496486
 10
121.4219041178593
 20
94.43611630496486
 10
121.4194602532855
 20
94.384149193522
 10
121.4122470847199
 20
94.33409841641455
 10
121.4004691647036
 20
94.28615776026062
 10
121.3842987480085
 20
94.24053177760166
 10
121.363940387176
 20
94.19740348913264
 10
121.3395663369778
 20
94.15697744739495
 10
121.3113703840322
 20
94.11945820493
 10
121.2795570808804
 20
94.08506108020245
 10
121.2442986822943
 20
94.05394756206078
 10
121.2057997408152
 20
94.02634373489289
 10
121.1642217452916
 20
94.00243261939372
 10
121.1197800141882
 20
93.98242953402789
 10
121.0726575681999
 20
93.96652826541361
 10
121.0230374280218
 20
93.95492260016908
 10
120.9711133802719
 20
93.94780632491246
 10
120.9170792115684
 20
93.94539475810839
 10
120.9170792115684
 20
93.94539475810839
 10
120.8699675315034
 20
93.94746181536902
 10
120.8211225377979
 20
93.9538352419226
 10
120.7712117176925
 20
93.96483801546614
 10
120.7208917925042
 20
93.9807392840804
 10
120.6708302494735
 20
94.00186202546239
 10
120.6216622780711
 20
94.02847538769291
 10
120.5740553655374
 20
94.06089158254568
 10
120.5286769991128
 20
94.09937975810155
 10
120.4861731341912
 20
94.14426289205747
 10
120.4472004920899
 20
94.19582089841748
 10
120.412415794126
 20
94.25434445710886
 10
120.3824972934631
 20
94.32014577990535
 10
120.3580694136488
 20
94.39350478081097
 10
120.3398104078466
 20
94.47471213975304
 10
120.3283769973738
 20
94.56408006850526
 10
120.3244151376243
 20
94.66188848107171
 10
120.3244151376243
 20
94.66188848107171
 10
120.3263422378829
 20
94.73919857580364
 10
120.3320266453496
 20
94.81249298116987
 10
120.3413284030224
 20
94.88189012232598
 10
120.3540860220528
 20
94.94751919035076
 10
120.3701810772852
 20
95.00949861039973
 10
120.3894520798713
 20
95.06798987132142
 10
120.4117590728088
 20
95.12308986642489
 10
120.4369513331727
 20
95.17496008455863
 10
120.464899669884
 20
95.22370818495497
 10
120.4954318281711
 20
95.26948489053919
 10
120.5284293828784
 20
95.31239786054357
 10
120.5637308451575
 20
95.35259781789338
 10
120.6012070239295
 20
95.39020318774419
 10
120.6407071962692
 20
95.425353927098
 10
120.6820698733281
 20
95.45817922703363
 10
120.7251766299507
 20
95.4887975127066
 10
120.7251766299507
 20
95.4887975127066
 10
120.7524897771913
 20
95.50620601057341
 10
120.7804381139027
 20
95.52240872503818
 10
120.8090324060079
 20
95.53745948571708
 10
120.8382295898142
 20
95.55132599484043
 10
120.868051197168
 20
95.56405131610114
 10
120.8984649302996
 20
95.57561391765275
 10
120.9294707892089
 20
95.58604609726495
 10
120.9610472420496
 20
95.59534785493776
 10
120.9931942888215
 20
95.60350842474791
 10
121.0259011636016
 20
95.61056010446515
 10
121.0591463345433
 20
95.61651366001266
 10
121.0929298016466
 20
95.62135832546724
 10
121.1272407989883
 20
95.62511563267536
 10
121.1620470287987
 20
95.627785581637
 10
121.1973700229242
 20
95.62938970419863
 10
121.2331774835952
 20
95.62991723443702
 10
121.4335528467968
 20
95.62991723443702
 10
121.4335528467968
 20
95.46904204357512
 10
121.4297309440493
 20
95.46953727604381
 10
121.4256506591442
 20
95.46996791297312
 10
121.421333523928
 20
95.47034472028625
 10
121.4168441339401
 20
95.47067846390645
 10
121.412160957334
 20
95.47094761198727
 10
121.4073055259562
 20
95.47117369637513
 10
121.4023209034996
 20
95.47136748299332
 10
121.3972178558874
 20
95.47150743999535
 10
121.3920071490429
 20
95.47162586515091
 10
121.386731846659
 20
95.47171199253677
 10
121.3813811828125
 20
95.47177658807615
 10
121.3759982211963
 20
95.4718196517691
 10
121.3706152595801
 20
95.47184118361555
 10
121.3652215320407
 20
95.47186271546201
 10
121.3598493363477
 20
95.47186271546201
 97
        0
 75
     1
 76
     1
 98
        0
  0
LWPOLYLINE
  5
A7
330
1F
100
AcDbEntity
  8
レイヤー_1
  6
Continuous
 62
   250
420
  2367521
370
    13
100
AcDbPolyline
 90
      102
 70
     0
 43
0.0
 10
121.2218840301244
 20
94.61955687092187
 10
121.2089864540919
 20
94.63802042926545
 10
121.1947754354252
 20
94.65528897013024
 10
121.1793801652028
 20
94.6713840253627
 10
121.1628652389643
 20
94.68628406311635
 10
121.1453275500187
 20
94.70001061523766
 10
121.1268316939054
 20
94.71254214988019
 10
121.1074745639336
 20
94.72387866704392
 10
121.087342287489
 20
94.73404169857531
 10
121.0665209919575
 20
94.74299894670467
 10
121.045096804725
 20
94.75076117735524
 10
121.0231450872541
 20
94.75734992237348
 10
121.0007734987772
 20
94.76273288398968
 10
120.9780466348335
 20
94.7669208281271
 10
120.9550506228091
 20
94.7699137547857
 10
120.931882356013
 20
94.7717116639655
 10
120.9086171959077
 20
94.77231455566653
 10
120.9086171959077
 20
94.77231455566653
 10
120.8744461555681
 20
94.77100111303217
 10
120.8407703476971
 20
94.76716844436143
 10
120.8076974315271
 20
94.76091344296341
 10
120.7753458322137
 20
94.75236529991687
 10
120.7438232089892
 20
94.74165320630063
 10
120.7132479870092
 20
94.72889558727022
 10
120.683684761813
 20
94.71420010205799
 10
120.6552842563259
 20
94.6976959417427
 10
120.6281325979338
 20
94.67951229740316
 10
120.6023374458689
 20
94.6597568282717
 10
120.5780064593637
 20
94.63855872542707
 10
120.5552472976504
 20
94.61604717994811
 10
120.5341783858845
 20
94.59231908514388
 10
120.5148966173753
 20
94.56751439801641
 10
120.4974988854317
 20
94.54174077779803
 10
120.4821143811326
 20
94.51513818149073
 10
120.4821143811326
 20
94.51513818149073
 10
120.4839768858518
 20
94.50286502900579
 10
120.4862592615771
 20
94.49033349436326
 10
120.4889076786923
 20
94.47762970494901
 10
120.4918898394276
 20
94.46480749037923
 10
120.4951303823206
 20
94.45195297803971
 10
120.4985970096014
 20
94.43916306123961
 10
120.5022574235005
 20
94.42650233551831
 10
120.5060470284782
 20
94.41405692826164
 10
120.5099550586116
 20
94.40192373277873
 10
120.5138953865147
 20
94.39015657868569
 10
120.5178357144177
 20
94.37885235929167
 10
120.5217437445511
 20
94.36808643605926
 10
120.5255764132219
 20
94.35794493637432
 10
120.5292691248906
 20
94.3485032216995
 10
120.5327895817876
 20
94.33983665349741
 10
120.5360839542967
 20
94.33204212507715
 10
120.5360839542967
 20
94.33204212507715
 10
120.5481525542402
 20
94.30660224847897
 10
120.5620190633636
 20
94.28227126197372
 10
120.5776404179738
 20
94.2591783566402
 10
120.5948981929153
 20
94.23733429840163
 10
120.6137170267256
 20
94.21685751241361
 10
120.6340000260954
 20
94.19778029644577
 10
120.6556395317926
 20
94.18019954380725
 10
120.6785709482776
 20
94.16415831819096
 10
120.702675850395
 20
94.14976427882922
 10
120.727878876682
 20
94.13704972349174
 10
120.7540831338297
 20
94.12610077956438
 10
120.7812024944522
 20
94.11699280850976
 10
120.8091508311635
 20
94.10977963994407
 10
120.8378204847314
 20
94.10454740125311
 10
120.86712532777
 20
94.10134992205309
 10
120.8969792328935
 20
94.10027332972984
 10
120.8969792328935
 20
94.10027332972984
 10
120.9472991580818
 20
94.10234038699046
 10
120.9934419050559
 20
94.10832624030769
 10
121.0355258989714
 20
94.11794020975422
 10
121.0737126286767
 20
94.13088084947958
 10
121.1080882215578
 20
94.14682518178678
 10
121.1387926346166
 20
94.16548252674855
 10
121.1659658248552
 20
94.18652990666791
 10
121.1897477492756
 20
94.20967664161759
 10
121.2102353011869
 20
94.23461051982385
 10
121.2275792035143
 20
94.26103009543618
 10
121.2418978814134
 20
94.28863392260408
 10
121.253320525963
 20
94.3171097895538
 10
121.2619870941651
 20
94.34615625043483
 10
121.2680160111752
 20
94.37546109347346
 10
121.2715472339955
 20
94.40472287281915
 10
121.2726884218581
 20
94.43364014262139
 10
121.2726884218581
 20
94.43364014262139
 10
121.2724623374702
 20
94.44581640179726
 10
121.2717840843066
 20
94.4580895542822
 10
121.2706536623672
 20
94.47041653638331
 10
121.2691249012682
 20
94.48278658217734
 10
121.2671547373167
 20
94.49513509612493
 10
121.2647970001288
 20
94.50744054637957
 10
121.2620516897045
 20
94.51965986924834
 10
121.2589295719671
 20
94.53176076696158
 10
121.2554414128398
 20
94.54368940990308
 10
121.2516087441691
 20
94.55542426622641
 10
121.2474208000316
 20
94.56693303816186
 10
121.2429206441205
 20
94.57815113017003
 10
121.2380975105124
 20
94.58906777632768
 10
121.232983696977
 20
94.59962914701867
 10
121.2275684375911
 20
94.6098029444733
 10
121.2218840301244
 20
94.61955687092187
  0
LWPOLYLINE
  5
A8
330
1F
100
AcDbEntity
  8
レイヤー_1
  6
Continuous
 62
   250
420
  2367521
370
    13
100
AcDbPolyline
 90
      188
 70
     0
 43
0.0
 10
121.3545309702709
 20
95.47186271546201
 10
121.3434313034183
 20
95.47184118361555
 10
121.3324285298747
 20
95.47175505622968
 10
121.3215872451797
 20
95.47160433330444
 10
121.3110043426423
 20
95.4714213126095
 10
121.3007767155715
 20
95.47120599414484
 10
121.29097972543
 20
95.47096914383373
 10
121.2817102655269
 20
95.47071076167614
 10
121.2730436973248
 20
95.47045237951858
 10
121.2650769141328
 20
95.470193997361
 10
121.2578745114903
 20
95.46993561520341
 10
121.2515549145529
 20
95.4696987648923
 10
121.2461827188599
 20
95.46948344642766
 10
121.2418655836437
 20
95.46930042573271
 10
121.2386573385205
 20
95.46916046873068
 10
121.2366764086457
 20
95.46907434134482
 10
121.2359981554821
 20
95.46904204357512
 10
121.2359981554821
 20
95.46904204357512
 10
121.2349646268518
 20
95.46910663911453
 10
121.2339956937608
 20
95.46930042573271
 10
121.2330805902861
 20
95.46959110565999
 10
121.2322085505043
 20
95.46997867889635
 10
121.2313580425689
 20
95.4704308476721
 10
121.23052906648
 20
95.47093684606403
 10
121.2297323881608
 20
95.47147514222564
 10
121.2289357098416
 20
95.47203497023374
 10
121.2281390315224
 20
95.47259479824183
 10
121.2273423532032
 20
95.47314386032667
 10
121.2265133771143
 20
95.4736498587186
 10
121.2256736351022
 20
95.47410202749435
 10
121.2247908293971
 20
95.47448960073072
 10
121.2238757259224
 20
95.474780280658
 10
121.2229067928315
 20
95.47497406727618
 10
121.2218840301244
 20
95.47503866281558
 10
121.2218840301244
 20
95.47503866281558
 10
121.1978867872393
 20
95.47457572811658
 10
121.1735558007341
 20
95.47322998771253
 10
121.1489771979945
 20
95.47100144160342
 10
121.1242048086367
 20
95.46793315348219
 10
121.0993462918931
 20
95.46406818704176
 10
121.0744447114565
 20
95.45940654228212
 10
121.0496184924826
 20
95.45400204881945
 10
121.024899932741
 20
95.44787623850021
 10
121.000396691464
 20
95.44105064317085
 10
120.9761625982679
 20
95.4335575606011
 10
120.9522837805384
 20
95.42544005448386
 10
120.9288463656614
 20
95.41669812481915
 10
120.9059041832532
 20
95.40738560122313
 10
120.8835433606994
 20
95.39752401554223
 10
120.8618500253861
 20
95.38713489962296
 10
120.8408887728526
 20
95.37626131715822
 10
120.8408887728526
 20
95.37626131715822
 10
120.7991600544038
 20
95.35138126856813
 10
120.7597352435267
 20
95.32351905924264
 10
120.7226466379911
 20
95.29279311433734
 10
120.6879695992595
 20
95.25933262493103
 10
120.6557256591784
 20
95.22324525025599
 10
120.6259794132873
 20
95.1846494154678
 10
120.5987846912022
 20
95.14367431164524
 10
120.5741845566162
 20
95.1004383639439
 10
120.5522328391453
 20
95.05504923159606
 10
120.5329833684057
 20
95.00763610568052
 10
120.516457676244
 20
94.95830664542963
 10
120.5027526559691
 20
94.90720080784538
 10
120.4918683075812
 20
94.85442625216011
 10
120.483890758466
 20
94.80010140352937
 10
120.4788630723164
 20
94.74434468710874
 10
120.4768175469023
 20
94.68728529397696
 10
120.4768175469023
 20
94.68728529397696
 10
120.4927726451327
 20
94.7076651866559
 10
120.5099981223045
 20
94.72837882295507
 10
120.5285801058037
 20
94.74924318217947
 10
120.5485939570927
 20
94.7700106480948
 10
120.5701581013273
 20
94.79045513631314
 10
120.5933586658931
 20
94.81031826467694
 10
120.6182494804064
 20
94.829406246568
 10
120.644959735946
 20
94.84744993390551
 10
120.6735432621281
 20
94.86424477414806
 10
120.7041184841081
 20
94.87955391698455
 10
120.7367607633488
 20
94.89314051210386
 10
120.7715454613127
 20
94.90477847511809
 10
120.8085802372322
 20
94.91423095571614
 10
120.8479404525699
 20
94.92127186951015
 10
120.8897230006348
 20
94.92566436618895
 10
120.934014008813
 20
94.92718236136474
 10
120.934014008813
 20
94.92718236136474
 10
120.9905997013225
 20
94.92456624201927
 10
121.0440094464785
 20
94.91686860690808
 10
121.0941894146648
 20
94.90439090188173
 10
121.1410642444187
 20
94.88741304094421
 10
121.1845693402008
 20
94.86622570402284
 10
121.2246616383184
 20
94.84109803919839
 10
121.2612334795388
 20
94.81233149232139
 10
121.2942418001694
 20
94.78020597739588
 10
121.3236220046707
 20
94.7450014084259
 10
121.3492987315799
 20
94.70698693349226
 10
121.3712073853579
 20
94.66646399844548
 10
121.3892833704651
 20
94.62372328321281
 10
121.403451325439
 20
94.57902316995185
 10
121.4136574206633
 20
94.53267587043632
 10
121.4198370605987
 20
94.48493976682383
 10
121.4219041178593
 20
94.43611630496486
 10
121.4219041178593
 20
94.43611630496486
 10
121.4194602532855
 20
94.384149193522
 10
121.4122470847199
 20
94.33409841641455
 10
121.4004691647036
 20
94.28615776026062
 10
121.3842987480085
 20
94.24053177760166
 10
121.363940387176
 20
94.19740348913264
 10
121.3395663369778
 20
94.15697744739495
 10
121.3113703840322
 20
94.11945820493
 10
121.2795570808804
 20
94.08506108020245
 10
121.2442986822943
 20
94.05394756206078
 10
121.2057997408152
 20
94.02634373489289
 10
121.1642217452916
 20
94.00243261939372
 10
121.1197800141882
 20
93.98242953402789
 10
121.0726575681999
 20
93.96652826541361
 10
121.0230374280218
 20
93.95492260016908
 10
120.9711133802719
 20
93.94780632491246
 10
120.9170792115684
 20
93.94539475810839
 10
120.9170792115684
 20
93.94539475810839
 10
120.8699675315034
 20
93.94746181536902
 10
120.8211225377979
 20
93.9538352419226
 10
120.7712117176925
 20
93.96483801546614
 10
120.7208917925042
 20
93.9807392840804
 10
120.6708302494735
 20
94.00186202546239
 10
120.6216622780711
 20
94.02847538769291
 10
120.5740553655374
 20
94.06089158254568
 10
120.5286769991128
 20
94.09937975810155
 10
120.4861731341912
 20
94.14426289205747
 10
120.4472004920899
 20
94.19582089841748
 10
120.412415794126
 20
94.25434445710886
 10
120.3824972934631
 20
94.32014577990535
 10
120.3580694136488
 20
94.39350478081097
 10
120.3398104078466
 20
94.47471213975304
 10
120.3283769973738
 20
94.56408006850526
 10
120.3244151376243
 20
94.66188848107171
 10
120.3244151376243
 20
94.66188848107171
 10
120.3263422378829
 20
94.73919857580364
 10
120.3320266453496
 20
94.81249298116987
 10
120.3413284030224
 20
94.88189012232598
 10
120.3540860220528
 20
94.94751919035076
 10
120.3701810772852
 20
95.00949861039973
 10
120.3894520798713
 20
95.06798987132142
 10
120.4117590728088
 20
95.12308986642489
 10
120.4369513331727
 20
95.17496008455863
 10
120.464899669884
 20
95.22370818495497
 10
120.4954318281711
 20
95.26948489053919
 10
120.5284293828784
 20
95.31239786054357
 10
120.5637308451575
 20
95.35259781789338
 10
120.6012070239295
 20
95.39020318774419
 10
120.6407071962692
 20
95.425353927098
 10
120.6820698733281
 20
95.45817922703363
 10
120.7251766299507
 20
95.4887975127066
 10
120.7251766299507
 20
95.4887975127066
 10
120.7524897771913
 20
95.50620601057341
 10
120.7804381139027
 20
95.52240872503818
 10
120.8090324060079
 20
95.53745948571708
 10
120.8382295898142
 20
95.55132599484043
 10
120.868051197168
 20
95.56405131610114
 10
120.8984649302996
 20
95.57561391765275
 10
120.9294707892089
 20
95.58604609726495
 10
120.9610472420496
 20
95.59534785493776
 10
120.9931942888215
 20
95.60350842474791
 10
121.0259011636016
 20
95.61056010446515
 10
121.0591463345433
 20
95.61651366001266
 10
121.0929298016466
 20
95.62135832546724
 10
121.1272407989883
 20
95.62511563267536
 10
121.1620470287987
 20
95.627785581637
 10
121.1973700229242
 20
95.62938970419863
 10
121.2331774835952
 20
95.62991723443702
 10
121.4335528467968
 20
95.62991723443702
 10
121.4335528467968
 20
95.46904204357512
 10
121.4297309440493
 20
95.46953727604381
 10
121.4256506591442
 20
95.46996791297312
 10
121.421333523928
 20
95.47034472028625
 10
121.4168441339401
 20
95.47067846390645
 10
121.412160957334
 20
95.47094761198727
 10
121.4073055259562
 20
95.47117369637513
 10
121.4023209034996
 20
95.47136748299332
 10
121.3972178558874
 20
95.47150743999535
 10
121.3920071490429
 20
95.47162586515091
 10
121.386731846659
 20
95.47171199253677
 10
121.3813811828125
 20
95.47177658807615
 10
121.3759982211963
 20
95.4718196517691
 10
121.3706152595801
 20
95.47184118361555
 10
121.3652215320407
 20
95.47186271546201
 10
121.3598493363477
 20
95.47186271546201
 10
121.3545309702709
 20
95.47186271546201
  0
HATCH
  5
A9
330
1F
100
AcDbEntity
  8
レイヤー_1
  6
Continuous
 62
   250
420
  2367521
370
    13
100
AcDbHatch
 10
0.0
 20
0.0
 30
0.0
210
0.0
220
0.0
230
1.0
  2
SOLID
 70
     1
 71
     0
 91
        1
 92
        3
 72
     0
 73
     1
 93
       67
 10
122.6047453374809
 20
93.94810777076296
 10
122.5829012792423
 20
93.9490444060842
 10
122.5620046222482
 20
93.95177895058522
 10
122.5420984301915
 20
93.95618221318728
 10
122.5232795963812
 20
93.96216806650449
 10
122.5055911845104
 20
93.96960731945809
 10
122.4890870241951
 20
93.97837078096927
 10
122.4738747746677
 20
93.98837232365219
 10
122.4599867336979
 20
93.99947199050479
 10
122.4474767309018
 20
94.01158365414125
 10
122.4364201277422
 20
94.02456735755953
 10
122.4269030516047
 20
94.03832620745055
 10
122.4189578002592
 20
94.05273101273552
 10
122.4126705010915
 20
94.0676741141821
 10
122.4081057496409
 20
94.083047852558
 10
122.4053173755237
 20
94.09873380270761
 10
122.4043699742793
 20
94.11461353947541
 10
122.4043699742793
 20
94.11461353947541
 10
122.4054035029096
 20
94.13180671887757
 10
122.4084610251076
 20
94.14853696358074
 10
122.4134133497945
 20
94.16469661435258
 10
122.4201420518148
 20
94.18021030973048
 10
122.4285717697057
 20
94.1950026882518
 10
122.4385840783119
 20
94.20896609068424
 10
122.4500497865544
 20
94.22201438964193
 10
122.4628827670474
 20
94.23407222366222
 10
122.4769753605587
 20
94.24504269943606
 10
122.4921983760093
 20
94.25482892365432
 10
122.5084656860135
 20
94.26336630077762
 10
122.5256588654156
 20
94.2705364056504
 10
122.5436810209067
 20
94.27627464273327
 10
122.5624029614078
 20
94.28048411871714
 10
122.5817385595332
 20
94.28306794029291
 10
122.6015693901273
 20
94.28395074599797
 10
122.6015693901273
 20
94.28395074599797
 10
122.6223906856588
 20
94.28298181290705
 10
122.6423507073317
 20
94.28015037509694
 10
122.6613633277601
 20
94.27556409179994
 10
122.6793854832512
 20
94.26935215409483
 10
122.6963418123422
 20
94.26165451898365
 10
122.7121677194939
 20
94.25254654792903
 10
122.7267986091667
 20
94.24218972977945
 10
122.7401806517446
 20
94.23068095784402
 10
122.7522169539184
 20
94.21814942320148
 10
122.7628644519953
 20
94.20471355100744
 10
122.7720585504358
 20
94.19049176641744
 10
122.7797238877772
 20
94.17560249458701
 10
122.7857958684803
 20
94.16017492659498
 10
122.7902206629288
 20
94.1443059557504
 10
122.7929229096602
 20
94.12814630497854
 10
122.7938380131349
 20
94.11179286758852
 10
122.7938380131349
 20
94.11179286758852
 10
122.7927075911955
 20
94.09407215794798
 10
122.7894239846096
 20
94.07711582885693
 10
122.7841271503793
 20
94.06092388031539
 10
122.7770001091994
 20
94.04559320563243
 10
122.7681720521489
 20
94.03115610257777
 10
122.7578259999225
 20
94.01767716669079
 10
122.7461019095224
 20
94.00523175943414
 10
122.7331612697971
 20
93.99384141265423
 10
122.7191548036717
 20
93.98358148781375
 10
122.7042655318413
 20
93.97450581452884
 10
122.6886226453846
 20
93.96667898833888
 10
122.6723983990733
 20
93.9601440729368
 10
122.6557327499096
 20
93.95496566386201
 10
122.638797952665
 20
93.95118682480744
 10
122.6217554961881
 20
93.9488829172357
 97
        0
 75
     1
 76
     1
 98
        0
  0
LWPOLYLINE
  5
AA
330
1F
100
AcDbEntity
  8
レイヤー_1
  6
Continuous
 62
   250
420
  2367521
370
    13
100
AcDbPolyline
 90
       68
 70
     0
 43
0.0
 10
122.6047453374809
 20
93.94810777076296
 10
122.5829012792423
 20
93.9490444060842
 10
122.5620046222482
 20
93.95177895058522
 10
122.5420984301915
 20
93.95618221318728
 10
122.5232795963812
 20
93.96216806650449
 10
122.5055911845104
 20
93.96960731945809
 10
122.4890870241951
 20
93.97837078096927
 10
122.4738747746677
 20
93.98837232365219
 10
122.4599867336979
 20
93.99947199050479
 10
122.4474767309018
 20
94.01158365414125
 10
122.4364201277422
 20
94.02456735755953
 10
122.4269030516047
 20
94.03832620745055
 10
122.4189578002592
 20
94.05273101273552
 10
122.4126705010915
 20
94.0676741141821
 10
122.4081057496409
 20
94.083047852558
 10
122.4053173755237
 20
94.09873380270761
 10
122.4043699742793
 20
94.11461353947541
 10
122.4043699742793
 20
94.11461353947541
 10
122.4054035029096
 20
94.13180671887757
 10
122.4084610251076
 20
94.14853696358074
 10
122.4134133497945
 20
94.16469661435258
 10
122.4201420518148
 20
94.18021030973048
 10
122.4285717697057
 20
94.1950026882518
 10
122.4385840783119
 20
94.20896609068424
 10
122.4500497865544
 20
94.22201438964193
 10
122.4628827670474
 20
94.23407222366222
 10
122.4769753605587
 20
94.24504269943606
 10
122.4921983760093
 20
94.25482892365432
 10
122.5084656860135
 20
94.26336630077762
 10
122.5256588654156
 20
94.2705364056504
 10
122.5436810209067
 20
94.27627464273327
 10
122.5624029614078
 20
94.28048411871714
 10
122.5817385595332
 20
94.28306794029291
 10
122.6015693901273
 20
94.28395074599797
 10
122.6015693901273
 20
94.28395074599797
 10
122.6223906856588
 20
94.28298181290705
 10
122.6423507073317
 20
94.28015037509694
 10
122.6613633277601
 20
94.27556409179994
 10
122.6793854832512
 20
94.26935215409483
 10
122.6963418123422
 20
94.26165451898365
 10
122.7121677194939
 20
94.25254654792903
 10
122.7267986091667
 20
94.24218972977945
 10
122.7401806517446
 20
94.23068095784402
 10
122.7522169539184
 20
94.21814942320148
 10
122.7628644519953
 20
94.20471355100744
 10
122.7720585504358
 20
94.19049176641744
 10
122.7797238877772
 20
94.17560249458701
 10
122.7857958684803
 20
94.16017492659498
 10
122.7902206629288
 20
94.1443059557504
 10
122.7929229096602
 20
94.12814630497854
 10
122.7938380131349
 20
94.11179286758852
 10
122.7938380131349
 20
94.11179286758852
 10
122.7927075911955
 20
94.09407215794798
 10
122.7894239846096
 20
94.07711582885693
 10
122.7841271503793
 20
94.06092388031539
 10
122.7770001091994
 20
94.04559320563243
 10
122.7681720521489
 20
94.03115610257777
 10
122.7578259999225
 20
94.01767716669079
 10
122.7461019095224
 20
94.00523175943414
 10
122.7331612697971
 20
93.99384141265423
 10
122.7191548036717
 20
93.98358148781375
 10
122.7042655318413
 20
93.97450581452884
 10
122.6886226453846
 20
93.96667898833888
 10
122.6723983990733
 20
93.9601440729368
 10
122.6557327499096
 20
93.95496566386201
 10
122.638797952665
 20
93.95118682480744
 10
122.6217554961881
 20
93.9488829172357
 10
122.6047453374809
 20
93.94810777076296
  0
HATCH
  5
AB
330
1F
100
AcDbEntity
  8
レイヤー_1
  6
Continuous
 62
   250
420
  2367521
370
    13
100
AcDbHatch
 10
0.0
 20
0.0
 30
0.0
210
0.0
220
0.0
230
1.0
  2
SOLID
 70
     1
 71
     0
 91
        1
 92
        3
 72
     0
 73
     1
 93
      140
 10
124.2387756338495
 20
93.94810777076296
 10
124.2033557464149
 20
93.94872142838722
 10
124.1680219863661
 20
93.9505085716438
 10
124.1327851196264
 20
93.95339383907009
 10
124.0976559121191
 20
93.95731263512667
 10
124.0626666616138
 20
93.9622003642742
 10
124.0278173681104
 20
93.96796013320353
 10
123.9931295634556
 20
93.97452734637531
 10
123.9586247794957
 20
93.98184817417334
 10
123.9243137821541
 20
93.98982572328856
 10
123.8902073373538
 20
93.99838463225832
 10
123.8563377428646
 20
94.0074818373897
 10
123.8227049986866
 20
94.01702044537362
 10
123.7893198707429
 20
94.02692509474744
 10
123.7562254227265
 20
94.037141955895
 10
123.7234108887141
 20
94.04758490143044
 10
123.6909085664754
 20
94.05817856989111
 10
123.7223127645444
 20
94.21340165105599
 10
123.7516606712759
 20
94.20238811158924
 10
123.7813961512438
 20
94.1916437202033
 10
123.8114438429855
 20
94.1812115405911
 10
123.8418252783473
 20
94.1711454023688
 10
123.8725189254829
 20
94.16153143292226
 10
123.9034924866226
 20
94.15242346186764
 10
123.9347244299198
 20
94.1438753188211
 10
123.9662039894514
 20
94.13596236524528
 10
123.997920399294
 20
94.12874919667956
 10
124.0298413616781
 20
94.12228964274013
 10
124.0619453447572
 20
94.11664829896634
 10
124.0942323485312
 20
94.11190052682085
 10
124.1266593093072
 20
94.10808938999656
 10
124.159215461162
 20
94.10529024995614
 10
124.1918900381724
 20
94.10356770223896
 10
124.2246615084918
 20
94.10297557646118
 10
124.2246615084918
 20
94.10297557646118
 10
124.2792555052034
 20
94.10473042194806
 10
124.3308027456401
 20
94.1099303628693
 10
124.379249400186
 20
94.11840314445323
 10
124.4245201073783
 20
94.13000880969776
 10
124.4665395057543
 20
94.14459663567767
 10
124.5052537656981
 20
94.16200513354448
 10
124.5405982916701
 20
94.18209434629615
 10
124.5725084881309
 20
94.20471355100744
 10
124.6009089936181
 20
94.22970125882986
 10
124.6257244466688
 20
94.25691751276139
 10
124.6469117835901
 20
94.28622235580002
 10
124.6643956429196
 20
94.317443533174
 10
124.6781114291177
 20
94.3504303219581
 10
124.687994546645
 20
94.38505353107354
 10
124.693969634039
 20
94.4211516716718
 10
124.6959720957602
 20
94.45857402082765
 10
124.6959720957602
 20
94.45857402082765
 10
124.6941849525036
 20
94.49242208347036
 10
124.6888665864268
 20
94.5259579343393
 10
124.6800385293763
 20
94.55889089350725
 10
124.6677438450449
 20
94.59098411066306
 10
124.6520255971255
 20
94.62197920364916
 10
124.6329268493112
 20
94.65162855623122
 10
124.6104798993717
 20
94.67965225440517
 10
124.5847170450765
 20
94.7058349797064
 10
124.5556813501187
 20
94.72987528628437
 10
124.5234266441144
 20
94.7515470897512
 10
124.4879744589101
 20
94.77059200794935
 10
124.4493678581987
 20
94.78674089279795
 10
124.4076391397498
 20
94.79974612806271
 10
124.3628421331798
 20
94.80936009750926
 10
124.3150091362582
 20
94.81530288713353
 10
124.2641724467548
 20
94.81734841254769
 10
124.2641724467548
 20
94.81734841254769
 10
124.2549352846214
 20
94.817316114778
 10
124.2433188534536
 20
94.81714386000627
 10
124.2293985147141
 20
94.81663786161435
 10
124.2133357572513
 20
94.81566892852344
 10
124.1952382402976
 20
94.81408633780828
 10
124.1752136230854
 20
94.81169630285068
 10
124.1533587989236
 20
94.80836963257187
 10
124.129802958891
 20
94.80394483812334
 10
124.1046860599898
 20
94.79826043065663
 10
124.0780834636826
 20
94.79116568724648
 10
124.0501351269712
 20
94.78249911904439
 10
124.0209379431649
 20
94.7721100031251
 10
123.9906318692657
 20
94.75982608471693
 10
123.9593137985826
 20
94.74550740681784
 10
123.9271021562712
 20
94.72898171465607
 10
123.8941153674871
 20
94.71010905122967
 10
123.7843998438257
 20
94.73515058866825
 10
123.7843998438257
 20
95.59628449025897
 10
124.7608906128517
 20
95.59628449025897
 10
124.7608906128517
 20
95.44070613362743
 10
123.9396229249905
 20
95.44070613362743
 10
123.9396229249905
 20
94.8879082734129
 10
123.9594645215079
 20
94.89724232885541
 10
123.9799413074959
 20
94.90612421552214
 10
124.0009994533385
 20
94.91455393341312
 10
124.0225851294195
 20
94.9225207166051
 10
124.0446768038924
 20
94.92998150140517
 10
124.0671883493714
 20
94.93691475596682
 10
124.0901089999332
 20
94.94329894844364
 10
124.1133633941152
 20
94.94911254698914
 10
124.1369192341477
 20
94.95434478568009
 10
124.1607226904145
 20
94.95894183490034
 10
124.184741465146
 20
94.96290369464987
 10
124.2089001968796
 20
94.96619806715898
 10
124.2331773537687
 20
94.96880342058122
 10
124.2575083402739
 20
94.97068745714691
 10
124.2818500927024
 20
94.97183941093277
 10
124.3061595473612
 20
94.97222698416914
 10
124.3061595473612
 20
94.97222698416914
 10
124.3703890453657
 20
94.96943861005194
 10
124.4307643428531
 20
94.96129957208824
 10
124.4872423761303
 20
94.94811131612855
 10
124.5397693155812
 20
94.93020758579304
 10
124.5883236293594
 20
94.90792212470195
 10
124.6328730196951
 20
94.88154561278256
 10
124.6733421251257
 20
94.8514333255015
 10
124.7097309456512
 20
94.81788670870932
 10
124.7419964175788
 20
94.78122874010296
 10
124.7700739453689
 20
94.74178239737941
 10
124.7939419971751
 20
94.69987065823565
 10
124.8135682752278
 20
94.65581650036862
 10
124.8288881839875
 20
94.6099321355521
 10
124.8398909575311
 20
94.56255130740627
 10
124.846512000319
 20
94.51398622770486
 10
124.8487297805049
 20
94.4645706400681
 10
124.8487297805049
 20
94.4645706400681
 10
124.8471687216362
 20
94.42760045968802
 10
124.8423025243351
 20
94.38808952142507
 10
124.8337651472118
 20
94.34669454659647
 10
124.8212443784926
 20
94.30410455428904
 10
124.8043849427106
 20
94.26100856358971
 10
124.7828961599387
 20
94.21806329581563
 10
124.7564012228637
 20
94.17599006782338
 10
124.7245986856352
 20
94.13543483500689
 10
124.6871332727864
 20
94.09709738237629
 10
124.6436927725436
 20
94.06166672901841
 10
124.5939326753635
 20
94.02981036217372
 10
124.5375300035489
 20
94.00221730092906
 10
124.4741402475564
 20
93.97956579844808
 10
124.4034404296892
 20
93.96254487381762
 10
124.325096806327
 20
93.95183278020139
 97
        0
 75
     1
 76
     1
 98
        0
  0
LWPOLYLINE
  5
AC
330
1F
100
AcDbEntity
  8
レイヤー_1
  6
Continuous
 62
   250
420
  2367521
370
    13
100
AcDbPolyline
 90
      141
 70
     0
 43
0.0
 10
124.2387756338495
 20
93.94810777076296
 10
124.2033557464149
 20
93.94872142838722
 10
124.1680219863661
 20
93.9505085716438
 10
124.1327851196264
 20
93.95339383907009
 10
124.0976559121191
 20
93.95731263512667
 10
124.0626666616138
 20
93.9622003642742
 10
124.0278173681104
 20
93.96796013320353
 10
123.9931295634556
 20
93.97452734637531
 10
123.9586247794957
 20
93.98184817417334
 10
123.9243137821541
 20
93.98982572328856
 10
123.8902073373538
 20
93.99838463225832
 10
123.8563377428646
 20
94.0074818373897
 10
123.8227049986866
 20
94.01702044537362
 10
123.7893198707429
 20
94.02692509474744
 10
123.7562254227265
 20
94.037141955895
 10
123.7234108887141
 20
94.04758490143044
 10
123.6909085664754
 20
94.05817856989111
 10
123.7223127645444
 20
94.21340165105599
 10
123.7516606712759
 20
94.20238811158924
 10
123.7813961512438
 20
94.1916437202033
 10
123.8114438429855
 20
94.1812115405911
 10
123.8418252783473
 20
94.1711454023688
 10
123.8725189254829
 20
94.16153143292226
 10
123.9034924866226
 20
94.15242346186764
 10
123.9347244299198
 20
94.1438753188211
 10
123.9662039894514
 20
94.13596236524528
 10
123.997920399294
 20
94.12874919667956
 10
124.0298413616781
 20
94.12228964274013
 10
124.0619453447572
 20
94.11664829896634
 10
124.0942323485312
 20
94.11190052682085
 10
124.1266593093072
 20
94.10808938999656
 10
124.159215461162
 20
94.10529024995614
 10
124.1918900381724
 20
94.10356770223896
 10
124.2246615084918
 20
94.10297557646118
 10
124.2246615084918
 20
94.10297557646118
 10
124.2792555052034
 20
94.10473042194806
 10
124.3308027456401
 20
94.1099303628693
 10
124.379249400186
 20
94.11840314445323
 10
124.4245201073783
 20
94.13000880969776
 10
124.4665395057543
 20
94.14459663567767
 10
124.5052537656981
 20
94.16200513354448
 10
124.5405982916701
 20
94.18209434629615
 10
124.5725084881309
 20
94.20471355100744
 10
124.6009089936181
 20
94.22970125882986
 10
124.6257244466688
 20
94.25691751276139
 10
124.6469117835901
 20
94.28622235580002
 10
124.6643956429196
 20
94.317443533174
 10
124.6781114291177
 20
94.3504303219581
 10
124.687994546645
 20
94.38505353107354
 10
124.693969634039
 20
94.4211516716718
 10
124.6959720957602
 20
94.45857402082765
 10
124.6959720957602
 20
94.45857402082765
 10
124.6941849525036
 20
94.49242208347036
 10
124.6888665864268
 20
94.5259579343393
 10
124.6800385293763
 20
94.55889089350725
 10
124.6677438450449
 20
94.59098411066306
 10
124.6520255971255
 20
94.62197920364916
 10
124.6329268493112
 20
94.65162855623122
 10
124.6104798993717
 20
94.67965225440517
 10
124.5847170450765
 20
94.7058349797064
 10
124.5556813501187
 20
94.72987528628437
 10
124.5234266441144
 20
94.7515470897512
 10
124.4879744589101
 20
94.77059200794935
 10
124.4493678581987
 20
94.78674089279795
 10
124.4076391397498
 20
94.79974612806271
 10
124.3628421331798
 20
94.80936009750926
 10
124.3150091362582
 20
94.81530288713353
 10
124.2641724467548
 20
94.81734841254769
 10
124.2641724467548
 20
94.81734841254769
 10
124.2549352846214
 20
94.817316114778
 10
124.2433188534536
 20
94.81714386000627
 10
124.2293985147141
 20
94.81663786161435
 10
124.2133357572513
 20
94.81566892852344
 10
124.1952382402976
 20
94.81408633780828
 10
124.1752136230854
 20
94.81169630285068
 10
124.1533587989236
 20
94.80836963257187
 10
124.129802958891
 20
94.80394483812334
 10
124.1046860599898
 20
94.79826043065663
 10
124.0780834636826
 20
94.79116568724648
 10
124.0501351269712
 20
94.78249911904439
 10
124.0209379431649
 20
94.7721100031251
 10
123.9906318692657
 20
94.75982608471693
 10
123.9593137985826
 20
94.74550740681784
 10
123.9271021562712
 20
94.72898171465607
 10
123.8941153674871
 20
94.71010905122967
 10
123.7843998438257
 20
94.73515058866825
 10
123.7843998438257
 20
95.59628449025897
 10
124.7608906128517
 20
95.59628449025897
 10
124.7608906128517
 20
95.44070613362743
 10
123.9396229249905
 20
95.44070613362743
 10
123.9396229249905
 20
94.8879082734129
 10
123.9594645215079
 20
94.89724232885541
 10
123.9799413074959
 20
94.90612421552214
 10
124.0009994533385
 20
94.91455393341312
 10
124.0225851294195
 20
94.9225207166051
 10
124.0446768038924
 20
94.92998150140517
 10
124.0671883493714
 20
94.93691475596682
 10
124.0901089999332
 20
94.94329894844364
 10
124.1133633941152
 20
94.94911254698914
 10
124.1369192341477
 20
94.95434478568009
 10
124.1607226904145
 20
94.95894183490034
 10
124.184741465146
 20
94.96290369464987
 10
124.2089001968796
 20
94.96619806715898
 10
124.2331773537687
 20
94.96880342058122
 10
124.2575083402739
 20
94.97068745714691
 10
124.2818500927024
 20
94.97183941093277
 10
124.3061595473612
 20
94.97222698416914
 10
124.3061595473612
 20
94.97222698416914
 10
124.3703890453657
 20
94.96943861005194
 10
124.4307643428531
 20
94.96129957208824
 10
124.4872423761303
 20
94.94811131612855
 10
124.5397693155812
 20
94.93020758579304
 10
124.5883236293594
 20
94.90792212470195
 10
124.6328730196951
 20
94.88154561278256
 10
124.6733421251257
 20
94.8514333255015
 10
124.7097309456512
 20
94.81788670870932
 10
124.7419964175788
 20
94.78122874010296
 10
124.7700739453689
 20
94.74178239737941
 10
124.7939419971751
 20
94.69987065823565
 10
124.8135682752278
 20
94.65581650036862
 10
124.8288881839875
 20
94.6099321355521
 10
124.8398909575311
 20
94.56255130740627
 10
124.846512000319
 20
94.51398622770486
 10
124.8487297805049
 20
94.4645706400681
 10
124.8487297805049
 20
94.4645706400681
 10
124.8471687216362
 20
94.42760045968802
 10
124.8423025243351
 20
94.38808952142507
 10
124.8337651472118
 20
94.34669454659647
 10
124.8212443784926
 20
94.30410455428904
 10
124.8043849427106
 20
94.26100856358971
 10
124.7828961599387
 20
94.21806329581563
 10
124.7564012228637
 20
94.17599006782338
 10
124.7245986856352
 20
94.13543483500689
 10
124.6871332727864
 20
94.09709738237629
 10
124.6436927725436
 20
94.06166672901841
 10
124.5939326753635
 20
94.02981036217372
 10
124.5375300035489
 20
94.00221730092906
 10
124.4741402475564
 20
93.97956579844808
 10
124.4034404296892
 20
93.96254487381762
 10
124.325096806327
 20
93.95183278020139
 10
124.2387756338495
 20
93.94810777076296
  0
LINE
  5
AD
330
1F
100
AcDbEntity
  8
レイヤー_1
  6
Continuous
 62
   250
420
  2367521
370
    13
100
AcDbLine
 10
143.3700473022287
 20
104.7053967327399
 30
0.0
 11
143.3700473022287
 21
109.957197106204
 31
0.0
  0
LINE
  5
AE
330
1F
100
AcDbEntity
  8
レイヤー_1
  6
Continuous
 62
   250
420
  2367521
370
    13
100
AcDbLine
 10
100.3723279501598
 20
106.4045178009716
 30
0.0
 11
95.3671210483339
 21
106.4045178009716
 31
0.0
  0
LINE
  5
AF
330
1F
100
AcDbEntity
  8
レイヤー_1
  6
Continuous
 62
   250
420
  2367521
370
    13
100
AcDbLine
 10
100.3723279501598
 20
103.4045394626446
 30
0.0
 11
95.3671210483339
 21
103.4045394626446
 31
0.0
  0
HATCH
  5
B0
330
1F
100
AcDbEntity
  8
レイヤー_1
  6
Continuous
 62
   250
420
  2367521
370
    13
100
AcDbHatch
 10
0.0
 20
0.0
 30
0.0
210
0.0
220
0.0
230
1.0
  2
SOLID
 70
     1
 71
     0
 91
        1
 92
        3
 72
     0
 73
     1
 93
       67
 10
95.87442211696826
 20
103.1544470659558
 10
95.84887458113775
 20
103.1557389767436
 10
95.82406989401028
 20
103.1595178157982
 10
95.80011571481818
 20
103.1656759238871
 10
95.77715200056345
 20
103.1740733440084
 10
95.75528641047842
 20
103.1846024169297
 10
95.73466966748836
 20
103.197123185649
 10
95.71539866490235
 20
103.2115064590875
 10
95.69763489156887
 20
103.2276445780129
 10
95.68147524079703
 20
103.2454083513464
 10
95.66707043551206
 20
103.2646578220859
 10
95.6545281349463
 20
103.285274565076
 10
95.64397753017855
 20
103.307140155161
 10
95.6355585782108
 20
103.3301361671854
 10
95.62938970419863
 20
103.354111878224
 10
95.6255893332976
 20
103.3789703949676
 10
95.6242974225097
 20
103.4045717604143
 10
95.6242974225097
 20
103.4045717604143
 10
95.62557856737436
 20
103.4301085303216
 10
95.6293789382754
 20
103.4549132174491
 10
95.6355585782108
 20
103.4788458647947
 10
95.64397753017855
 20
103.501788047203
 10
95.6545281349463
 20
103.5236105735951
 10
95.66707043551206
 20
103.5442165506619
 10
95.68147524079703
 20
103.5634337236317
 10
95.69763489156887
 20
103.5811759651187
 10
95.71540943082559
 20
103.5973033181209
 10
95.73466966748836
 20
103.6116758256362
 10
95.75528641047842
 20
103.6241858284322
 10
95.77715200056345
 20
103.6347041354303
 10
95.80011571481818
 20
103.6431015555516
 10
95.82406989401028
 20
103.6492596636405
 10
95.84888534706099
 20
103.6530385026951
 10
95.87442211696826
 20
103.654330413483
 10
95.87442211696826
 20
103.654330413483
 10
95.89995888687554
 20
103.6530385026951
 10
95.92477433992624
 20
103.6492488977173
 10
95.94871775319513
 20
103.6431015555516
 10
95.97169223337309
 20
103.6347041354303
 10
95.9935578234581
 20
103.6241858284322
 10
96.0141853323714
 20
103.6116758256362
 10
96.03343480311095
 20
103.5972925521977
 10
96.05120934236766
 20
103.5811759651187
 10
96.06735822721626
 20
103.563444489555
 10
96.08177379842446
 20
103.5442165506619
 10
96.09431609899022
 20
103.5236105735951
 10
96.10486670375798
 20
103.501788047203
 10
96.11328565572572
 20
103.4788350988715
 10
96.11945452973791
 20
103.4549024515258
 10
96.12325490063894
 20
103.4301085303216
 10
96.12454681142682
 20
103.4045717604143
 10
96.12454681142682
 20
103.4045717604143
 10
96.12325490063894
 20
103.3789703949676
 10
96.11945452973791
 20
103.354111878224
 10
96.11328565572572
 20
103.3301361671854
 10
96.10485593783474
 20
103.307140155161
 10
96.09431609899022
 20
103.285274565076
 10
96.0817845643477
 20
103.2646578220859
 10
96.06735822721626
 20
103.2454083513464
 10
96.05120934236766
 20
103.2276445780129
 10
96.03343480311095
 20
103.2115172250108
 10
96.0141853323714
 20
103.197123185649
 10
95.9935578234581
 20
103.1846024169297
 10
95.97169223337309
 20
103.1740841099317
 10
95.94872851911836
 20
103.1656759238871
 10
95.92477433992624
 20
103.1595178157982
 10
95.89995888687554
 20
103.1557389767436
 97
        0
 75
     1
 76
     1
 98
        0
  0
LWPOLYLINE
  5
B1
330
1F
100
AcDbEntity
  8
レイヤー_1
  6
Continuous
 62
   250
420
  2367521
370
    13
100
AcDbPolyline
 90
       68
 70
     0
 43
0.0
 10
95.87442211696826
 20
103.1544470659558
 10
95.84887458113775
 20
103.1557389767436
 10
95.82406989401028
 20
103.1595178157982
 10
95.80011571481818
 20
103.1656759238871
 10
95.77715200056345
 20
103.1740733440084
 10
95.75528641047842
 20
103.1846024169297
 10
95.73466966748836
 20
103.197123185649
 10
95.71539866490235
 20
103.2115064590875
 10
95.69763489156887
 20
103.2276445780129
 10
95.68147524079703
 20
103.2454083513464
 10
95.66707043551206
 20
103.2646578220859
 10
95.6545281349463
 20
103.285274565076
 10
95.64397753017855
 20
103.307140155161
 10
95.6355585782108
 20
103.3301361671854
 10
95.62938970419863
 20
103.354111878224
 10
95.6255893332976
 20
103.3789703949676
 10
95.6242974225097
 20
103.4045717604143
 10
95.6242974225097
 20
103.4045717604143
 10
95.62557856737436
 20
103.4301085303216
 10
95.6293789382754
 20
103.4549132174491
 10
95.6355585782108
 20
103.4788458647947
 10
95.64397753017855
 20
103.501788047203
 10
95.6545281349463
 20
103.5236105735951
 10
95.66707043551206
 20
103.5442165506619
 10
95.68147524079703
 20
103.5634337236317
 10
95.69763489156887
 20
103.5811759651187
 10
95.71540943082559
 20
103.5973033181209
 10
95.73466966748836
 20
103.6116758256362
 10
95.75528641047842
 20
103.6241858284322
 10
95.77715200056345
 20
103.6347041354303
 10
95.80011571481818
 20
103.6431015555516
 10
95.82406989401028
 20
103.6492596636405
 10
95.84888534706099
 20
103.6530385026951
 10
95.87442211696826
 20
103.654330413483
 10
95.87442211696826
 20
103.654330413483
 10
95.89995888687554
 20
103.6530385026951
 10
95.92477433992624
 20
103.6492488977173
 10
95.94871775319513
 20
103.6431015555516
 10
95.97169223337309
 20
103.6347041354303
 10
95.9935578234581
 20
103.6241858284322
 10
96.0141853323714
 20
103.6116758256362
 10
96.03343480311095
 20
103.5972925521977
 10
96.05120934236766
 20
103.5811759651187
 10
96.06735822721626
 20
103.563444489555
 10
96.08177379842446
 20
103.5442165506619
 10
96.09431609899022
 20
103.5236105735951
 10
96.10486670375798
 20
103.501788047203
 10
96.11328565572572
 20
103.4788350988715
 10
96.11945452973791
 20
103.4549024515258
 10
96.12325490063894
 20
103.4301085303216
 10
96.12454681142682
 20
103.4045717604143
 10
96.12454681142682
 20
103.4045717604143
 10
96.12325490063894
 20
103.3789703949676
 10
96.11945452973791
 20
103.354111878224
 10
96.11328565572572
 20
103.3301361671854
 10
96.10485593783474
 20
103.307140155161
 10
96.09431609899022
 20
103.285274565076
 10
96.0817845643477
 20
103.2646578220859
 10
96.06735822721626
 20
103.2454083513464
 10
96.05120934236766
 20
103.2276445780129
 10
96.03343480311095
 20
103.2115172250108
 10
96.0141853323714
 20
103.197123185649
 10
95.9935578234581
 20
103.1846024169297
 10
95.97169223337309
 20
103.1740841099317
 10
95.94872851911836
 20
103.1656759238871
 10
95.92477433992624
 20
103.1595178157982
 10
95.89995888687554
 20
103.1557389767436
 10
95.87442211696826
 20
103.1544470659558
  0
HATCH
  5
B2
330
1F
100
AcDbEntity
  8
レイヤー_1
  6
Continuous
 62
   250
420
  2367521
370
    13
100
AcDbHatch
 10
0.0
 20
0.0
 30
0.0
210
0.0
220
0.0
230
1.0
  2
SOLID
 70
     1
 71
     0
 91
        1
 92
        3
 72
     0
 73
     1
 93
       67
 10
95.87442211696826
 20
106.1547483819797
 10
95.84889611298422
 20
106.1560402927676
 10
95.82410219177999
 20
106.1598298977454
 10
95.80019107628081
 20
106.1659772399111
 10
95.77725965979576
 20
106.1743746600324
 10
95.75544789932691
 20
106.1849037329537
 10
95.73489575187624
 20
106.197424501673
 10
95.71568934482963
 20
106.2118185410347
 10
95.69799016703554
 20
106.2279458940369
 10
95.68190587772632
 20
106.2457096673703
 10
95.66755490205752
 20
106.2649483721867
 10
95.65507719703115
 20
106.2855758810999
 10
95.64458042187957
 20
106.307441471185
 10
95.63620453360474
 20
106.3304374832094
 10
95.63006795736227
 20
106.3544239601712
 10
95.6262891183077
 20
106.3792717109916
 10
95.62500797344305
 20
106.4048730764383
 10
95.62500797344305
 20
106.4048730764383
 10
95.6262891183077
 20
106.4304098463456
 10
95.63005719143904
 20
106.455214533473
 10
95.63620453360474
 20
106.4791364148954
 10
95.64458042187957
 20
106.5020893632269
 10
95.65507719703115
 20
106.5239226555423
 10
95.66755490205752
 20
106.5445178666859
 10
95.68189511180309
 20
106.5637350396557
 10
95.69799016703554
 20
106.5814772811427
 10
95.71570011075286
 20
106.5975938682216
 10
95.73489575187624
 20
106.6119771416601
 10
95.75545866525013
 20
106.6244871444562
 10
95.77725965979576
 20
106.6350054514543
 10
95.80018031035758
 20
106.6434028715755
 10
95.82410219177999
 20
106.6495609796645
 10
95.84889611298422
 20
106.6533398187191
 10
95.87442211696826
 20
106.6546317295069
 10
95.87442211696826
 20
106.6546317295069
 10
95.9000773120311
 20
106.6533398187191
 10
95.92497889246766
 20
106.6495609796645
 10
95.94898690127593
 20
106.6434028715755
 10
95.97199367922359
 20
106.6350054514543
 10
95.99387003523185
 20
106.6244871444562
 10
96.01449754414514
 20
106.6119771416601
 10
96.03372548303822
 20
106.5976046341449
 10
96.05147849044846
 20
106.5814772811427
 10
96.06759507752739
 20
106.5637458055789
 10
96.08196758504265
 20
106.5445071007626
 10
96.09445605599225
 20
106.5239226555423
 10
96.10496359706707
 20
106.5020893632269
 10
96.11335025126513
 20
106.4791471808187
 10
96.11948682750759
 20
106.4552037675498
 10
96.12326566656216
 20
106.4304098463456
 10
96.12454681142682
 20
106.4048730764383
 10
96.12454681142682
 20
106.4048730764383
 10
96.12326566656216
 20
106.3792717109916
 10
96.11948682750759
 20
106.3544239601712
 10
96.1133394853419
 20
106.3304267172862
 10
96.10496359706707
 20
106.307441471185
 10
96.09445605599225
 20
106.2855758810999
 10
96.08196758504265
 20
106.2649483721867
 10
96.06759507752739
 20
106.2457096673703
 10
96.05147849044846
 20
106.2279566599601
 10
96.03373624896145
 20
106.2118185410347
 10
96.01449754414514
 20
106.197424501673
 10
95.99387003523185
 20
106.1849037329537
 10
95.97199367922359
 20
106.1743854259556
 10
95.94898690127593
 20
106.1659772399111
 10
95.92497889246766
 20
106.1598298977454
 10
95.9000773120311
 20
106.1560402927676
 97
        0
 75
     1
 76
     1
 98
        0
  0
LWPOLYLINE
  5
B3
330
1F
100
AcDbEntity
  8
レイヤー_1
  6
Continuous
 62
   250
420
  2367521
370
    13
100
AcDbPolyline
 90
       68
 70
     0
 43
0.0
 10
95.87442211696826
 20
106.1547483819797
 10
95.84889611298422
 20
106.1560402927676
 10
95.82410219177999
 20
106.1598298977454
 10
95.80019107628081
 20
106.1659772399111
 10
95.77725965979576
 20
106.1743746600324
 10
95.75544789932691
 20
106.1849037329537
 10
95.73489575187624
 20
106.197424501673
 10
95.71568934482963
 20
106.2118185410347
 10
95.69799016703554
 20
106.2279458940369
 10
95.68190587772632
 20
106.2457096673703
 10
95.66755490205752
 20
106.2649483721867
 10
95.65507719703115
 20
106.2855758810999
 10
95.64458042187957
 20
106.307441471185
 10
95.63620453360474
 20
106.3304374832094
 10
95.63006795736227
 20
106.3544239601712
 10
95.6262891183077
 20
106.3792717109916
 10
95.62500797344305
 20
106.4048730764383
 10
95.62500797344305
 20
106.4048730764383
 10
95.6262891183077
 20
106.4304098463456
 10
95.63005719143904
 20
106.455214533473
 10
95.63620453360474
 20
106.4791364148954
 10
95.64458042187957
 20
106.5020893632269
 10
95.65507719703115
 20
106.5239226555423
 10
95.66755490205752
 20
106.5445178666859
 10
95.68189511180309
 20
106.5637350396557
 10
95.69799016703554
 20
106.5814772811427
 10
95.71570011075286
 20
106.5975938682216
 10
95.73489575187624
 20
106.6119771416601
 10
95.75545866525013
 20
106.6244871444562
 10
95.77725965979576
 20
106.6350054514543
 10
95.80018031035758
 20
106.6434028715755
 10
95.82410219177999
 20
106.6495609796645
 10
95.84889611298422
 20
106.6533398187191
 10
95.87442211696826
 20
106.6546317295069
 10
95.87442211696826
 20
106.6546317295069
 10
95.9000773120311
 20
106.6533398187191
 10
95.92497889246766
 20
106.6495609796645
 10
95.94898690127593
 20
106.6434028715755
 10
95.97199367922359
 20
106.6350054514543
 10
95.99387003523185
 20
106.6244871444562
 10
96.01449754414514
 20
106.6119771416601
 10
96.03372548303822
 20
106.5976046341449
 10
96.05147849044846
 20
106.5814772811427
 10
96.06759507752739
 20
106.5637458055789
 10
96.08196758504265
 20
106.5445071007626
 10
96.09445605599225
 20
106.5239226555423
 10
96.10496359706707
 20
106.5020893632269
 10
96.11335025126513
 20
106.4791471808187
 10
96.11948682750759
 20
106.4552037675498
 10
96.12326566656216
 20
106.4304098463456
 10
96.12454681142682
 20
106.4048730764383
 10
96.12454681142682
 20
106.4048730764383
 10
96.12326566656216
 20
106.3792717109916
 10
96.11948682750759
 20
106.3544239601712
 10
96.1133394853419
 20
106.3304267172862
 10
96.10496359706707
 20
106.307441471185
 10
96.09445605599225
 20
106.2855758810999
 10
96.08196758504265
 20
106.2649483721867
 10
96.06759507752739
 20
106.2457096673703
 10
96.05147849044846
 20
106.2279566599601
 10
96.03373624896145
 20
106.2118185410347
 10
96.01449754414514
 20
106.197424501673
 10
95.99387003523185
 20
106.1849037329537
 10
95.97199367922359
 20
106.1743854259556
 10
95.94898690127593
 20
106.1659772399111
 10
95.92497889246766
 20
106.1598298977454
 10
95.9000773120311
 20
106.1560402927676
 10
95.87442211696826
 20
106.1547483819797
  0
LINE
  5
B4
330
1F
100
AcDbEntity
  8
レイヤー_1
  6
Continuous
 62
   250
420
  2367521
370
    13
100
AcDbLine
 10
95.87442211696826
 20
103.4045394626446
 30
0.0
 11
95.87442211696826
 21
106.4045608646645
 31
0.0
  0
TEXT
  5
B5
330
1F
100
AcDbEntity
  8
レイヤー_1
  6
Continuous
 62
   250
420
  2367521
100
AcDbText
 10
94.81088558576758
 20
104.1962223760688
 30
0.0
 40
2.150533301035563
  1
3
 50
90.00000250447816
 41
0.7819976806640623
  7
MS Gothic
100
AcDbText
  0
LINE
  5
B6
330
1F
100
AcDbEntity
  8
レイヤー_2
  6
UserDefined01
 62
   140
420
    44526
370
    13
100
AcDbLine
 10
124.7686097798093
 20
98.67410045355629
 30
0.0
 11
137.7688281243334
 21
98.67410045355629
 31
0.0
  0
HATCH
  5
B7
330
1F
100
AcDbEntity
  8
レイヤー_2
  6
Continuous
 62
   140
420
    44526
370
    13
100
AcDbHatch
 10
0.0
 20
0.0
 30
0.0
210
0.0
220
0.0
230
1.0
  2
SOLID
 70
     1
 71
     0
 91
        1
 92
        3
 72
     0
 73
     1
 93
       10
 10
129.0849913813792
 20
99.46783967571213
 10
129.0849913813792
 20
99.60366256321221
 10
129.5192564268048
 20
99.60366256321221
 10
129.5192564268048
 20
100.7371312588899
 10
129.0849913813792
 20
100.64823703076
 10
129.0849913813792
 20
100.7837046427934
 10
129.6550793143049
 20
100.9099996882327
 10
129.6550793143049
 20
99.60366256321221
 10
130.0773511212497
 20
99.60366256321221
 10
130.0773511212497
 20
99.46783967571213
 97
        0
 75
     1
 76
     1
 98
        0
  0
LWPOLYLINE
  5
B8
330
1F
100
AcDbEntity
  8
レイヤー_2
  6
Continuous
 62
   140
420
    44526
370
    13
100
AcDbPolyline
 90
       11
 70
     0
 43
0.0
 10
129.0849913813792
 20
99.46783967571213
 10
129.0849913813792
 20
99.60366256321221
 10
129.5192564268048
 20
99.60366256321221
 10
129.5192564268048
 20
100.7371312588899
 10
129.0849913813792
 20
100.64823703076
 10
129.0849913813792
 20
100.7837046427934
 10
129.6550793143049
 20
100.9099996882327
 10
129.6550793143049
 20
99.60366256321221
 10
130.0773511212497
 20
99.60366256321221
 10
130.0773511212497
 20
99.46783967571213
 10
129.0849913813792
 20
99.46783967571213
  0
HATCH
  5
B9
330
1F
100
AcDbEntity
  8
レイヤー_2
  6
Continuous
 62
   140
420
    44526
370
    13
100
AcDbHatch
 10
0.0
 20
0.0
 30
0.0
210
0.0
220
0.0
230
1.0
  2
SOLID
 70
     1
 71
     0
 91
        1
 92
        3
 72
     0
 73
     1
 93
      240
 10
130.9763380089256
 20
99.43821185497654
 10
130.9647861732972
 20
99.43839487567149
 10
130.9505859205536
 20
99.43894393775635
 10
130.9340063987758
 20
99.43993440269372
 10
130.9152306286584
 20
99.44140933417657
 10
130.8944739286663
 20
99.44336873220487
 10
130.8719408513409
 20
99.44590949008771
 10
130.8478682469932
 20
99.44906390559481
 10
130.8224391363183
 20
99.45285351057262
 10
130.7958903696272
 20
99.45734290056053
 10
130.7683942016916
 20
99.46256437332826
 10
130.7402090146691
 20
99.46858252441517
 10
130.711528595178
 20
99.47541888566775
 10
130.6825574957596
 20
99.48312728670216
 10
130.6535002689553
 20
99.49176155713454
 10
130.6246045309995
 20
99.50135399473461
 10
130.596042536664
 20
99.51194766319531
 10
130.5071483085339
 20
99.54651704269457
 10
130.5417176880332
 20
99.66292897060663
 10
130.5642830631284
 20
99.6545530823318
 10
130.5874728617709
 20
99.64624178959639
 10
130.6112655521146
 20
99.63810275163269
 10
130.6355857726966
 20
99.63014673436393
 10
130.6604012257473
 20
99.622459865176
 10
130.6856473157273
 20
99.61510673960825
 10
130.7113025107901
 20
99.60817348504659
 10
130.7372806835499
 20
99.60168163333745
 10
130.7635710680835
 20
99.5957173118667
 10
130.7900983029281
 20
99.59034511617372
 10
130.816819324391
 20
99.58562964179792
 10
130.843691068779
 20
99.58162471835547
 10
130.8706597064763
 20
99.57839494138574
 10
130.8976606419431
 20
99.57601567235139
 10
130.9246831092565
 20
99.57454074086854
 10
130.9516409810304
 20
99.57403474247661
 10
130.9516409810304
 20
99.57403474247661
 10
130.9938003364085
 20
99.57536971695744
 10
131.0342263781462
 20
99.57932081078374
 10
131.0727683833182
 20
99.58579113064641
 10
131.1092863949226
 20
99.59467301731314
 10
131.1436727537269
 20
99.60585881155163
 10
131.1757552049595
 20
99.61926238597597
 10
131.205426089388
 20
99.63477608135386
 10
131.2325346840872
 20
99.65231377029946
 10
131.2569733298248
 20
99.67174626173397
 10
131.2785805377522
 20
99.69300896011796
 10
131.297237882714
 20
99.71598344029593
 10
131.3127946417848
 20
99.74057280895876
 10
131.3251323898092
 20
99.76666940687412
 10
131.3341219357082
 20
99.79419787257939
 10
131.3396017906335
 20
99.82302901499578
 10
131.3414642953528
 20
99.85307670673743
 10
131.3414642953528
 20
99.85307670673743
 10
131.3401077890255
 20
99.87781679832551
 10
131.3361889929689
 20
99.90112502212368
 10
131.3299555234173
 20
99.92301214405516
 10
131.321601166989
 20
99.94347816411997
 10
131.3113412421484
 20
99.96254461416457
 10
131.299412599207
 20
99.98025455788189
 10
131.2860413225523
 20
99.99660799527192
 10
131.2714427306491
 20
100.0116049263347
 10
131.2558213760389
 20
100.0252884147631
 10
131.2394141090327
 20
100.0376476946339
 10
131.2224470140184
 20
100.0487150637168
 10
131.2051354094608
 20
100.0585120538583
 10
131.1876946138242
 20
100.0670386650583
 10
131.1703507114968
 20
100.0743271950867
 10
131.1533297868664
 20
100.0803776439433
 10
131.1368471583976
 20
100.0852115434746
 10
131.1368471583976
 20
100.0852115434746
 10
131.1237988594399
 20
100.0883121293656
 10
131.1107290286357
 20
100.0911005034828
 10
131.0976053682154
 20
100.0936520272889
 10
131.0844709418719
 20
100.0959128711677
 10
131.0713042177587
 20
100.0979368647353
 10
131.0581051958757
 20
100.0997240079919
 10
131.0448846421463
 20
100.1012850668606
 10
131.0316317906472
 20
100.1026308072647
 10
131.0183681732249
 20
100.1037719951273
 10
131.0050614921096
 20
100.1047193963718
 10
130.9917440450711
 20
100.1054837769213
 10
130.9784050661862
 20
100.1060866686223
 10
130.9650337895316
 20
100.106538837398
 10
130.9516517469536
 20
100.1068510491718
 10
130.9382589384525
 20
100.1070233039435
 10
130.9248338321817
 20
100.1070771335597
 10
130.8849676184521
 20
100.1070771335597
 10
130.8849676184521
 20
100.2429000210597
 10
130.892374573636
 20
100.2429000210597
 10
130.9400460817091
 20
100.2446548665466
 10
130.9839387507276
 20
100.2497148504659
 10
131.0241279421542
 20
100.2578538884296
 10
131.060710549298
 20
100.2687490027407
 10
131.0938049973144
 20
100.2821848749348
 10
131.1234974135894
 20
100.2978708250844
 10
131.1498954573552
 20
100.3155377051088
 10
131.1730960219211
 20
100.3349378987736
 10
131.193196000596
 20
100.3557699602283
 10
131.2102922866891
 20
100.3777862732386
 10
131.2244817735094
 20
100.4007284556469
 10
131.2358721202893
 20
100.4243165934491
 10
131.2445494544146
 20
100.4482923044876
 10
131.2506322010409
 20
100.4723756747586
 10
131.2542064875541
 20
100.4963190880274
 10
131.2553799731864
 20
100.519831864367
 10
131.2553799731864
 20
100.519831864367
 10
131.2542603171702
 20
100.5433984703228
 10
131.2508259876591
 20
100.5669112466623
 10
131.2450877505762
 20
100.5901441089979
 10
131.2370133081519
 20
100.612892504788
 10
131.2265703626165
 20
100.6349626474144
 10
131.2137050843537
 20
100.656160750259
 10
131.198428239287
 20
100.6762930267036
 10
131.1806859977999
 20
100.6951549242068
 10
131.160446062123
 20
100.7125418902271
 10
131.1376976663329
 20
100.7282601381465
 10
131.11240851266
 20
100.7421051154233
 10
131.084524771488
 20
100.7538830354396
 10
131.0540572087403
 20
100.7633893456538
 10
131.0209412288775
 20
100.7704302594478
 10
130.9851660659762
 20
100.7748012242802
 10
130.9466994222668
 20
100.7762976876095
 10
130.9466994222668
 20
100.7762976876095
 10
130.9167593897574
 20
100.775350286365
 10
130.8872392282541
 20
100.7726372737104
 10
130.8582465969893
 20
100.7683416703407
 10
130.8298999211183
 20
100.7626895606437
 10
130.8023391576434
 20
100.7558531993911
 10
130.7756289021038
 20
100.7480586709708
 10
130.7499414092712
 20
100.7394889960779
 10
130.7253735724549
 20
100.7303487272535
 10
130.7020545827335
 20
100.7208316511161
 10
130.6801028652626
 20
100.7111530861302
 10
130.6596260792746
 20
100.7014852870674
 10
130.6407641817714
 20
100.6920651042391
 10
130.6236140660621
 20
100.6830540264936
 10
130.6083049232257
 20
100.6746673722955
 10
130.5949551784175
 20
100.6671204601096
 10
130.5836940227164
 20
100.6605855447075
 10
130.5395968011564
 20
100.7692460078922
 10
130.5642507653586
 20
100.7845982144216
 10
130.5892600050275
 20
100.7992936996339
 10
130.6146568179328
 20
100.813289399836
 10
130.6404089063047
 20
100.8265207194887
 10
130.6665593338362
 20
100.8389445948988
 10
130.6930758027576
 20
100.8505287282969
 10
130.7200121426851
 20
100.8612192900667
 10
130.747336055849
 20
100.8709839824385
 10
130.7750798400189
 20
100.8797582098729
 10
130.8032327292717
 20
100.8875096746002
 10
130.8318162554537
 20
100.8941953129276
 10
130.8608196526418
 20
100.8997612952387
 10
130.8902644526825
 20
100.904175323764
 10
130.9201506555756
 20
100.9073835688873
 10
130.9504890272445
 20
100.9093429669156
 10
130.9812795676892
 20
100.9099996882327
 10
130.9812795676892
 20
100.9099996882327
 10
131.0118547896693
 20
100.9089769255257
 10
131.0416333333301
 20
100.9059839988671
 10
131.0705506031324
 20
100.9011070356428
 10
131.0985527694599
 20
100.8944859928548
 10
131.1255537049267
 20
100.8862069978891
 10
131.1514995799169
 20
100.8763884759012
 10
131.1763365648141
 20
100.8651273202001
 10
131.2000000640789
 20
100.8525419559414
 10
131.222425482172
 20
100.8387400423574
 10
131.2435374576307
 20
100.8238184727573
 10
131.2632929267622
 20
100.8079064382198
 10
131.2816057621805
 20
100.7910900661308
 10
131.298443666116
 20
100.7734877816458
 10
131.3137097452596
 20
100.7552072439972
 10
131.3273717018415
 20
100.736345346494
 10
131.3393434084759
 20
100.7170312802151
 10
131.3393434084759
 20
100.7170312802151
 10
131.3443172650093
 20
100.7076864588493
 10
131.3491511645407
 20
100.6980294257098
 10
131.3538235752235
 20
100.6880601807966
 10
131.3583129652114
 20
100.6777571922632
 10
131.3626085685812
 20
100.6671204601096
 10
131.3666350238701
 20
100.6561392184125
 10
131.3704246288479
 20
100.6447919353256
 10
131.3739127879752
 20
100.6330678449255
 10
131.3770887353288
 20
100.6209669472123
 10
131.3799417049854
 20
100.6084784762627
 10
131.3824071014056
 20
100.5955916661535
 10
131.3844849245895
 20
100.5822957509614
 10
131.3861536426905
 20
100.5685691988401
 10
131.3873701920157
 20
100.5544120097895
 10
131.388123806642
 20
100.5398134178864
 10
131.3883821887996
 20
100.5247626572074
 10
131.3883821887996
 20
100.5247626572074
 10
131.3872732987066
 20
100.4899779592435
 10
131.3840650535834
 20
100.457852444318
 10
131.3788866445086
 20
100.4282353895057
 10
131.3718887944075
 20
100.4009437741115
 10
131.363200694359
 20
100.3757838115174
 10
131.3529407695185
 20
100.3526155447212
 10
131.341292040581
 20
100.3312559530281
 10
131.3283621667789
 20
100.3115112498199
 10
131.3143126369606
 20
100.293219946248
 10
131.2992726422049
 20
100.276220553464
 10
131.2833821395139
 20
100.260330050773
 10
131.2667918518127
 20
100.24536541748
 10
131.249620204257
 20
100.2311651647364
 10
131.2320286856953
 20
100.2175570377707
 10
131.2141464872063
 20
100.2043580158877
 10
131.196113565792
 20
100.1913958443159
 10
131.196113565792
 20
100.1913958443159
 10
131.2130591289598
 20
100.1869710498674
 10
131.2320932812347
 20
100.1811036217057
 10
131.2527746197641
 20
100.1736213050592
 10
131.2746940394653
 20
100.1643410792329
 10
131.2973993715625
 20
100.1531122213015
 10
131.3204169154334
 20
100.1397194128003
 10
131.3433375659952
 20
100.1239903989578
 10
131.3657091544721
 20
100.1057529250021
 10
131.3871118098581
 20
100.0848347361615
 10
131.4070825974543
 20
100.0610528117411
 10
131.4251908803312
 20
100.0342133651227
 10
131.4409952556364
 20
100.0041656733811
 10
131.4540543205173
 20
99.97070518397473
 10
131.4639159061982
 20
99.93367040805525
 10
131.4701709075962
 20
99.89286755900443
 10
131.4723456240891
 20
99.84813514797375
 10
131.4723456240891
 20
99.84813514797375
 10
131.469331165584
 20
99.79754607470467
 10
131.4605461722264
 20
99.75041286279318
 10
131.4464643446384
 20
99.70668168262313
 10
131.4274840219797
 20
99.66637406604099
 10
131.4040681389492
 20
99.62941465158414
 10
131.3766042687833
 20
99.59580343925255
 10
131.3455768780275
 20
99.56551889719978
 10
131.3113843058414
 20
99.53853949357936
 10
131.2744787210007
 20
99.51481139877514
 10
131.2352799945115
 20
99.4943346127871
 10
131.1942402951495
 20
99.47708760376878
 10
131.1517687279977
 20
99.46301654210401
 10
131.1083066959084
 20
99.45213219371604
 10
131.0642956017344
 20
99.4443807289887
 10
131.0201660824047
 20
99.43975138199878
 97
        0
 75
     1
 76
     1
 98
        0
  0
LWPOLYLINE
  5
BA
330
1F
100
AcDbEntity
  8
レイヤー_2
  6
Continuous
 62
   140
420
    44526
370
    13
100
AcDbPolyline
 90
      241
 70
     0
 43
0.0
 10
130.9763380089256
 20
99.43821185497654
 10
130.9647861732972
 20
99.43839487567149
 10
130.9505859205536
 20
99.43894393775635
 10
130.9340063987758
 20
99.43993440269372
 10
130.9152306286584
 20
99.44140933417657
 10
130.8944739286663
 20
99.44336873220487
 10
130.8719408513409
 20
99.44590949008771
 10
130.8478682469932
 20
99.44906390559481
 10
130.8224391363183
 20
99.45285351057262
 10
130.7958903696272
 20
99.45734290056053
 10
130.7683942016916
 20
99.46256437332826
 10
130.7402090146691
 20
99.46858252441517
 10
130.711528595178
 20
99.47541888566775
 10
130.6825574957596
 20
99.48312728670216
 10
130.6535002689553
 20
99.49176155713454
 10
130.6246045309995
 20
99.50135399473461
 10
130.596042536664
 20
99.51194766319531
 10
130.5071483085339
 20
99.54651704269457
 10
130.5417176880332
 20
99.66292897060663
 10
130.5642830631284
 20
99.6545530823318
 10
130.5874728617709
 20
99.64624178959639
 10
130.6112655521146
 20
99.63810275163269
 10
130.6355857726966
 20
99.63014673436393
 10
130.6604012257473
 20
99.622459865176
 10
130.6856473157273
 20
99.61510673960825
 10
130.7113025107901
 20
99.60817348504659
 10
130.7372806835499
 20
99.60168163333745
 10
130.7635710680835
 20
99.5957173118667
 10
130.7900983029281
 20
99.59034511617372
 10
130.816819324391
 20
99.58562964179792
 10
130.843691068779
 20
99.58162471835547
 10
130.8706597064763
 20
99.57839494138574
 10
130.8976606419431
 20
99.57601567235139
 10
130.9246831092565
 20
99.57454074086854
 10
130.9516409810304
 20
99.57403474247661
 10
130.9516409810304
 20
99.57403474247661
 10
130.9938003364085
 20
99.57536971695744
 10
131.0342263781462
 20
99.57932081078374
 10
131.0727683833182
 20
99.58579113064641
 10
131.1092863949226
 20
99.59467301731314
 10
131.1436727537269
 20
99.60585881155163
 10
131.1757552049595
 20
99.61926238597597
 10
131.205426089388
 20
99.63477608135386
 10
131.2325346840872
 20
99.65231377029946
 10
131.2569733298248
 20
99.67174626173397
 10
131.2785805377522
 20
99.69300896011796
 10
131.297237882714
 20
99.71598344029593
 10
131.3127946417848
 20
99.74057280895876
 10
131.3251323898092
 20
99.76666940687412
 10
131.3341219357082
 20
99.79419787257939
 10
131.3396017906335
 20
99.82302901499578
 10
131.3414642953528
 20
99.85307670673743
 10
131.3414642953528
 20
99.85307670673743
 10
131.3401077890255
 20
99.87781679832551
 10
131.3361889929689
 20
99.90112502212368
 10
131.3299555234173
 20
99.92301214405516
 10
131.321601166989
 20
99.94347816411997
 10
131.3113412421484
 20
99.96254461416457
 10
131.299412599207
 20
99.98025455788189
 10
131.2860413225523
 20
99.99660799527192
 10
131.2714427306491
 20
100.0116049263347
 10
131.2558213760389
 20
100.0252884147631
 10
131.2394141090327
 20
100.0376476946339
 10
131.2224470140184
 20
100.0487150637168
 10
131.2051354094608
 20
100.0585120538583
 10
131.1876946138242
 20
100.0670386650583
 10
131.1703507114968
 20
100.0743271950867
 10
131.1533297868664
 20
100.0803776439433
 10
131.1368471583976
 20
100.0852115434746
 10
131.1368471583976
 20
100.0852115434746
 10
131.1237988594399
 20
100.0883121293656
 10
131.1107290286357
 20
100.0911005034828
 10
131.0976053682154
 20
100.0936520272889
 10
131.0844709418719
 20
100.0959128711677
 10
131.0713042177587
 20
100.0979368647353
 10
131.0581051958757
 20
100.0997240079919
 10
131.0448846421463
 20
100.1012850668606
 10
131.0316317906472
 20
100.1026308072647
 10
131.0183681732249
 20
100.1037719951273
 10
131.0050614921096
 20
100.1047193963718
 10
130.9917440450711
 20
100.1054837769213
 10
130.9784050661862
 20
100.1060866686223
 10
130.9650337895316
 20
100.106538837398
 10
130.9516517469536
 20
100.1068510491718
 10
130.9382589384525
 20
100.1070233039435
 10
130.9248338321817
 20
100.1070771335597
 10
130.8849676184521
 20
100.1070771335597
 10
130.8849676184521
 20
100.2429000210597
 10
130.892374573636
 20
100.2429000210597
 10
130.9400460817091
 20
100.2446548665466
 10
130.9839387507276
 20
100.2497148504659
 10
131.0241279421542
 20
100.2578538884296
 10
131.060710549298
 20
100.2687490027407
 10
131.0938049973144
 20
100.2821848749348
 10
131.1234974135894
 20
100.2978708250844
 10
131.1498954573552
 20
100.3155377051088
 10
131.1730960219211
 20
100.3349378987736
 10
131.193196000596
 20
100.3557699602283
 10
131.2102922866891
 20
100.3777862732386
 10
131.2244817735094
 20
100.4007284556469
 10
131.2358721202893
 20
100.4243165934491
 10
131.2445494544146
 20
100.4482923044876
 10
131.2506322010409
 20
100.4723756747586
 10
131.2542064875541
 20
100.4963190880274
 10
131.2553799731864
 20
100.519831864367
 10
131.2553799731864
 20
100.519831864367
 10
131.2542603171702
 20
100.5433984703228
 10
131.2508259876591
 20
100.5669112466623
 10
131.2450877505762
 20
100.5901441089979
 10
131.2370133081519
 20
100.612892504788
 10
131.2265703626165
 20
100.6349626474144
 10
131.2137050843537
 20
100.656160750259
 10
131.198428239287
 20
100.6762930267036
 10
131.1806859977999
 20
100.6951549242068
 10
131.160446062123
 20
100.7125418902271
 10
131.1376976663329
 20
100.7282601381465
 10
131.11240851266
 20
100.7421051154233
 10
131.084524771488
 20
100.7538830354396
 10
131.0540572087403
 20
100.7633893456538
 10
131.0209412288775
 20
100.7704302594478
 10
130.9851660659762
 20
100.7748012242802
 10
130.9466994222668
 20
100.7762976876095
 10
130.9466994222668
 20
100.7762976876095
 10
130.9167593897574
 20
100.775350286365
 10
130.8872392282541
 20
100.7726372737104
 10
130.8582465969893
 20
100.7683416703407
 10
130.8298999211183
 20
100.7626895606437
 10
130.8023391576434
 20
100.7558531993911
 10
130.7756289021038
 20
100.7480586709708
 10
130.7499414092712
 20
100.7394889960779
 10
130.7253735724549
 20
100.7303487272535
 10
130.7020545827335
 20
100.7208316511161
 10
130.6801028652626
 20
100.7111530861302
 10
130.6596260792746
 20
100.7014852870674
 10
130.6407641817714
 20
100.6920651042391
 10
130.6236140660621
 20
100.6830540264936
 10
130.6083049232257
 20
100.6746673722955
 10
130.5949551784175
 20
100.6671204601096
 10
130.5836940227164
 20
100.6605855447075
 10
130.5395968011564
 20
100.7692460078922
 10
130.5642507653586
 20
100.7845982144216
 10
130.5892600050275
 20
100.7992936996339
 10
130.6146568179328
 20
100.813289399836
 10
130.6404089063047
 20
100.8265207194887
 10
130.6665593338362
 20
100.8389445948988
 10
130.6930758027576
 20
100.8505287282969
 10
130.7200121426851
 20
100.8612192900667
 10
130.747336055849
 20
100.8709839824385
 10
130.7750798400189
 20
100.8797582098729
 10
130.8032327292717
 20
100.8875096746002
 10
130.8318162554537
 20
100.8941953129276
 10
130.8608196526418
 20
100.8997612952387
 10
130.8902644526825
 20
100.904175323764
 10
130.9201506555756
 20
100.9073835688873
 10
130.9504890272445
 20
100.9093429669156
 10
130.9812795676892
 20
100.9099996882327
 10
130.9812795676892
 20
100.9099996882327
 10
131.0118547896693
 20
100.9089769255257
 10
131.0416333333301
 20
100.9059839988671
 10
131.0705506031324
 20
100.9011070356428
 10
131.0985527694599
 20
100.8944859928548
 10
131.1255537049267
 20
100.8862069978891
 10
131.1514995799169
 20
100.8763884759012
 10
131.1763365648141
 20
100.8651273202001
 10
131.2000000640789
 20
100.8525419559414
 10
131.222425482172
 20
100.8387400423574
 10
131.2435374576307
 20
100.8238184727573
 10
131.2632929267622
 20
100.8079064382198
 10
131.2816057621805
 20
100.7910900661308
 10
131.298443666116
 20
100.7734877816458
 10
131.3137097452596
 20
100.7552072439972
 10
131.3273717018415
 20
100.736345346494
 10
131.3393434084759
 20
100.7170312802151
 10
131.3393434084759
 20
100.7170312802151
 10
131.3443172650093
 20
100.7076864588493
 10
131.3491511645407
 20
100.6980294257098
 10
131.3538235752235
 20
100.6880601807966
 10
131.3583129652114
 20
100.6777571922632
 10
131.3626085685812
 20
100.6671204601096
 10
131.3666350238701
 20
100.6561392184125
 10
131.3704246288479
 20
100.6447919353256
 10
131.3739127879752
 20
100.6330678449255
 10
131.3770887353288
 20
100.6209669472123
 10
131.3799417049854
 20
100.6084784762627
 10
131.3824071014056
 20
100.5955916661535
 10
131.3844849245895
 20
100.5822957509614
 10
131.3861536426905
 20
100.5685691988401
 10
131.3873701920157
 20
100.5544120097895
 10
131.388123806642
 20
100.5398134178864
 10
131.3883821887996
 20
100.5247626572074
 10
131.3883821887996
 20
100.5247626572074
 10
131.3872732987066
 20
100.4899779592435
 10
131.3840650535834
 20
100.457852444318
 10
131.3788866445086
 20
100.4282353895057
 10
131.3718887944075
 20
100.4009437741115
 10
131.363200694359
 20
100.3757838115174
 10
131.3529407695185
 20
100.3526155447212
 10
131.341292040581
 20
100.3312559530281
 10
131.3283621667789
 20
100.3115112498199
 10
131.3143126369606
 20
100.293219946248
 10
131.2992726422049
 20
100.276220553464
 10
131.2833821395139
 20
100.260330050773
 10
131.2667918518127
 20
100.24536541748
 10
131.249620204257
 20
100.2311651647364
 10
131.2320286856953
 20
100.2175570377707
 10
131.2141464872063
 20
100.2043580158877
 10
131.196113565792
 20
100.1913958443159
 10
131.196113565792
 20
100.1913958443159
 10
131.2130591289598
 20
100.1869710498674
 10
131.2320932812347
 20
100.1811036217057
 10
131.2527746197641
 20
100.1736213050592
 10
131.2746940394653
 20
100.1643410792329
 10
131.2973993715625
 20
100.1531122213015
 10
131.3204169154334
 20
100.1397194128003
 10
131.3433375659952
 20
100.1239903989578
 10
131.3657091544721
 20
100.1057529250021
 10
131.3871118098581
 20
100.0848347361615
 10
131.4070825974543
 20
100.0610528117411
 10
131.4251908803312
 20
100.0342133651227
 10
131.4409952556364
 20
100.0041656733811
 10
131.4540543205173
 20
99.97070518397473
 10
131.4639159061982
 20
99.93367040805525
 10
131.4701709075962
 20
99.89286755900443
 10
131.4723456240891
 20
99.84813514797375
 10
131.4723456240891
 20
99.84813514797375
 10
131.469331165584
 20
99.79754607470467
 10
131.4605461722264
 20
99.75041286279318
 10
131.4464643446384
 20
99.70668168262313
 10
131.4274840219797
 20
99.66637406604099
 10
131.4040681389492
 20
99.62941465158414
 10
131.3766042687833
 20
99.59580343925255
 10
131.3455768780275
 20
99.56551889719978
 10
131.3113843058414
 20
99.53853949357936
 10
131.2744787210007
 20
99.51481139877514
 10
131.2352799945115
 20
99.4943346127871
 10
131.1942402951495
 20
99.47708760376878
 10
131.1517687279977
 20
99.46301654210401
 10
131.1083066959084
 20
99.45213219371604
 10
131.0642956017344
 20
99.4443807289887
 10
131.0201660824047
 20
99.43975138199878
 10
130.9763380089256
 20
99.43821185497654
  0
HATCH
  5
BB
330
1F
100
AcDbEntity
  8
レイヤー_2
  6
Continuous
 62
   140
420
    44526
370
    13
100
AcDbHatch
 10
0.0
 20
0.0
 30
0.0
210
0.0
220
0.0
230
1.0
  2
SOLID
 70
     1
 71
     0
 91
        1
 92
        3
 72
     0
 73
     1
 93
        3
 10
123.9025127876084
 20
108.1269147952319
 10
125.634652942394
 20
108.1262042442985
 10
124.7696433084396
 20
106.6279645376603
 97
        0
 75
     1
 76
     1
 98
        0
  0
LWPOLYLINE
  5
BC
330
1F
100
AcDbEntity
  8
レイヤー_2
  6
Continuous
 62
   140
420
    44526
370
    13
100
AcDbPolyline
 90
        4
 70
     0
 43
0.0
 10
123.9025127876084
 20
108.1269147952319
 10
125.634652942394
 20
108.1262042442985
 10
124.7696433084396
 20
106.6279645376603
 10
123.9025127876084
 20
108.1269147952319
  0
ENDSEC
  0
SECTION
  2
OBJECTS
  0
DICTIONARY
  5
C
330
0
100
AcDbDictionary
281
     1
  3
ACAD_DETAILVIEWSTYLE
350
C4
  3
ACAD_GROUP
350
D
  3
ACAD_LAYOUT
350
1A
  3
ACAD_MATERIAL
350
43
  3
ACAD_MLEADERSTYLE
350
5B
  3
ACAD_MLINESTYLE
350
17
  3
ACAD_PLOTSETTINGS
350
19
  3
ACAD_PLOTSTYLENAME
350
E
  3
ACAD_SCALELIST
350
47
  3
ACAD_SECTIONVIEWSTYLE
350
C5
  3
ACAD_TABLESTYLE
350
59
  3
ACAD_VISUALSTYLE
350
2A
  3
ACDB_RECOMPOSE_DATA
350
C1
  3
AcDbVariableDictionary
350
BD
  0
SUN
  5
5D
330
29
100
AcDbSun
 90
        1
290
     0
 63
     7
421
 16777215
 40
1.0
291
     1
 91
  2455826
 92
 54000000
292
     0
 70
     2
 71
   256
280
     1
  0
DICTIONARY
  5
C4
102
{ACAD_REACTORS
330
C
102
}
330
C
100
AcDbDictionary
281
     1
  0
DICTIONARY
  5
D
102
{ACAD_REACTORS
330
C
102
}
330
C
100
AcDbDictionary
281
     1
  0
DICTIONARY
  5
1A
102
{ACAD_REACTORS
330
C
102
}
330
C
100
AcDbDictionary
281
     1
  3
Layout1
350
1E
  3
Layout2
350
26
  3
Model
350
22
  0
DICTIONARY
  5
43
102
{ACAD_REACTORS
330
C
102
}
330
C
100
AcDbDictionary
281
     1
  3
ByBlock
350
45
  3
ByLayer
350
44
  3
Global
350
46
  0
DICTIONARY
  5
5B
102
{ACAD_REACTORS
330
C
102
}
330
C
100
AcDbDictionary
281
     1
  3
Standard
350
5C
  0
DICTIONARY
  5
17
102
{ACAD_REACTORS
330
C
102
}
330
C
100
AcDbDictionary
281
     1
  3
Standard
350
18
  0
DICTIONARY
  5
19
102
{ACAD_REACTORS
330
C
102
}
330
C
100
AcDbDictionary
281
     1
  0
ACDBDICTIONARYWDFLT
  5
E
102
{ACAD_REACTORS
330
C
102
}
330
C
100
AcDbDictionary
281
     1
  3
Normal
350
F
100
AcDbDictionaryWithDefault
340
F
  0
DICTIONARY
  5
47
102
{ACAD_REACTORS
330
C
102
}
330
C
100
AcDbDictionary
281
     1
  3
A0
350
48
  3
A1
350
49
  3
A2
350
4A
  3
A3
350
4B
  3
A4
350
4C
  3
A5
350
4D
  3
A6
350
4E
  3
A7
350
4F
  3
A8
350
50
  3
A9
350
51
  3
B0
350
52
  3
B1
350
53
  3
B2
350
54
  3
B3
350
55
  3
B4
350
56
  3
B5
350
57
  3
B6
350
58
  0
DICTIONARY
  5
C5
102
{ACAD_REACTORS
330
C
102
}
330
C
100
AcDbDictionary
281
     1
  0
DICTIONARY
  5
59
102
{ACAD_REACTORS
330
C
102
}
330
C
100
AcDbDictionary
281
     1
  3
Standard
350
5A
  0
DICTIONARY
  5
2A
102
{ACAD_REACTORS
330
C
102
}
330
C
100
AcDbDictionary
281
     1
  3
2dWireframe
350
2F
  3
Basic
350
32
  3
Brighten
350
36
  3
ColorChange
350
3A
  3
Conceptual
350
34
  3
Dim
350
35
  3
EdgeColorOff
350
3D
  3
Facepattern
350
39
  3
Flat
350
2B
  3
FlatWithEdges
350
2C
  3
Gouraud
350
2D
  3
GouraudWithEdges
350
2E
  3
Hidden
350
31
  3
JitterOff
350
3B
  3
Linepattern
350
38
  3
OverhangOff
350
3C
  3
Realistic
350
33
  3
Shaded
350
42
  3
Shaded with edges
350
41
  3
Shades of Gray
350
3E
  3
Sketchy
350
3F
  3
Thicken
350
37
  3
Wireframe
350
30
  3
X-Ray
350
40
  0
XRECORD
  5
C1
102
{ACAD_REACTORS
330
C
102
}
330
C
100
AcDbXrecord
280
     1
 90
        1
330
5A
  0
DICTIONARY
  5
BD
102
{ACAD_REACTORS
330
C
102
}
330
C
100
AcDbDictionary
281
     1
  3
CANNOSCALE
350
BE
  3
CENTEREXE
350
C6
  3
CENTERLTYPEFILE
350
C7
  3
CMLEADERSTYLE
350
C3
  3
CTABLESTYLE
350
C2
  0
LAYOUT
  5
1E
102
{ACAD_REACTORS
330
1A
102
}
330
1A
100
AcDbPlotSettings
  1

  2
none_device
  4

  6

 40
0.0
 41
0.0
 42
0.0
 43
0.0
 44
0.0
 45
0.0
 46
0.0
 47
0.0
 48
0.0
 49
0.0
140
0.0
141
0.0
142
1.0
143
1.0
 70
   688
 72
     1
 73
     0
 74
     5
  7

 75
    16
 76
     0
 77
     5
 78
   300
147
1.0
148
0.0
149
0.0
100
AcDbLayout
  1
Layout1
 70
     1
 71
     1
 10
0.0
 20
0.0
 11
420.0
 21
297.0
 12
0.0
 22
0.0
 32
0.0
 14
1.000000000000000E+20
 24
1.000000000000000E+20
 34
1.000000000000000E+20
 15
-1.000000000000000E+20
 25
-1.000000000000000E+20
 35
-1.000000000000000E+20
146
0.0
 13
0.0
 23
0.0
 33
0.0
 16
1.0
 26
0.0
 36
0.0
 17
0.0
 27
1.0
 37
0.0
 76
     0
330
1B
  0
LAYOUT
  5
26
102
{ACAD_REACTORS
330
1A
102
}
330
1A
100
AcDbPlotSettings
  1

  2
none_device
  4

  6

 40
0.0
 41
0.0
 42
0.0
 43
0.0
 44
0.0
 45
0.0
 46
0.0
 47
0.0
 48
0.0
 49
0.0
140
0.0
141
0.0
142
1.0
143
1.0
 70
   688
 72
     1
 73
     0
 74
     5
  7

 75
    16
 76
     0
 77
     5
 78
   300
147
1.0
148
0.0
149
0.0
100
AcDbLayout
  1
Layout2
 70
     1
 71
     2
 10
0.0
 20
0.0
 11
0.0
 21
0.0
 12
0.0
 22
0.0
 32
0.0
 14
0.0
 24
0.0
 34
0.0
 15
0.0
 25
0.0
 35
0.0
146
0.0
 13
0.0
 23
0.0
 33
0.0
 16
1.0
 26
0.0
 36
0.0
 17
0.0
 27
1.0
 37
0.0
 76
     0
330
23
  0
LAYOUT
  5
22
102
{ACAD_REACTORS
330
1A
102
}
330
1A
100
AcDbPlotSettings
  1

  2
none_device
  4
Letter_(8.50_x_11.00_Inches)
  6

 40
6.35
 41
6.35
 42
6.35000508
 43
6.35000508
 44
215.9
 45
279.4
 46
0.0
 47
0.0
 48
0.0
 49
0.0
140
0.0
141
0.0
142
1.0
143
1.0
 70
  1712
 72
     1
 73
     0
 74
     0
  7

 75
     0
 76
     0
 77
     5
 78
   300
147
1.0
148
0.0
149
0.0
100
AcDbLayout
  1
Model
 70
     1
 71
     0
 10
0.0
 20
0.0
 11
302.9997823349792
 21
216.0016055409748
 12
0.0
 22
0.0
 32
0.0
 14
0.0
 24
0.0
 34
0.0
 15
302.9997823349792
 25
216.0016055409748
 35
0.0
146
0.0
 13
0.0
 23
0.0
 33
0.0
 16
1.0
 26
0.0
 36
0.0
 17
0.0
 27
1.0
 37
0.0
 76
     0
330
1F
331
29
  0
MATERIAL
  5
45
102
{ACAD_REACTORS
330
43
102
}
330
43
100
AcDbMaterial
  1
ByBlock
 72
     1
 94
      127
  0
MATERIAL
  5
44
102
{ACAD_REACTORS
330
43
102
}
330
43
100
AcDbMaterial
  1
ByLayer
 72
     1
 94
      127
  0
MATERIAL
  5
46
102
{ACAD_REACTORS
330
43
102
}
330
43
100
AcDbMaterial
  1
Global
 72
     1
 94
      127
  0
MLEADERSTYLE
  5
5C
102
{ACAD_REACTORS
330
5B
102
}
330
5B
100
AcDbMLeaderStyle
179
     2
170
     2
171
     1
172
     0
 90
        2
 40
0.0
 41
0.0
173
     1
 91
-1056964608
340
14
 92
       -2
290
     1
 42
2.0
291
     1
 43
8.0
  3
Standard
341
0
 44
4.0
300

342
11
174
     1
178
     6
175
     1
176
     0
 93
-1056964608
 45
4.0
292
     0
297
     0
 46
4.0
343
0
 94
-1056964608
 47
1.0
 49
1.0
140
1.0
293
     1
141
0.0
294
     1
177
     0
142
1.0
295
     0
296
     0
143
3.75
271
     0
272
     9
273
     9
298
     0
  0
MLINESTYLE
  5
18
102
{ACAD_REACTORS
330
17
102
}
330
17
100
AcDbMlineStyle
  2
Standard
 70
     0
  3

 62
   256
 51
90.0
 52
90.0
 71
     2
 49
0.5
 62
   256
  6
BYLAYER
 49
-0.5
 62
   256
  6
BYLAYER
  0
ACDBPLACEHOLDER
  5
F
102
{ACAD_REACTORS
330
E
102
}
330
E
  0
SCALE
  5
48
102
{ACAD_REACTORS
330
47
102
}
330
47
100
AcDbScale
 70
     0
300
1:1
140
1.0
141
1.0
290
     1
  0
SCALE
  5
49
102
{ACAD_REACTORS
330
47
102
}
330
47
100
AcDbScale
 70
     0
300
1:2
140
1.0
141
2.0
290
     0
  0
SCALE
  5
4A
102
{ACAD_REACTORS
330
47
102
}
330
47
100
AcDbScale
 70
     0
300
1:4
140
1.0
141
4.0
290
     0
  0
SCALE
  5
4B
102
{ACAD_REACTORS
330
47
102
}
330
47
100
AcDbScale
 70
     0
300
1:5
140
1.0
141
5.0
290
     0
  0
SCALE
  5
4C
102
{ACAD_REACTORS
330
47
102
}
330
47
100
AcDbScale
 70
     0
300
1:8
140
1.0
141
8.0
290
     0
  0
SCALE
  5
4D
102
{ACAD_REACTORS
330
47
102
}
330
47
100
AcDbScale
 70
     0
300
1:10
140
1.0
141
10.0
290
     0
  0
SCALE
  5
4E
102
{ACAD_REACTORS
330
47
102
}
330
47
100
AcDbScale
 70
     0
300
1:16
140
1.0
141
16.0
290
     0
  0
SCALE
  5
4F
102
{ACAD_REACTORS
330
47
102
}
330
47
100
AcDbScale
 70
     0
300
1:20
140
1.0
141
20.0
290
     0
  0
SCALE
  5
50
102
{ACAD_REACTORS
330
47
102
}
330
47
100
AcDbScale
 70
     0
300
1:30
140
1.0
141
30.0
290
     0
  0
SCALE
  5
51
102
{ACAD_REACTORS
330
47
102
}
330
47
100
AcDbScale
 70
     0
300
1:40
140
1.0
141
40.0
290
     0
  0
SCALE
  5
52
102
{ACAD_REACTORS
330
47
102
}
330
47
100
AcDbScale
 70
     0
300
1:50
140
1.0
141
50.0
290
     0
  0
SCALE
  5
53
102
{ACAD_REACTORS
330
47
102
}
330
47
100
AcDbScale
 70
     0
300
1:100
140
1.0
141
100.0
290
     0
  0
SCALE
  5
54
102
{ACAD_REACTORS
330
47
102
}
330
47
100
AcDbScale
 70
     0
300
2:1
140
2.0
141
1.0
290
     0
  0
SCALE
  5
55
102
{ACAD_REACTORS
330
47
102
}
330
47
100
AcDbScale
 70
     0
300
4:1
140
4.0
141
1.0
290
     0
  0
SCALE
  5
56
102
{ACAD_REACTORS
330
47
102
}
330
47
100
AcDbScale
 70
     0
300
8:1
140
8.0
141
1.0
290
     0
  0
SCALE
  5
57
102
{ACAD_REACTORS
330
47
102
}
330
47
100
AcDbScale
 70
     0
300
10:1
140
10.0
141
1.0
290
     0
  0
SCALE
  5
58
102
{ACAD_REACTORS
330
47
102
}
330
47
100
AcDbScale
 70
     0
300
100:1
140
100.0
141
1.0
290
     0
  0
TABLESTYLE
  5
5A
102
{ACAD_REACTORS
330
59
102
}
102
{ACAD_XDICTIONARY
360
BF
102
}
330
59
100
AcDbTableStyle
  3
Standard
 70
     0
 71
     0
 40
0.06
 41
0.06
280
     0
281
     0
  7
Standard
140
4.5
170
     2
 62
     0
 63
   257
283
     0
 90
        4
 91
        0
  1

274
    -2
284
     1
 64
     0
275
    -2
285
     1
 65
     0
276
    -2
286
     1
 66
     0
277
    -2
287
     1
 67
     0
278
    -2
288
     1
 68
     0
279
    -2
289
     1
 69
     0
  7
Standard
140
6.0
170
     5
 62
     0
 63
   257
283
     0
 90
        4
 91
        0
  1

274
    -2
284
     1
 64
     0
275
    -2
285
     1
 65
     0
276
    -2
286
     1
 66
     0
277
    -2
287
     1
 67
     0
278
    -2
288
     1
 68
     0
279
    -2
289
     1
 69
     0
  7
Standard
140
4.5
170
     5
 62
     0
 63
   257
283
     0
 90
        4
 91
        0
  1

274
    -2
284
     1
 64
     0
275
    -2
285
     1
 65
     0
276
    -2
286
     1
 66
     0
277
    -2
287
     1
 67
     0
278
    -2
288
     1
 68
     0
279
    -2
289
     1
 69
     0
  0
VISUALSTYLE
  5
2F
102
{ACAD_REACTORS
330
2A
102
}
330
2A
100
AcDbVisualStyle
  2
2dWireframe
 70
     4
177
     3
291
     0
 70
    58
 90
        0
176
     1
 90
        2
176
     1
 90
        0
176
     1
 90
        0
176
     1
 40
0.6
176
     1
 40
30.0
176
     1
 62
     7
420
 16777215
176
     1
 90
        1
176
     1
 90
        4
176
     1
 62
     7
176
     1
 62
   257
176
     1
 90
        1
176
     1
 90
        1
176
     1
 40
1.0
176
     1
 90
        0
176
     1
 62
   257
176
     1
 40
1.0
176
     1
 90
        1
176
     1
 90
        6
176
     1
 90
        2
176
     1
 62
     7
176
     1
 90
        5
176
     1
 90
        0
176
     1
 90
        0
176
     1
290
     0
176
     1
 90
        1
176
     1
 40
0.0
176
     1
 90
        0
176
     1
290
     1
176
     1
290
     1
176
     1
290
     0
176
     1
290
     0
176
     1
290
     0
176
     1
290
     0
176
     1
290
     0
176
     1
290
     0
176
     1
290
     0
176
     1
 90
       50
176
     1
 40
0.0
176
     1
 40
1.0
176
     1
 90
        0
176
     1
 62
    18
420
        0
176
     1
 90
       50
176
     1
 90
        3
176
     1
 62
     5
420
      255
176
     1
290
     0
176
     1
 90
       50
176
     1
 90
       50
176
     1
 90
       50
176
     1
290
     0
176
     1
 90
       50
176
     1
 62
   256
176
     0
 40
1.0
176
     0
 90
        2
176
     1
  1
strokes_ogs.tif
176
     1
290
     0
176
     1
 40
1.0
176
     1
 40
1.0
176
     1
  0
VISUALSTYLE
  5
32
102
{ACAD_REACTORS
330
2A
102
}
330
2A
100
AcDbVisualStyle
  2
Basic
 70
     7
177
     3
291
     1
 70
    58
 90
        1
176
     1
 90
        0
176
     1
 90
        1
176
     1
 90
        0
176
     1
 40
0.6
176
     1
 40
30.0
176
     1
 62
     7
420
 16777215
176
     1
 90
        0
176
     1
 90
        4
176
     1
 62
     7
176
     1
 62
   257
176
     1
 90
        1
176
     1
 90
        1
176
     1
 40
1.0
176
     1
 90
        8
176
     1
 62
     7
176
     1
 40
1.0
176
     1
 90
        1
176
     1
 90
        6
176
     1
 90
        2
176
     1
 62
     7
176
     1
 90
        5
176
     1
 90
        0
176
     1
 90
        0
176
     1
290
     0
176
     1
 90
        1
176
     1
 40
0.0
176
     1
 90
        0
176
     1
290
     0
176
     1
290
     1
176
     1
290
     1
176
     1
290
     0
176
     1
290
     0
176
     1
290
     0
176
     1
290
     0
176
     1
290
     0
176
     1
290
     0
176
     1
 90
       50
176
     1
 40
0.0
176
     1
 40
1.0
176
     1
 90
        0
176
     1
 62
    18
420
        0
176
     1
 90
       50
176
     1
 90
        3
176
     1
 62
     5
420
      255
176
     1
290
     0
176
     1
 90
       50
176
     1
 90
       50
176
     1
 90
       50
176
     1
290
     0
176
     1
 90
       50
176
     1
 62
   256
176
     0
 40
1.0
176
     0
 90
        2
176
     1
  1
strokes_ogs.tif
176
     1
290
     0
176
     1
 40
1.0
176
     1
 40
1.0
176
     1
  0
VISUALSTYLE
  5
36
102
{ACAD_REACTORS
330
2A
102
}
330
2A
100
AcDbVisualStyle
  2
Brighten
 70
    12
177
     3
291
     1
 70
    58
 90
        2
176
     1
 90
        2
176
     1
 90
        0
176
     1
 90
        0
176
     1
 40
0.6
176
     1
 40
30.0
176
     1
 62
     7
420
 16777215
176
     1
 90
        1
176
     1
 90
        4
176
     1
 62
     7
176
     1
 62
   257
176
     1
 90
        1
176
     1
 90
        1
176
     1
 40
1.0
176
     1
 90
        8
176
     1
 62
     7
176
     1
 40
1.0
176
     1
 90
        1
176
     1
 90
        6
176
     1
 90
        2
176
     1
 62
     7
176
     1
 90
        5
176
     1
 90
        0
176
     1
 90
        0
176
     1
290
     0
176
     1
 90
        1
176
     1
 40
50.0
176
     1
 90
        0
176
     1
290
     0
176
     1
290
     1
176
     1
290
     1
176
     1
290
     0
176
     1
290
     0
176
     1
290
     0
176
     1
290
     0
176
     1
290
     0
176
     1
290
     0
176
     1
 90
       50
176
     1
 40
0.0
176
     1
 40
1.0
176
     1
 90
        0
176
     1
 62
    18
420
        0
176
     1
 90
       50
176
     1
 90
        3
176
     1
 62
     5
420
      255
176
     1
290
     0
176
     1
 90
       50
176
     1
 90
       50
176
     1
 90
       50
176
     1
290
     0
176
     1
 90
       50
176
     1
 62
   256
176
     0
 40
1.0
176
     0
 90
        2
176
     1
  1
strokes_ogs.tif
176
     1
290
     0
176
     1
 40
1.0
176
     1
 40
1.0
176
     1
  0
VISUALSTYLE
  5
3A
102
{ACAD_REACTORS
330
2A
102
}
330
2A
100
AcDbVisualStyle
  2
ColorChange
 70
    16
177
     3
291
     1
 70
    58
 90
        2
176
     1
 90
        2
176
     1
 90
        3
176
     1
 90
        0
176
     1
 40
0.6
176
     1
 40
30.0
176
     1
 62
     8
420
  8421504
176
     1
 90
        1
176
     1
 90
        4
176
     1
 62
     7
176
     1
 62
   257
176
     1
 90
        1
176
     1
 90
        1
176
     1
 40
1.0
176
     1
 90
        8
176
     1
 62
     8
420
  8421504
176
     1
 40
1.0
176
     1
 90
        1
176
     1
 90
        6
176
     1
 90
        2
176
     1
 62
     7
176
     1
 90
        5
176
     1
 90
        0
176
     1
 90
        0
176
     1
290
     0
176
     1
 90
        1
176
     1
 40
0.0
176
     1
 90
        0
176
     1
290
     0
176
     1
290
     1
176
     1
290
     1
176
     1
290
     0
176
     1
290
     0
176
     1
290
     0
176
     1
290
     0
176
     1
290
     0
176
     1
290
     0
176
     1
 90
       50
176
     1
 40
0.0
176
     1
 40
1.0
176
     1
 90
        0
176
     1
 62
    18
420
        0
176
     1
 90
       50
176
     1
 90
        3
176
     1
 62
     5
420
      255
176
     1
290
     0
176
     1
 90
       50
176
     1
 90
       50
176
     1
 90
       50
176
     1
290
     0
176
     1
 90
       50
176
     1
 62
   256
176
     0
 40
1.0
176
     0
 90
        2
176
     1
  1
strokes_ogs.tif
176
     1
290
     0
176
     1
 40
1.0
176
     1
 40
1.0
176
     1
  0
VISUALSTYLE
  5
34
102
{ACAD_REACTORS
330
2A
102
}
330
2A
100
AcDbVisualStyle
  2
Conceptual
 70
     9
177
     3
291
     0
 70
    58
 90
        3
176
     1
 90
        2
176
     1
 90
        0
176
     1
 90
        0
176
     1
 40
0.6
176
     1
 40
30.0
176
     1
 62
     7
420
 16777215
176
     1
 90
        2
176
     1
 90
        2
176
     1
 62
     7
176
     1
 62
   257
176
     1
 90
        1
176
     1
 90
        1
176
     1
 40
179.0
176
     1
 90
        8
176
     1
 62
     7
176
     1
 40
1.0
176
     1
 90
        1
176
     1
 90
        6
176
     1
 90
        2
176
     1
 62
     7
176
     1
 90
        3
176
     1
 90
        0
176
     1
 90
        0
176
     1
290
     0
176
     1
 90
        1
176
     1
 40
0.0
176
     1
 90
        0
176
     1
290
     0
176
     1
290
     1
176
     1
290
     1
176
     1
290
     0
176
     1
290
     0
176
     1
290
     0
176
     1
290
     0
176
     1
290
     0
176
     1
290
     0
176
     1
 90
       50
176
     1
 40
0.0
176
     1
 40
1.0
176
     1
 90
        0
176
     1
 62
    18
420
        0
176
     1
 90
       50
176
     1
 90
        3
176
     1
 62
     5
420
      255
176
     1
290
     0
176
     1
 90
       50
176
     1
 90
       50
176
     1
 90
       50
176
     1
290
     0
176
     1
 90
       50
176
     1
 62
   256
176
     0
 40
1.0
176
     0
 90
        2
176
     1
  1
strokes_ogs.tif
176
     1
290
     0
176
     1
 40
1.0
176
     1
 40
1.0
176
     1
  0
VISUALSTYLE
  5
35
102
{ACAD_REACTORS
330
2A
102
}
330
2A
100
AcDbVisualStyle
  2
Dim
 70
    11
177
     3
291
     1
 70
    58
 90
        2
176
     1
 90
        2
176
     1
 90
        0
176
     1
 90
        0
176
     1
 40
0.6
176
     1
 40
30.0
176
     1
 62
     7
420
 16777215
176
     1
 90
        1
176
     1
 90
        4
176
     1
 62
     7
176
     1
 62
   257
176
     1
 90
        1
176
     1
 90
        1
176
     1
 40
1.0
176
     1
 90
        8
176
     1
 62
     7
176
     1
 40
1.0
176
     1
 90
        1
176
     1
 90
        6
176
     1
 90
        2
176
     1
 62
     7
176
     1
 90
        5
176
     1
 90
        0
176
     1
 90
        0
176
     1
290
     0
176
     1
 90
        1
176
     1
 40
-50.0
176
     1
 90
        0
176
     1
290
     0
176
     1
290
     1
176
     1
290
     1
176
     1
290
     0
176
     1
290
     0
176
     1
290
     0
176
     1
290
     0
176
     1
290
     0
176
     1
290
     0
176
     1
 90
       50
176
     1
 40
0.0
176
     1
 40
1.0
176
     1
 90
        0
176
     1
 62
    18
420
        0
176
     1
 90
       50
176
     1
 90
        3
176
     1
 62
     5
420
      255
176
     1
290
     0
176
     1
 90
       50
176
     1
 90
       50
176
     1
 90
       50
176
     1
290
     0
176
     1
 90
       50
176
     1
 62
   256
176
     0
 40
1.0
176
     0
 90
        2
176
     1
  1
strokes_ogs.tif
176
     1
290
     0
176
     1
 40
1.0
176
     1
 40
1.0
176
     1
  0
VISUALSTYLE
  5
3D
102
{ACAD_REACTORS
330
2A
102
}
330
2A
100
AcDbVisualStyle
  2
EdgeColorOff
 70
    22
177
     3
291
     1
 70
    58
 90
        2
176
     0
 90
        2
176
     0
 90
        0
176
     0
 90
        0
176
     0
 40
0.6
176
     0
 40
30.0
176
     0
 62
     7
420
 16777215
176
     0
 90
        1
176
     0
 90
        4
176
     0
 62
     7
176
     0
 62
   257
176
     0
 90
        1
176
     0
 90
        1
176
     0
 40
1.0
176
     0
 90
        8
176
     2
 62
     7
176
     0
 40
1.0
176
     0
 90
        1
176
     0
 90
        6
176
     0
 90
        2
176
     0
 62
     7
176
     0
 90
        5
176
     0
 90
        0
176
     0
 90
        0
176
     0
290
     0
176
     0
 90
        1
176
     0
 40
0.0
176
     0
 90
        0
176
     0
290
     0
176
     0
290
     1
176
     0
290
     1
176
     0
290
     0
176
     0
290
     0
176
     0
290
     0
176
     0
290
     0
176
     0
290
     0
176
     0
290
     0
176
     0
 90
       50
176
     0
 40
0.0
176
     0
 40
1.0
176
     0
 90
        0
176
     0
 62
    18
420
        0
176
     0
 90
       50
176
     0
 90
        3
176
     0
 62
     5
420
      255
176
     0
290
     0
176
     0
 90
       50
176
     0
 90
       50
176
     0
 90
       50
176
     0
290
     0
176
     0
 90
       50
176
     0
 62
   256
176
     0
 40
1.0
176
     0
 90
        2
176
     0
  1
strokes_ogs.tif
176
     0
290
     0
176
     0
 40
1.0
176
     0
 40
1.0
176
     0
  0
VISUALSTYLE
  5
39
102
{ACAD_REACTORS
330
2A
102
}
330
2A
100
AcDbVisualStyle
  2
Facepattern
 70
    15
177
     3
291
     1
 70
    58
 90
        2
176
     1
 90
        2
176
     1
 90
        0
176
     1
 90
        0
176
     1
 40
0.6
176
     1
 40
30.0
176
     1
 62
     7
420
 16777215
176
     1
 90
        1
176
     1
 90
        4
176
     1
 62
     7
176
     1
 62
   257
176
     1
 90
        1
176
     1
 90
        1
176
     1
 40
1.0
176
     1
 90
        8
176
     1
 62
     7
176
     1
 40
1.0
176
     1
 90
        1
176
     1
 90
        6
176
     1
 90
        2
176
     1
 62
     7
176
     1
 90
        5
176
     1
 90
        0
176
     1
 90
        0
176
     1
290
     0
176
     1
 90
        1
176
     1
 40
0.0
176
     1
 90
        0
176
     1
290
     0
176
     1
290
     1
176
     1
290
     1
176
     1
290
     0
176
     1
290
     0
176
     1
290
     0
176
     1
290
     0
176
     1
290
     0
176
     1
290
     0
176
     1
 90
       50
176
     1
 40
0.0
176
     1
 40
1.0
176
     1
 90
        0
176
     1
 62
    18
420
        0
176
     1
 90
       50
176
     1
 90
        3
176
     1
 62
     5
420
      255
176
     1
290
     0
176
     1
 90
       50
176
     1
 90
       50
176
     1
 90
       50
176
     1
290
     0
176
     1
 90
       50
176
     1
 62
   256
176
     0
 40
1.0
176
     0
 90
        2
176
     1
  1
strokes_ogs.tif
176
     1
290
     0
176
     1
 40
1.0
176
     1
 40
1.0
176
     1
  0
VISUALSTYLE
  5
2B
102
{ACAD_REACTORS
330
2A
102
}
330
2A
100
AcDbVisualStyle
  2
Flat
 70
     0
177
     3
291
     1
 70
    58
 90
        2
176
     1
 90
        1
176
     1
 90
        1
176
     1
 90
        2
176
     1
 40
0.6
176
     1
 40
30.0
176
     1
 62
     7
420
 16777215
176
     1
 90
        0
176
     1
 90
        0
176
     1
 62
     7
176
     1
 62
   257
176
     1
 90
        1
176
     1
 90
        1
176
     1
 40
1.0
176
     1
 90
        8
176
     1
 62
     7
176
     1
 40
1.0
176
     1
 90
        1
176
     1
 90
        6
176
     1
 90
        2
176
     1
 62
     7
176
     1
 90
        5
176
     1
 90
        0
176
     1
 90
        0
176
     1
290
     0
176
     1
 90
       13
176
     1
 40
0.0
176
     1
 90
        0
176
     1
290
     0
176
     1
290
     1
176
     1
290
     1
176
     1
290
     0
176
     1
290
     0
176
     1
290
     0
176
     1
290
     0
176
     1
290
     0
176
     1
290
     0
176
     1
 90
       50
176
     1
 40
0.0
176
     1
 40
1.0
176
     1
 90
        0
176
     1
 62
    18
420
        0
176
     1
 90
       50
176
     1
 90
        3
176
     1
 62
     5
420
      255
176
     1
290
     0
176
     1
 90
       50
176
     1
 90
       50
176
     1
 90
       50
176
     1
290
     0
176
     1
 90
       50
176
     1
 62
   256
176
     0
 40
1.0
176
     0
 90
        2
176
     1
  1
strokes_ogs.tif
176
     1
290
     0
176
     1
 40
1.0
176
     1
 40
1.0
176
     1
  0
VISUALSTYLE
  5
2C
102
{ACAD_REACTORS
330
2A
102
}
330
2A
100
AcDbVisualStyle
  2
FlatWithEdges
 70
     1
177
     3
291
     1
 70
    58
 90
        2
176
     1
 90
        1
176
     1
 90
        1
176
     1
 90
        2
176
     1
 40
0.6
176
     1
 40
30.0
176
     1
 62
     7
420
 16777215
176
     1
 90
        1
176
     1
 90
        0
176
     1
 62
     7
176
     1
 62
   257
176
     1
 90
        1
176
     1
 90
        1
176
     1
 40
1.0
176
     1
 90
        0
176
     1
 62
   257
176
     1
 40
1.0
176
     1
 90
        1
176
     1
 90
        6
176
     1
 90
        2
176
     1
 62
     7
176
     1
 90
        5
176
     1
 90
        0
176
     1
 90
        0
176
     1
290
     0
176
     1
 90
       13
176
     1
 40
0.0
176
     1
 90
        0
176
     1
290
     0
176
     1
290
     1
176
     1
290
     1
176
     1
290
     0
176
     1
290
     0
176
     1
290
     0
176
     1
290
     0
176
     1
290
     0
176
     1
290
     0
176
     1
 90
       50
176
     1
 40
0.0
176
     1
 40
1.0
176
     1
 90
        0
176
     1
 62
    18
420
        0
176
     1
 90
       50
176
     1
 90
        3
176
     1
 62
     5
420
      255
176
     1
290
     0
176
     1
 90
       50
176
     1
 90
       50
176
     1
 90
       50
176
     1
290
     0
176
     1
 90
       50
176
     1
 62
   256
176
     0
 40
1.0
176
     0
 90
        2
176
     1
  1
strokes_ogs.tif
176
     1
290
     0
176
     1
 40
1.0
176
     1
 40
1.0
176
     1
  0
VISUALSTYLE
  5
2D
102
{ACAD_REACTORS
330
2A
102
}
330
2A
100
AcDbVisualStyle
  2
Gouraud
 70
     2
177
     3
291
     1
 70
    58
 90
        2
176
     1
 90
        2
176
     1
 90
        1
176
     1
 90
        2
176
     1
 40
0.6
176
     1
 40
30.0
176
     1
 62
     7
420
 16777215
176
     1
 90
        0
176
     1
 90
        0
176
     1
 62
     7
176
     1
 62
   257
176
     1
 90
        1
176
     1
 90
        1
176
     1
 40
1.0
176
     1
 90
        0
176
     1
 62
     7
176
     1
 40
1.0
176
     1
 90
        1
176
     1
 90
        6
176
     1
 90
        2
176
     1
 62
     7
176
     1
 90
        5
176
     1
 90
        0
176
     1
 90
        0
176
     1
290
     0
176
     1
 90
       13
176
     1
 40
0.0
176
     1
 90
        0
176
     1
290
     0
176
     1
290
     1
176
     1
290
     1
176
     1
290
     0
176
     1
290
     0
176
     1
290
     0
176
     1
290
     0
176
     1
290
     0
176
     1
290
     0
176
     1
 90
       50
176
     1
 40
0.0
176
     1
 40
1.0
176
     1
 90
        0
176
     1
 62
    18
420
        0
176
     1
 90
       50
176
     1
 90
        3
176
     1
 62
     5
420
      255
176
     1
290
     0
176
     1
 90
       50
176
     1
 90
       50
176
     1
 90
       50
176
     1
290
     0
176
     1
 90
       50
176
     1
 62
   256
176
     0
 40
1.0
176
     0
 90
        2
176
     1
  1
strokes_ogs.tif
176
     1
290
     0
176
     1
 40
1.0
176
     1
 40
1.0
176
     1
  0
VISUALSTYLE
  5
2E
102
{ACAD_REACTORS
330
2A
102
}
330
2A
100
AcDbVisualStyle
  2
GouraudWithEdges
 70
     3
177
     3
291
     1
 70
    58
 90
        2
176
     1
 90
        2
176
     1
 90
        1
176
     1
 90
        2
176
     1
 40
0.6
176
     1
 40
30.0
176
     1
 62
     7
420
 16777215
176
     1
 90
        1
176
     1
 90
        0
176
     1
 62
     7
176
     1
 62
   257
176
     1
 90
        1
176
     1
 90
        1
176
     1
 40
1.0
176
     1
 90
        0
176
     1
 62
   257
176
     1
 40
1.0
176
     1
 90
        1
176
     1
 90
        6
176
     1
 90
        2
176
     1
 62
     7
176
     1
 90
        5
176
     1
 90
        0
176
     1
 90
        0
176
     1
290
     0
176
     1
 90
       13
176
     1
 40
0.0
176
     1
 90
        0
176
     1
290
     0
176
     1
290
     1
176
     1
290
     1
176
     1
290
     0
176
     1
290
     0
176
     1
290
     0
176
     1
290
     0
176
     1
290
     0
176
     1
290
     0
176
     1
 90
       50
176
     1
 40
0.0
176
     1
 40
1.0
176
     1
 90
        0
176
     1
 62
    18
420
        0
176
     1
 90
       50
176
     1
 90
        3
176
     1
 62
     5
420
      255
176
     1
290
     0
176
     1
 90
       50
176
     1
 90
       50
176
     1
 90
       50
176
     1
290
     0
176
     1
 90
       50
176
     1
 62
   256
176
     0
 40
1.0
176
     0
 90
        2
176
     1
  1
strokes_ogs.tif
176
     1
290
     0
176
     1
 40
1.0
176
     1
 40
1.0
176
     1
  0
VISUALSTYLE
  5
31
102
{ACAD_REACTORS
330
2A
102
}
330
2A
100
AcDbVisualStyle
  2
Hidden
 70
     6
177
     3
291
     0
 70
    58
 90
        1
176
     1
 90
        2
176
     1
 90
        2
176
     1
 90
        0
176
     1
 40
0.6
176
     1
 40
30.0
176
     1
 62
     7
420
 16777215
176
     1
 90
        2
176
     1
 90
        2
176
     1
 62
     7
176
     1
 62
   257
176
     1
 90
        2
176
     1
 90
        1
176
     1
 40
40.0
176
     1
 90
        0
176
     1
 62
   257
176
     1
 40
1.0
176
     1
 90
        1
176
     1
 90
        6
176
     1
 90
        2
176
     1
 62
     7
176
     1
 90
        3
176
     1
 90
        0
176
     1
 90
        0
176
     1
290
     0
176
     1
 90
        1
176
     1
 40
0.0
176
     1
 90
        0
176
     1
290
     0
176
     1
290
     1
176
     1
290
     1
176
     1
290
     0
176
     1
290
     0
176
     1
290
     0
176
     1
290
     0
176
     1
290
     0
176
     1
290
     0
176
     1
 90
       50
176
     1
 40
0.0
176
     1
 40
1.0
176
     1
 90
        0
176
     1
 62
    18
420
        0
176
     1
 90
       50
176
     1
 90
        3
176
     1
 62
     5
420
      255
176
     1
290
     0
176
     1
 90
       50
176
     1
 90
       50
176
     1
 90
       50
176
     1
290
     0
176
     1
 90
       50
176
     1
 62
   256
176
     0
 40
1.0
176
     0
 90
        2
176
     1
  1
strokes_ogs.tif
176
     1
290
     0
176
     1
 40
1.0
176
     1
 40
1.0
176
     1
  0
VISUALSTYLE
  5
3B
102
{ACAD_REACTORS
330
2A
102
}
330
2A
100
AcDbVisualStyle
  2
JitterOff
 70
    20
177
     3
291
     1
 70
    58
 90
        2
176
     0
 90
        2
176
     0
 90
        0
176
     0
 90
        0
176
     0
 40
0.6
176
     0
 40
30.0
176
     0
 62
     7
420
 16777215
176
     0
 90
        1
176
     0
 90
        4
176
     0
 62
     7
176
     0
 62
   257
176
     0
 90
        1
176
     0
 90
        1
176
     0
 40
1.0
176
     0
 90
       10
176
     2
 62
     7
176
     0
 40
1.0
176
     0
 90
        1
176
     0
 90
        6
176
     0
 90
        2
176
     0
 62
     7
176
     0
 90
        5
176
     0
 90
        0
176
     0
 90
        0
176
     0
290
     0
176
     0
 90
        1
176
     0
 40
0.0
176
     0
 90
        0
176
     0
290
     0
176
     0
290
     1
176
     0
290
     1
176
     0
290
     0
176
     0
290
     0
176
     0
290
     0
176
     0
290
     0
176
     0
290
     0
176
     0
290
     0
176
     0
 90
       50
176
     0
 40
0.0
176
     0
 40
1.0
176
     0
 90
        0
176
     0
 62
    18
420
        0
176
     0
 90
       50
176
     0
 90
        3
176
     0
 62
     5
420
      255
176
     0
290
     0
176
     0
 90
       50
176
     0
 90
       50
176
     0
 90
       50
176
     0
290
     0
176
     0
 90
       50
176
     0
 62
   256
176
     0
 40
1.0
176
     0
 90
        2
176
     0
  1
strokes_ogs.tif
176
     0
290
     0
176
     0
 40
1.0
176
     0
 40
1.0
176
     0
  0
VISUALSTYLE
  5
38
102
{ACAD_REACTORS
330
2A
102
}
330
2A
100
AcDbVisualStyle
  2
Linepattern
 70
    14
177
     3
291
     1
 70
    58
 90
        2
176
     1
 90
        2
176
     1
 90
        0
176
     1
 90
        0
176
     1
 40
0.6
176
     1
 40
30.0
176
     1
 62
     7
420
 16777215
176
     1
 90
        1
176
     1
 90
        4
176
     1
 62
     7
176
     1
 62
   257
176
     1
 90
        7
176
     1
 90
        7
176
     1
 40
1.0
176
     1
 90
        8
176
     1
 62
     7
176
     1
 40
1.0
176
     1
 90
        1
176
     1
 90
        6
176
     1
 90
        2
176
     1
 62
     7
176
     1
 90
        5
176
     1
 90
        0
176
     1
 90
        0
176
     1
290
     0
176
     1
 90
        1
176
     1
 40
0.0
176
     1
 90
        0
176
     1
290
     0
176
     1
290
     1
176
     1
290
     1
176
     1
290
     0
176
     1
290
     0
176
     1
290
     0
176
     1
290
     0
176
     1
290
     0
176
     1
290
     0
176
     1
 90
       50
176
     1
 40
0.0
176
     1
 40
1.0
176
     1
 90
        0
176
     1
 62
    18
420
        0
176
     1
 90
       50
176
     1
 90
        3
176
     1
 62
     5
420
      255
176
     1
290
     0
176
     1
 90
       50
176
     1
 90
       50
176
     1
 90
       50
176
     1
290
     0
176
     1
 90
       50
176
     1
 62
   256
176
     0
 40
1.0
176
     0
 90
        2
176
     1
  1
strokes_ogs.tif
176
     1
290
     0
176
     1
 40
1.0
176
     1
 40
1.0
176
     1
  0
VISUALSTYLE
  5
3C
102
{ACAD_REACTORS
330
2A
102
}
330
2A
100
AcDbVisualStyle
  2
OverhangOff
 70
    21
177
     3
291
     1
 70
    58
 90
        2
176
     0
 90
        2
176
     0
 90
        0
176
     0
 90
        0
176
     0
 40
0.6
176
     0
 40
30.0
176
     0
 62
     7
420
 16777215
176
     0
 90
        1
176
     0
 90
        4
176
     0
 62
     7
176
     0
 62
   257
176
     0
 90
        1
176
     0
 90
        1
176
     0
 40
1.0
176
     0
 90
        9
176
     2
 62
     7
176
     0
 40
1.0
176
     0
 90
        1
176
     0
 90
        6
176
     0
 90
        2
176
     0
 62
     7
176
     0
 90
        5
176
     0
 90
        0
176
     0
 90
        0
176
     0
290
     0
176
     0
 90
        1
176
     0
 40
0.0
176
     0
 90
        0
176
     0
290
     0
176
     0
290
     1
176
     0
290
     1
176
     0
290
     0
176
     0
290
     0
176
     0
290
     0
176
     0
290
     0
176
     0
290
     0
176
     0
290
     0
176
     0
 90
       50
176
     0
 40
0.0
176
     0
 40
1.0
176
     0
 90
        0
176
     0
 62
    18
420
        0
176
     0
 90
       50
176
     0
 90
        3
176
     0
 62
     5
420
      255
176
     0
290
     0
176
     0
 90
       50
176
     0
 90
       50
176
     0
 90
       50
176
     0
290
     0
176
     0
 90
       50
176
     0
 62
   256
176
     0
 40
1.0
176
     0
 90
        2
176
     0
  1
strokes_ogs.tif
176
     0
290
     0
176
     0
 40
1.0
176
     0
 40
1.0
176
     0
  0
VISUALSTYLE
  5
33
102
{ACAD_REACTORS
330
2A
102
}
330
2A
100
AcDbVisualStyle
  2
Realistic
 70
     8
177
     3
291
     0
 70
    58
 90
        2
176
     1
 90
        3
176
     1
 90
        0
176
     1
 90
        2
176
     1
 40
0.6
176
     1
 40
30.0
176
     1
 62
     7
420
 16777215
176
     1
 90
        0
176
     1
 90
        0
176
     1
 62
     7
176
     1
 62
   257
176
     1
 90
        1
176
     1
 90
        1
176
     1
 40
1.0
176
     1
 90
        8
176
     1
 62
   257
176
     1
 40
1.0
176
     1
 90
        1
176
     1
 90
        6
176
     1
 90
        2
176
     1
 62
     7
176
     1
 90
        3
176
     1
 90
        0
176
     1
 90
        0
176
     1
290
     0
176
     1
 90
       13
176
     1
 40
0.0
176
     1
 90
        0
176
     1
290
     0
176
     1
290
     1
176
     1
290
     1
176
     1
290
     0
176
     1
290
     0
176
     1
290
     0
176
     1
290
     0
176
     1
290
     0
176
     1
290
     0
176
     1
 90
       50
176
     1
 40
0.0
176
     1
 40
1.0
176
     1
 90
        0
176
     1
 62
    18
420
        0
176
     1
 90
       50
176
     1
 90
        3
176
     1
 62
     5
420
      255
176
     1
290
     0
176
     1
 90
       50
176
     1
 90
       50
176
     1
 90
       50
176
     1
290
     0
176
     1
 90
       50
176
     1
 62
   256
176
     0
 40
1.0
176
     0
 90
        2
176
     1
  1
strokes_ogs.tif
176
     1
290
     0
176
     1
 40
1.0
176
     1
 40
1.0
176
     1
  0
VISUALSTYLE
  5
42
102
{ACAD_REACTORS
330
2A
102
}
330
2A
100
AcDbVisualStyle
  2
Shaded
 70
    27
177
     3
291
     0
 70
    58
 90
        2
176
     1
 90
        2
176
     1
 90
        1
176
     1
 90
        2
176
     1
 40
0.6
176
     1
 40
30.0
176
     1
 62
     7
420
 16777215
176
     1
 90
        0
176
     1
 90
        4
176
     1
 62
     7
176
     1
 62
   257
176
     1
 90
        1
176
     1
 90
        1
176
     1
 40
1.0
176
     1
 90
        8
176
     1
 62
   257
176
     1
 40
1.0
176
     1
 90
        1
176
     1
 90
        6
176
     1
 90
        2
176
     1
 62
     8
420
  7895160
176
     1
 90
        3
176
     1
 90
        0
176
     1
 90
        0
176
     1
290
     0
176
     1
 90
        5
176
     1
 40
0.0
176
     1
 90
        0
176
     1
290
     0
176
     1
290
     1
176
     1
290
     1
176
     1
290
     0
176
     1
290
     0
176
     1
290
     0
176
     1
290
     0
176
     1
290
     0
176
     1
290
     0
176
     1
 90
       50
176
     1
 40
0.0
176
     1
 40
1.0
176
     1
 90
        0
176
     1
 62
    18
420
        0
176
     1
 90
       50
176
     1
 90
        3
176
     1
 62
     5
420
      255
176
     1
290
     0
176
     1
 90
       50
176
     1
 90
       50
176
     1
 90
       50
176
     1
290
     0
176
     1
 90
       50
176
     1
 62
   256
176
     0
 40
1.0
176
     0
 90
        2
176
     1
  1
strokes_ogs.tif
176
     1
290
     0
176
     1
 40
1.0
176
     1
 40
1.0
176
     1
  0
VISUALSTYLE
  5
41
102
{ACAD_REACTORS
330
2A
102
}
330
2A
100
AcDbVisualStyle
  2
Shaded with edges
 70
    26
177
     3
291
     0
 70
    58
 90
        2
176
     1
 90
        2
176
     1
 90
        1
176
     1
 90
        2
176
     1
 40
0.6
176
     1
 40
30.0
176
     1
 62
     7
420
 16777215
176
     1
 90
        1
176
     1
 90
       10
176
     1
 62
     7
176
     1
 62
   257
176
     1
 90
        2
176
     1
 90
        1
176
     1
 40
1.0
176
     1
 90
        8
176
     1
 62
   257
176
     1
 40
1.0
176
     1
 90
        1
176
     1
 90
        6
176
     1
 90
        2
176
     1
 62
     7
176
     1
 90
        3
176
     1
 90
        0
176
     1
 90
        0
176
     1
290
     0
176
     1
 90
        5
176
     1
 40
0.0
176
     1
 90
        0
176
     1
290
     0
176
     1
290
     1
176
     1
290
     1
176
     1
290
     0
176
     1
290
     0
176
     1
290
     0
176
     1
290
     0
176
     1
290
     0
176
     1
290
     0
176
     1
 90
       50
176
     1
 40
0.0
176
     1
 40
1.0
176
     1
 90
        0
176
     1
 62
    18
420
        0
176
     1
 90
       50
176
     1
 90
        3
176
     1
 62
     5
420
      255
176
     1
290
     0
176
     1
 90
       50
176
     1
 90
       50
176
     1
 90
       50
176
     1
290
     0
176
     1
 90
       50
176
     1
 62
   256
176
     0
 40
1.0
176
     0
 90
        2
176
     1
  1
strokes_ogs.tif
176
     1
290
     0
176
     1
 40
1.0
176
     1
 40
1.0
176
     1
  0
VISUALSTYLE
  5
3E
102
{ACAD_REACTORS
330
2A
102
}
330
2A
100
AcDbVisualStyle
  2
Shades of Gray
 70
    23
177
     3
291
     0
 70
    58
 90
        2
176
     1
 90
        2
176
     1
 90
        3
176
     1
 90
        0
176
     1
 40
0.6
176
     1
 40
30.0
176
     1
 62
     7
420
 16777215
176
     1
 90
        2
176
     1
 90
        2
176
     1
 62
     7
176
     1
 62
     7
176
     1
 90
        1
176
     1
 90
        1
176
     1
 40
40.0
176
     1
 90
        8
176
     1
 62
     7
176
     1
 40
1.0
176
     1
 90
        1
176
     1
 90
        6
176
     1
 90
        2
176
     1
 62
     7
176
     1
 90
        3
176
     1
 90
        0
176
     1
 90
        0
176
     1
290
     0
176
     1
 90
        1
176
     1
 40
0.0
176
     1
 90
        0
176
     1
290
     0
176
     1
290
     1
176
     1
290
     1
176
     1
290
     0
176
     1
290
     0
176
     1
290
     0
176
     1
290
     0
176
     1
290
     0
176
     1
290
     0
176
     1
 90
       50
176
     1
 40
0.0
176
     1
 40
1.0
176
     1
 90
        0
176
     1
 62
    18
420
        0
176
     1
 90
       50
176
     1
 90
        3
176
     1
 62
     5
420
      255
176
     1
290
     0
176
     1
 90
       50
176
     1
 90
       50
176
     1
 90
       50
176
     1
290
     0
176
     1
 90
       50
176
     1
 62
   256
176
     0
 40
1.0
176
     0
 90
        2
176
     1
  1
strokes_ogs.tif
176
     1
290
     0
176
     1
 40
1.0
176
     1
 40
1.0
176
     1
  0
VISUALSTYLE
  5
3F
102
{ACAD_REACTORS
330
2A
102
}
330
2A
100
AcDbVisualStyle
  2
Sketchy
 70
    24
177
     3
291
     0
 70
    58
 90
        1
176
     1
 90
        2
176
     1
 90
        2
176
     1
 90
        0
176
     1
 40
0.6
176
     1
 40
30.0
176
     1
 62
     7
420
 16777215
176
     1
 90
        2
176
     1
 90
        2
176
     1
 62
     7
176
     1
 62
     7
176
     1
 90
        1
176
     1
 90
        1
176
     1
 40
40.0
176
     1
 90
       11
176
     1
 62
     7
176
     1
 40
1.0
176
     1
 90
        1
176
     1
 90
        6
176
     1
 90
        2
176
     1
 62
     7
176
     1
 90
        6
176
     1
 90
        0
176
     1
 90
        0
176
     1
290
     0
176
     1
 90
        1
176
     1
 40
0.0
176
     1
 90
        0
176
     1
290
     0
176
     1
290
     1
176
     1
290
     1
176
     1
290
     0
176
     1
290
     0
176
     1
290
     0
176
     1
290
     0
176
     1
290
     0
176
     1
290
     0
176
     1
 90
       50
176
     1
 40
0.0
176
     1
 40
1.0
176
     1
 90
        0
176
     1
 62
    18
420
        0
176
     1
 90
       50
176
     1
 90
        3
176
     1
 62
     5
420
      255
176
     1
290
     0
176
     1
 90
       50
176
     1
 90
       50
176
     1
 90
       50
176
     1
290
     0
176
     1
 90
       50
176
     1
 62
   256
176
     0
 40
1.0
176
     0
 90
        2
176
     1
  1
strokes_ogs.tif
176
     1
290
     0
176
     1
 40
1.0
176
     1
 40
1.0
176
     1
  0
VISUALSTYLE
  5
37
102
{ACAD_REACTORS
330
2A
102
}
330
2A
100
AcDbVisualStyle
  2
Thicken
 70
    13
177
     3
291
     1
 70
    58
 90
        2
176
     1
 90
        2
176
     1
 90
        0
176
     1
 90
        0
176
     1
 40
0.6
176
     1
 40
30.0
176
     1
 62
     7
420
 16777215
176
     1
 90
        1
176
     1
 90
        4
176
     1
 62
     7
176
     1
 62
   257
176
     1
 90
        1
176
     1
 90
        1
176
     1
 40
1.0
176
     1
 90
       12
176
     1
 62
     7
176
     1
 40
1.0
176
     1
 90
        1
176
     1
 90
        6
176
     1
 90
        2
176
     1
 62
     7
176
     1
 90
        5
176
     1
 90
        0
176
     1
 90
        0
176
     1
290
     0
176
     1
 90
        1
176
     1
 40
0.0
176
     1
 90
        0
176
     1
290
     0
176
     1
290
     1
176
     1
290
     1
176
     1
290
     0
176
     1
290
     0
176
     1
290
     0
176
     1
290
     0
176
     1
290
     0
176
     1
290
     0
176
     1
 90
       50
176
     1
 40
0.0
176
     1
 40
1.0
176
     1
 90
        0
176
     1
 62
    18
420
        0
176
     1
 90
       50
176
     1
 90
        3
176
     1
 62
     5
420
      255
176
     1
290
     0
176
     1
 90
       50
176
     1
 90
       50
176
     1
 90
       50
176
     1
290
     0
176
     1
 90
       50
176
     1
 62
   256
176
     0
 40
1.0
176
     0
 90
        2
176
     1
  1
strokes_ogs.tif
176
     1
290
     0
176
     1
 40
1.0
176
     1
 40
1.0
176
     1
  0
VISUALSTYLE
  5
30
102
{ACAD_REACTORS
330
2A
102
}
330
2A
100
AcDbVisualStyle
  2
Wireframe
 70
     5
177
     3
291
     0
 70
    58
 90
        0
176
     1
 90
        2
176
     1
 90
        0
176
     1
 90
        0
176
     1
 40
0.6
176
     1
 40
30.0
176
     1
 62
     7
420
 16777215
176
     1
 90
        1
176
     1
 90
        4
176
     1
 62
     7
176
     1
 62
   257
176
     1
 90
        1
176
     1
 90
        1
176
     1
 40
1.0
176
     1
 90
        0
176
     1
 62
   257
176
     1
 40
1.0
176
     1
 90
        1
176
     1
 90
        6
176
     1
 90
        2
176
     1
 62
     7
176
     1
 90
        3
176
     1
 90
        0
176
     1
 90
        0
176
     1
290
     0
176
     1
 90
        1
176
     1
 40
0.0
176
     1
 90
        0
176
     1
290
     0
176
     1
290
     1
176
     1
290
     1
176
     1
290
     0
176
     1
290
     0
176
     1
290
     0
176
     1
290
     0
176
     1
290
     0
176
     1
290
     0
176
     1
 90
       50
176
     1
 40
0.0
176
     1
 40
1.0
176
     1
 90
        0
176
     1
 62
    18
420
        0
176
     1
 90
       50
176
     1
 90
        3
176
     1
 62
     5
420
      255
176
     1
290
     0
176
     1
 90
       50
176
     1
 90
       50
176
     1
 90
       50
176
     1
290
     0
176
     1
 90
       50
176
     1
 62
   256
176
     0
 40
1.0
176
     0
 90
        2
176
     1
  1
strokes_ogs.tif
176
     1
290
     0
176
     1
 40
1.0
176
     1
 40
1.0
176
     1
  0
VISUALSTYLE
  5
40
102
{ACAD_REACTORS
330
2A
102
}
330
2A
100
AcDbVisualStyle
  2
X-Ray
 70
    25
177
     3
291
     0
 70
    58
 90
        2
176
     1
 90
        2
176
     1
 90
        1
176
     1
 90
        1
176
     1
 40
0.5
176
     1
 40
30.0
176
     1
 62
     7
420
 16777215
176
     1
 90
        1
176
     1
 90
        0
176
     1
 62
     7
176
     1
 62
   257
176
     1
 90
        1
176
     1
 90
        1
176
     1
 40
1.0
176
     1
 90
        8
176
     1
 62
     7
176
     1
 40
1.0
176
     1
 90
        1
176
     1
 90
        6
176
     1
 90
        2
176
     1
 62
     7
176
     1
 90
        3
176
     1
 90
        0
176
     1
 90
        0
176
     1
290
     0
176
     1
 90
       13
176
     1
 40
0.0
176
     1
 90
        0
176
     1
290
     0
176
     1
290
     1
176
     1
290
     1
176
     1
290
     0
176
     1
290
     0
176
     1
290
     0
176
     1
290
     0
176
     1
290
     0
176
     1
290
     0
176
     1
 90
       50
176
     1
 40
0.0
176
     1
 40
1.0
176
     1
 90
        0
176
     1
 62
    18
420
        0
176
     1
 90
       50
176
     1
 90
        3
176
     1
 62
     5
420
      255
176
     1
290
     0
176
     1
 90
       50
176
     1
 90
       50
176
     1
 90
       50
176
     1
290
     0
176
     1
 90
       50
176
     1
 62
   256
176
     0
 40
1.0
176
     0
 90
        2
176
     1
  1
strokes_ogs.tif
176
     1
290
     0
176
     1
 40
1.0
176
     1
 40
1.0
176
     1
  0
DICTIONARYVAR
  5
BE
102
{ACAD_REACTORS
330
BD
102
}
330
BD
100
DictionaryVariables
280
     0
  1
1:1
  0
DICTIONARYVAR
  5
C6
102
{ACAD_REACTORS
330
BD
102
}
330
BD
100
DictionaryVariables
280
     0
  1
3.500000
  0
DICTIONARYVAR
  5
C7
102
{ACAD_REACTORS
330
BD
102
}
330
BD
100
DictionaryVariables
280
     0
  1
acadiso.lin
  0
DICTIONARYVAR
  5
C3
102
{ACAD_REACTORS
330
BD
102
}
330
BD
100
DictionaryVariables
280
     0
  1
Standard
  0
DICTIONARYVAR
  5
C2
102
{ACAD_REACTORS
330
BD
102
}
330
BD
100
DictionaryVariables
280
     0
  1
Standard
  0
DICTIONARY
  5
BF
330
5A
100
AcDbDictionary
280
     1
281
     1
  3
ACAD_ROUNDTRIP_2008_TABLESTYLE_CELLSTYLEMAP
360
C0
  0
CELLSTYLEMAP
  5
C0
102
{ACAD_REACTORS
330
BF
102
}
330
BF
100
AcDbCellStyleMap
 90
        3
300
CELLSTYLE
  1
TABLEFORMAT_BEGIN
 90
        5
170
     1
 91
        0
 92
    32768
 62
   257
 93
        1
300
CONTENTFORMAT
  1
CONTENTFORMAT_BEGIN
 90
        0
 91
        0
 92
        4
 93
        0
300

 40
0.0
140
1.0
 94
        5
 62
     0
340
11
144
6.0
309
CONTENTFORMAT_END
171
     1
301
MARGIN
  1
CELLMARGIN_BEGIN
 40
1.5
 40
1.5
 40
1.5
 40
1.5
 40
1.5
 40
1.5
309
CELLMARGIN_END
 94
        6
 95
        1
302
GRIDFORMAT
  1
GRIDFORMAT_BEGIN
 90
        0
 91
        1
 62
     0
 92
       -2
340
14
 93
        0
 40
0.045
309
GRIDFORMAT_END
 95
        2
302
GRIDFORMAT
  1
GRIDFORMAT_BEGIN
 90
        0
 91
        1
 62
     0
 92
       -2
340
14
 93
        0
 40
0.045
309
GRIDFORMAT_END
 95
        4
302
GRIDFORMAT
  1
GRIDFORMAT_BEGIN
 90
        0
 91
        1
 62
     0
 92
       -2
340
14
 93
        0
 40
0.045
309
GRIDFORMAT_END
 95
        8
302
GRIDFORMAT
  1
GRIDFORMAT_BEGIN
 90
        0
 91
        1
 62
     0
 92
       -2
340
14
 93
        0
 40
0.045
309
GRIDFORMAT_END
 95
       16
302
GRIDFORMAT
  1
GRIDFORMAT_BEGIN
 90
        0
 91
        1
 62
     0
 92
       -2
340
14
 93
        0
 40
0.045
309
GRIDFORMAT_END
 95
       32
302
GRIDFORMAT
  1
GRIDFORMAT_BEGIN
 90
        0
 91
        1
 62
     0
 92
       -2
340
14
 93
        0
 40
0.045
309
GRIDFORMAT_END
309
TABLEFORMAT_END
  1
CELLSTYLE_BEGIN
 90
        1
 91
        1
300
_TITLE
309
CELLSTYLE_END
300
CELLSTYLE
  1
TABLEFORMAT_BEGIN
 90
        5
170
     1
 91
        0
 92
        0
 62
   257
 93
        1
300
CONTENTFORMAT
  1
CONTENTFORMAT_BEGIN
 90
        0
 91
        0
 92
        4
 93
        0
300

 40
0.0
140
1.0
 94
        5
 62
     0
340
11
144
4.5
309
CONTENTFORMAT_END
171
     1
301
MARGIN
  1
CELLMARGIN_BEGIN
 40
1.5
 40
1.5
 40
1.5
 40
1.5
 40
1.5
 40
1.5
309
CELLMARGIN_END
 94
        6
 95
        1
302
GRIDFORMAT
  1
GRIDFORMAT_BEGIN
 90
        0
 91
        1
 62
     0
 92
       -2
340
14
 93
        0
 40
0.045
309
GRIDFORMAT_END
 95
        2
302
GRIDFORMAT
  1
GRIDFORMAT_BEGIN
 90
        0
 91
        1
 62
     0
 92
       -2
340
14
 93
        0
 40
0.045
309
GRIDFORMAT_END
 95
        4
302
GRIDFORMAT
  1
GRIDFORMAT_BEGIN
 90
        0
 91
        1
 62
     0
 92
       -2
340
14
 93
        0
 40
0.045
309
GRIDFORMAT_END
 95
        8
302
GRIDFORMAT
  1
GRIDFORMAT_BEGIN
 90
        0
 91
        1
 62
     0
 92
       -2
340
14
 93
        0
 40
0.045
309
GRIDFORMAT_END
 95
       16
302
GRIDFORMAT
  1
GRIDFORMAT_BEGIN
 90
        0
 91
        1
 62
     0
 92
       -2
340
14
 93
        0
 40
0.045
309
GRIDFORMAT_END
 95
       32
302
GRIDFORMAT
  1
GRIDFORMAT_BEGIN
 90
        0
 91
        1
 62
     0
 92
       -2
340
14
 93
        0
 40
0.045
309
GRIDFORMAT_END
309
TABLEFORMAT_END
  1
CELLSTYLE_BEGIN
 90
        2
 91
        1
300
_HEADER
309
CELLSTYLE_END
300
CELLSTYLE
  1
TABLEFORMAT_BEGIN
 90
        5
170
     1
 91
        0
 92
        0
 62
   257
 93
        1
300
CONTENTFORMAT
  1
CONTENTFORMAT_BEGIN
 90
        0
 91
        0
 92
        4
 93
        0
300

 40
0.0
140
1.0
 94
        2
 62
     0
340
11
144
4.5
309
CONTENTFORMAT_END
171
     1
301
MARGIN
  1
CELLMARGIN_BEGIN
 40
1.5
 40
1.5
 40
1.5
 40
1.5
 40
1.5
 40
1.5
309
CELLMARGIN_END
 94
        6
 95
        1
302
GRIDFORMAT
  1
GRIDFORMAT_BEGIN
 90
        0
 91
        1
 62
     0
 92
       -2
340
14
 93
        0
 40
0.045
309
GRIDFORMAT_END
 95
        2
302
GRIDFORMAT
  1
GRIDFORMAT_BEGIN
 90
        0
 91
        1
 62
     0
 92
       -2
340
14
 93
        0
 40
0.045
309
GRIDFORMAT_END
 95
        4
302
GRIDFORMAT
  1
GRIDFORMAT_BEGIN
 90
        0
 91
        1
 62
     0
 92
       -2
340
14
 93
        0
 40
0.045
309
GRIDFORMAT_END
 95
        8
302
GRIDFORMAT
  1
GRIDFORMAT_BEGIN
 90
        0
 91
        1
 62
     0
 92
       -2
340
14
 93
        0
 40
0.045
309
GRIDFORMAT_END
 95
       16
302
GRIDFORMAT
  1
GRIDFORMAT_BEGIN
 90
        0
 91
        1
 62
     0
 92
       -2
340
14
 93
        0
 40
0.045
309
GRIDFORMAT_END
 95
       32
302
GRIDFORMAT
  1
GRIDFORMAT_BEGIN
 90
        0
 91
        1
 62
     0
 92
       -2
340
14
 93
        0
 40
0.045
309
GRIDFORMAT_END
309
TABLEFORMAT_END
  1
CELLSTYLE_BEGIN
 90
        3
 91
        2
300
_DATA
309
CELLSTYLE_END
  0
ENDSEC
  0
EOF
