  0
SECTION
  2
HEADER
  9
$ACADVER
  1
AC1027
  9
$ACADMAINTVER
 70
   105
  9
$DWGCODEPAGE
  3
ANSI_932
  9
$LASTSAVEDBY
  1
a.yasuda
  9
$REQUIREDVERSIONS
160
                 0
  9
$INSBASE
 10
0.0
 20
0.0
 30
0.0
  9
$EXTMIN
 10
0.0
 20
0.0
 30
0.0
  9
$EXTMAX
 10
302.9997823349792
 20
216.0016055409748
 30
0.0
  9
$LIMMIN
 10
0.0
 20
0.0
  9
$LIMMAX
 10
302.9997823349792
 20
216.0016055409748
  9
$ORTHOMODE
 70
     0
  9
$REGENMODE
 70
     1
  9
$FILLMODE
 70
     1
  9
$QTEXTMODE
 70
     0
  9
$MIRRTEXT
 70
     1
  9
$LTSCALE
 40
1.0
  9
$ATTMODE
 70
     1
  9
$TEXTSIZE
 40
2.5
  9
$TRACEWID
 40
1.0
  9
$TEXTSTYLE
  7
Standard
  9
$CLAYER
  8
0
  9
$CELTYPE
  6
ByLayer
  9
$CECOLOR
 62
   256
  9
$CELTSCALE
 40
1.0
  9
$DISPSILH
 70
     0
  9
$DIMSCALE
 40
1.0
  9
$DIMASZ
 40
2.5
  9
$DIMEXO
 40
0.625
  9
$DIMDLI
 40
3.75
  9
$DIMRND
 40
0.0
  9
$DIMDLE
 40
0.0
  9
$DIMEXE
 40
1.25
  9
$DIMTP
 40
0.0
  9
$DIMTM
 40
0.0
  9
$DIMTXT
 40
2.5
  9
$DIMCEN
 40
2.5
  9
$DIMTSZ
 40
0.0
  9
$DIMTOL
 70
     0
  9
$DIMLIM
 70
     0
  9
$DIMTIH
 70
     0
  9
$DIMTOH
 70
     0
  9
$DIMSE1
 70
     0
  9
$DIMSE2
 70
     0
  9
$DIMTAD
 70
     1
  9
$DIMZIN
 70
     8
  9
$DIMBLK
  1

  9
$DIMASO
 70
     1
  9
$DIMSHO
 70
     1
  9
$DIMPOST
  1

  9
$DIMAPOST
  1

  9
$DIMALT
 70
     0
  9
$DIMALTD
 70
     3
  9
$DIMALTF
 40
0.03937007874016
  9
$DIMLFAC
 40
1.0
  9
$DIMTOFL
 70
     1
  9
$DIMTVP
 40
0.0
  9
$DIMTIX
 70
     0
  9
$DIMSOXD
 70
     0
  9
$DIMSAH
 70
     0
  9
$DIMBLK1
  1

  9
$DIMBLK2
  1

  9
$DIMSTYLE
  2
ISO-25
  9
$DIMCLRD
 70
     0
  9
$DIMCLRE
 70
     0
  9
$DIMCLRT
 70
     0
  9
$DIMTFAC
 40
1.0
  9
$DIMGAP
 40
0.625
  9
$DIMJUST
 70
     0
  9
$DIMSD1
 70
     0
  9
$DIMSD2
 70
     0
  9
$DIMTOLJ
 70
     0
  9
$DIMTZIN
 70
     8
  9
$DIMALTZ
 70
     0
  9
$DIMALTTZ
 70
     0
  9
$DIMUPT
 70
     0
  9
$DIMDEC
 70
     2
  9
$DIMTDEC
 70
     2
  9
$DIMALTU
 70
     2
  9
$DIMALTTD
 70
     3
  9
$DIMTXSTY
  7
Standard
  9
$DIMAUNIT
 70
     0
  9
$DIMADEC
 70
     0
  9
$DIMALTRND
 40
0.0
  9
$DIMAZIN
 70
     0
  9
$DIMDSEP
 70
    44
  9
$DIMATFIT
 70
     3
  9
$DIMFRAC
 70
     0
  9
$DIMLDRBLK
  1

  9
$DIMLUNIT
 70
     2
  9
$DIMLWD
 70
    -2
  9
$DIMLWE
 70
    -2
  9
$DIMTMOVE
 70
     0
  9
$DIMFXL
 40
1.0
  9
$DIMFXLON
 70
     0
  9
$DIMJOGANG
 40
0.7853981633974483
  9
$DIMTFILL
 70
     0
  9
$DIMTFILLCLR
 70
     0
  9
$DIMARCSYM
 70
     0
  9
$DIMLTYPE
  6

  9
$DIMLTEX1
  6

  9
$DIMLTEX2
  6

  9
$DIMTXTDIRECTION
 70
     0
  9
$LUNITS
 70
     2
  9
$LUPREC
 70
     4
  9
$SKETCHINC
 40
1.0
  9
$FILLETRAD
 40
0.0
  9
$AUNITS
 70
     0
  9
$AUPREC
 70
     0
  9
$MENU
  1
.
  9
$ELEVATION
 40
0.0
  9
$PELEVATION
 40
0.0
  9
$THICKNESS
 40
0.0
  9
$LIMCHECK
 70
     0
  9
$CHAMFERA
 40
0.0
  9
$CHAMFERB
 40
0.0
  9
$CHAMFERC
 40
0.0
  9
$CHAMFERD
 40
0.0
  9
$SKPOLY
 70
     0
  9
$TDCREATE
 40
2459866.618866771
  9
$TDUCREATE
 40
2459866.243866771
  9
$TDUPDATE
 40
2459866.618866829
  9
$TDUUPDATE
 40
2459866.243866829
  9
$TDINDWG
 40
0.0000000116
  9
$TDUSRTIMER
 40
0.0000000116
  9
$USRTIMER
 70
     1
  9
$ANGBASE
 50
0.0
  9
$ANGDIR
 70
     0
  9
$PDMODE
 70
     0
  9
$PDSIZE
 40
0.0
  9
$PLINEWID
 40
0.0
  9
$SPLFRAME
 70
     0
  9
$SPLINETYPE
 70
     6
  9
$SPLINESEGS
 70
     8
  9
$HANDSEED
  5
C9
  9
$SURFTAB1
 70
     6
  9
$SURFTAB2
 70
     6
  9
$SURFTYPE
 70
     6
  9
$SURFU
 70
     6
  9
$SURFV
 70
     6
  9
$UCSBASE
  2

  9
$UCSNAME
  2

  9
$UCSORG
 10
0.0
 20
0.0
 30
0.0
  9
$UCSXDIR
 10
1.0
 20
0.0
 30
0.0
  9
$UCSYDIR
 10
0.0
 20
1.0
 30
0.0
  9
$UCSORTHOREF
  2

  9
$UCSORTHOVIEW
 70
     0
  9
$UCSORGTOP
 10
0.0
 20
0.0
 30
0.0
  9
$UCSORGBOTTOM
 10
0.0
 20
0.0
 30
0.0
  9
$UCSORGLEFT
 10
0.0
 20
0.0
 30
0.0
  9
$UCSORGRIGHT
 10
0.0
 20
0.0
 30
0.0
  9
$UCSORGFRONT
 10
0.0
 20
0.0
 30
0.0
  9
$UCSORGBACK
 10
0.0
 20
0.0
 30
0.0
  9
$PUCSBASE
  2

  9
$PUCSNAME
  2

  9
$PUCSORG
 10
0.0
 20
0.0
 30
0.0
  9
$PUCSXDIR
 10
1.0
 20
0.0
 30
0.0
  9
$PUCSYDIR
 10
0.0
 20
1.0
 30
0.0
  9
$PUCSORTHOREF
  2

  9
$PUCSORTHOVIEW
 70
     0
  9
$PUCSORGTOP
 10
0.0
 20
0.0
 30
0.0
  9
$PUCSORGBOTTOM
 10
0.0
 20
0.0
 30
0.0
  9
$PUCSORGLEFT
 10
0.0
 20
0.0
 30
0.0
  9
$PUCSORGRIGHT
 10
0.0
 20
0.0
 30
0.0
  9
$PUCSORGFRONT
 10
0.0
 20
0.0
 30
0.0
  9
$PUCSORGBACK
 10
0.0
 20
0.0
 30
0.0
  9
$USERI1
 70
     0
  9
$USERI2
 70
     0
  9
$USERI3
 70
     0
  9
$USERI4
 70
     0
  9
$USERI5
 70
     0
  9
$USERR1
 40
0.0
  9
$USERR2
 40
0.0
  9
$USERR3
 40
0.0
  9
$USERR4
 40
0.0
  9
$USERR5
 40
0.0
  9
$WORLDVIEW
 70
     1
  9
$SHADEDGE
 70
     3
  9
$SHADEDIF
 70
    70
  9
$TILEMODE
 70
     1
  9
$MAXACTVP
 70
    64
  9
$PINSBASE
 10
0.0
 20
0.0
 30
0.0
  9
$PLIMCHECK
 70
     0
  9
$PEXTMIN
 10
1.000000000000000E+20
 20
1.000000000000000E+20
 30
1.000000000000000E+20
  9
$PEXTMAX
 10
-1.000000000000000E+20
 20
-1.000000000000000E+20
 30
-1.000000000000000E+20
  9
$PLIMMIN
 10
0.0
 20
0.0
  9
$PLIMMAX
 10
420.0
 20
297.0
  9
$UNITMODE
 70
     0
  9
$VISRETAIN
 70
     1
  9
$PLINEGEN
 70
     0
  9
$PSLTSCALE
 70
     1
  9
$TREEDEPTH
 70
  3020
  9
$CMLSTYLE
  2
Standard
  9
$CMLJUST
 70
     0
  9
$CMLSCALE
 40
20.0
  9
$PROXYGRAPHICS
 70
     1
  9
$MEASUREMENT
 70
     1
  9
$CELWEIGHT
370
    -1
  9
$ENDCAPS
280
     0
  9
$JOINSTYLE
280
     0
  9
$LWDISPLAY
290
     0
  9
$INSUNITS
 70
     4
  9
$HYPERLINKBASE
  1

  9
$STYLESHEET
  1

  9
$XEDIT
290
     1
  9
$CEPSNTYPE
380
     0
  9
$PSTYLEMODE
290
     1
  9
$FINGERPRINTGUID
  2
{d6f5d390-54f8-4007-98f5-5c06d94a3306}
  9
$VERSIONGUID
  2
{FAEB1C32-E019-11D5-929B-00C0DF256EC4}
  9
$EXTNAMES
290
     1
  9
$PSVPSCALE
 40
0.0
  9
$OLESTARTUP
290
     0
  9
$SORTENTS
280
   127
  9
$INDEXCTL
280
     0
  9
$HIDETEXT
280
     1
  9
$XCLIPFRAME
280
     2
  9
$HALOGAP
280
     0
  9
$OBSCOLOR
 70
   257
  9
$OBSLTYPE
280
     0
  9
$INTERSECTIONDISPLAY
280
     0
  9
$INTERSECTIONCOLOR
 70
   257
  9
$DIMASSOC
280
     2
  9
$PROJECTNAME
  1

  9
$CAMERADISPLAY
290
     0
  9
$LENSLENGTH
 40
50.0
  9
$CAMERAHEIGHT
 40
0.0
  9
$STEPSPERSEC
 40
2.0
  9
$STEPSIZE
 40
6.0
  9
$3DDWFPREC
 40
2.0
  9
$PSOLWIDTH
 40
5.0
  9
$PSOLHEIGHT
 40
80.0
  9
$LOFTANG1
 40
1.570796326794897
  9
$LOFTANG2
 40
1.570796326794897
  9
$LOFTMAG1
 40
0.0
  9
$LOFTMAG2
 40
0.0
  9
$LOFTPARAM
 70
     7
  9
$LOFTNORMALS
280
     1
  9
$LATITUDE
 40
37.795
  9
$LONGITUDE
 40
-122.394
  9
$NORTHDIRECTION
 40
0.0
  9
$TIMEZONE
 70
 -8000
  9
$LIGHTGLYPHDISPLAY
280
     1
  9
$TILEMODELIGHTSYNCH
280
     1
  9
$CMATERIAL
347
44
  9
$SOLIDHIST
280
     0
  9
$SHOWHIST
280
     1
  9
$DWFFRAME
280
     2
  9
$DGNFRAME
280
     2
  9
$REALWORLDSCALE
290
     1
  9
$INTERFERECOLOR
 62
   256
  9
$CSHADOW
280
     0
  9
$SHADOWPLANELOCATION
 40
0.0
  0
ENDSEC
  0
SECTION
  2
CLASSES
  0
CLASS
  1
ACDBDICTIONARYWDFLT
  2
AcDbDictionaryWithDefault
  3
ObjectDBX Classes
 90
        0
 91
        3
280
     0
281
     0
  0
CLASS
  1
VISUALSTYLE
  2
AcDbVisualStyle
  3
ObjectDBX Classes
 90
     4095
 91
        3
280
     0
281
     0
  0
CLASS
  1
MATERIAL
  2
AcDbMaterial
  3
ObjectDBX Classes
 90
     1153
 91
        3
280
     0
281
     0
  0
CLASS
  1
SCALE
  2
AcDbScale
  3
ObjectDBX Classes
 90
     1153
 91
        3
280
     0
281
     0
  0
CLASS
  1
TABLESTYLE
  2
AcDbTableStyle
  3
ObjectDBX Classes
 90
     4095
 91
        3
280
     0
281
     0
  0
CLASS
  1
MLEADERSTYLE
  2
AcDbMLeaderStyle
  3
ACDB_MLEADERSTYLE_CLASS
 90
     4095
 91
        3
280
     0
281
     0
  0
CLASS
  1
SUN
  2
AcDbSun
  3
SCENEOE
 90
     1153
 91
        3
280
     0
281
     0
  0
CLASS
  1
DICTIONARYVAR
  2
AcDbDictionaryVar
  3
ObjectDBX Classes
 90
        0
 91
        3
280
     0
281
     0
  0
CLASS
  1
CELLSTYLEMAP
  2
AcDbCellStyleMap
  3
ObjectDBX Classes
 90
     1152
 91
        3
280
     0
281
     0
  0
ENDSEC
  0
SECTION
  2
TABLES
  0
TABLE
  2
VPORT
  5
8
330
0
100
AcDbSymbolTable
 70
     1
  0
VPORT
  5
29
330
8
100
AcDbSymbolTableRecord
100
AcDbViewportTableRecord
  2
*Active
 70
     0
 10
0.0
 20
0.0
 11
1.0
 21
1.0
 12
151.4998911674896
 22
108.0008027704874
 13
0.0
 23
0.0
 14
10.0
 24
10.0
 15
10.0
 25
10.0
 16
0.0
 26
0.0
 36
1.0
 17
0.0
 27
0.0
 37
0.0
 40
237.6017660950723
 41
1.402766343222857
 42
50.0
 43
0.0
 44
0.0
 50
0.0
 51
0.0
 71
     0
 72
 10000
 73
     1
 74
     3
 75
     0
 76
     0
 77
     0
 78
     0
281
     0
 65
     1
110
0.0
120
0.0
130
0.0
111
1.0
121
0.0
131
0.0
112
0.0
122
1.0
132
0.0
 79
     0
146
0.0
348
2F
 60
     3
 61
     5
292
     1
282
     1
141
0.0
142
0.0
 63
   250
361
5D
  0
ENDTAB
  0
TABLE
  2
LTYPE
  5
5
330
0
100
AcDbSymbolTable
 70
     2
  0
LTYPE
  5
14
330
5
100
AcDbSymbolTableRecord
100
AcDbLinetypeTableRecord
  2
ByBlock
 70
     0
  3

 72
    65
 73
     0
 40
0.0
  0
LTYPE
  5
15
330
5
100
AcDbSymbolTableRecord
100
AcDbLinetypeTableRecord
  2
ByLayer
 70
     0
  3

 72
    65
 73
     0
 40
0.0
  0
LTYPE
  5
16
330
5
100
AcDbSymbolTableRecord
100
AcDbLinetypeTableRecord
  2
Continuous
 70
     0
  3
Solid line
 72
    65
 73
     0
 40
0.0
  0
LTYPE
  5
5F
330
5
100
AcDbSymbolTableRecord
100
AcDbLinetypeTableRecord
  2
UserDefined01
 70
     0
  3
----------------                
 72
    65
 73
     2
 40
0.7055555449591743
 49
0.3527777724795871
 74
     0
 49
-0.3527777724795871
 74
     0
  0
ENDTAB
  0
TABLE
  2
LAYER
  5
2
330
0
100
AcDbSymbolTable
 70
     4
  0
LAYER
  5
10
330
2
100
AcDbSymbolTableRecord
100
AcDbLayerTableRecord
  2
0
 70
     0
 62
     7
  6
Continuous
370
    -3
390
F
347
46
348
0
  0
LAYER
  5
60
330
2
100
AcDbSymbolTableRecord
100
AcDbLayerTableRecord
  2
外枠
 70
     0
 62
     7
  6
Continuous
370
    -3
390
F
347
46
348
0
  0
LAYER
  5
61
330
2
100
AcDbSymbolTableRecord
100
AcDbLayerTableRecord
  2
レイヤー_1
 70
     0
 62
     7
  6
Continuous
370
    -3
390
F
347
46
348
0
  0
LAYER
  5
62
330
2
100
AcDbSymbolTableRecord
100
AcDbLayerTableRecord
  2
レイヤー_2
 70
     0
 62
     7
  6
Continuous
370
    -3
390
F
347
46
348
0
  0
ENDTAB
  0
TABLE
  2
STYLE
  5
3
330
0
100
AcDbSymbolTable
 70
     2
  0
STYLE
  5
11
330
3
100
AcDbSymbolTableRecord
100
AcDbTextStyleTableRecord
  2
Standard
 70
     0
 40
0.0
 41
1.0
 50
0.0
 71
     0
 42
2.5
  3

  4

  0
STYLE
  5
5E
330
3
100
AcDbSymbolTableRecord
100
AcDbTextStyleTableRecord
  2
MS Gothic
 70
     0
 40
1.0
 41
1.0
 50
0.0
 71
     0
 42
2.5
  3
msgothic.ttc
  4

1001
ACAD
1000
MS Gothic
1071
    32817
  0
ENDTAB
  0
TABLE
  2
VIEW
  5
6
330
0
100
AcDbSymbolTable
 70
     0
  0
ENDTAB
  0
TABLE
  2
UCS
  5
7
330
0
100
AcDbSymbolTable
 70
     0
  0
ENDTAB
  0
TABLE
  2
APPID
  5
9
330
0
100
AcDbSymbolTable
 70
     1
  0
APPID
  5
12
330
9
100
AcDbSymbolTableRecord
100
AcDbRegAppTableRecord
  2
ACAD
 70
     0
  0
ENDTAB
  0
TABLE
  2
DIMSTYLE
  5
A
330
0
100
AcDbSymbolTable
 70
     1
100
AcDbDimStyleTable
  0
DIMSTYLE
105
27
330
A
100
AcDbSymbolTableRecord
100
AcDbDimStyleTableRecord
  2
ISO-25
 70
     0
 41
2.5
 42
0.625
 43
3.75
 44
1.25
 73
     0
 74
     0
 77
     1
 78
     8
140
2.5
141
2.5
143
0.03937007874016
147
0.625
171
     3
172
     1
178
     0
271
     2
272
     2
274
     3
278
    44
283
     0
284
     8
340
11
  0
ENDTAB
  0
TABLE
  2
BLOCK_RECORD
  5
1
330
0
100
AcDbSymbolTable
 70
     1
  0
BLOCK_RECORD
  5
1F
330
1
100
AcDbSymbolTableRecord
100
AcDbBlockTableRecord
  2
*Model_Space
340
22
 70
     0
280
     1
281
     0
  0
BLOCK_RECORD
  5
1B
330
1
100
AcDbSymbolTableRecord
100
AcDbBlockTableRecord
  2
*Paper_Space
340
1E
 70
     0
280
     1
281
     0
  0
BLOCK_RECORD
  5
23
330
1
100
AcDbSymbolTableRecord
100
AcDbBlockTableRecord
  2
*Paper_Space0
340
26
 70
     0
280
     1
281
     0
  0
ENDTAB
  0
ENDSEC
  0
SECTION
  2
BLOCKS
  0
BLOCK
  5
20
330
1F
100
AcDbEntity
  8
0
100
AcDbBlockBegin
  2
*Model_Space
 70
     0
 10
0.0
 20
0.0
 30
0.0
  3
*Model_Space
  1

  0
ENDBLK
  5
21
330
1F
100
AcDbEntity
  8
0
100
AcDbBlockEnd
  0
BLOCK
  5
1C
330
1B
100
AcDbEntity
 67
     1
  8
0
100
AcDbBlockBegin
  2
*Paper_Space
 70
     0
 10
0.0
 20
0.0
 30
0.0
  3
*Paper_Space
  1

  0
ENDBLK
  5
1D
330
1B
100
AcDbEntity
 67
     1
  8
0
100
AcDbBlockEnd
  0
BLOCK
  5
24
330
23
100
AcDbEntity
  8
0
100
AcDbBlockBegin
  2
*Paper_Space0
 70
     0
 10
0.0
 20
0.0
 30
0.0
  3
*Paper_Space0
  1

  0
ENDBLK
  5
25
330
23
100
AcDbEntity
  8
0
100
AcDbBlockEnd
  0
ENDSEC
  0
SECTION
  2
ENTITIES
  0
LWPOLYLINE
  5
63
330
1F
100
AcDbEntity
  8
外枠
  6
Continuous
 62
   250
420
  2367521
370
   100
100
AcDbPolyline
 90
        5
 70
     0
 43
0.0
 10
281.9999662644599
 20
13.29407825637392
 10
20.99981607051935
 20
13.29407825637392
 10
20.99981607051935
 20
193.0018900389566
 10
281.9999662644599
 20
193.0018900389566
 10
281.9999662644599
 20
13.29407825637392
  0
LINE
  5
64
330
1F
100
AcDbEntity
  8
外枠
  6
Continuous
 62
   250
420
  2367521
370
    25
100
AcDbLine
 10
223.3097080177524
 20
174.0786160074276
 30
0.0
 11
281.9999232007669
 21
174.0786160074276
 31
0.0
  0
LINE
  5
65
330
1F
100
AcDbEntity
  8
外枠
  6
Continuous
 62
   250
420
  2367521
370
    25
100
AcDbLine
 10
223.3097080177524
 20
50.37109023844297
 30
0.0
 11
281.9999232007669
 21
50.37109023844297
 31
0.0
  0
LINE
  5
66
330
1F
100
AcDbEntity
  8
外枠
  6
Continuous
 62
   250
420
  2367521
370
    25
100
AcDbLine
 10
223.3097080177524
 20
36.25997933925949
 30
0.0
 11
281.9999232007669
 21
36.25997933925949
 31
0.0
  0
LINE
  5
67
330
1F
100
AcDbEntity
  8
外枠
  6
Continuous
 62
   250
420
  2367521
370
    50
100
AcDbLine
 10
223.0158413772006
 20
193.3637327187979
 30
0.0
 11
223.0158413772006
 21
13.29396655992039
 31
0.0
  0
TEXT
  5
68
330
1F
100
AcDbEntity
  8
外枠
  6
Continuous
 62
   250
420
  2367521
100
AcDbText
 10
224.7190965599536
 20
186.6888051931772
 30
0.0
 40
2.688166626294454
  1
品名：
 41
0.974166170756022
  7
MS Gothic
100
AcDbText
  0
TEXT
  5
69
330
1F
100
AcDbEntity
  8
外枠
  6
Continuous
 62
   250
420
  2367521
100
AcDbText
 10
224.7190965599536
 20
168.1080059455944
 30
0.0
 40
2.688166626294454
  1
仕様：
 41
0.9978878657023111
  7
MS Gothic
100
AcDbText
  0
TEXT
  5
6A
330
1F
100
AcDbEntity
  8
外枠
  6
Continuous
 62
   250
420
  2367521
100
AcDbText
 10
224.7190965599536
 20
44.16660664327048
 30
0.0
 40
2.688166626294454
  1
縮尺：
 41
0.9939999262491861
  7
MS Gothic
100
AcDbText
  0
TEXT
  5
6B
330
1F
100
AcDbEntity
  8
外枠
  6
Continuous
 62
   250
420
  2367521
100
AcDbText
 10
250.2379519709696
 20
40.59738467878129
 30
0.0
 40
2.150533301035563
  1
1/1
 41
1.000003814697266
  7
MS Gothic
100
AcDbText
  0
TEXT
  5
6C
330
1F
100
AcDbEntity
  8
外枠
  6
Continuous
 62
   250
420
  2367521
100
AcDbText
 10
232.7757967427735
 20
181.9845273775436
 30
0.0
 40
2.688166626294454
  1
アドロック105B
 41
1.093959372384208
  7
MS Gothic
100
AcDbText
  0
TEXT
  5
6D
330
1F
100
AcDbEntity
  8
外枠
  6
Continuous
 62
   250
420
  2367521
100
AcDbText
 10
226.1633020978884
 20
24.25683874973963
 30
0.0
 40
2.553758294979732
  1
ヤスダインテリアサプライ株式会社
 41
1.0194908945184
  7
MS Gothic
100
AcDbText
  0
TEXT
  5
6E
330
1F
100
AcDbEntity
  8
外枠
  6
Continuous
 62
   250
420
  2367521
100
AcDbText
 10
227.7635273953072
 20
161.7763665048245
 30
0.0
 40
2.150533301035563
  1
材質
 41
1.028502464294433
  7
MS Gothic
100
AcDbText
  0
TEXT
  5
6F
330
1F
100
AcDbEntity
  8
外枠
  6
Continuous
 62
   250
420
  2367521
100
AcDbText
 10
232.7757967427735
 20
156.199681315683
 30
0.0
 40
2.016124969720841
  1
アルミ押出形材（A6063S-T5）/
 41
1.030580357142857
  7
MS Gothic
100
AcDbText
  0
TEXT
  5
70
330
1F
100
AcDbEntity
  8
外枠
  6
Continuous
 62
   250
420
  2367521
100
AcDbText
 10
232.7757967427735
 20
151.9663480459279
 30
0.0
 40
2.016124969720841
  1
シルバー仕上(アルマイト)
 41
1.052132924397786
  7
MS Gothic
100
AcDbText
  0
HATCH
  5
71
330
1F
100
AcDbEntity
  8
レイヤー_1
  6
Continuous
 62
     7
420
 16777215
370
    50
100
AcDbHatch
 10
0.0
 20
0.0
 30
0.0
210
0.0
220
0.0
230
1.0
  2
SOLID
 70
     1
 71
     0
 91
        1
 92
        3
 72
     0
 73
     1
 93
      248
 10
140.2319098710602
 20
104.1000934649209
 10
130.6762163669757
 20
104.8042386739366
 10
114.6759873863549
 20
104.8042386739366
 10
114.6763318958983
 20
107.5544906569646
 10
114.6879590929893
 20
107.7845046068251
 10
114.7220332400199
 20
108.0078867479743
 10
114.7774669787436
 20
108.223506658473
 10
114.8531191212977
 20
108.4302339163817
 10
114.9478484798197
 20
108.6269165679146
 10
115.0605353982933
 20
108.8124241911323
 10
115.190038688856
 20
108.9856478959417
 10
115.3352386954915
 20
109.1454357285572
 10
115.4949942303372
 20
109.2906680329624
 10
115.6681748714537
 20
109.4202036212947
 10
115.8536609628249
 20
109.5329120716148
 10
116.0503113165881
 20
109.6276737279065
 10
116.2570062767271
 20
109.7033474023071
 10
116.4726046553794
 20
109.758791906954
 10
116.6959760306054
 20
109.7928983517543
 10
116.926000746389
 20
109.804514782922
 10
117.1761146749244
 20
109.804514782922
 10
117.1761146749244
 20
110.5044182181842
 10
114.1760932729044
 20
110.5044182181842
 10
102.1760076648247
 20
106.6048178027106
 10
102.6758910123519
 20
103.6047964006906
 10
106.176161803289
 20
103.6047964006906
 10
106.176161803289
 20
106.5473170067263
 10
112.0040467289194
 20
108.4226762382726
 10
112.0141989945275
 20
108.4263581840181
 10
112.0244373875216
 20
108.4298678749918
 10
112.034740376055
 20
108.4331837793474
 10
112.0451402578975
 20
108.4362951311616
 10
112.0555939693562
 20
108.4392019304344
 10
112.0661445741239
 20
108.4418934112424
 10
112.0767705403543
 20
108.4443803395091
 10
112.0874718680473
 20
108.4466196515415
 10
112.0982700890494
 20
108.4486436451092
 10
112.1091436715142
 20
108.4504092565193
 10
112.1201033813648
 20
108.4519272516951
 10
112.1311492186012
 20
108.4531868647132
 10
112.1422811832235
 20
108.4541880955739
 10
112.1534992752317
 20
108.4549094124304
 10
112.1648034946257
 20
108.4553400493597
 10
112.1762046073288
 20
108.455490772285
 10
112.1762046073288
 20
108.455490772285
 10
112.2272889130666
 20
108.4529069507092
 10
112.2768767554751
 20
108.4453277407536
 10
112.3247743479361
 20
108.4329899927292
 10
112.3706802445991
 20
108.4161843865634
 10
112.4143898929227
 20
108.3951154747976
 10
112.4556018470563
 20
108.3700631714358
 10
112.4940900226122
 20
108.3412750927124
 10
112.5295960374327
 20
108.3089988548616
 10
112.5618722752834
 20
108.2734928400411
 10
112.5906603540069
 20
108.2350046644852
 10
112.6157126573687
 20
108.1937819444283
 10
112.6367708032113
 20
108.1500938279512
 10
112.6535979412236
 20
108.1041663994418
 10
112.6659249233247
 20
108.056279572904
 10
112.6735041332803
 20
108.0066701986491
 10
112.6760879548561
 20
107.9555966588345
 10
112.6760879548561
 20
103.6047964006906
 10
116.4261173988618
 20
103.6047964006906
 10
116.4274093096497
 20
103.6302793409818
 10
116.4311881487043
 20
103.6550301984931
 10
116.4373462567932
 20
103.678930548069
 10
116.4457436769145
 20
103.7018619645541
 10
116.4562619839126
 20
103.7236844909461
 10
116.4687719867086
 20
103.7442797020897
 10
116.4831552601471
 20
103.7635184069061
 10
116.499271847226
 20
103.7812714143163
 10
116.5170033227898
 20
103.7974095332417
 10
116.5362312616829
 20
103.8118035726034
 10
116.5568264728265
 20
103.8243351072459
 10
116.5786597651418
 20
103.8348749460905
 10
116.6016127134733
 20
103.8432938980582
 10
116.6255453608189
 20
103.8494627720704
 10
116.6503500479464
 20
103.8532631429714
 10
116.6758868178537
 20
103.8545550537593
 10
116.6758868178537
 20
103.8545550537593
 10
116.7014989492236
 20
103.8532523770482
 10
116.7263251681975
 20
103.8494735379936
 10
116.7503224110826
 20
103.8433046639814
 10
116.7732968912605
 20
103.8348857120137
 10
116.7951732472688
 20
103.8243351072459
 10
116.8157899902589
 20
103.8118035726034
 10
116.8350502269216
 20
103.7974095332417
 10
116.8528032343319
 20
103.7812714143163
 10
116.868930587334
 20
103.7635184069061
 10
116.8833246266958
 20
103.7442797020897
 10
116.8958453954151
 20
103.7236844909461
 10
116.9063637024131
 20
103.7018619645541
 10
116.9147611225344
 20
103.6789413139923
 10
116.9209299965466
 20
103.6550301984931
 10
116.9247088356012
 20
103.6302685750585
 10
116.926000746389
 20
103.6047964006906
 10
119.4257835254151
 20
103.6047964006906
 10
119.427075436203
 20
103.6302793409818
 10
119.4308650411808
 20
103.6550301984931
 10
119.4370446811162
 20
103.678930548069
 10
119.4454743990072
 20
103.7018619645541
 10
119.4560034719285
 20
103.7236844909461
 10
119.468535006571
 20
103.7442797020897
 10
119.4829398118559
 20
103.7635184069061
 10
119.4990779307813
 20
103.7812714143163
 10
119.5168309381916
 20
103.7974095332417
 10
119.5360588770846
 20
103.8118035726034
 10
119.5566540882282
 20
103.8243351072459
 10
119.5784766146203
 20
103.8348749460905
 10
119.6014080311054
 20
103.8432938980582
 10
119.6253191466046
 20
103.8494627720704
 10
119.6500700041158
 20
103.8532631429714
 10
119.675552944407
 20
103.8545550537593
 10
119.675552944407
 20
103.8545550537593
 10
119.7012081394698
 20
103.8532523770482
 10
119.7261097199064
 20
103.8494735379936
 10
119.7501284946379
 20
103.8433046639814
 10
119.7731245066623
 20
103.8348857120137
 10
119.7950008626706
 20
103.8243351072459
 10
119.8156176056606
 20
103.8118035726034
 10
119.8348563104769
 20
103.7974095332417
 10
119.8525985519639
 20
103.7812714143163
 10
119.8687259049661
 20
103.7635184069061
 10
119.8830876465581
 20
103.7442797020897
 10
119.8955761175077
 20
103.7236844909461
 10
119.9060836585825
 20
103.7018619645541
 10
119.9144703127806
 20
103.6789413139923
 10
119.9206068890231
 20
103.6550301984931
 10
119.9243857280777
 20
103.6302685750585
 10
119.9256668729423
 20
103.6047964006906
 10
122.425804927435
 20
103.6047964006906
 10
122.4270968382229
 20
103.6302793409818
 10
122.4308864432007
 20
103.6550301984931
 10
122.4370660831361
 20
103.678930548069
 10
122.4454850351039
 20
103.7018619645541
 10
122.4560248739484
 20
103.7236844909461
 10
122.4685564085909
 20
103.7442797020897
 10
122.4829504479526
 20
103.7635184069061
 10
122.499088566878
 20
103.7812714143163
 10
122.5168415742883
 20
103.7974095332417
 10
122.5360802791046
 20
103.8118035726034
 10
122.5566754902482
 20
103.8243351072459
 10
122.5785087825635
 20
103.8348749460905
 10
122.6014294331253
 20
103.8432938980582
 10
122.6253405486245
 20
103.8494627720704
 10
122.6500914061358
 20
103.8532631429714
 10
122.6755743464269
 20
103.8545550537593
 10
122.6755743464269
 20
103.8545550537593
 10
122.7012295414897
 20
103.8532523770482
 10
122.7261311219263
 20
103.8494735379936
 10
122.7501391307346
 20
103.8433046639814
 10
122.7731459086822
 20
103.8348857120137
 10
122.7950222646905
 20
103.8243351072459
 10
122.8156390076805
 20
103.8118035726034
 10
122.8348884784201
 20
103.7974095332417
 10
122.8526199539839
 20
103.7812714143163
 10
122.8687365410628
 20
103.7635184069061
 10
122.883109048578
 20
103.7442797020897
 10
122.8956082854509
 20
103.7236844909461
 10
122.9061050606025
 20
103.7018619645541
 10
122.9144917148005
 20
103.6789413139923
 10
122.920628291043
 20
103.6550301984931
 10
122.9244071300976
 20
103.6302685750585
 10
122.9256882749622
 20
103.6047964006906
 10
125.4258263294549
 20
103.6047964006906
 10
125.4271182402428
 20
103.6302793409818
 10
125.4309186111439
 20
103.6550301984931
 10
125.437087485156
 20
103.678930548069
 10
125.4455064371238
 20
103.7018619645541
 10
125.4560462759683
 20
103.7236844909461
 10
125.4685778106108
 20
103.7442797020897
 10
125.4829718499726
 20
103.7635184069061
 10
125.4991207348212
 20
103.7812714143163
 10
125.5168629763082
 20
103.7974095332417
 10
125.5361016811245
 20
103.8118035726034
 10
125.5566968922681
 20
103.8243351072459
 10
125.5785194186602
 20
103.8348749460905
 10
125.6014508351452
 20
103.8432938980582
 10
125.6253619506444
 20
103.8494627720704
 10
125.6501128081557
 20
103.8532631429714
 10
125.6755957484468
 20
103.8545550537593
 10
125.6755957484468
 20
103.8545550537593
 10
125.7012509435097
 20
103.8532523770482
 10
125.726141758023
 20
103.8494735379936
 10
125.7501605327545
 20
103.8433046639814
 10
125.7731780766254
 20
103.8348857120137
 10
125.7950544326337
 20
103.8243351072459
 10
125.8156604097005
 20
103.8118035726034
 10
125.8348991145168
 20
103.7974095332417
 10
125.8526413560038
 20
103.7812714143163
 10
125.8687579430827
 20
103.7635184069061
 10
125.883130450598
 20
103.7442797020897
 10
125.8956189215476
 20
103.7236844909461
 10
125.9061264626224
 20
103.7018619645541
 10
125.9145131168205
 20
103.6789413139923
 10
125.9206496930629
 20
103.6550301984931
 10
125.9244285321175
 20
103.6302685750585
 10
125.9257096769822
 20
103.6047964006906
 10
128.4258477314749
 20
103.6047964006906
 10
128.4272042378022
 20
103.6302685750585
 10
128.4310584383194
 20
103.6550194325698
 10
128.4372703760245
 20
103.6788982502993
 10
128.4457216257619
 20
103.7018081349379
 10
128.4563045282994
 20
103.7236091294835
 10
128.4688683607116
 20
103.7441720428574
 10
128.4832839319198
 20
103.763378449904
 10
128.4994435826916
 20
103.7810991595446
 10
128.5172181219484
 20
103.7972049807003
 10
128.5364568267647
 20
103.8115667222923
 10
128.5570628038315
 20
103.8240767250884
 10
128.5788960961468
 20
103.8345842661632
 10
128.6018275126318
 20
103.8429816862845
 10
128.625738628131
 20
103.8491397943734
 10
128.6504894856423
 20
103.852918633428
 10
128.6759724259335
 20
103.8542105442159
 10
128.6759724259335
 20
103.8542105442159
 10
128.7015091958407
 20
103.8529078675048
 10
128.7262815851985
 20
103.8491397943734
 10
128.7502034666209
 20
103.8429924522077
 10
128.7731456490292
 20
103.8345950320864
 10
128.794957409498
 20
103.8240659591651
 10
128.8155310887952
 20
103.8115667222923
 10
128.8347590276882
 20
103.7972049807003
 10
128.852490503252
 20
103.7810991595446
 10
128.8686178562542
 20
103.763378449904
 10
128.8830118956159
 20
103.7441720428574
 10
128.8955434302584
 20
103.7236091294835
 10
128.9061048009494
 20
103.7018081349379
 10
128.9145668166101
 20
103.6789090162226
 10
128.9208002861617
 20
103.6550086666466
 10
128.9246760185253
 20
103.6302685750585
 10
128.9260863544688
 20
103.6047964006906
 10
140.6760580340132
 20
103.6047964006906
 10
140.6737864242112
 20
103.6519942081415
 10
140.6671115518071
 20
103.6979647003439
 10
140.6562595011888
 20
103.7424817929099
 10
140.6414348248978
 20
103.7853732310679
 10
140.6228528413986
 20
103.826423696353
 10
140.600728869156
 20
103.8654394021473
 10
140.5752782266346
 20
103.9022157959092
 10
140.546716232299
 20
103.936580622867
 10
140.5152474386907
 20
103.9683077986329
 10
140.4811086961207
 20
103.9972035365887
 10
140.4445045571305
 20
104.0230740501162
 10
140.4056395742616
 20
104.0457255525972
 10
140.3647290659784
 20
104.0649427255671
 10
140.3219883507457
 20
104.0805533142541
 10
140.2776542788746
 20
104.0923312342703
 97
        0
 75
     1
 76
     1
 98
        0
  0
LWPOLYLINE
  5
72
330
1F
100
AcDbEntity
  8
レイヤー_1
  6
Continuous
 62
     7
420
 16777215
370
    50
100
AcDbPolyline
 90
      249
 70
     0
 43
0.0
 10
140.2319098710602
 20
104.1000934649209
 10
130.6762163669757
 20
104.8042386739366
 10
114.6759873863549
 20
104.8042386739366
 10
114.6763318958983
 20
107.5544906569646
 10
114.6879590929893
 20
107.7845046068251
 10
114.7220332400199
 20
108.0078867479743
 10
114.7774669787436
 20
108.223506658473
 10
114.8531191212977
 20
108.4302339163817
 10
114.9478484798197
 20
108.6269165679146
 10
115.0605353982933
 20
108.8124241911323
 10
115.190038688856
 20
108.9856478959417
 10
115.3352386954915
 20
109.1454357285572
 10
115.4949942303372
 20
109.2906680329624
 10
115.6681748714537
 20
109.4202036212947
 10
115.8536609628249
 20
109.5329120716148
 10
116.0503113165881
 20
109.6276737279065
 10
116.2570062767271
 20
109.7033474023071
 10
116.4726046553794
 20
109.758791906954
 10
116.6959760306054
 20
109.7928983517543
 10
116.926000746389
 20
109.804514782922
 10
117.1761146749244
 20
109.804514782922
 10
117.1761146749244
 20
110.5044182181842
 10
114.1760932729044
 20
110.5044182181842
 10
102.1760076648247
 20
106.6048178027106
 10
102.6758910123519
 20
103.6047964006906
 10
106.176161803289
 20
103.6047964006906
 10
106.176161803289
 20
106.5473170067263
 10
112.0040467289194
 20
108.4226762382726
 10
112.0141989945275
 20
108.4263581840181
 10
112.0244373875216
 20
108.4298678749918
 10
112.034740376055
 20
108.4331837793474
 10
112.0451402578975
 20
108.4362951311616
 10
112.0555939693562
 20
108.4392019304344
 10
112.0661445741239
 20
108.4418934112424
 10
112.0767705403543
 20
108.4443803395091
 10
112.0874718680473
 20
108.4466196515415
 10
112.0982700890494
 20
108.4486436451092
 10
112.1091436715142
 20
108.4504092565193
 10
112.1201033813648
 20
108.4519272516951
 10
112.1311492186012
 20
108.4531868647132
 10
112.1422811832235
 20
108.4541880955739
 10
112.1534992752317
 20
108.4549094124304
 10
112.1648034946257
 20
108.4553400493597
 10
112.1762046073288
 20
108.455490772285
 10
112.1762046073288
 20
108.455490772285
 10
112.2272889130666
 20
108.4529069507092
 10
112.2768767554751
 20
108.4453277407536
 10
112.3247743479361
 20
108.4329899927292
 10
112.3706802445991
 20
108.4161843865634
 10
112.4143898929227
 20
108.3951154747976
 10
112.4556018470563
 20
108.3700631714358
 10
112.4940900226122
 20
108.3412750927124
 10
112.5295960374327
 20
108.3089988548616
 10
112.5618722752834
 20
108.2734928400411
 10
112.5906603540069
 20
108.2350046644852
 10
112.6157126573687
 20
108.1937819444283
 10
112.6367708032113
 20
108.1500938279512
 10
112.6535979412236
 20
108.1041663994418
 10
112.6659249233247
 20
108.056279572904
 10
112.6735041332803
 20
108.0066701986491
 10
112.6760879548561
 20
107.9555966588345
 10
112.6760879548561
 20
103.6047964006906
 10
116.4261173988618
 20
103.6047964006906
 10
116.4274093096497
 20
103.6302793409818
 10
116.4311881487043
 20
103.6550301984931
 10
116.4373462567932
 20
103.678930548069
 10
116.4457436769145
 20
103.7018619645541
 10
116.4562619839126
 20
103.7236844909461
 10
116.4687719867086
 20
103.7442797020897
 10
116.4831552601471
 20
103.7635184069061
 10
116.499271847226
 20
103.7812714143163
 10
116.5170033227898
 20
103.7974095332417
 10
116.5362312616829
 20
103.8118035726034
 10
116.5568264728265
 20
103.8243351072459
 10
116.5786597651418
 20
103.8348749460905
 10
116.6016127134733
 20
103.8432938980582
 10
116.6255453608189
 20
103.8494627720704
 10
116.6503500479464
 20
103.8532631429714
 10
116.6758868178537
 20
103.8545550537593
 10
116.6758868178537
 20
103.8545550537593
 10
116.7014989492236
 20
103.8532523770482
 10
116.7263251681975
 20
103.8494735379936
 10
116.7503224110826
 20
103.8433046639814
 10
116.7732968912605
 20
103.8348857120137
 10
116.7951732472688
 20
103.8243351072459
 10
116.8157899902589
 20
103.8118035726034
 10
116.8350502269216
 20
103.7974095332417
 10
116.8528032343319
 20
103.7812714143163
 10
116.868930587334
 20
103.7635184069061
 10
116.8833246266958
 20
103.7442797020897
 10
116.8958453954151
 20
103.7236844909461
 10
116.9063637024131
 20
103.7018619645541
 10
116.9147611225344
 20
103.6789413139923
 10
116.9209299965466
 20
103.6550301984931
 10
116.9247088356012
 20
103.6302685750585
 10
116.926000746389
 20
103.6047964006906
 10
119.4257835254151
 20
103.6047964006906
 10
119.427075436203
 20
103.6302793409818
 10
119.4308650411808
 20
103.6550301984931
 10
119.4370446811162
 20
103.678930548069
 10
119.4454743990072
 20
103.7018619645541
 10
119.4560034719285
 20
103.7236844909461
 10
119.468535006571
 20
103.7442797020897
 10
119.4829398118559
 20
103.7635184069061
 10
119.4990779307813
 20
103.7812714143163
 10
119.5168309381916
 20
103.7974095332417
 10
119.5360588770846
 20
103.8118035726034
 10
119.5566540882282
 20
103.8243351072459
 10
119.5784766146203
 20
103.8348749460905
 10
119.6014080311054
 20
103.8432938980582
 10
119.6253191466046
 20
103.8494627720704
 10
119.6500700041158
 20
103.8532631429714
 10
119.675552944407
 20
103.8545550537593
 10
119.675552944407
 20
103.8545550537593
 10
119.7012081394698
 20
103.8532523770482
 10
119.7261097199064
 20
103.8494735379936
 10
119.7501284946379
 20
103.8433046639814
 10
119.7731245066623
 20
103.8348857120137
 10
119.7950008626706
 20
103.8243351072459
 10
119.8156176056606
 20
103.8118035726034
 10
119.8348563104769
 20
103.7974095332417
 10
119.8525985519639
 20
103.7812714143163
 10
119.8687259049661
 20
103.7635184069061
 10
119.8830876465581
 20
103.7442797020897
 10
119.8955761175077
 20
103.7236844909461
 10
119.9060836585825
 20
103.7018619645541
 10
119.9144703127806
 20
103.6789413139923
 10
119.9206068890231
 20
103.6550301984931
 10
119.9243857280777
 20
103.6302685750585
 10
119.9256668729423
 20
103.6047964006906
 10
122.425804927435
 20
103.6047964006906
 10
122.4270968382229
 20
103.6302793409818
 10
122.4308864432007
 20
103.6550301984931
 10
122.4370660831361
 20
103.678930548069
 10
122.4454850351039
 20
103.7018619645541
 10
122.4560248739484
 20
103.7236844909461
 10
122.4685564085909
 20
103.7442797020897
 10
122.4829504479526
 20
103.7635184069061
 10
122.499088566878
 20
103.7812714143163
 10
122.5168415742883
 20
103.7974095332417
 10
122.5360802791046
 20
103.8118035726034
 10
122.5566754902482
 20
103.8243351072459
 10
122.5785087825635
 20
103.8348749460905
 10
122.6014294331253
 20
103.8432938980582
 10
122.6253405486245
 20
103.8494627720704
 10
122.6500914061358
 20
103.8532631429714
 10
122.6755743464269
 20
103.8545550537593
 10
122.6755743464269
 20
103.8545550537593
 10
122.7012295414897
 20
103.8532523770482
 10
122.7261311219263
 20
103.8494735379936
 10
122.7501391307346
 20
103.8433046639814
 10
122.7731459086822
 20
103.8348857120137
 10
122.7950222646905
 20
103.8243351072459
 10
122.8156390076805
 20
103.8118035726034
 10
122.8348884784201
 20
103.7974095332417
 10
122.8526199539839
 20
103.7812714143163
 10
122.8687365410628
 20
103.7635184069061
 10
122.883109048578
 20
103.7442797020897
 10
122.8956082854509
 20
103.7236844909461
 10
122.9061050606025
 20
103.7018619645541
 10
122.9144917148005
 20
103.6789413139923
 10
122.920628291043
 20
103.6550301984931
 10
122.9244071300976
 20
103.6302685750585
 10
122.9256882749622
 20
103.6047964006906
 10
125.4258263294549
 20
103.6047964006906
 10
125.4271182402428
 20
103.6302793409818
 10
125.4309186111439
 20
103.6550301984931
 10
125.437087485156
 20
103.678930548069
 10
125.4455064371238
 20
103.7018619645541
 10
125.4560462759683
 20
103.7236844909461
 10
125.4685778106108
 20
103.7442797020897
 10
125.4829718499726
 20
103.7635184069061
 10
125.4991207348212
 20
103.7812714143163
 10
125.5168629763082
 20
103.7974095332417
 10
125.5361016811245
 20
103.8118035726034
 10
125.5566968922681
 20
103.8243351072459
 10
125.5785194186602
 20
103.8348749460905
 10
125.6014508351452
 20
103.8432938980582
 10
125.6253619506444
 20
103.8494627720704
 10
125.6501128081557
 20
103.8532631429714
 10
125.6755957484468
 20
103.8545550537593
 10
125.6755957484468
 20
103.8545550537593
 10
125.7012509435097
 20
103.8532523770482
 10
125.726141758023
 20
103.8494735379936
 10
125.7501605327545
 20
103.8433046639814
 10
125.7731780766254
 20
103.8348857120137
 10
125.7950544326337
 20
103.8243351072459
 10
125.8156604097005
 20
103.8118035726034
 10
125.8348991145168
 20
103.7974095332417
 10
125.8526413560038
 20
103.7812714143163
 10
125.8687579430827
 20
103.7635184069061
 10
125.883130450598
 20
103.7442797020897
 10
125.8956189215476
 20
103.7236844909461
 10
125.9061264626224
 20
103.7018619645541
 10
125.9145131168205
 20
103.6789413139923
 10
125.9206496930629
 20
103.6550301984931
 10
125.9244285321175
 20
103.6302685750585
 10
125.9257096769822
 20
103.6047964006906
 10
128.4258477314749
 20
103.6047964006906
 10
128.4272042378022
 20
103.6302685750585
 10
128.4310584383194
 20
103.6550194325698
 10
128.4372703760245
 20
103.6788982502993
 10
128.4457216257619
 20
103.7018081349379
 10
128.4563045282994
 20
103.7236091294835
 10
128.4688683607116
 20
103.7441720428574
 10
128.4832839319198
 20
103.763378449904
 10
128.4994435826916
 20
103.7810991595446
 10
128.5172181219484
 20
103.7972049807003
 10
128.5364568267647
 20
103.8115667222923
 10
128.5570628038315
 20
103.8240767250884
 10
128.5788960961468
 20
103.8345842661632
 10
128.6018275126318
 20
103.8429816862845
 10
128.625738628131
 20
103.8491397943734
 10
128.6504894856423
 20
103.852918633428
 10
128.6759724259335
 20
103.8542105442159
 10
128.6759724259335
 20
103.8542105442159
 10
128.7015091958407
 20
103.8529078675048
 10
128.7262815851985
 20
103.8491397943734
 10
128.7502034666209
 20
103.8429924522077
 10
128.7731456490292
 20
103.8345950320864
 10
128.794957409498
 20
103.8240659591651
 10
128.8155310887952
 20
103.8115667222923
 10
128.8347590276882
 20
103.7972049807003
 10
128.852490503252
 20
103.7810991595446
 10
128.8686178562542
 20
103.763378449904
 10
128.8830118956159
 20
103.7441720428574
 10
128.8955434302584
 20
103.7236091294835
 10
128.9061048009494
 20
103.7018081349379
 10
128.9145668166101
 20
103.6789090162226
 10
128.9208002861617
 20
103.6550086666466
 10
128.9246760185253
 20
103.6302685750585
 10
128.9260863544688
 20
103.6047964006906
 10
140.6760580340132
 20
103.6047964006906
 10
140.6737864242112
 20
103.6519942081415
 10
140.6671115518071
 20
103.6979647003439
 10
140.6562595011888
 20
103.7424817929099
 10
140.6414348248978
 20
103.7853732310679
 10
140.6228528413986
 20
103.826423696353
 10
140.600728869156
 20
103.8654394021473
 10
140.5752782266346
 20
103.9022157959092
 10
140.546716232299
 20
103.936580622867
 10
140.5152474386907
 20
103.9683077986329
 10
140.4811086961207
 20
103.9972035365887
 10
140.4445045571305
 20
104.0230740501162
 10
140.4056395742616
 20
104.0457255525972
 10
140.3647290659784
 20
104.0649427255671
 10
140.3219883507457
 20
104.0805533142541
 10
140.2776542788746
 20
104.0923312342703
 10
140.2319098710602
 20
104.1000934649209
  0
LWPOLYLINE
  5
73
330
1F
100
AcDbEntity
  8
レイヤー_1
  6
Continuous
 62
   250
420
  2367521
370
    25
100
AcDbPolyline
 90
      249
 70
     0
 43
0.0
 10
140.2319098710602
 20
104.1000934649209
 10
130.6762163669757
 20
104.8042386739366
 10
114.6759873863549
 20
104.8042386739366
 10
114.6763318958983
 20
107.5544906569646
 10
114.6879590929893
 20
107.7845046068251
 10
114.7220332400199
 20
108.0078867479743
 10
114.7774669787436
 20
108.223506658473
 10
114.8531191212977
 20
108.4302339163817
 10
114.9478484798197
 20
108.6269165679146
 10
115.0605353982933
 20
108.8124241911323
 10
115.190038688856
 20
108.9856478959417
 10
115.3352386954915
 20
109.1454357285572
 10
115.4949942303372
 20
109.2906680329624
 10
115.6681748714537
 20
109.4202036212947
 10
115.8536609628249
 20
109.5329120716148
 10
116.0503113165881
 20
109.6276737279065
 10
116.2570062767271
 20
109.7033474023071
 10
116.4726046553794
 20
109.758791906954
 10
116.6959760306054
 20
109.7928983517543
 10
116.926000746389
 20
109.804514782922
 10
117.1761146749244
 20
109.804514782922
 10
117.1761146749244
 20
110.5044182181842
 10
114.1760932729044
 20
110.5044182181842
 10
102.1760076648247
 20
106.6048178027106
 10
102.6758910123519
 20
103.6047964006906
 10
106.176161803289
 20
103.6047964006906
 10
106.176161803289
 20
106.5473170067263
 10
112.0040467289194
 20
108.4226762382726
 10
112.0141989945275
 20
108.4263581840181
 10
112.0244373875216
 20
108.4298678749918
 10
112.034740376055
 20
108.4331837793474
 10
112.0451402578975
 20
108.4362951311616
 10
112.0555939693562
 20
108.4392019304344
 10
112.0661445741239
 20
108.4418934112424
 10
112.0767705403543
 20
108.4443803395091
 10
112.0874718680473
 20
108.4466196515415
 10
112.0982700890494
 20
108.4486436451092
 10
112.1091436715142
 20
108.4504092565193
 10
112.1201033813648
 20
108.4519272516951
 10
112.1311492186012
 20
108.4531868647132
 10
112.1422811832235
 20
108.4541880955739
 10
112.1534992752317
 20
108.4549094124304
 10
112.1648034946257
 20
108.4553400493597
 10
112.1762046073288
 20
108.455490772285
 10
112.1762046073288
 20
108.455490772285
 10
112.2272889130666
 20
108.4529069507092
 10
112.2768767554751
 20
108.4453277407536
 10
112.3247743479361
 20
108.4329899927292
 10
112.3706802445991
 20
108.4161843865634
 10
112.4143898929227
 20
108.3951154747976
 10
112.4556018470563
 20
108.3700631714358
 10
112.4940900226122
 20
108.3412750927124
 10
112.5295960374327
 20
108.3089988548616
 10
112.5618722752834
 20
108.2734928400411
 10
112.5906603540069
 20
108.2350046644852
 10
112.6157126573687
 20
108.1937819444283
 10
112.6367708032113
 20
108.1500938279512
 10
112.6535979412236
 20
108.1041663994418
 10
112.6659249233247
 20
108.056279572904
 10
112.6735041332803
 20
108.0066701986491
 10
112.6760879548561
 20
107.9555966588345
 10
112.6760879548561
 20
103.6047964006906
 10
116.4261173988618
 20
103.6047964006906
 10
116.4274093096497
 20
103.6302793409818
 10
116.4311881487043
 20
103.6550301984931
 10
116.4373462567932
 20
103.678930548069
 10
116.4457436769145
 20
103.7018619645541
 10
116.4562619839126
 20
103.7236844909461
 10
116.4687719867086
 20
103.7442797020897
 10
116.4831552601471
 20
103.7635184069061
 10
116.499271847226
 20
103.7812714143163
 10
116.5170033227898
 20
103.7974095332417
 10
116.5362312616829
 20
103.8118035726034
 10
116.5568264728265
 20
103.8243351072459
 10
116.5786597651418
 20
103.8348749460905
 10
116.6016127134733
 20
103.8432938980582
 10
116.6255453608189
 20
103.8494627720704
 10
116.6503500479464
 20
103.8532631429714
 10
116.6758868178537
 20
103.8545550537593
 10
116.6758868178537
 20
103.8545550537593
 10
116.7014989492236
 20
103.8532523770482
 10
116.7263251681975
 20
103.8494735379936
 10
116.7503224110826
 20
103.8433046639814
 10
116.7732968912605
 20
103.8348857120137
 10
116.7951732472688
 20
103.8243351072459
 10
116.8157899902589
 20
103.8118035726034
 10
116.8350502269216
 20
103.7974095332417
 10
116.8528032343319
 20
103.7812714143163
 10
116.868930587334
 20
103.7635184069061
 10
116.8833246266958
 20
103.7442797020897
 10
116.8958453954151
 20
103.7236844909461
 10
116.9063637024131
 20
103.7018619645541
 10
116.9147611225344
 20
103.6789413139923
 10
116.9209299965466
 20
103.6550301984931
 10
116.9247088356012
 20
103.6302685750585
 10
116.926000746389
 20
103.6047964006906
 10
119.4257835254151
 20
103.6047964006906
 10
119.427075436203
 20
103.6302793409818
 10
119.4308650411808
 20
103.6550301984931
 10
119.4370446811162
 20
103.678930548069
 10
119.4454743990072
 20
103.7018619645541
 10
119.4560034719285
 20
103.7236844909461
 10
119.468535006571
 20
103.7442797020897
 10
119.4829398118559
 20
103.7635184069061
 10
119.4990779307813
 20
103.7812714143163
 10
119.5168309381916
 20
103.7974095332417
 10
119.5360588770846
 20
103.8118035726034
 10
119.5566540882282
 20
103.8243351072459
 10
119.5784766146203
 20
103.8348749460905
 10
119.6014080311054
 20
103.8432938980582
 10
119.6253191466046
 20
103.8494627720704
 10
119.6500700041158
 20
103.8532631429714
 10
119.675552944407
 20
103.8545550537593
 10
119.675552944407
 20
103.8545550537593
 10
119.7012081394698
 20
103.8532523770482
 10
119.7261097199064
 20
103.8494735379936
 10
119.7501284946379
 20
103.8433046639814
 10
119.7731245066623
 20
103.8348857120137
 10
119.7950008626706
 20
103.8243351072459
 10
119.8156176056606
 20
103.8118035726034
 10
119.8348563104769
 20
103.7974095332417
 10
119.8525985519639
 20
103.7812714143163
 10
119.8687259049661
 20
103.7635184069061
 10
119.8830876465581
 20
103.7442797020897
 10
119.8955761175077
 20
103.7236844909461
 10
119.9060836585825
 20
103.7018619645541
 10
119.9144703127806
 20
103.6789413139923
 10
119.9206068890231
 20
103.6550301984931
 10
119.9243857280777
 20
103.6302685750585
 10
119.9256668729423
 20
103.6047964006906
 10
122.425804927435
 20
103.6047964006906
 10
122.4270968382229
 20
103.6302793409818
 10
122.4308864432007
 20
103.6550301984931
 10
122.4370660831361
 20
103.678930548069
 10
122.4454850351039
 20
103.7018619645541
 10
122.4560248739484
 20
103.7236844909461
 10
122.4685564085909
 20
103.7442797020897
 10
122.4829504479526
 20
103.7635184069061
 10
122.499088566878
 20
103.7812714143163
 10
122.5168415742883
 20
103.7974095332417
 10
122.5360802791046
 20
103.8118035726034
 10
122.5566754902482
 20
103.8243351072459
 10
122.5785087825635
 20
103.8348749460905
 10
122.6014294331253
 20
103.8432938980582
 10
122.6253405486245
 20
103.8494627720704
 10
122.6500914061358
 20
103.8532631429714
 10
122.6755743464269
 20
103.8545550537593
 10
122.6755743464269
 20
103.8545550537593
 10
122.7012295414897
 20
103.8532523770482
 10
122.7261311219263
 20
103.8494735379936
 10
122.7501391307346
 20
103.8433046639814
 10
122.7731459086822
 20
103.8348857120137
 10
122.7950222646905
 20
103.8243351072459
 10
122.8156390076805
 20
103.8118035726034
 10
122.8348884784201
 20
103.7974095332417
 10
122.8526199539839
 20
103.7812714143163
 10
122.8687365410628
 20
103.7635184069061
 10
122.883109048578
 20
103.7442797020897
 10
122.8956082854509
 20
103.7236844909461
 10
122.9061050606025
 20
103.7018619645541
 10
122.9144917148005
 20
103.6789413139923
 10
122.920628291043
 20
103.6550301984931
 10
122.9244071300976
 20
103.6302685750585
 10
122.9256882749622
 20
103.6047964006906
 10
125.4258263294549
 20
103.6047964006906
 10
125.4271182402428
 20
103.6302793409818
 10
125.4309186111439
 20
103.6550301984931
 10
125.437087485156
 20
103.678930548069
 10
125.4455064371238
 20
103.7018619645541
 10
125.4560462759683
 20
103.7236844909461
 10
125.4685778106108
 20
103.7442797020897
 10
125.4829718499726
 20
103.7635184069061
 10
125.4991207348212
 20
103.7812714143163
 10
125.5168629763082
 20
103.7974095332417
 10
125.5361016811245
 20
103.8118035726034
 10
125.5566968922681
 20
103.8243351072459
 10
125.5785194186602
 20
103.8348749460905
 10
125.6014508351452
 20
103.8432938980582
 10
125.6253619506444
 20
103.8494627720704
 10
125.6501128081557
 20
103.8532631429714
 10
125.6755957484468
 20
103.8545550537593
 10
125.6755957484468
 20
103.8545550537593
 10
125.7012509435097
 20
103.8532523770482
 10
125.726141758023
 20
103.8494735379936
 10
125.7501605327545
 20
103.8433046639814
 10
125.7731780766254
 20
103.8348857120137
 10
125.7950544326337
 20
103.8243351072459
 10
125.8156604097005
 20
103.8118035726034
 10
125.8348991145168
 20
103.7974095332417
 10
125.8526413560038
 20
103.7812714143163
 10
125.8687579430827
 20
103.7635184069061
 10
125.883130450598
 20
103.7442797020897
 10
125.8956189215476
 20
103.7236844909461
 10
125.9061264626224
 20
103.7018619645541
 10
125.9145131168205
 20
103.6789413139923
 10
125.9206496930629
 20
103.6550301984931
 10
125.9244285321175
 20
103.6302685750585
 10
125.9257096769822
 20
103.6047964006906
 10
128.4258477314749
 20
103.6047964006906
 10
128.4272042378022
 20
103.6302685750585
 10
128.4310584383194
 20
103.6550194325698
 10
128.4372703760245
 20
103.6788982502993
 10
128.4457216257619
 20
103.7018081349379
 10
128.4563045282994
 20
103.7236091294835
 10
128.4688683607116
 20
103.7441720428574
 10
128.4832839319198
 20
103.763378449904
 10
128.4994435826916
 20
103.7810991595446
 10
128.5172181219484
 20
103.7972049807003
 10
128.5364568267647
 20
103.8115667222923
 10
128.5570628038315
 20
103.8240767250884
 10
128.5788960961468
 20
103.8345842661632
 10
128.6018275126318
 20
103.8429816862845
 10
128.625738628131
 20
103.8491397943734
 10
128.6504894856423
 20
103.852918633428
 10
128.6759724259335
 20
103.8542105442159
 10
128.6759724259335
 20
103.8542105442159
 10
128.7015091958407
 20
103.8529078675048
 10
128.7262815851985
 20
103.8491397943734
 10
128.7502034666209
 20
103.8429924522077
 10
128.7731456490292
 20
103.8345950320864
 10
128.794957409498
 20
103.8240659591651
 10
128.8155310887952
 20
103.8115667222923
 10
128.8347590276882
 20
103.7972049807003
 10
128.852490503252
 20
103.7810991595446
 10
128.8686178562542
 20
103.763378449904
 10
128.8830118956159
 20
103.7441720428574
 10
128.8955434302584
 20
103.7236091294835
 10
128.9061048009494
 20
103.7018081349379
 10
128.9145668166101
 20
103.6789090162226
 10
128.9208002861617
 20
103.6550086666466
 10
128.9246760185253
 20
103.6302685750585
 10
128.9260863544688
 20
103.6047964006906
 10
140.6760580340132
 20
103.6047964006906
 10
140.6737864242112
 20
103.6519942081415
 10
140.6671115518071
 20
103.6979647003439
 10
140.6562595011888
 20
103.7424817929099
 10
140.6414348248978
 20
103.7853732310679
 10
140.6228528413986
 20
103.826423696353
 10
140.600728869156
 20
103.8654394021473
 10
140.5752782266346
 20
103.9022157959092
 10
140.546716232299
 20
103.936580622867
 10
140.5152474386907
 20
103.9683077986329
 10
140.4811086961207
 20
103.9972035365887
 10
140.4445045571305
 20
104.0230740501162
 10
140.4056395742616
 20
104.0457255525972
 10
140.3647290659784
 20
104.0649427255671
 10
140.3219883507457
 20
104.0805533142541
 10
140.2776542788746
 20
104.0923312342703
 10
140.2319098710602
 20
104.1000934649209
  0
LINE
  5
74
330
1F
100
AcDbEntity
  8
レイヤー_1
  6
Continuous
 62
   250
420
  2367521
370
    13
100
AcDbLine
 10
102.1758461759762
 20
111.3048430786673
 30
0.0
 11
102.1758461759762
 21
116.3097054709498
 31
0.0
  0
LINE
  5
75
330
1F
100
AcDbEntity
  8
レイヤー_1
  6
Continuous
 62
   250
420
  2367521
370
    13
100
AcDbLine
 10
117.1759531860759
 20
115.8025874230104
 30
0.0
 11
102.4256155949681
 21
115.8025874230104
 31
0.0
  0
LINE
  5
76
330
1F
100
AcDbEntity
  8
レイヤー_1
  6
Continuous
 62
   250
420
  2367521
370
    13
100
AcDbLine
 10
117.1759531860759
 20
116.3097054709498
 30
0.0
 11
117.1759531860759
 21
111.3048430786673
 31
0.0
  0
LINE
  5
77
330
1F
100
AcDbEntity
  8
レイヤー_1
  6
Continuous
 62
   250
420
  2367521
370
    13
100
AcDbLine
 10
102.1758461759762
 20
102.6045990687069
 30
0.0
 11
102.1758461759762
 21
92.66050335216681
 31
0.0
  0
LINE
  5
78
330
1F
100
AcDbEntity
  8
レイヤー_1
  6
Continuous
 62
   250
420
  2367521
370
    13
100
AcDbLine
 10
140.676004204397
 20
93.16779365487795
 30
0.0
 11
102.4257232542004
 21
93.16779365487795
 31
0.0
  0
LINE
  5
79
330
1F
100
AcDbEntity
  8
レイヤー_1
  6
Continuous
 62
   250
420
  2367521
370
    13
100
AcDbLine
 10
140.676004204397
 20
102.6045990687069
 30
0.0
 11
140.676004204397
 21
92.66050335216681
 31
0.0
  0
LINE
  5
7A
330
1F
100
AcDbEntity
  8
レイヤー_1
  6
Continuous
 62
   250
420
  2367521
370
    13
100
AcDbLine
 10
141.6761261749182
 20
109.6046669499588
 30
0.0
 11
146.681333076744
 21
109.6046669499588
 31
0.0
  0
LINE
  5
7B
330
1F
100
AcDbEntity
  8
レイヤー_1
  6
Continuous
 62
   250
420
  2367521
370
    13
100
AcDbLine
 10
141.6761261749182
 20
104.804626247173
 30
0.0
 11
146.681333076744
 21
104.804626247173
 31
0.0
  0
LINE
  5
7C
330
1F
100
AcDbEntity
  8
レイヤー_1
  6
Continuous
 62
   250
420
  2367521
370
    13
100
AcDbLine
 10
141.6761261749182
 20
110.3047211081462
 30
0.0
 11
151.6861954690264
 21
110.3047211081462
 31
0.0
  0
LINE
  5
7D
330
1F
100
AcDbEntity
  8
レイヤー_1
  6
Continuous
 62
   250
420
  2367521
370
    13
100
AcDbLine
 10
151.1790666551638
 20
103.6046995073816
 30
0.0
 11
151.1790666551638
 21
111.2067116884039
 31
0.0
  0
LINE
  5
7E
330
1F
100
AcDbEntity
  8
レイヤー_1
  6
Continuous
 62
   250
420
  2367521
370
    13
100
AcDbLine
 10
141.6761261749182
 20
103.6046995073816
 30
0.0
 11
151.6861954690264
 21
103.6046995073816
 31
0.0
  0
HATCH
  5
7F
330
1F
100
AcDbEntity
  8
レイヤー_1
  6
Continuous
 62
   250
420
  2367521
370
    13
100
AcDbHatch
 10
0.0
 20
0.0
 30
0.0
210
0.0
220
0.0
230
1.0
  2
SOLID
 70
     1
 71
     0
 91
        1
 92
        3
 72
     0
 73
     1
 93
       67
 10
102.1758461759762
 20
115.5526349833235
 10
102.2013937118067
 20
115.5539161281882
 10
102.2261768670877
 20
115.5577164990892
 10
102.2501202803566
 20
115.5638638412549
 10
102.2730624627649
 20
115.5722720272994
 10
102.2948957550802
 20
115.5827795683742
 10
102.3154802003006
 20
115.5952895711703
 10
102.3347189051169
 20
115.6096620786856
 10
102.3524503806806
 20
115.6257894316877
 10
102.3685777336828
 20
115.6435316731747
 10
102.3829610071213
 20
115.6627596120678
 10
102.3954710099173
 20
115.6833548232114
 10
102.4059893169154
 20
115.7051881155268
 10
102.4143867370367
 20
115.728130297935
 10
102.4205448451256
 20
115.7520629452807
 10
102.4243236841802
 20
115.7768676324081
 10
102.4256155949681
 20
115.8024044023154
 10
102.4256155949681
 20
115.8024044023154
 10
102.4243236841802
 20
115.8279950018389
 10
102.4205340792024
 20
115.8528642845057
 10
102.4143867370367
 20
115.8768399955443
 10
102.4059893169154
 20
115.8998360075687
 10
102.3954602439941
 20
115.9216908317305
 10
102.3829610071213
 20
115.9423075747206
 10
102.3685777336828
 20
115.9615678113833
 10
102.3524503806806
 20
115.9793208187936
 10
102.3347189051169
 20
115.9954481717957
 10
102.3154909662238
 20
116.0098422111575
 10
102.2948957550802
 20
116.0223629798768
 10
102.2730624627649
 20
116.0328812868748
 10
102.2501202803566
 20
116.0412894729193
 10
102.2261768670877
 20
116.0474475810083
 10
102.2013829458835
 20
116.0512264200628
 10
102.1758461759762
 20
116.0525183308507
 10
102.1758461759762
 20
116.0525183308507
 10
102.1502555764528
 20
116.0512264200628
 10
102.1254078256324
 20
116.0474475810083
 10
102.101442880517
 20
116.0412787069961
 10
102.0784791662623
 20
116.0328812868748
 10
102.0566351080237
 20
116.0223629798768
 10
102.0360398968801
 20
116.0098422111575
 10
102.0168227239103
 20
115.9954481717957
 10
101.9991020142697
 20
115.9793208187936
 10
101.9830069590373
 20
115.9615570454601
 10
101.9686452174453
 20
115.9423183406438
 10
101.9561567464957
 20
115.9216908317305
 10
101.9456599713441
 20
115.8998252416455
 10
101.937273317146
 20
115.8768399955443
 10
101.9311367409035
 20
115.8528535185825
 10
101.927357901849
 20
115.8280057677621
 10
101.9260767569843
 20
115.8024044023154
 10
101.9260767569843
 20
115.8024044023154
 10
101.9273686677722
 20
115.7768568664849
 10
101.9311259749803
 20
115.7520629452807
 10
101.9372840830692
 20
115.728130297935
 10
101.9456599713441
 20
115.7051881155268
 10
101.9561459805724
 20
115.6833548232114
 10
101.9686452174453
 20
115.6627596120678
 10
101.982996193114
 20
115.6435209072515
 10
101.9991020142697
 20
115.6257894316877
 10
102.0168227239103
 20
115.6096728446088
 10
102.0360506628034
 20
115.5952895711703
 10
102.0566351080237
 20
115.5827795683742
 10
102.0784791662623
 20
115.5722612613762
 10
102.101442880517
 20
115.5638638412549
 10
102.1254078256324
 20
115.557705733166
 10
102.1502555764528
 20
115.5539268941114
 97
        0
 75
     1
 76
     1
 98
        0
  0
LWPOLYLINE
  5
80
330
1F
100
AcDbEntity
  8
レイヤー_1
  6
Continuous
 62
   250
420
  2367521
370
    13
100
AcDbPolyline
 90
       68
 70
     0
 43
0.0
 10
102.1758461759762
 20
115.5526349833235
 10
102.2013937118067
 20
115.5539161281882
 10
102.2261768670877
 20
115.5577164990892
 10
102.2501202803566
 20
115.5638638412549
 10
102.2730624627649
 20
115.5722720272994
 10
102.2948957550802
 20
115.5827795683742
 10
102.3154802003006
 20
115.5952895711703
 10
102.3347189051169
 20
115.6096620786856
 10
102.3524503806806
 20
115.6257894316877
 10
102.3685777336828
 20
115.6435316731747
 10
102.3829610071213
 20
115.6627596120678
 10
102.3954710099173
 20
115.6833548232114
 10
102.4059893169154
 20
115.7051881155268
 10
102.4143867370367
 20
115.728130297935
 10
102.4205448451256
 20
115.7520629452807
 10
102.4243236841802
 20
115.7768676324081
 10
102.4256155949681
 20
115.8024044023154
 10
102.4256155949681
 20
115.8024044023154
 10
102.4243236841802
 20
115.8279950018389
 10
102.4205340792024
 20
115.8528642845057
 10
102.4143867370367
 20
115.8768399955443
 10
102.4059893169154
 20
115.8998360075687
 10
102.3954602439941
 20
115.9216908317305
 10
102.3829610071213
 20
115.9423075747206
 10
102.3685777336828
 20
115.9615678113833
 10
102.3524503806806
 20
115.9793208187936
 10
102.3347189051169
 20
115.9954481717957
 10
102.3154909662238
 20
116.0098422111575
 10
102.2948957550802
 20
116.0223629798768
 10
102.2730624627649
 20
116.0328812868748
 10
102.2501202803566
 20
116.0412894729193
 10
102.2261768670877
 20
116.0474475810083
 10
102.2013829458835
 20
116.0512264200628
 10
102.1758461759762
 20
116.0525183308507
 10
102.1758461759762
 20
116.0525183308507
 10
102.1502555764528
 20
116.0512264200628
 10
102.1254078256324
 20
116.0474475810083
 10
102.101442880517
 20
116.0412787069961
 10
102.0784791662623
 20
116.0328812868748
 10
102.0566351080237
 20
116.0223629798768
 10
102.0360398968801
 20
116.0098422111575
 10
102.0168227239103
 20
115.9954481717957
 10
101.9991020142697
 20
115.9793208187936
 10
101.9830069590373
 20
115.9615570454601
 10
101.9686452174453
 20
115.9423183406438
 10
101.9561567464957
 20
115.9216908317305
 10
101.9456599713441
 20
115.8998252416455
 10
101.937273317146
 20
115.8768399955443
 10
101.9311367409035
 20
115.8528535185825
 10
101.927357901849
 20
115.8280057677621
 10
101.9260767569843
 20
115.8024044023154
 10
101.9260767569843
 20
115.8024044023154
 10
101.9273686677722
 20
115.7768568664849
 10
101.9311259749803
 20
115.7520629452807
 10
101.9372840830692
 20
115.728130297935
 10
101.9456599713441
 20
115.7051881155268
 10
101.9561459805724
 20
115.6833548232114
 10
101.9686452174453
 20
115.6627596120678
 10
101.982996193114
 20
115.6435209072515
 10
101.9991020142697
 20
115.6257894316877
 10
102.0168227239103
 20
115.6096728446088
 10
102.0360506628034
 20
115.5952895711703
 10
102.0566351080237
 20
115.5827795683742
 10
102.0784791662623
 20
115.5722612613762
 10
102.101442880517
 20
115.5638638412549
 10
102.1254078256324
 20
115.557705733166
 10
102.1502555764528
 20
115.5539268941114
 10
102.1758461759762
 20
115.5526349833235
  0
HATCH
  5
81
330
1F
100
AcDbEntity
  8
レイヤー_1
  6
Continuous
 62
   250
420
  2367521
370
    13
100
AcDbHatch
 10
0.0
 20
0.0
 30
0.0
210
0.0
220
0.0
230
1.0
  2
SOLID
 70
     1
 71
     0
 91
        1
 92
        3
 72
     0
 73
     1
 93
       67
 10
146.1740320081097
 20
104.5545123186376
 10
146.199568778017
 20
104.5558042294255
 10
146.2243734651444
 20
104.5595830684801
 10
146.2483276443365
 20
104.565741176569
 10
146.2713021245145
 20
104.5741493626135
 10
146.2931677145995
 20
104.5846676696116
 10
146.3137952235128
 20
104.5971884383309
 10
146.3330446942524
 20
104.6115824776926
 10
146.3508192335091
 20
104.6277098306948
 10
146.3669681183576
 20
104.645462838105
 10
146.3813836895659
 20
104.6647230747678
 10
146.3939259901316
 20
104.6853398177579
 10
146.4044658289761
 20
104.7072054078429
 10
146.4128955468671
 20
104.7302014198673
 10
146.4190644208793
 20
104.7541878968291
 10
146.4228647917803
 20
104.7790356476495
 10
146.4241567025682
 20
104.8046370130962
 10
146.4241567025682
 20
104.8046370130962
 10
146.4228540258571
 20
104.8301737830035
 10
146.4190644208793
 20
104.8549677042077
 10
146.4128847809439
 20
104.8789003515534
 10
146.4044765948994
 20
104.9018640658081
 10
146.3939367560549
 20
104.9236865922002
 10
146.3813944554891
 20
104.9442818033438
 10
146.3669788842809
 20
104.9634989763136
 10
146.3508192335091
 20
104.9812412178006
 10
146.3330446942524
 20
104.9973578048796
 10
146.3137952235128
 20
105.0117410783181
 10
146.2931677145995
 20
105.0242510811141
 10
146.2713021245145
 20
105.0347693881122
 10
146.2483384102597
 20
105.0431668082335
 10
146.2243842310676
 20
105.0493249163224
 10
146.199568778017
 20
105.053103755377
 10
146.1740320081097
 20
105.0543956661649
 10
146.1740320081097
 20
105.0543956661649
 10
146.1484844722792
 20
105.0531145213002
 10
146.1236797851517
 20
105.0493141503992
 10
146.0997256059596
 20
105.0431668082335
 10
146.0767618917048
 20
105.0347693881122
 10
146.0549070675431
 20
105.0242510811141
 10
146.0342687927065
 20
105.0117410783181
 10
146.015019321967
 20
104.9973685708028
 10
145.9972447827103
 20
104.9812412178006
 10
145.9810958978616
 20
104.9634989763136
 10
145.9666803266535
 20
104.9442818033438
 10
145.9541380260877
 20
104.9236865922002
 10
145.9435874213199
 20
104.9018532998849
 10
145.9351684693522
 20
104.8789111174766
 10
145.92899959534
 20
104.8549677042077
 10
145.925199224439
 20
104.8301737830035
 10
145.9239073136511
 20
104.8046370130962
 10
145.9239073136511
 20
104.8046370130962
 10
145.9252099903622
 20
104.7790356476495
 10
145.92899959534
 20
104.7541878968291
 10
145.9351684693522
 20
104.7302014198673
 10
145.9435874213199
 20
104.7072161737661
 10
145.9541380260877
 20
104.6853398177579
 10
145.9666910925767
 20
104.6647123088446
 10
145.9810958978616
 20
104.6454736040283
 10
145.9972447827103
 20
104.6277098306948
 10
146.0150085560437
 20
104.6115717117694
 10
146.0342795586297
 20
104.5971884383309
 10
146.0548963016198
 20
104.5846676696116
 10
146.0767618917048
 20
104.5741493626135
 10
146.0997256059596
 20
104.565741176569
 10
146.1236797851517
 20
104.5595938344033
 10
146.1484952382024
 20
104.5558042294255
 97
        0
 75
     1
 76
     1
 98
        0
  0
LWPOLYLINE
  5
82
330
1F
100
AcDbEntity
  8
レイヤー_1
  6
Continuous
 62
   250
420
  2367521
370
    13
100
AcDbPolyline
 90
       68
 70
     0
 43
0.0
 10
146.1740320081097
 20
104.5545123186376
 10
146.199568778017
 20
104.5558042294255
 10
146.2243734651444
 20
104.5595830684801
 10
146.2483276443365
 20
104.565741176569
 10
146.2713021245145
 20
104.5741493626135
 10
146.2931677145995
 20
104.5846676696116
 10
146.3137952235128
 20
104.5971884383309
 10
146.3330446942524
 20
104.6115824776926
 10
146.3508192335091
 20
104.6277098306948
 10
146.3669681183576
 20
104.645462838105
 10
146.3813836895659
 20
104.6647230747678
 10
146.3939259901316
 20
104.6853398177579
 10
146.4044658289761
 20
104.7072054078429
 10
146.4128955468671
 20
104.7302014198673
 10
146.4190644208793
 20
104.7541878968291
 10
146.4228647917803
 20
104.7790356476495
 10
146.4241567025682
 20
104.8046370130962
 10
146.4241567025682
 20
104.8046370130962
 10
146.4228540258571
 20
104.8301737830035
 10
146.4190644208793
 20
104.8549677042077
 10
146.4128847809439
 20
104.8789003515534
 10
146.4044765948994
 20
104.9018640658081
 10
146.3939367560549
 20
104.9236865922002
 10
146.3813944554891
 20
104.9442818033438
 10
146.3669788842809
 20
104.9634989763136
 10
146.3508192335091
 20
104.9812412178006
 10
146.3330446942524
 20
104.9973578048796
 10
146.3137952235128
 20
105.0117410783181
 10
146.2931677145995
 20
105.0242510811141
 10
146.2713021245145
 20
105.0347693881122
 10
146.2483384102597
 20
105.0431668082335
 10
146.2243842310676
 20
105.0493249163224
 10
146.199568778017
 20
105.053103755377
 10
146.1740320081097
 20
105.0543956661649
 10
146.1740320081097
 20
105.0543956661649
 10
146.1484844722792
 20
105.0531145213002
 10
146.1236797851517
 20
105.0493141503992
 10
146.0997256059596
 20
105.0431668082335
 10
146.0767618917048
 20
105.0347693881122
 10
146.0549070675431
 20
105.0242510811141
 10
146.0342687927065
 20
105.0117410783181
 10
146.015019321967
 20
104.9973685708028
 10
145.9972447827103
 20
104.9812412178006
 10
145.9810958978616
 20
104.9634989763136
 10
145.9666803266535
 20
104.9442818033438
 10
145.9541380260877
 20
104.9236865922002
 10
145.9435874213199
 20
104.9018532998849
 10
145.9351684693522
 20
104.8789111174766
 10
145.92899959534
 20
104.8549677042077
 10
145.925199224439
 20
104.8301737830035
 10
145.9239073136511
 20
104.8046370130962
 10
145.9239073136511
 20
104.8046370130962
 10
145.9252099903622
 20
104.7790356476495
 10
145.92899959534
 20
104.7541878968291
 10
145.9351684693522
 20
104.7302014198673
 10
145.9435874213199
 20
104.7072161737661
 10
145.9541380260877
 20
104.6853398177579
 10
145.9666910925767
 20
104.6647123088446
 10
145.9810958978616
 20
104.6454736040283
 10
145.9972447827103
 20
104.6277098306948
 10
146.0150085560437
 20
104.6115717117694
 10
146.0342795586297
 20
104.5971884383309
 10
146.0548963016198
 20
104.5846676696116
 10
146.0767618917048
 20
104.5741493626135
 10
146.0997256059596
 20
104.565741176569
 10
146.1236797851517
 20
104.5595938344033
 10
146.1484952382024
 20
104.5558042294255
 10
146.1740320081097
 20
104.5545123186376
  0
HATCH
  5
83
330
1F
100
AcDbEntity
  8
レイヤー_1
  6
Continuous
 62
   250
420
  2367521
370
    13
100
AcDbHatch
 10
0.0
 20
0.0
 30
0.0
210
0.0
220
0.0
230
1.0
  2
SOLID
 70
     1
 71
     0
 91
        1
 92
        3
 72
     0
 73
     1
 93
       67
 10
102.1758461759762
 20
92.91799193811636
 10
102.2013937118067
 20
92.91928384890424
 10
102.2261768670877
 20
92.92306268795882
 10
102.2501202803566
 20
92.92922079604776
 10
102.2730624627649
 20
92.93761821616903
 10
102.2948957550802
 20
92.94813652316711
 10
102.3154802003006
 20
92.96065729188639
 10
102.3347189051169
 20
92.97502979940165
 10
102.3524503806806
 20
92.99114638648058
 10
102.3685777336828
 20
93.0088886279676
 10
102.3829610071213
 20
93.02811656686066
 10
102.3954710099173
 20
93.04871177800428
 10
102.4059893169154
 20
93.07054507031958
 10
102.4143867370367
 20
93.09348725272785
 10
102.4205448451256
 20
93.1174199000735
 10
102.4243236841802
 20
93.14222458720097
 10
102.4256155949681
 20
93.16776135710825
 10
102.4256155949681
 20
93.16776135710825
 10
102.4243236841802
 20
93.19335195663169
 10
102.4205340792024
 20
93.21822123929854
 10
102.4143867370367
 20
93.24219695033713
 10
102.4059893169154
 20
93.26518219643832
 10
102.3954602439941
 20
93.28704778652335
 10
102.3829610071213
 20
93.30767529543664
 10
102.3685777336828
 20
93.32692476617618
 10
102.3524503806806
 20
93.34467777358643
 10
102.3347189051169
 20
93.36080512658859
 10
102.3154909662238
 20
93.3751991659503
 10
102.2948957550802
 20
93.3877199346696
 10
102.2730624627649
 20
93.39823824166766
 10
102.2501202803566
 20
93.40664642771218
 10
102.2261768670877
 20
93.41280453580111
 10
102.2013829458835
 20
93.41658337485569
 10
102.1758461759762
 20
93.41787528564359
 10
102.1758461759762
 20
93.41787528564359
 10
102.1502555764528
 20
93.41658337485569
 10
102.1254078256324
 20
93.41280453580111
 10
102.101442880517
 20
93.40664642771218
 10
102.0784791662623
 20
93.39824900759089
 10
102.0566351080237
 20
93.3877199346696
 10
102.0360398968801
 20
93.3751991659503
 10
102.0168227239103
 20
93.36081589251181
 10
101.9991020142697
 20
93.34467777358643
 10
101.9830069590373
 20
93.32692476617618
 10
101.9686452174453
 20
93.30767529543664
 10
101.9561567464957
 20
93.28704778652335
 10
101.9456599713441
 20
93.26518219643832
 10
101.937273317146
 20
93.24219695033713
 10
101.9311367409035
 20
93.21821047337531
 10
101.927357901849
 20
93.19336272255492
 10
101.9260767569843
 20
93.16776135710825
 10
101.9260767569843
 20
93.16776135710825
 10
101.9273686677722
 20
93.14221382127775
 10
101.9311259749803
 20
93.11743066599674
 10
101.9372840830692
 20
93.09348725272785
 10
101.9456599713441
 20
93.07053430439636
 10
101.9561459805724
 20
93.04871177800428
 10
101.9686452174453
 20
93.02811656686066
 10
101.982996193114
 20
93.0088886279676
 10
101.9991020142697
 20
92.99114638648058
 10
102.0168227239103
 20
92.97502979940165
 10
102.0360506628034
 20
92.96064652596316
 10
102.0566351080237
 20
92.94813652316711
 10
102.0784791662623
 20
92.93761821616903
 10
102.101442880517
 20
92.92922079604776
 10
102.1254078256324
 20
92.92306268795882
 10
102.1502555764528
 20
92.91928384890424
 97
        0
 75
     1
 76
     1
 98
        0
  0
LWPOLYLINE
  5
84
330
1F
100
AcDbEntity
  8
レイヤー_1
  6
Continuous
 62
   250
420
  2367521
370
    13
100
AcDbPolyline
 90
       68
 70
     0
 43
0.0
 10
102.1758461759762
 20
92.91799193811636
 10
102.2013937118067
 20
92.91928384890424
 10
102.2261768670877
 20
92.92306268795882
 10
102.2501202803566
 20
92.92922079604776
 10
102.2730624627649
 20
92.93761821616903
 10
102.2948957550802
 20
92.94813652316711
 10
102.3154802003006
 20
92.96065729188639
 10
102.3347189051169
 20
92.97502979940165
 10
102.3524503806806
 20
92.99114638648058
 10
102.3685777336828
 20
93.0088886279676
 10
102.3829610071213
 20
93.02811656686066
 10
102.3954710099173
 20
93.04871177800428
 10
102.4059893169154
 20
93.07054507031958
 10
102.4143867370367
 20
93.09348725272785
 10
102.4205448451256
 20
93.1174199000735
 10
102.4243236841802
 20
93.14222458720097
 10
102.4256155949681
 20
93.16776135710825
 10
102.4256155949681
 20
93.16776135710825
 10
102.4243236841802
 20
93.19335195663169
 10
102.4205340792024
 20
93.21822123929854
 10
102.4143867370367
 20
93.24219695033713
 10
102.4059893169154
 20
93.26518219643832
 10
102.3954602439941
 20
93.28704778652335
 10
102.3829610071213
 20
93.30767529543664
 10
102.3685777336828
 20
93.32692476617618
 10
102.3524503806806
 20
93.34467777358643
 10
102.3347189051169
 20
93.36080512658859
 10
102.3154909662238
 20
93.3751991659503
 10
102.2948957550802
 20
93.3877199346696
 10
102.2730624627649
 20
93.39823824166766
 10
102.2501202803566
 20
93.40664642771218
 10
102.2261768670877
 20
93.41280453580111
 10
102.2013829458835
 20
93.41658337485569
 10
102.1758461759762
 20
93.41787528564359
 10
102.1758461759762
 20
93.41787528564359
 10
102.1502555764528
 20
93.41658337485569
 10
102.1254078256324
 20
93.41280453580111
 10
102.101442880517
 20
93.40664642771218
 10
102.0784791662623
 20
93.39824900759089
 10
102.0566351080237
 20
93.3877199346696
 10
102.0360398968801
 20
93.3751991659503
 10
102.0168227239103
 20
93.36081589251181
 10
101.9991020142697
 20
93.34467777358643
 10
101.9830069590373
 20
93.32692476617618
 10
101.9686452174453
 20
93.30767529543664
 10
101.9561567464957
 20
93.28704778652335
 10
101.9456599713441
 20
93.26518219643832
 10
101.937273317146
 20
93.24219695033713
 10
101.9311367409035
 20
93.21821047337531
 10
101.927357901849
 20
93.19336272255492
 10
101.9260767569843
 20
93.16776135710825
 10
101.9260767569843
 20
93.16776135710825
 10
101.9273686677722
 20
93.14221382127775
 10
101.9311259749803
 20
93.11743066599674
 10
101.9372840830692
 20
93.09348725272785
 10
101.9456599713441
 20
93.07053430439636
 10
101.9561459805724
 20
93.04871177800428
 10
101.9686452174453
 20
93.02811656686066
 10
101.982996193114
 20
93.0088886279676
 10
101.9991020142697
 20
92.99114638648058
 10
102.0168227239103
 20
92.97502979940165
 10
102.0360506628034
 20
92.96064652596316
 10
102.0566351080237
 20
92.94813652316711
 10
102.0784791662623
 20
92.93761821616903
 10
102.101442880517
 20
92.92922079604776
 10
102.1254078256324
 20
92.92306268795882
 10
102.1502555764528
 20
92.91928384890424
 10
102.1758461759762
 20
92.91799193811636
  0
HATCH
  5
85
330
1F
100
AcDbEntity
  8
レイヤー_1
  6
Continuous
 62
   250
420
  2367521
370
    13
100
AcDbHatch
 10
0.0
 20
0.0
 30
0.0
210
0.0
220
0.0
230
1.0
  2
SOLID
 70
     1
 71
     0
 91
        1
 92
        3
 72
     0
 73
     1
 93
       67
 10
151.1790666551638
 20
103.3549300883897
 10
151.2046034250711
 20
103.3562112332543
 10
151.2293865803521
 20
103.3600116041554
 10
151.2532976958512
 20
103.3661589463211
 10
151.2762291123363
 20
103.3745671323656
 10
151.2980301068819
 20
103.3850854393636
 10
151.3185930202558
 20
103.3975954421597
 10
151.3377886613792
 20
103.411967949675
 10
151.3554986050965
 20
103.4280845367539
 10
151.3715828944057
 20
103.4458267782409
 10
151.3859338700746
 20
103.4650439512107
 10
151.3984115751009
 20
103.4856499282776
 10
151.4089083502525
 20
103.5074832205929
 10
151.4172842385273
 20
103.5304254030012
 10
151.4234208147698
 20
103.5543580503468
 10
151.4271996538244
 20
103.5791627374743
 10
151.428480798689
 20
103.6046995073816
 10
151.428480798689
 20
103.6046995073816
 10
151.4271996538244
 20
103.630290106905
 10
151.4234208147698
 20
103.6551486236486
 10
151.4172842385273
 20
103.6791351006104
 10
151.4089083502525
 20
103.7021095807884
 10
151.3984223410241
 20
103.7239967027199
 10
151.3859338700746
 20
103.7446134457099
 10
151.3715828944057
 20
103.7638629164495
 10
151.3554986050965
 20
103.7816159238597
 10
151.3377994273025
 20
103.7977432768619
 10
151.318603786179
 20
103.8121373162236
 10
151.2980301068819
 20
103.8246580849429
 10
151.2762291123363
 20
103.835176391941
 10
151.2533084617745
 20
103.8435845779855
 10
151.2293865803521
 20
103.8497426860744
 10
151.2046034250711
 20
103.853521525129
 10
151.1790666551638
 20
103.8548134359169
 10
151.1790666551638
 20
103.8548134359169
 10
151.1534222260242
 20
103.853521525129
 10
151.1285098796644
 20
103.8497426860744
 10
151.1045018708562
 20
103.8435845779855
 10
151.0814950929085
 20
103.835176391941
 10
151.0596295028234
 20
103.8246580849429
 10
151.0389912279869
 20
103.8121480821468
 10
151.0197632890938
 20
103.7977540427851
 10
151.0020102816836
 20
103.7816159238597
 10
150.9858936946047
 20
103.7638629164495
 10
150.9715319530126
 20
103.7446026797867
 10
150.9590327161398
 20
103.7239859367967
 10
150.948525175065
 20
103.7021203467116
 10
150.9401385208669
 20
103.6791351006104
 10
150.9340019446245
 20
103.6551486236486
 10
150.9302231055699
 20
103.6303008728282
 10
150.9289419607052
 20
103.6046995073816
 10
150.9289419607052
 20
103.6046995073816
 10
150.9302231055699
 20
103.5791627374743
 10
150.9340019446245
 20
103.5543580503468
 10
150.9401385208669
 20
103.5304361689244
 10
150.948525175065
 20
103.5074724546697
 10
150.9590219502166
 20
103.4856499282776
 10
150.9715319530126
 20
103.465054717134
 10
150.9858936946047
 20
103.4458160123177
 10
151.0020102816836
 20
103.4280845367539
 10
151.0197525231706
 20
103.4119571837517
 10
151.0390019939102
 20
103.3975846762365
 10
151.0596187369002
 20
103.3850746734404
 10
151.0814950929085
 20
103.3745563664423
 10
151.1045018708562
 20
103.3661589463211
 10
151.1285098796644
 20
103.3600008382321
 10
151.153411460101
 20
103.3562219991775
 97
        0
 75
     1
 76
     1
 98
        0
  0
LWPOLYLINE
  5
86
330
1F
100
AcDbEntity
  8
レイヤー_1
  6
Continuous
 62
   250
420
  2367521
370
    13
100
AcDbPolyline
 90
       68
 70
     0
 43
0.0
 10
151.1790666551638
 20
103.3549300883897
 10
151.2046034250711
 20
103.3562112332543
 10
151.2293865803521
 20
103.3600116041554
 10
151.2532976958512
 20
103.3661589463211
 10
151.2762291123363
 20
103.3745671323656
 10
151.2980301068819
 20
103.3850854393636
 10
151.3185930202558
 20
103.3975954421597
 10
151.3377886613792
 20
103.411967949675
 10
151.3554986050965
 20
103.4280845367539
 10
151.3715828944057
 20
103.4458267782409
 10
151.3859338700746
 20
103.4650439512107
 10
151.3984115751009
 20
103.4856499282776
 10
151.4089083502525
 20
103.5074832205929
 10
151.4172842385273
 20
103.5304254030012
 10
151.4234208147698
 20
103.5543580503468
 10
151.4271996538244
 20
103.5791627374743
 10
151.428480798689
 20
103.6046995073816
 10
151.428480798689
 20
103.6046995073816
 10
151.4271996538244
 20
103.630290106905
 10
151.4234208147698
 20
103.6551486236486
 10
151.4172842385273
 20
103.6791351006104
 10
151.4089083502525
 20
103.7021095807884
 10
151.3984223410241
 20
103.7239967027199
 10
151.3859338700746
 20
103.7446134457099
 10
151.3715828944057
 20
103.7638629164495
 10
151.3554986050965
 20
103.7816159238597
 10
151.3377994273025
 20
103.7977432768619
 10
151.318603786179
 20
103.8121373162236
 10
151.2980301068819
 20
103.8246580849429
 10
151.2762291123363
 20
103.835176391941
 10
151.2533084617745
 20
103.8435845779855
 10
151.2293865803521
 20
103.8497426860744
 10
151.2046034250711
 20
103.853521525129
 10
151.1790666551638
 20
103.8548134359169
 10
151.1790666551638
 20
103.8548134359169
 10
151.1534222260242
 20
103.853521525129
 10
151.1285098796644
 20
103.8497426860744
 10
151.1045018708562
 20
103.8435845779855
 10
151.0814950929085
 20
103.835176391941
 10
151.0596295028234
 20
103.8246580849429
 10
151.0389912279869
 20
103.8121480821468
 10
151.0197632890938
 20
103.7977540427851
 10
151.0020102816836
 20
103.7816159238597
 10
150.9858936946047
 20
103.7638629164495
 10
150.9715319530126
 20
103.7446026797867
 10
150.9590327161398
 20
103.7239859367967
 10
150.948525175065
 20
103.7021203467116
 10
150.9401385208669
 20
103.6791351006104
 10
150.9340019446245
 20
103.6551486236486
 10
150.9302231055699
 20
103.6303008728282
 10
150.9289419607052
 20
103.6046995073816
 10
150.9289419607052
 20
103.6046995073816
 10
150.9302231055699
 20
103.5791627374743
 10
150.9340019446245
 20
103.5543580503468
 10
150.9401385208669
 20
103.5304361689244
 10
150.948525175065
 20
103.5074724546697
 10
150.9590219502166
 20
103.4856499282776
 10
150.9715319530126
 20
103.465054717134
 10
150.9858936946047
 20
103.4458160123177
 10
151.0020102816836
 20
103.4280845367539
 10
151.0197525231706
 20
103.4119571837517
 10
151.0390019939102
 20
103.3975846762365
 10
151.0596187369002
 20
103.3850746734404
 10
151.0814950929085
 20
103.3745563664423
 10
151.1045018708562
 20
103.3661589463211
 10
151.1285098796644
 20
103.3600008382321
 10
151.153411460101
 20
103.3562219991775
 10
151.1790666551638
 20
103.3549300883897
  0
HATCH
  5
87
330
1F
100
AcDbEntity
  8
レイヤー_1
  6
Continuous
 62
   250
420
  2367521
370
    13
100
AcDbHatch
 10
0.0
 20
0.0
 30
0.0
210
0.0
220
0.0
230
1.0
  2
SOLID
 70
     1
 71
     0
 91
        1
 92
        3
 72
     0
 73
     1
 93
       67
 10
151.1790666551638
 20
110.0549516891543
 10
151.2046034250711
 20
110.0562435999422
 10
151.2293865803521
 20
110.0600116730736
 10
151.2532976958512
 20
110.066148249316
 10
151.2762291123363
 20
110.0745241375908
 10
151.2980301068819
 20
110.0850316786657
 10
151.3185930202558
 20
110.0975201496153
 10
151.3377886613792
 20
110.1118818912073
 10
151.3554986050965
 20
110.1279769464397
 10
151.3715828944057
 20
110.1456976560803
 10
151.3859338700746
 20
110.1649148290501
 10
151.3984115751009
 20
110.1855100401938
 10
151.4089083502525
 20
110.2073540984323
 10
151.4172842385273
 20
110.230317812687
 10
151.4234208147698
 20
110.2542827578024
 10
151.4271996538244
 20
110.2791305086228
 10
151.428480798689
 20
110.3047211081462
 10
151.428480798689
 20
110.3047211081462
 10
151.4271996538244
 20
110.3303224735929
 10
151.4234208147698
 20
110.3551486925668
 10
151.4172842385273
 20
110.3791244036054
 10
151.4089083502525
 20
110.4020881178601
 10
151.3984223410241
 20
110.4239214101755
 10
151.3859338700746
 20
110.4445166213191
 10
151.3715828944057
 20
110.4637337942889
 10
151.3554986050965
 20
110.4814652698527
 10
151.3377994273025
 20
110.4975603250851
 10
151.318603786179
 20
110.5119220666772
 10
151.2980301068819
 20
110.5243997717035
 10
151.2762291123363
 20
110.5349073127784
 10
151.2533084617745
 20
110.5432832010532
 10
151.2293865803521
 20
110.5494197772957
 10
151.2046034250711
 20
110.5531986163502
 10
151.1790666551638
 20
110.5544797612149
 10
151.1790666551638
 20
110.5544797612149
 10
151.1534222260242
 20
110.553187850427
 10
151.1285098796644
 20
110.5494197772957
 10
151.1045018708562
 20
110.5432939669764
 10
151.0814950929085
 20
110.5348965468551
 10
151.0596295028234
 20
110.5243997717035
 10
151.0389912279869
 20
110.5119220666772
 10
151.0197632890938
 20
110.4975710910084
 10
151.0020102816836
 20
110.4814545039295
 10
150.9858936946047
 20
110.4637337942889
 10
150.9715319530126
 20
110.4445166213191
 10
150.9590327161398
 20
110.4239214101755
 10
150.948525175065
 20
110.4020881178601
 10
150.9401385208669
 20
110.3791244036054
 10
150.9340019446245
 20
110.35515945849
 10
150.9302231055699
 20
110.3303117076697
 10
150.9289419607052
 20
110.3047211081462
 10
150.9289419607052
 20
110.3047211081462
 10
150.9302231055699
 20
110.2791305086228
 10
150.9340019446245
 20
110.2542827578024
 10
150.9401385208669
 20
110.2303285786103
 10
150.948525175065
 20
110.2073540984323
 10
150.9590219502166
 20
110.1855100401938
 10
150.9715319530126
 20
110.1649255949734
 10
150.9858936946047
 20
110.1457084220035
 10
151.0020102816836
 20
110.1279769464397
 10
151.0197525231706
 20
110.1118711252841
 10
151.0390019939102
 20
110.0975201496153
 10
151.0596187369002
 20
110.0850209127424
 10
151.0814950929085
 20
110.0745241375908
 10
151.1045018708562
 20
110.066148249316
 10
151.1285098796644
 20
110.0600116730736
 10
151.153411460101
 20
110.056232834019
 97
        0
 75
     1
 76
     1
 98
        0
  0
LWPOLYLINE
  5
88
330
1F
100
AcDbEntity
  8
レイヤー_1
  6
Continuous
 62
   250
420
  2367521
370
    13
100
AcDbPolyline
 90
       68
 70
     0
 43
0.0
 10
151.1790666551638
 20
110.0549516891543
 10
151.2046034250711
 20
110.0562435999422
 10
151.2293865803521
 20
110.0600116730736
 10
151.2532976958512
 20
110.066148249316
 10
151.2762291123363
 20
110.0745241375908
 10
151.2980301068819
 20
110.0850316786657
 10
151.3185930202558
 20
110.0975201496153
 10
151.3377886613792
 20
110.1118818912073
 10
151.3554986050965
 20
110.1279769464397
 10
151.3715828944057
 20
110.1456976560803
 10
151.3859338700746
 20
110.1649148290501
 10
151.3984115751009
 20
110.1855100401938
 10
151.4089083502525
 20
110.2073540984323
 10
151.4172842385273
 20
110.230317812687
 10
151.4234208147698
 20
110.2542827578024
 10
151.4271996538244
 20
110.2791305086228
 10
151.428480798689
 20
110.3047211081462
 10
151.428480798689
 20
110.3047211081462
 10
151.4271996538244
 20
110.3303224735929
 10
151.4234208147698
 20
110.3551486925668
 10
151.4172842385273
 20
110.3791244036054
 10
151.4089083502525
 20
110.4020881178601
 10
151.3984223410241
 20
110.4239214101755
 10
151.3859338700746
 20
110.4445166213191
 10
151.3715828944057
 20
110.4637337942889
 10
151.3554986050965
 20
110.4814652698527
 10
151.3377994273025
 20
110.4975603250851
 10
151.318603786179
 20
110.5119220666772
 10
151.2980301068819
 20
110.5243997717035
 10
151.2762291123363
 20
110.5349073127784
 10
151.2533084617745
 20
110.5432832010532
 10
151.2293865803521
 20
110.5494197772957
 10
151.2046034250711
 20
110.5531986163502
 10
151.1790666551638
 20
110.5544797612149
 10
151.1790666551638
 20
110.5544797612149
 10
151.1534222260242
 20
110.553187850427
 10
151.1285098796644
 20
110.5494197772957
 10
151.1045018708562
 20
110.5432939669764
 10
151.0814950929085
 20
110.5348965468551
 10
151.0596295028234
 20
110.5243997717035
 10
151.0389912279869
 20
110.5119220666772
 10
151.0197632890938
 20
110.4975710910084
 10
151.0020102816836
 20
110.4814545039295
 10
150.9858936946047
 20
110.4637337942889
 10
150.9715319530126
 20
110.4445166213191
 10
150.9590327161398
 20
110.4239214101755
 10
150.948525175065
 20
110.4020881178601
 10
150.9401385208669
 20
110.3791244036054
 10
150.9340019446245
 20
110.35515945849
 10
150.9302231055699
 20
110.3303117076697
 10
150.9289419607052
 20
110.3047211081462
 10
150.9289419607052
 20
110.3047211081462
 10
150.9302231055699
 20
110.2791305086228
 10
150.9340019446245
 20
110.2542827578024
 10
150.9401385208669
 20
110.2303285786103
 10
150.948525175065
 20
110.2073540984323
 10
150.9590219502166
 20
110.1855100401938
 10
150.9715319530126
 20
110.1649255949734
 10
150.9858936946047
 20
110.1457084220035
 10
151.0020102816836
 20
110.1279769464397
 10
151.0197525231706
 20
110.1118711252841
 10
151.0390019939102
 20
110.0975201496153
 10
151.0596187369002
 20
110.0850209127424
 10
151.0814950929085
 20
110.0745241375908
 10
151.1045018708562
 20
110.066148249316
 10
151.1285098796644
 20
110.0600116730736
 10
151.153411460101
 20
110.056232834019
 10
151.1790666551638
 20
110.0549516891543
  0
HATCH
  5
89
330
1F
100
AcDbEntity
  8
レイヤー_1
  6
Continuous
 62
   250
420
  2367521
370
    13
100
AcDbHatch
 10
0.0
 20
0.0
 30
0.0
210
0.0
220
0.0
230
1.0
  2
SOLID
 70
     1
 71
     0
 91
        1
 92
        3
 72
     0
 73
     1
 93
       67
 10
117.1759531860759
 20
115.5526349833235
 10
117.2014899559832
 20
115.5539161281882
 10
117.2262838771874
 20
115.5577164990892
 10
117.2502272904563
 20
115.5638638412549
 10
117.2731587069413
 20
115.5722720272994
 10
117.2950027651799
 20
115.5827795683742
 10
117.3155979763235
 20
115.5952895711703
 10
117.3348259152165
 20
115.6096620786856
 10
117.3525681567036
 20
115.6257894316877
 10
117.3686847437825
 20
115.6435316731747
 10
117.383068017221
 20
115.6627596120678
 10
117.395578020017
 20
115.6833548232114
 10
117.4060963270151
 20
115.7051881155268
 10
117.4144937471364
 20
115.728130297935
 10
117.4206518552253
 20
115.7520629452807
 10
117.4244306942799
 20
115.7768676324081
 10
117.4257226050678
 20
115.8024044023154
 10
117.4257226050678
 20
115.8024044023154
 10
117.4244414602031
 20
115.8279950018389
 10
117.4206518552253
 20
115.8528642845057
 10
117.4144937471364
 20
115.8768399955443
 10
117.4060963270151
 20
115.8998360075687
 10
117.3955672540938
 20
115.9216908317305
 10
117.3830572512977
 20
115.9423075747206
 10
117.3686847437825
 20
115.9615678113833
 10
117.3525681567036
 20
115.9793208187936
 10
117.3348259152165
 20
115.9954481717957
 10
117.3155979763235
 20
116.0098422111575
 10
117.2950027651799
 20
116.0223629798768
 10
117.2731694728645
 20
116.0328812868748
 10
117.2502272904563
 20
116.0412894729193
 10
117.2262838771874
 20
116.0474475810083
 10
117.2014899559832
 20
116.0512264200628
 10
117.1759531860759
 20
116.0525183308507
 10
117.1759531860759
 20
116.0525183308507
 10
117.1502979910131
 20
116.0512264200628
 10
117.1253964105765
 20
116.0474475810083
 10
117.1013884017682
 20
116.0412787069961
 10
117.0783816238206
 20
116.0328812868748
 10
117.0565052678123
 20
116.0223629798768
 10
117.0358885248222
 20
116.0098422111575
 10
117.0166390540827
 20
115.9954481717957
 10
116.9988968125957
 20
115.9793208187936
 10
116.9827802255168
 20
115.9615570454601
 10
116.9684077180015
 20
115.9423183406438
 10
116.9559192470519
 20
115.9216908317305
 10
116.9454117059771
 20
115.8998252416455
 10
116.937025051779
 20
115.8768399955443
 10
116.9308884755365
 20
115.8528535185825
 10
116.927109636482
 20
115.8280057677621
 10
116.9258284916173
 20
115.8024044023154
 10
116.9258284916173
 20
115.8024044023154
 10
116.927109636482
 20
115.7768568664849
 10
116.9308992414598
 20
115.7520629452807
 10
116.9370358177023
 20
115.728130297935
 10
116.9454117059771
 20
115.7051881155268
 10
116.9559084811287
 20
115.6833548232114
 10
116.9684077180015
 20
115.6627596120678
 10
116.98279099144
 20
115.6435209072515
 10
116.9988968125957
 20
115.6257894316877
 10
117.0166390540827
 20
115.6096728446088
 10
117.0358885248222
 20
115.5952895711703
 10
117.0565052678123
 20
115.5827795683742
 10
117.0783816238206
 20
115.5722612613762
 10
117.1013884017682
 20
115.5638638412549
 10
117.1253964105765
 20
115.557705733166
 10
117.1502979910131
 20
115.5539268941114
 97
        0
 75
     1
 76
     1
 98
        0
  0
LWPOLYLINE
  5
8A
330
1F
100
AcDbEntity
  8
レイヤー_1
  6
Continuous
 62
   250
420
  2367521
370
    13
100
AcDbPolyline
 90
       68
 70
     0
 43
0.0
 10
117.1759531860759
 20
115.5526349833235
 10
117.2014899559832
 20
115.5539161281882
 10
117.2262838771874
 20
115.5577164990892
 10
117.2502272904563
 20
115.5638638412549
 10
117.2731587069413
 20
115.5722720272994
 10
117.2950027651799
 20
115.5827795683742
 10
117.3155979763235
 20
115.5952895711703
 10
117.3348259152165
 20
115.6096620786856
 10
117.3525681567036
 20
115.6257894316877
 10
117.3686847437825
 20
115.6435316731747
 10
117.383068017221
 20
115.6627596120678
 10
117.395578020017
 20
115.6833548232114
 10
117.4060963270151
 20
115.7051881155268
 10
117.4144937471364
 20
115.728130297935
 10
117.4206518552253
 20
115.7520629452807
 10
117.4244306942799
 20
115.7768676324081
 10
117.4257226050678
 20
115.8024044023154
 10
117.4257226050678
 20
115.8024044023154
 10
117.4244414602031
 20
115.8279950018389
 10
117.4206518552253
 20
115.8528642845057
 10
117.4144937471364
 20
115.8768399955443
 10
117.4060963270151
 20
115.8998360075687
 10
117.3955672540938
 20
115.9216908317305
 10
117.3830572512977
 20
115.9423075747206
 10
117.3686847437825
 20
115.9615678113833
 10
117.3525681567036
 20
115.9793208187936
 10
117.3348259152165
 20
115.9954481717957
 10
117.3155979763235
 20
116.0098422111575
 10
117.2950027651799
 20
116.0223629798768
 10
117.2731694728645
 20
116.0328812868748
 10
117.2502272904563
 20
116.0412894729193
 10
117.2262838771874
 20
116.0474475810083
 10
117.2014899559832
 20
116.0512264200628
 10
117.1759531860759
 20
116.0525183308507
 10
117.1759531860759
 20
116.0525183308507
 10
117.1502979910131
 20
116.0512264200628
 10
117.1253964105765
 20
116.0474475810083
 10
117.1013884017682
 20
116.0412787069961
 10
117.0783816238206
 20
116.0328812868748
 10
117.0565052678123
 20
116.0223629798768
 10
117.0358885248222
 20
116.0098422111575
 10
117.0166390540827
 20
115.9954481717957
 10
116.9988968125957
 20
115.9793208187936
 10
116.9827802255168
 20
115.9615570454601
 10
116.9684077180015
 20
115.9423183406438
 10
116.9559192470519
 20
115.9216908317305
 10
116.9454117059771
 20
115.8998252416455
 10
116.937025051779
 20
115.8768399955443
 10
116.9308884755365
 20
115.8528535185825
 10
116.927109636482
 20
115.8280057677621
 10
116.9258284916173
 20
115.8024044023154
 10
116.9258284916173
 20
115.8024044023154
 10
116.927109636482
 20
115.7768568664849
 10
116.9308992414598
 20
115.7520629452807
 10
116.9370358177023
 20
115.728130297935
 10
116.9454117059771
 20
115.7051881155268
 10
116.9559084811287
 20
115.6833548232114
 10
116.9684077180015
 20
115.6627596120678
 10
116.98279099144
 20
115.6435209072515
 10
116.9988968125957
 20
115.6257894316877
 10
117.0166390540827
 20
115.6096728446088
 10
117.0358885248222
 20
115.5952895711703
 10
117.0565052678123
 20
115.5827795683742
 10
117.0783816238206
 20
115.5722612613762
 10
117.1013884017682
 20
115.5638638412549
 10
117.1253964105765
 20
115.557705733166
 10
117.1502979910131
 20
115.5539268941114
 10
117.1759531860759
 20
115.5526349833235
  0
HATCH
  5
8B
330
1F
100
AcDbEntity
  8
レイヤー_1
  6
Continuous
 62
   250
420
  2367521
370
    13
100
AcDbHatch
 10
0.0
 20
0.0
 30
0.0
210
0.0
220
0.0
230
1.0
  2
SOLID
 70
     1
 71
     0
 91
        1
 92
        3
 72
     0
 73
     1
 93
       67
 10
140.676004204397
 20
92.91766896041938
 10
140.7015409743043
 20
92.91896087120728
 10
140.7263456614318
 20
92.92273971026185
 10
140.7503106065471
 20
92.92889781835078
 10
140.7732850867251
 20
92.9373060043953
 10
140.7951399108869
 20
92.94782431139336
 10
140.8157674198002
 20
92.96034508011266
 10
140.8350168905397
 20
92.97473911947438
 10
140.8527914297964
 20
92.99086647247654
 10
140.8689510805683
 20
93.00863024581
 10
140.8833558858532
 20
93.02786895062633
 10
140.895898186419
 20
93.04849645953962
 10
140.9064380252635
 20
93.07036204962463
 10
140.9148677431545
 20
93.09335806164907
 10
140.9210366171667
 20
93.11733377268764
 10
140.9248369880677
 20
93.14219228943128
 10
140.9261288988556
 20
93.16779365487795
 10
140.9261288988556
 20
93.16779365487795
 10
140.9248262221445
 20
93.19331965886198
 10
140.9210366171667
 20
93.21813511191269
 10
140.9148785090777
 20
93.2420569933351
 10
140.9064487911867
 20
93.26499917574337
 10
140.895898186419
 20
93.28684323398193
 10
140.8833666517765
 20
93.30743844512553
 10
140.8689510805683
 20
93.32665561809537
 10
140.8527914297964
 20
93.34439785958239
 10
140.8350168905397
 20
93.36051444666131
 10
140.8157566538769
 20
93.3748977200998
 10
140.7951399108869
 20
93.38740772289586
 10
140.7732743208018
 20
93.39792602989392
 10
140.7503106065471
 20
93.40632345001521
 10
140.726356427355
 20
93.41248155810413
 10
140.7015409743043
 20
93.41626039715871
 10
140.676004204397
 20
93.41755230794661
 10
140.676004204397
 20
93.41755230794661
 10
140.6504566685665
 20
93.41627116308194
 10
140.625651981439
 20
93.41247079218091
 10
140.6016978022469
 20
93.40632345001521
 10
140.5787340879922
 20
93.39792602989392
 10
140.5568684979072
 20
93.38740772289586
 10
140.5362517549171
 20
93.3748977200998
 10
140.5169807523311
 20
93.36051444666131
 10
140.4992169789977
 20
93.34439785958239
 10
140.483068094149
 20
93.32666638401861
 10
140.4686525229408
 20
93.30742767920229
 10
140.4561102223751
 20
93.28684323398193
 10
140.4455596176073
 20
93.26500994166659
 10
140.4371406656396
 20
93.2420569933351
 10
140.4309717916274
 20
93.21812434598945
 10
140.4271714207264
 20
93.19333042478522
 10
140.4258795099385
 20
93.16779365487795
 10
140.4258795099385
 20
93.16779365487795
 10
140.4271714207264
 20
93.14219228943128
 10
140.4309717916274
 20
93.11734453861087
 10
140.4371514315628
 20
93.09335806164907
 10
140.4455703835305
 20
93.07036204962463
 10
140.4561102223751
 20
93.04849645953962
 10
140.4686632888641
 20
93.02787971654956
 10
140.483068094149
 20
93.00863024581
 10
140.4992169789977
 20
92.99086647247654
 10
140.5169915182543
 20
92.97473911947438
 10
140.5362517549171
 20
92.96034508011266
 10
140.5568684979072
 20
92.94782431139336
 10
140.5787340879922
 20
92.9373060043953
 10
140.6016978022469
 20
92.92889781835078
 10
140.625651981439
 20
92.92273971026185
 10
140.6504674344898
 20
92.91896087120728
 97
        0
 75
     1
 76
     1
 98
        0
  0
LWPOLYLINE
  5
8C
330
1F
100
AcDbEntity
  8
レイヤー_1
  6
Continuous
 62
   250
420
  2367521
370
    13
100
AcDbPolyline
 90
       68
 70
     0
 43
0.0
 10
140.676004204397
 20
92.91766896041938
 10
140.7015409743043
 20
92.91896087120728
 10
140.7263456614318
 20
92.92273971026185
 10
140.7503106065471
 20
92.92889781835078
 10
140.7732850867251
 20
92.9373060043953
 10
140.7951399108869
 20
92.94782431139336
 10
140.8157674198002
 20
92.96034508011266
 10
140.8350168905397
 20
92.97473911947438
 10
140.8527914297964
 20
92.99086647247654
 10
140.8689510805683
 20
93.00863024581
 10
140.8833558858532
 20
93.02786895062633
 10
140.895898186419
 20
93.04849645953962
 10
140.9064380252635
 20
93.07036204962463
 10
140.9148677431545
 20
93.09335806164907
 10
140.9210366171667
 20
93.11733377268764
 10
140.9248369880677
 20
93.14219228943128
 10
140.9261288988556
 20
93.16779365487795
 10
140.9261288988556
 20
93.16779365487795
 10
140.9248262221445
 20
93.19331965886198
 10
140.9210366171667
 20
93.21813511191269
 10
140.9148785090777
 20
93.2420569933351
 10
140.9064487911867
 20
93.26499917574337
 10
140.895898186419
 20
93.28684323398193
 10
140.8833666517765
 20
93.30743844512553
 10
140.8689510805683
 20
93.32665561809537
 10
140.8527914297964
 20
93.34439785958239
 10
140.8350168905397
 20
93.36051444666131
 10
140.8157566538769
 20
93.3748977200998
 10
140.7951399108869
 20
93.38740772289586
 10
140.7732743208018
 20
93.39792602989392
 10
140.7503106065471
 20
93.40632345001521
 10
140.726356427355
 20
93.41248155810413
 10
140.7015409743043
 20
93.41626039715871
 10
140.676004204397
 20
93.41755230794661
 10
140.676004204397
 20
93.41755230794661
 10
140.6504566685665
 20
93.41627116308194
 10
140.625651981439
 20
93.41247079218091
 10
140.6016978022469
 20
93.40632345001521
 10
140.5787340879922
 20
93.39792602989392
 10
140.5568684979072
 20
93.38740772289586
 10
140.5362517549171
 20
93.3748977200998
 10
140.5169807523311
 20
93.36051444666131
 10
140.4992169789977
 20
93.34439785958239
 10
140.483068094149
 20
93.32666638401861
 10
140.4686525229408
 20
93.30742767920229
 10
140.4561102223751
 20
93.28684323398193
 10
140.4455596176073
 20
93.26500994166659
 10
140.4371406656396
 20
93.2420569933351
 10
140.4309717916274
 20
93.21812434598945
 10
140.4271714207264
 20
93.19333042478522
 10
140.4258795099385
 20
93.16779365487795
 10
140.4258795099385
 20
93.16779365487795
 10
140.4271714207264
 20
93.14219228943128
 10
140.4309717916274
 20
93.11734453861087
 10
140.4371514315628
 20
93.09335806164907
 10
140.4455703835305
 20
93.07036204962463
 10
140.4561102223751
 20
93.04849645953962
 10
140.4686632888641
 20
93.02787971654956
 10
140.483068094149
 20
93.00863024581
 10
140.4992169789977
 20
92.99086647247654
 10
140.5169915182543
 20
92.97473911947438
 10
140.5362517549171
 20
92.96034508011266
 10
140.5568684979072
 20
92.94782431139336
 10
140.5787340879922
 20
92.9373060043953
 10
140.6016978022469
 20
92.92889781835078
 10
140.625651981439
 20
92.92273971026185
 10
140.6504674344898
 20
92.91896087120728
 10
140.676004204397
 20
92.91766896041938
  0
HATCH
  5
8D
330
1F
100
AcDbEntity
  8
レイヤー_1
  6
Continuous
 62
   250
420
  2367521
370
    13
100
AcDbHatch
 10
0.0
 20
0.0
 30
0.0
210
0.0
220
0.0
230
1.0
  2
SOLID
 70
     1
 71
     0
 91
        1
 92
        3
 72
     0
 73
     1
 93
       67
 10
146.1740320081097
 20
109.3545422555002
 10
146.1995580120937
 20
109.3558341662881
 10
146.224351933298
 20
109.3596130053427
 10
146.2482738147203
 20
109.3657711134316
 10
146.2711944652822
 20
109.3741685335529
 10
146.293006225751
 20
109.3846976064742
 10
146.3135583732017
 20
109.3972183751935
 10
146.3327647802483
 20
109.411601648632
 10
146.3504639580424
 20
109.4277397675574
 10
146.3665590132748
 20
109.4454927749676
 10
146.3808992230204
 20
109.4647530116304
 10
146.39338769397
 20
109.4853697546205
 10
146.4038737031984
 20
109.5072461106287
 10
146.4122495914732
 20
109.5302313567299
 10
146.4183861677157
 20
109.5542070677685
 10
146.4221650067702
 20
109.5790655845121
 10
146.4234461516349
 20
109.6046669499588
 10
146.4234461516349
 20
109.6046669499588
 10
146.422154240847
 20
109.6302037198661
 10
146.4183861677157
 20
109.6549868751471
 10
146.4122495914732
 20
109.6789410543392
 10
146.4038737031984
 20
109.7018832367475
 10
146.39338769397
 20
109.7237057631395
 10
146.3808992230204
 20
109.7443009742831
 10
146.3665590132748
 20
109.7635289131762
 10
146.3504639580424
 20
109.7812711546633
 10
146.3327540143251
 20
109.7973877417422
 10
146.3135691391249
 20
109.8117710151807
 10
146.293006225751
 20
109.8242810179767
 10
146.2711944652822
 20
109.8347993249748
 10
146.2482738147203
 20
109.8431967450961
 10
146.224351933298
 20
109.849354853185
 10
146.199568778017
 20
109.8531336922396
 10
146.1740320081097
 20
109.8544256030275
 10
146.1740320081097
 20
109.8544256030275
 10
146.1483660471236
 20
109.8531336922396
 10
146.1234752326102
 20
109.8493440872618
 10
146.099467223802
 20
109.8431967450961
 10
146.0764604458543
 20
109.8347885590516
 10
146.0545948557693
 20
109.8242810179767
 10
146.0339565809328
 20
109.8117710151807
 10
146.0147178761165
 20
109.7973877417422
 10
145.9969756346295
 20
109.7812711546633
 10
145.9808698134738
 20
109.7635289131762
 10
145.9664973059585
 20
109.7443117402064
 10
145.9539873031624
 20
109.7237165290628
 10
145.9434905280108
 20
109.7018832367475
 10
145.9351038738128
 20
109.678930288416
 10
145.9289672975703
 20
109.6549976410703
 10
145.9251884585157
 20
109.6302037198661
 10
145.9239073136511
 20
109.6046669499588
 10
145.9239073136511
 20
109.6046669499588
 10
145.925199224439
 20
109.5790655845121
 10
145.9289672975703
 20
109.5542178336917
 10
145.935114639736
 20
109.5302313567299
 10
145.9434905280108
 20
109.5072353447055
 10
145.9539980690857
 20
109.4853697546205
 10
145.9664973059585
 20
109.4647530116304
 10
145.9808590475506
 20
109.4454927749676
 10
145.9969756346295
 20
109.4277397675574
 10
146.0147178761165
 20
109.411601648632
 10
146.033967346856
 20
109.3972183751935
 10
146.0545840898461
 20
109.3846976064742
 10
146.0764604458543
 20
109.3741792994762
 10
146.099467223802
 20
109.3657711134316
 10
146.1234752326102
 20
109.3596130053427
 10
146.1483768130468
 20
109.3558341662881
 97
        0
 75
     1
 76
     1
 98
        0
  0
LWPOLYLINE
  5
8E
330
1F
100
AcDbEntity
  8
レイヤー_1
  6
Continuous
 62
   250
420
  2367521
370
    13
100
AcDbPolyline
 90
       68
 70
     0
 43
0.0
 10
146.1740320081097
 20
109.3545422555002
 10
146.1995580120937
 20
109.3558341662881
 10
146.224351933298
 20
109.3596130053427
 10
146.2482738147203
 20
109.3657711134316
 10
146.2711944652822
 20
109.3741685335529
 10
146.293006225751
 20
109.3846976064742
 10
146.3135583732017
 20
109.3972183751935
 10
146.3327647802483
 20
109.411601648632
 10
146.3504639580424
 20
109.4277397675574
 10
146.3665590132748
 20
109.4454927749676
 10
146.3808992230204
 20
109.4647530116304
 10
146.39338769397
 20
109.4853697546205
 10
146.4038737031984
 20
109.5072461106287
 10
146.4122495914732
 20
109.5302313567299
 10
146.4183861677157
 20
109.5542070677685
 10
146.4221650067702
 20
109.5790655845121
 10
146.4234461516349
 20
109.6046669499588
 10
146.4234461516349
 20
109.6046669499588
 10
146.422154240847
 20
109.6302037198661
 10
146.4183861677157
 20
109.6549868751471
 10
146.4122495914732
 20
109.6789410543392
 10
146.4038737031984
 20
109.7018832367475
 10
146.39338769397
 20
109.7237057631395
 10
146.3808992230204
 20
109.7443009742831
 10
146.3665590132748
 20
109.7635289131762
 10
146.3504639580424
 20
109.7812711546633
 10
146.3327540143251
 20
109.7973877417422
 10
146.3135691391249
 20
109.8117710151807
 10
146.293006225751
 20
109.8242810179767
 10
146.2711944652822
 20
109.8347993249748
 10
146.2482738147203
 20
109.8431967450961
 10
146.224351933298
 20
109.849354853185
 10
146.199568778017
 20
109.8531336922396
 10
146.1740320081097
 20
109.8544256030275
 10
146.1740320081097
 20
109.8544256030275
 10
146.1483660471236
 20
109.8531336922396
 10
146.1234752326102
 20
109.8493440872618
 10
146.099467223802
 20
109.8431967450961
 10
146.0764604458543
 20
109.8347885590516
 10
146.0545948557693
 20
109.8242810179767
 10
146.0339565809328
 20
109.8117710151807
 10
146.0147178761165
 20
109.7973877417422
 10
145.9969756346295
 20
109.7812711546633
 10
145.9808698134738
 20
109.7635289131762
 10
145.9664973059585
 20
109.7443117402064
 10
145.9539873031624
 20
109.7237165290628
 10
145.9434905280108
 20
109.7018832367475
 10
145.9351038738128
 20
109.678930288416
 10
145.9289672975703
 20
109.6549976410703
 10
145.9251884585157
 20
109.6302037198661
 10
145.9239073136511
 20
109.6046669499588
 10
145.9239073136511
 20
109.6046669499588
 10
145.925199224439
 20
109.5790655845121
 10
145.9289672975703
 20
109.5542178336917
 10
145.935114639736
 20
109.5302313567299
 10
145.9434905280108
 20
109.5072353447055
 10
145.9539980690857
 20
109.4853697546205
 10
145.9664973059585
 20
109.4647530116304
 10
145.9808590475506
 20
109.4454927749676
 10
145.9969756346295
 20
109.4277397675574
 10
146.0147178761165
 20
109.411601648632
 10
146.033967346856
 20
109.3972183751935
 10
146.0545840898461
 20
109.3846976064742
 10
146.0764604458543
 20
109.3741792994762
 10
146.099467223802
 20
109.3657711134316
 10
146.1234752326102
 20
109.3596130053427
 10
146.1483768130468
 20
109.3558341662881
 10
146.1740320081097
 20
109.3545422555002
  0
HATCH
  5
8F
330
1F
100
AcDbEntity
  8
レイヤー_1
  6
Continuous
 62
   250
420
  2367521
370
    13
100
AcDbHatch
 10
0.0
 20
0.0
 30
0.0
210
0.0
220
0.0
230
1.0
  2
SOLID
 70
     1
 71
     0
 91
        2
 92
        3
 72
     0
 73
     1
 93
      101
 10
151.2896219208374
 20
112.3278641679038
 10
151.2711583624938
 20
112.3150204214875
 10
151.2539005875523
 20
112.3008524665137
 10
151.2378055323198
 20
112.285489494061
 10
151.2228947286429
 20
112.268996099669
 10
151.2091574105984
 20
112.2514584107234
 10
151.1966366418791
 20
112.2329517886869
 10
151.1853001247154
 20
112.2136054246382
 10
151.175137093184
 20
112.1934516163472
 10
151.1661798450546
 20
112.1726195548924
 10
151.1584068484808
 20
112.1511738358135
 10
151.1518288693858
 20
112.1292005864962
 10
151.1464459077696
 20
112.1067967002495
 10
151.1422579636322
 20
112.0840590703827
 10
151.1392650369736
 20
112.061052292435
 10
151.1374671277938
 20
112.0378624937924
 10
151.1368642360928
 20
112.0145973336872
 10
151.1368642360928
 20
112.0145973336872
 10
151.1381776787271
 20
111.9804262933475
 10
151.1420103473978
 20
111.9467612513997
 10
151.1482653487959
 20
111.9137098670762
 10
151.1568027259192
 20
111.8813905655326
 10
151.1675148195354
 20
111.8499002400778
 10
151.1802939704123
 20
111.8193250180977
 10
151.1949786897013
 20
111.7898156225177
 10
151.2114828500166
 20
111.7614366488771
 10
151.2296664943561
 20
111.7343065223314
 10
151.2494219634876
 20
111.7085544339595
 10
151.2706200663322
 20
111.6842557452239
 10
151.2931316118112
 20
111.6615288812803
 10
151.3168597066154
 20
111.6404707354377
 10
151.3416643937429
 20
111.6212104987749
 10
151.3674380139612
 20
111.6038235327546
 10
151.3940406102685
 20
111.5884390284555
 10
151.3940406102685
 20
111.5884390284555
 10
151.4063029968303
 20
111.5902584694817
 10
151.418845297396
 20
111.5924762496676
 10
151.4315598527335
 20
111.5950923690131
 10
151.4443820673033
 20
111.5980099342091
 10
151.4572258137196
 20
111.6012289452556
 10
151.4700157305197
 20
111.6046632747667
 10
151.482676456241
 20
111.6083021568193
 10
151.4951218634976
 20
111.6120702299506
 10
151.5072658249038
 20
111.6159567282375
 10
151.5190222130736
 20
111.6198862902173
 10
151.5303156665444
 20
111.6238266181204
 10
151.5410923557
 20
111.6277346482538
 10
151.551233855385
 20
111.6315565510013
 10
151.5606755700598
 20
111.63524926267
 10
151.5693313723386
 20
111.6387589536437
 10
151.5771366666821
 20
111.6420640920761
 10
151.5771366666821
 20
111.6420640920761
 10
151.6025980751268
 20
111.6541219260964
 10
151.6269075297856
 20
111.6680207329894
 10
151.6500004351191
 20
111.6836528535229
 10
151.6718337274344
 20
111.7009429262341
 10
151.6923212793457
 20
111.7197832918909
 10
151.7113984953135
 20
111.740077057184
 10
151.7289792479521
 20
111.7617703924973
 10
151.7450097076451
 20
111.7847233408287
 10
151.7594145129301
 20
111.8088605407158
 10
151.7721290682675
 20
111.8340958647726
 10
151.7830780121949
 20
111.86033241969
 10
151.7921859832495
 20
111.8874733121589
 10
151.7993991518152
 20
111.9154431807167
 10
151.8046313905062
 20
111.944134366131
 10
151.8078288697062
 20
111.9734499750929
 10
151.8089054620294
 20
112.0033038802164
 10
151.8089054620294
 20
112.0033038802164
 10
151.8068276388456
 20
112.053548443942
 10
151.8008525514516
 20
112.0996481272232
 10
151.7912278160818
 20
112.141699823369
 10
151.7782979422797
 20
112.1798434893814
 10
151.7623428440493
 20
112.2141760185696
 10
151.743707030934
 20
112.2448588997819
 10
151.7226488850914
 20
112.2720105581741
 10
151.6995021501417
 20
112.295770950748
 10
151.6745682719354
 20
112.3162369708128
 10
151.6481486963231
 20
112.333570107217
 10
151.6205448691552
 20
112.3478887851161
 10
151.5920690022055
 20
112.3593114296657
 10
151.5630225413244
 20
112.3679779978678
 10
151.5337176982858
 20
112.3739961489547
 10
151.5044559189402
 20
112.3775273717749
 10
151.4755386491379
 20
112.3786685596375
 10
151.4755386491379
 20
112.3786685596375
 10
151.4633731558853
 20
112.3784317093264
 10
151.4510892374771
 20
112.3777534561628
 10
151.438762255376
 20
112.3766445660698
 10
151.4263922095819
 20
112.3750942731244
 10
151.4140436956343
 20
112.3731456410193
 10
151.4017382453797
 20
112.3707771379082
 10
151.3895189225109
 20
112.3680318274839
 10
151.3774180247977
 20
112.3649097097465
 10
151.3654893818562
 20
112.3614215506192
 10
151.3537545255329
 20
112.3575888819485
 10
151.3422457535974
 20
112.3534009378111
 10
151.3310276615892
 20
112.3489007818999
 10
151.3201110154316
 20
112.3440776482918
 10
151.3095496447406
 20
112.3389638347564
 10
151.299375847286
 20
112.3335485753705
 97
        0
 92
        3
 72
     0
 73
     1
 93
      187
 10
150.4373160762973
 20
112.4605111080503
 10
150.437348374067
 20
112.4494222071209
 10
150.4374345014528
 20
112.4383979017309
 10
150.4375744584548
 20
112.4275673829591
 10
150.4377574791498
 20
112.4169844804217
 10
150.4379727976145
 20
112.4067676192741
 10
150.4381988820023
 20
112.3969598632094
 10
150.4384680300831
 20
112.3876904033063
 10
150.4387264122407
 20
112.379013069181
 10
150.4389847943983
 20
112.3710570519122
 10
150.4392431765559
 20
112.3638546492697
 10
150.439480026867
 20
112.3575242864091
 10
150.4396953453316
 20
112.3521628566393
 10
150.4398783660266
 20
112.3478457214232
 10
150.4400183230286
 20
112.3446374762999
 10
150.4401044504145
 20
112.3426565464251
 10
150.4401367481842
 20
112.3419782932615
 10
150.4401367481842
 20
112.3419782932615
 10
150.4400613867215
 20
112.3409447646312
 10
150.4398783660266
 20
112.3399758315403
 10
150.4395769201761
 20
112.3390499621423
 10
150.4392001128629
 20
112.3381886882837
 10
150.4387371781639
 20
112.3373381803483
 10
150.4382527116185
 20
112.3365199701827
 10
150.4377036495336
 20
112.3357125259402
 10
150.4371438215256
 20
112.334915847621
 10
150.4365732275942
 20
112.3341191693018
 10
150.4360349314326
 20
112.3333224909826
 10
150.4355289330407
 20
112.3324935148937
 10
150.4350767642649
 20
112.3316537728816
 10
150.4346999569518
 20
112.3307709671765
 10
150.4343985111013
 20
112.3298558637018
 10
150.4342047244831
 20
112.3288869306109
 10
150.4341401289437
 20
112.3278641679038
 10
150.4341401289437
 20
112.3278641679038
 10
150.4345922977195
 20
112.3038669250188
 10
150.4359488040467
 20
112.2795359385135
 10
150.4381773501559
 20
112.2549788676204
 10
150.4412348723538
 20
112.2302387760323
 10
150.4451106047175
 20
112.2054017911351
 10
150.4497722494772
 20
112.1805325084683
 10
150.4551659770166
 20
112.1557170554176
 10
150.4613025532591
 20
112.1310092615992
 10
150.4681281485884
 20
112.1065275521687
 10
150.4756212311582
 20
112.0823042248958
 10
150.4837387372754
 20
112.0584254071663
 10
150.4924806669401
 20
112.0349664604429
 10
150.5017931905361
 20
112.0120135121114
 10
150.5116547762171
 20
111.9896311577112
 10
150.5220438921363
 20
111.967894758705
 10
150.532917474601
 20
111.9468689106321
 10
150.532917474601
 20
111.9468689106321
 10
150.5577975231911
 20
111.90512942626
 10
150.5856597325166
 20
111.8657046153829
 10
150.6163856774219
 20
111.8286160098473
 10
150.6498461668282
 20
111.7939389711157
 10
150.6859335415033
 20
111.7617057969579
 10
150.7245186103682
 20
111.7319595510667
 10
150.7654937141908
 20
111.7047648289817
 10
150.8087404278154
 20
111.6801539284724
 10
150.8541295601632
 20
111.6582129769247
 10
150.9015426860788
 20
111.6389635061852
 10
150.9508721463297
 20
111.6224378140234
 10
151.0019779839139
 20
111.6087220278253
 10
151.0547525395992
 20
111.5978484453606
 10
151.1090773882299
 20
111.5898708962454
 10
151.1648341046505
 20
111.5848432100959
 10
151.2218934977823
 20
111.5827976846817
 10
151.2218934977823
 20
111.5827976846817
 10
151.2015243710266
 20
111.5988173784515
 10
151.1807999688042
 20
111.6161074511628
 10
151.1599356095798
 20
111.6347432642781
 10
151.1391573777412
 20
111.6548324770297
 10
151.1187236554462
 20
111.6764504508804
 10
151.0988497611591
 20
111.6996725472927
 10
151.0797725451913
 20
111.7246171914222
 10
151.0617288578538
 20
111.7513382128851
 10
151.0449340176112
 20
111.7799325049903
 10
151.0296248747747
 20
111.8105077269704
 10
151.0160382796554
 20
111.8431177084413
 10
151.0044003166412
 20
111.8778701086355
 10
150.9949478360431
 20
111.9148510549389
 10
150.9879069222491
 20
111.954135908814
 10
150.9835144255703
 20
111.9958215635698
 10
150.9819964303945
 20
112.0399941465924
 10
150.9819964303945
 20
112.0399941465924
 10
150.9846340815865
 20
112.0966444346413
 10
150.9923101848512
 20
112.1501080094135
 10
151.0047878898775
 20
112.2003202753694
 10
151.0217657508151
 20
112.2472489347395
 10
151.0429423218132
 20
112.2907970942146
 10
151.0680699866377
 20
112.3309001582553
 10
151.0968365335146
 20
112.3675042972455
 10
151.1289728143634
 20
112.4005341497226
 10
151.1641773833334
 20
112.429925120147
 10
151.202191858267
 20
112.4556126129796
 10
151.2427040273906
 20
112.4775212667575
 10
151.2854555085465
 20
112.495608017788
 10
151.3301448558842
 20
112.5097867386851
 10
151.376502921323
 20
112.5199928339094
 10
151.4242390249354
 20
112.5261724738448
 10
151.4730624867944
 20
112.5282395311054
 10
151.4730624867944
 20
112.5282395311054
 10
151.5250295982373
 20
112.5257956665316
 10
151.5750696094215
 20
112.5185824979659
 10
151.6230210314987
 20
112.5067830461032
 10
151.6686577800808
 20
112.4905695657152
 10
151.7117753026266
 20
112.4701896730363
 10
151.7522013443643
 20
112.4457940909916
 10
151.7897098209061
 20
112.4175658402762
 10
151.8241284774801
 20
112.3857202393548
 10
151.8552419956217
 20
112.3504187770757
 10
151.8828350568664
 20
112.3118875378269
 10
151.9067461723656
 20
112.2702880104569
 10
151.9267492577314
 20
112.225824747507
 10
151.9426505263457
 20
112.1786700037491
 10
151.9542561915902
 20
112.1290390976477
 10
151.9613724668468
 20
112.0771042839745
 10
151.9637840336509
 20
112.0230593493478
 10
151.9637840336509
 20
112.0230593493478
 10
151.9617277423135
 20
111.9759369033596
 10
151.9553435498367
 20
111.9271134415006
 10
151.9443300103699
 20
111.8772241532416
 10
151.9284287417557
 20
111.826936525823
 10
151.9073060003737
 20
111.7768857487156
 10
151.8807034040664
 20
111.7277500750828
 10
151.8482979751368
 20
111.6801754603188
 10
151.8097882677345
 20
111.6348293916639
 10
151.7649158997018
 20
111.5923685904353
 10
151.7133578933418
 20
111.5534174801804
 10
151.6548235687272
 20
111.5186758459095
 10
151.5890330118539
 20
111.4887681111698
 10
151.5156740109483
 20
111.4643725291252
 10
151.434455886083
 20
111.4461350551695
 10
151.345098723254
 20
111.4347016446967
 10
151.2472903106876
 20
111.4307505508704
 10
151.2472903106876
 20
111.4307505508704
 10
151.1699694500324
 20
111.432677651129
 10
151.0966750446662
 20
111.4383512926725
 10
151.0272886694333
 20
111.4476207525756
 10
150.9616703673317
 20
111.4603676056827
 10
150.8996694154363
 20
111.4764411290687
 10
150.8411889204379
 20
111.495679833885
 10
150.7860781594111
 20
111.5179545290529
 10
150.7342079412774
 20
111.543114491647
 10
150.6854706068043
 20
111.5710197646654
 10
150.6396939012201
 20
111.6015303911061
 10
150.5967809312157
 20
111.6344956480437
 10
150.5565809738659
 20
111.6697755784763
 10
150.5189756040151
 20
111.7072194594787
 10
150.4838248646613
 20
111.7466980999719
 10
150.4509995647257
 20
111.7880607770308
 10
150.4203812790527
 20
111.8311567677301
 10
150.4203812790527
 20
111.8311567677301
 10
150.4029835471091
 20
111.8584699149708
 10
150.3867593007979
 20
111.8864397835286
 10
150.3717300719654
 20
111.9150340756338
 10
150.3578527969188
 20
111.9442635572098
 10
150.3451274756582
 20
111.9741066964101
 10
150.3335541081833
 20
112.0045419613881
 10
150.3231326944943
 20
112.0355585862207
 10
150.3138417027448
 20
112.0671565709078
 10
150.3056703670114
 20
112.0993251495262
 10
150.2986079213709
 20
112.1320320243063
 10
150.2926651317466
 20
112.1652879611712
 10
150.287820466292
 20
112.1990606623513
 10
150.2840631590839
 20
112.2333501278465
 10
150.2813932101223
 20
112.2681348258104
 10
150.2797890875607
 20
112.3034039903198
 10
150.2792615573223
 20
112.3391576213746
 10
150.2792615573223
 20
112.5395329845762
 10
150.4401367481842
 20
112.5395329845762
 10
150.4396307497922
 20
112.5357003159055
 10
150.4392108787862
 20
112.5316092650771
 10
150.438834071473
 20
112.5273244276307
 10
150.4385003278528
 20
112.5228135057963
 10
150.438231179772
 20
112.5181410951134
 10
150.4379943294609
 20
112.5132964296588
 10
150.4378220746892
 20
112.508301041279
 10
150.4376713517639
 20
112.5031979936668
 10
150.4375529266084
 20
112.4979872868223
 10
150.4374667992225
 20
112.4927012185152
 10
150.4374022036831
 20
112.4873613205919
 10
150.4373591399902
 20
112.481989124899
 10
150.4373376081437
 20
112.4765953973595
 10
150.4373160762973
 20
112.4712016698201
 10
150.4373160762973
 20
112.4658294741271
 97
        0
 75
     1
 76
     1
 98
        0
  0
LWPOLYLINE
  5
90
330
1F
100
AcDbEntity
  8
レイヤー_1
  6
Continuous
 62
   250
420
  2367521
370
    13
100
AcDbPolyline
 90
      102
 70
     0
 43
0.0
 10
151.2896219208374
 20
112.3278641679038
 10
151.2711583624938
 20
112.3150204214875
 10
151.2539005875523
 20
112.3008524665137
 10
151.2378055323198
 20
112.285489494061
 10
151.2228947286429
 20
112.268996099669
 10
151.2091574105984
 20
112.2514584107234
 10
151.1966366418791
 20
112.2329517886869
 10
151.1853001247154
 20
112.2136054246382
 10
151.175137093184
 20
112.1934516163472
 10
151.1661798450546
 20
112.1726195548924
 10
151.1584068484808
 20
112.1511738358135
 10
151.1518288693858
 20
112.1292005864962
 10
151.1464459077696
 20
112.1067967002495
 10
151.1422579636322
 20
112.0840590703827
 10
151.1392650369736
 20
112.061052292435
 10
151.1374671277938
 20
112.0378624937924
 10
151.1368642360928
 20
112.0145973336872
 10
151.1368642360928
 20
112.0145973336872
 10
151.1381776787271
 20
111.9804262933475
 10
151.1420103473978
 20
111.9467612513997
 10
151.1482653487959
 20
111.9137098670762
 10
151.1568027259192
 20
111.8813905655326
 10
151.1675148195354
 20
111.8499002400778
 10
151.1802939704123
 20
111.8193250180977
 10
151.1949786897013
 20
111.7898156225177
 10
151.2114828500166
 20
111.7614366488771
 10
151.2296664943561
 20
111.7343065223314
 10
151.2494219634876
 20
111.7085544339595
 10
151.2706200663322
 20
111.6842557452239
 10
151.2931316118112
 20
111.6615288812803
 10
151.3168597066154
 20
111.6404707354377
 10
151.3416643937429
 20
111.6212104987749
 10
151.3674380139612
 20
111.6038235327546
 10
151.3940406102685
 20
111.5884390284555
 10
151.3940406102685
 20
111.5884390284555
 10
151.4063029968303
 20
111.5902584694817
 10
151.418845297396
 20
111.5924762496676
 10
151.4315598527335
 20
111.5950923690131
 10
151.4443820673033
 20
111.5980099342091
 10
151.4572258137196
 20
111.6012289452556
 10
151.4700157305197
 20
111.6046632747667
 10
151.482676456241
 20
111.6083021568193
 10
151.4951218634976
 20
111.6120702299506
 10
151.5072658249038
 20
111.6159567282375
 10
151.5190222130736
 20
111.6198862902173
 10
151.5303156665444
 20
111.6238266181204
 10
151.5410923557
 20
111.6277346482538
 10
151.551233855385
 20
111.6315565510013
 10
151.5606755700598
 20
111.63524926267
 10
151.5693313723386
 20
111.6387589536437
 10
151.5771366666821
 20
111.6420640920761
 10
151.5771366666821
 20
111.6420640920761
 10
151.6025980751268
 20
111.6541219260964
 10
151.6269075297856
 20
111.6680207329894
 10
151.6500004351191
 20
111.6836528535229
 10
151.6718337274344
 20
111.7009429262341
 10
151.6923212793457
 20
111.7197832918909
 10
151.7113984953135
 20
111.740077057184
 10
151.7289792479521
 20
111.7617703924973
 10
151.7450097076451
 20
111.7847233408287
 10
151.7594145129301
 20
111.8088605407158
 10
151.7721290682675
 20
111.8340958647726
 10
151.7830780121949
 20
111.86033241969
 10
151.7921859832495
 20
111.8874733121589
 10
151.7993991518152
 20
111.9154431807167
 10
151.8046313905062
 20
111.944134366131
 10
151.8078288697062
 20
111.9734499750929
 10
151.8089054620294
 20
112.0033038802164
 10
151.8089054620294
 20
112.0033038802164
 10
151.8068276388456
 20
112.053548443942
 10
151.8008525514516
 20
112.0996481272232
 10
151.7912278160818
 20
112.141699823369
 10
151.7782979422797
 20
112.1798434893814
 10
151.7623428440493
 20
112.2141760185696
 10
151.743707030934
 20
112.2448588997819
 10
151.7226488850914
 20
112.2720105581741
 10
151.6995021501417
 20
112.295770950748
 10
151.6745682719354
 20
112.3162369708128
 10
151.6481486963231
 20
112.333570107217
 10
151.6205448691552
 20
112.3478887851161
 10
151.5920690022055
 20
112.3593114296657
 10
151.5630225413244
 20
112.3679779978678
 10
151.5337176982858
 20
112.3739961489547
 10
151.5044559189402
 20
112.3775273717749
 10
151.4755386491379
 20
112.3786685596375
 10
151.4755386491379
 20
112.3786685596375
 10
151.4633731558853
 20
112.3784317093264
 10
151.4510892374771
 20
112.3777534561628
 10
151.438762255376
 20
112.3766445660698
 10
151.4263922095819
 20
112.3750942731244
 10
151.4140436956343
 20
112.3731456410193
 10
151.4017382453797
 20
112.3707771379082
 10
151.3895189225109
 20
112.3680318274839
 10
151.3774180247977
 20
112.3649097097465
 10
151.3654893818562
 20
112.3614215506192
 10
151.3537545255329
 20
112.3575888819485
 10
151.3422457535974
 20
112.3534009378111
 10
151.3310276615892
 20
112.3489007818999
 10
151.3201110154316
 20
112.3440776482918
 10
151.3095496447406
 20
112.3389638347564
 10
151.299375847286
 20
112.3335485753705
 10
151.2896219208374
 20
112.3278641679038
  0
LWPOLYLINE
  5
91
330
1F
100
AcDbEntity
  8
レイヤー_1
  6
Continuous
 62
   250
420
  2367521
370
    13
100
AcDbPolyline
 90
      188
 70
     0
 43
0.0
 10
150.4373160762973
 20
112.4605111080503
 10
150.437348374067
 20
112.4494222071209
 10
150.4374345014528
 20
112.4383979017309
 10
150.4375744584548
 20
112.4275673829591
 10
150.4377574791498
 20
112.4169844804217
 10
150.4379727976145
 20
112.4067676192741
 10
150.4381988820023
 20
112.3969598632094
 10
150.4384680300831
 20
112.3876904033063
 10
150.4387264122407
 20
112.379013069181
 10
150.4389847943983
 20
112.3710570519122
 10
150.4392431765559
 20
112.3638546492697
 10
150.439480026867
 20
112.3575242864091
 10
150.4396953453316
 20
112.3521628566393
 10
150.4398783660266
 20
112.3478457214232
 10
150.4400183230286
 20
112.3446374762999
 10
150.4401044504145
 20
112.3426565464251
 10
150.4401367481842
 20
112.3419782932615
 10
150.4401367481842
 20
112.3419782932615
 10
150.4400613867215
 20
112.3409447646312
 10
150.4398783660266
 20
112.3399758315403
 10
150.4395769201761
 20
112.3390499621423
 10
150.4392001128629
 20
112.3381886882837
 10
150.4387371781639
 20
112.3373381803483
 10
150.4382527116185
 20
112.3365199701827
 10
150.4377036495336
 20
112.3357125259402
 10
150.4371438215256
 20
112.334915847621
 10
150.4365732275942
 20
112.3341191693018
 10
150.4360349314326
 20
112.3333224909826
 10
150.4355289330407
 20
112.3324935148937
 10
150.4350767642649
 20
112.3316537728816
 10
150.4346999569518
 20
112.3307709671765
 10
150.4343985111013
 20
112.3298558637018
 10
150.4342047244831
 20
112.3288869306109
 10
150.4341401289437
 20
112.3278641679038
 10
150.4341401289437
 20
112.3278641679038
 10
150.4345922977195
 20
112.3038669250188
 10
150.4359488040467
 20
112.2795359385135
 10
150.4381773501559
 20
112.2549788676204
 10
150.4412348723538
 20
112.2302387760323
 10
150.4451106047175
 20
112.2054017911351
 10
150.4497722494772
 20
112.1805325084683
 10
150.4551659770166
 20
112.1557170554176
 10
150.4613025532591
 20
112.1310092615992
 10
150.4681281485884
 20
112.1065275521687
 10
150.4756212311582
 20
112.0823042248958
 10
150.4837387372754
 20
112.0584254071663
 10
150.4924806669401
 20
112.0349664604429
 10
150.5017931905361
 20
112.0120135121114
 10
150.5116547762171
 20
111.9896311577112
 10
150.5220438921363
 20
111.967894758705
 10
150.532917474601
 20
111.9468689106321
 10
150.532917474601
 20
111.9468689106321
 10
150.5577975231911
 20
111.90512942626
 10
150.5856597325166
 20
111.8657046153829
 10
150.6163856774219
 20
111.8286160098473
 10
150.6498461668282
 20
111.7939389711157
 10
150.6859335415033
 20
111.7617057969579
 10
150.7245186103682
 20
111.7319595510667
 10
150.7654937141908
 20
111.7047648289817
 10
150.8087404278154
 20
111.6801539284724
 10
150.8541295601632
 20
111.6582129769247
 10
150.9015426860788
 20
111.6389635061852
 10
150.9508721463297
 20
111.6224378140234
 10
151.0019779839139
 20
111.6087220278253
 10
151.0547525395992
 20
111.5978484453606
 10
151.1090773882299
 20
111.5898708962454
 10
151.1648341046505
 20
111.5848432100959
 10
151.2218934977823
 20
111.5827976846817
 10
151.2218934977823
 20
111.5827976846817
 10
151.2015243710266
 20
111.5988173784515
 10
151.1807999688042
 20
111.6161074511628
 10
151.1599356095798
 20
111.6347432642781
 10
151.1391573777412
 20
111.6548324770297
 10
151.1187236554462
 20
111.6764504508804
 10
151.0988497611591
 20
111.6996725472927
 10
151.0797725451913
 20
111.7246171914222
 10
151.0617288578538
 20
111.7513382128851
 10
151.0449340176112
 20
111.7799325049903
 10
151.0296248747747
 20
111.8105077269704
 10
151.0160382796554
 20
111.8431177084413
 10
151.0044003166412
 20
111.8778701086355
 10
150.9949478360431
 20
111.9148510549389
 10
150.9879069222491
 20
111.954135908814
 10
150.9835144255703
 20
111.9958215635698
 10
150.9819964303945
 20
112.0399941465924
 10
150.9819964303945
 20
112.0399941465924
 10
150.9846340815865
 20
112.0966444346413
 10
150.9923101848512
 20
112.1501080094135
 10
151.0047878898775
 20
112.2003202753694
 10
151.0217657508151
 20
112.2472489347395
 10
151.0429423218132
 20
112.2907970942146
 10
151.0680699866377
 20
112.3309001582553
 10
151.0968365335146
 20
112.3675042972455
 10
151.1289728143634
 20
112.4005341497226
 10
151.1641773833334
 20
112.429925120147
 10
151.202191858267
 20
112.4556126129796
 10
151.2427040273906
 20
112.4775212667575
 10
151.2854555085465
 20
112.495608017788
 10
151.3301448558842
 20
112.5097867386851
 10
151.376502921323
 20
112.5199928339094
 10
151.4242390249354
 20
112.5261724738448
 10
151.4730624867944
 20
112.5282395311054
 10
151.4730624867944
 20
112.5282395311054
 10
151.5250295982373
 20
112.5257956665316
 10
151.5750696094215
 20
112.5185824979659
 10
151.6230210314987
 20
112.5067830461032
 10
151.6686577800808
 20
112.4905695657152
 10
151.7117753026266
 20
112.4701896730363
 10
151.7522013443643
 20
112.4457940909916
 10
151.7897098209061
 20
112.4175658402762
 10
151.8241284774801
 20
112.3857202393548
 10
151.8552419956217
 20
112.3504187770757
 10
151.8828350568664
 20
112.3118875378269
 10
151.9067461723656
 20
112.2702880104569
 10
151.9267492577314
 20
112.225824747507
 10
151.9426505263457
 20
112.1786700037491
 10
151.9542561915902
 20
112.1290390976477
 10
151.9613724668468
 20
112.0771042839745
 10
151.9637840336509
 20
112.0230593493478
 10
151.9637840336509
 20
112.0230593493478
 10
151.9617277423135
 20
111.9759369033596
 10
151.9553435498367
 20
111.9271134415006
 10
151.9443300103699
 20
111.8772241532416
 10
151.9284287417557
 20
111.826936525823
 10
151.9073060003737
 20
111.7768857487156
 10
151.8807034040664
 20
111.7277500750828
 10
151.8482979751368
 20
111.6801754603188
 10
151.8097882677345
 20
111.6348293916639
 10
151.7649158997018
 20
111.5923685904353
 10
151.7133578933418
 20
111.5534174801804
 10
151.6548235687272
 20
111.5186758459095
 10
151.5890330118539
 20
111.4887681111698
 10
151.5156740109483
 20
111.4643725291252
 10
151.434455886083
 20
111.4461350551695
 10
151.345098723254
 20
111.4347016446967
 10
151.2472903106876
 20
111.4307505508704
 10
151.2472903106876
 20
111.4307505508704
 10
151.1699694500324
 20
111.432677651129
 10
151.0966750446662
 20
111.4383512926725
 10
151.0272886694333
 20
111.4476207525756
 10
150.9616703673317
 20
111.4603676056827
 10
150.8996694154363
 20
111.4764411290687
 10
150.8411889204379
 20
111.495679833885
 10
150.7860781594111
 20
111.5179545290529
 10
150.7342079412774
 20
111.543114491647
 10
150.6854706068043
 20
111.5710197646654
 10
150.6396939012201
 20
111.6015303911061
 10
150.5967809312157
 20
111.6344956480437
 10
150.5565809738659
 20
111.6697755784763
 10
150.5189756040151
 20
111.7072194594787
 10
150.4838248646613
 20
111.7466980999719
 10
150.4509995647257
 20
111.7880607770308
 10
150.4203812790527
 20
111.8311567677301
 10
150.4203812790527
 20
111.8311567677301
 10
150.4029835471091
 20
111.8584699149708
 10
150.3867593007979
 20
111.8864397835286
 10
150.3717300719654
 20
111.9150340756338
 10
150.3578527969188
 20
111.9442635572098
 10
150.3451274756582
 20
111.9741066964101
 10
150.3335541081833
 20
112.0045419613881
 10
150.3231326944943
 20
112.0355585862207
 10
150.3138417027448
 20
112.0671565709078
 10
150.3056703670114
 20
112.0993251495262
 10
150.2986079213709
 20
112.1320320243063
 10
150.2926651317466
 20
112.1652879611712
 10
150.287820466292
 20
112.1990606623513
 10
150.2840631590839
 20
112.2333501278465
 10
150.2813932101223
 20
112.2681348258104
 10
150.2797890875607
 20
112.3034039903198
 10
150.2792615573223
 20
112.3391576213746
 10
150.2792615573223
 20
112.5395329845762
 10
150.4401367481842
 20
112.5395329845762
 10
150.4396307497922
 20
112.5357003159055
 10
150.4392108787862
 20
112.5316092650771
 10
150.438834071473
 20
112.5273244276307
 10
150.4385003278528
 20
112.5228135057963
 10
150.438231179772
 20
112.5181410951134
 10
150.4379943294609
 20
112.5132964296588
 10
150.4378220746892
 20
112.508301041279
 10
150.4376713517639
 20
112.5031979936668
 10
150.4375529266084
 20
112.4979872868223
 10
150.4374667992225
 20
112.4927012185152
 10
150.4374022036831
 20
112.4873613205919
 10
150.4373591399902
 20
112.481989124899
 10
150.4373376081437
 20
112.4765953973595
 10
150.4373160762973
 20
112.4712016698201
 10
150.4373160762973
 20
112.4658294741271
 10
150.4373160762973
 20
112.4605111080503
  0
HATCH
  5
92
330
1F
100
AcDbEntity
  8
レイヤー_1
  6
Continuous
 62
   250
420
  2367521
370
    13
100
AcDbHatch
 10
0.0
 20
0.0
 30
0.0
210
0.0
220
0.0
230
1.0
  2
SOLID
 70
     1
 71
     0
 91
        1
 92
        3
 72
     0
 73
     1
 93
       67
 10
151.961103318766
 20
113.4285613932621
 10
151.9601666834448
 20
113.4067711646397
 10
151.9574213730205
 20
113.3859283372618
 10
151.9530181104185
 20
113.3660544429747
 10
151.9470430230245
 20
113.3472463750877
 10
151.9396037700709
 20
113.3295687291401
 10
151.9308403085597
 20
113.313075334748
 10
151.9208387658768
 20
113.2978415533742
 10
151.909728333101
 20
113.2839319805579
 10
151.8976274353877
 20
113.2714004459154
 10
151.8846437319694
 20
113.2603330768325
 10
151.8708848820784
 20
113.2507837029253
 10
151.8564800767934
 20
113.2428276856566
 10
151.8415369753469
 20
113.2365188546424
 10
151.826163236971
 20
113.2319325713454
 10
151.8104772868214
 20
113.2291334313049
 10
151.7945975500536
 20
113.2281860300605
 10
151.7945975500536
 20
113.2281860300605
 10
151.7773936047282
 20
113.2292195586908
 10
151.7606741259482
 20
113.2322770808888
 10
151.7445144751764
 20
113.237240171499
 10
151.7289900138753
 20
113.2439796394424
 10
151.7142191672004
 20
113.2524093573334
 10
151.7002449988447
 20
113.2624216659396
 10
151.6871859339638
 20
113.2738981401053
 10
151.6751388658668
 20
113.2867418865216
 10
151.6641683900929
 20
113.300845245956
 10
151.6543713999515
 20
113.3161005591763
 10
151.6458555546746
 20
113.3324001669502
 10
151.6386746838786
 20
113.3496256441221
 10
151.6329364467957
 20
113.3676800973828
 10
151.6287377367351
 20
113.3864558675001
 10
151.626143149236
 20
113.4058452952417
 10
151.625260343531
 20
113.4257407213752
 10
151.625260343531
 20
113.4257407213752
 10
151.6262292766219
 20
113.4465081872905
 10
151.6290714803553
 20
113.4663928475008
 10
151.633646997729
 20
113.4853731701595
 10
151.6398481695109
 20
113.5033522619576
 10
151.6475781023918
 20
113.520276293279
 10
151.6566537756767
 20
113.5360699026609
 10
151.6670213597495
 20
113.5506900264105
 10
151.678530131685
 20
113.5640397712187
 10
151.6910616663275
 20
113.5760653074693
 10
151.7044975385215
 20
113.5866912736997
 10
151.7187193231115
 20
113.5958853721402
 10
151.733608594942
 20
113.6035399435584
 10
151.749036162934
 20
113.6096119242615
 10
151.7648943678553
 20
113.61403671871
 10
151.7810647845504
 20
113.6167389654414
 10
151.7974182219405
 20
113.6176540689161
 10
151.7974182219405
 20
113.6176540689161
 10
151.8151173997346
 20
113.6165128810535
 10
151.832095260672
 20
113.6132400403908
 10
151.8482872092136
 20
113.6079432061605
 10
151.8636178838966
 20
113.6008053990574
 10
151.8780549869512
 20
113.5919881079301
 10
151.8915339228382
 20
113.5816312897805
 10
151.9039793300948
 20
113.5699179653036
 10
151.9153696768747
 20
113.5569773255783
 10
151.9256296017152
 20
113.5429816253761
 10
151.9347052750001
 20
113.5280815876225
 10
151.9425428671133
 20
113.5124387011658
 10
151.9490670165922
 20
113.4962036889313
 10
151.9542561915902
 20
113.4795488056908
 10
151.9580242647215
 20
113.4626140084462
 10
151.9603281722933
 20
113.4455715519693
 97
        0
 75
     1
 76
     1
 98
        0
  0
LWPOLYLINE
  5
93
330
1F
100
AcDbEntity
  8
レイヤー_1
  6
Continuous
 62
   250
420
  2367521
370
    13
100
AcDbPolyline
 90
       68
 70
     0
 43
0.0
 10
151.961103318766
 20
113.4285613932621
 10
151.9601666834448
 20
113.4067711646397
 10
151.9574213730205
 20
113.3859283372618
 10
151.9530181104185
 20
113.3660544429747
 10
151.9470430230245
 20
113.3472463750877
 10
151.9396037700709
 20
113.3295687291401
 10
151.9308403085597
 20
113.313075334748
 10
151.9208387658768
 20
113.2978415533742
 10
151.909728333101
 20
113.2839319805579
 10
151.8976274353877
 20
113.2714004459154
 10
151.8846437319694
 20
113.2603330768325
 10
151.8708848820784
 20
113.2507837029253
 10
151.8564800767934
 20
113.2428276856566
 10
151.8415369753469
 20
113.2365188546424
 10
151.826163236971
 20
113.2319325713454
 10
151.8104772868214
 20
113.2291334313049
 10
151.7945975500536
 20
113.2281860300605
 10
151.7945975500536
 20
113.2281860300605
 10
151.7773936047282
 20
113.2292195586908
 10
151.7606741259482
 20
113.2322770808888
 10
151.7445144751764
 20
113.237240171499
 10
151.7289900138753
 20
113.2439796394424
 10
151.7142191672004
 20
113.2524093573334
 10
151.7002449988447
 20
113.2624216659396
 10
151.6871859339638
 20
113.2738981401053
 10
151.6751388658668
 20
113.2867418865216
 10
151.6641683900929
 20
113.300845245956
 10
151.6543713999515
 20
113.3161005591763
 10
151.6458555546746
 20
113.3324001669502
 10
151.6386746838786
 20
113.3496256441221
 10
151.6329364467957
 20
113.3676800973828
 10
151.6287377367351
 20
113.3864558675001
 10
151.626143149236
 20
113.4058452952417
 10
151.625260343531
 20
113.4257407213752
 10
151.625260343531
 20
113.4257407213752
 10
151.6262292766219
 20
113.4465081872905
 10
151.6290714803553
 20
113.4663928475008
 10
151.633646997729
 20
113.4853731701595
 10
151.6398481695109
 20
113.5033522619576
 10
151.6475781023918
 20
113.520276293279
 10
151.6566537756767
 20
113.5360699026609
 10
151.6670213597495
 20
113.5506900264105
 10
151.678530131685
 20
113.5640397712187
 10
151.6910616663275
 20
113.5760653074693
 10
151.7044975385215
 20
113.5866912736997
 10
151.7187193231115
 20
113.5958853721402
 10
151.733608594942
 20
113.6035399435584
 10
151.749036162934
 20
113.6096119242615
 10
151.7648943678553
 20
113.61403671871
 10
151.7810647845504
 20
113.6167389654414
 10
151.7974182219405
 20
113.6176540689161
 10
151.7974182219405
 20
113.6176540689161
 10
151.8151173997346
 20
113.6165128810535
 10
151.832095260672
 20
113.6132400403908
 10
151.8482872092136
 20
113.6079432061605
 10
151.8636178838966
 20
113.6008053990574
 10
151.8780549869512
 20
113.5919881079301
 10
151.8915339228382
 20
113.5816312897805
 10
151.9039793300948
 20
113.5699179653036
 10
151.9153696768747
 20
113.5569773255783
 10
151.9256296017152
 20
113.5429816253761
 10
151.9347052750001
 20
113.5280815876225
 10
151.9425428671133
 20
113.5124387011658
 10
151.9490670165922
 20
113.4962036889313
 10
151.9542561915902
 20
113.4795488056908
 10
151.9580242647215
 20
113.4626140084462
 10
151.9603281722933
 20
113.4455715519693
 10
151.961103318766
 20
113.4285613932621
  0
HATCH
  5
94
330
1F
100
AcDbEntity
  8
レイヤー_1
  6
Continuous
 62
   250
420
  2367521
370
    13
100
AcDbHatch
 10
0.0
 20
0.0
 30
0.0
210
0.0
220
0.0
230
1.0
  2
SOLID
 70
     1
 71
     0
 91
        2
 92
        3
 72
     0
 73
     1
 93
       84
 10
150.5727083268681
 20
115.1416135661566
 10
150.5553428926942
 20
115.1277685888797
 10
150.5391940078455
 20
115.1127608918937
 10
150.5242832041687
 20
115.0967196662775
 10
150.5105674179706
 20
115.079698741647
 10
150.498035883328
 20
115.0618273090812
 10
150.4866670683946
 20
115.0431807300427
 10
150.4764609731703
 20
115.0238881956102
 10
150.4673960658086
 20
115.0040250672464
 10
150.4594615803863
 20
114.9836990041836
 10
150.4526252191338
 20
114.9630176656541
 10
150.4468977479741
 20
114.9420671790439
 10
150.4422361032145
 20
114.9209552035851
 10
150.4386402848548
 20
114.8997678666638
 10
150.4360887610488
 20
114.8786128275121
 10
150.434570765873
 20
114.8575977453624
 10
150.4340647674811
 20
114.8368087476006
 10
150.4340647674811
 20
114.8368087476006
 10
150.4356904218892
 20
114.7963181103235
 10
150.440545853267
 20
114.757474659301
 10
150.4484588068428
 20
114.7204291174583
 10
150.4593431552308
 20
114.6852891440277
 10
150.4730804732753
 20
114.6522162278577
 10
150.4895415698977
 20
114.6213072622575
 10
150.5086187858655
 20
114.5927237360754
 10
150.5301936960233
 20
114.5665840744671
 10
150.5541586411386
 20
114.5430282344346
 10
150.5803736642095
 20
114.5221746411335
 10
150.6087526378502
 20
114.5041740174889
 10
150.6391556050585
 20
114.4891447886564
 10
150.6714641406789
 20
114.4772376775614
 10
150.7055813514024
 20
114.4685603434361
 10
150.7413780461502
 20
114.4632527432825
 10
150.7787357997667
 20
114.4614548341027
 10
150.7787357997667
 20
114.4614548341027
 10
150.8157382779165
 20
114.4629943611249
 10
150.8515349726642
 20
114.4676344740381
 10
150.8859643951615
 20
114.4753105773028
 10
150.91883275879
 20
114.486022670919
 10
150.9500001065478
 20
114.4997169252707
 10
150.9792941836632
 20
114.5163718085112
 10
151.0065750331341
 20
114.5359657887942
 10
151.0316811661121
 20
114.5584773342731
 10
151.0544080300558
 20
114.5838526153319
 10
151.0746479657327
 20
114.6120808660473
 10
151.092217952448
 20
114.6431297886496
 10
151.1069565013531
 20
114.6769563194458
 10
151.1186913576765
 20
114.713560458436
 10
151.1272717984927
 20
114.7528991419272
 10
151.1325471008766
 20
114.7949293062265
 10
151.1343342441331
 20
114.8396401854107
 10
151.1343342441331
 20
114.8396401854107
 10
151.1328162489574
 20
114.8768364501787
 10
151.1284345182018
 20
114.9131283773952
 10
151.121404370331
 20
114.9484298396742
 10
151.1119734215794
 20
114.982557816321
 10
151.1003677563349
 20
115.0153831162566
 10
151.0868565226782
 20
115.0467550165558
 10
151.0716335072276
 20
115.0765335602167
 10
151.0549570921406
 20
115.1045680243139
 10
151.0370533618051
 20
115.1307184518454
 10
151.0181591665322
 20
115.1548448858092
 10
150.9985221225563
 20
115.1767966032801
 10
150.978357548342
 20
115.1964228813328
 10
150.9579238260469
 20
115.2135837629652
 10
150.9374362741356
 20
115.2281500570987
 10
150.9171425088425
 20
115.2399495089614
 10
150.8972686145555
 20
115.2488529274746
 10
150.8972686145555
 20
115.2488529274746
 10
150.8759197887856
 20
115.2478301647675
 10
150.8542479853188
 20
115.2458707667392
 10
150.8323823952338
 20
115.242985499313
 10
150.81038761407
 20
115.2392281921048
 10
150.7883713010597
 20
115.2346742065775
 10
150.7664411154353
 20
115.2293020108846
 10
150.744704716429
 20
115.223208498335
 10
150.7232159336571
 20
115.2164044348522
 10
150.7020931922751
 20
115.2089221182056
 10
150.6814441515154
 20
115.2008476757813
 10
150.6613549387637
 20
115.1921811075792
 10
150.6419224473292
 20
115.1829762432155
 10
150.623243570521
 20
115.1732761463831
 10
150.6054152016481
 20
115.1631238807749
 10
150.5885449999429
 20
115.1525517441607
 97
        0
 92
        3
 72
     0
 73
     1
 93
      171
 10
151.924553009392
 20
114.8085912628085
 10
151.9291823563819
 20
114.7879422220487
 10
151.9335317893678
 20
114.7673254790586
 10
151.9375905424264
 20
114.7466979701454
 10
151.9413801474042
 20
114.7260919930785
 10
151.944889838378
 20
114.7054967819349
 10
151.9481088494245
 20
114.6849123367146
 10
151.9510264146205
 20
114.6643709551871
 10
151.9536532998892
 20
114.6438403395829
 10
151.9559787393074
 20
114.6233635535949
 10
151.9580134987983
 20
114.6028975335301
 10
151.9597360465155
 20
114.5824961090047
 10
151.9611679143054
 20
114.5621269822489
 10
151.9622660384751
 20
114.5418116851094
 10
151.9630627167943
 20
114.521550217586
 10
151.9635471833398
 20
114.501353345602
 10
151.9637086721883
 20
114.4812103032341
 10
151.9637086721883
 20
114.2921283935033
 10
151.8031995227163
 20
114.2921283935033
 10
151.8031995227163
 20
114.4388786930843
 10
151.8032748841789
 20
114.4425391069833
 10
151.8034471389506
 20
114.4461672231127
 10
151.8037270529547
 20
114.4497307437026
 10
151.8040823284213
 20
114.4532404346763
 10
151.8045021994274
 20
114.4567501256501
 10
151.8049866659728
 20
114.4602167529309
 10
151.8054926643647
 20
114.4636510824421
 10
151.8060201946031
 20
114.4671069437997
 10
151.8065477248416
 20
114.4705412733108
 10
151.8070537232335
 20
114.4739863687452
 10
151.8075381897789
 20
114.4774637619493
 10
151.807958060785
 20
114.4809519210766
 10
151.8083241021749
 20
114.4844723779736
 10
151.8086040161789
 20
114.4880358985635
 10
151.8087762709507
 20
114.4916532487696
 10
151.80884086649
 20
114.4953244285918
 10
151.80884086649
 20
114.4953244285918
 10
151.8087116754112
 20
114.5127867560748
 10
151.8083241021749
 20
114.5302275517113
 10
151.8076458490112
 20
114.5476360495781
 10
151.8067307455365
 20
114.565001483752
 10
151.8055357280577
 20
114.5823023223865
 10
151.8040715624981
 20
114.5995062677118
 10
151.8023597807041
 20
114.6166240856514
 10
151.8003788508294
 20
114.6336127125121
 10
151.7981287728738
 20
114.6504721482941
 10
151.7956095468374
 20
114.6672023929972
 10
151.7928427045667
 20
114.6837496170055
 10
151.7897959482919
 20
114.7001138203187
 10
151.7864908098596
 20
114.7162842370138
 10
151.7829165233464
 20
114.7322393352442
 10
151.7790730887525
 20
114.7479683490868
 10
151.7749712720009
 20
114.7634389807718
 10
151.7749712720009
 20
114.7634389807718
 10
151.7604480415604
 20
114.8109705318428
 10
151.7431472029259
 20
114.8571132788169
 10
151.7228103739399
 20
114.9017057328456
 10
151.6992114702144
 20
114.9445433413873
 10
151.6720490458991
 20
114.9854538496705
 10
151.6411185484523
 20
115.0242327051536
 10
151.6061077661005
 20
115.060707653065
 10
151.5667906144558
 20
115.0946956727097
 10
151.5229194772837
 20
115.1260029774696
 10
151.4742036746571
 20
115.1544465466496
 10
151.420417122188
 20
115.1798325936316
 10
151.3612799058723
 20
115.2019780977207
 10
151.2965551753991
 20
115.2207108041451
 10
151.2259737826874
 20
115.2358369262866
 10
151.1492988774262
 20
115.2471626775271
 10
151.0662397796881
 20
115.2545050371716
 10
151.0662397796881
 20
115.2545050371716
 10
151.0934883313894
 20
115.2360522447513
 10
151.118992803527
 20
115.2156723520723
 10
151.1427962597938
 20
115.193559145753
 10
151.1648233387273
 20
115.1698310509487
 10
151.1851278699436
 20
115.1446603224314
 10
151.2036883215963
 20
115.1181761512796
 10
151.2204831618389
 20
115.0905400263421
 10
151.2355339225178
 20
115.0618919046206
 10
151.2488298377098
 20
115.0323717431173
 10
151.2603601414917
 20
115.002151796604
 10
151.2701248338635
 20
114.9713720220825
 10
151.2781346807485
 20
114.940172376555
 10
151.2843573843768
 20
114.9087143488699
 10
151.288814476595
 20
114.8771378960292
 10
151.2914844255566
 20
114.8455937409583
 10
151.2923779971849
 20
114.8142326065823
 10
151.2923779971849
 20
114.8142326065823
 10
151.2894711979122
 20
114.7522747183797
 10
151.2809661185586
 20
114.6944940083914
 10
151.2672503323604
 20
114.6408043492314
 10
151.2486683488613
 20
114.5912272727461
 10
151.225629273144
 20
114.5457520130124
 10
151.1984560829054
 20
114.5043247404141
 10
151.1675578832284
 20
114.4669562208744
 10
151.1332791836564
 20
114.4335926247772
 10
151.0959752596561
 20
114.4042339521224
 10
151.056044450387
 20
114.3788694369869
 10
151.0138312653928
 20
114.3574452497544
 10
150.9697232779096
 20
114.3399721563482
 10
150.924064997481
 20
114.3264178589986
 10
150.8772439973432
 20
114.3167608258591
 10
150.829615552963
 20
114.3109902910065
 10
150.7815564716536
 20
114.3090631907479
 10
150.7815564716536
 20
114.3090631907479
 10
150.7322054795562
 20
114.3115178212449
 10
150.6838018887033
 20
114.3187740535035
 10
150.636679442715
 20
114.3306596327521
 10
150.5911395874419
 20
114.3470238360654
 10
150.5474837687345
 20
114.3677159405181
 10
150.5060241983665
 20
114.3925529254153
 10
150.4670515562652
 20
114.4213948337549
 10
150.4308888201275
 20
114.4540478789188
 10
150.3978482017272
 20
114.4903936357514
 10
150.368188083222
 20
114.5302275517113
 10
150.3422745060016
 20
114.573431201643
 10
150.3203873840701
 20
114.6198107989282
 10
150.302828163278
 20
114.6692156206417
 10
150.2898982894759
 20
114.7214949438583
 10
150.2819207403607
 20
114.776465747883
 10
150.2791969617829
 20
114.8339880757137
 10
150.2791969617829
 20
114.8339880757137
 10
150.2797352579445
 20
114.8593633567725
 10
150.2813070827364
 20
114.8847063400616
 10
150.2839124361587
 20
114.9099093663487
 10
150.2875728500577
 20
114.9349186060176
 10
150.2922452607406
 20
114.9597017612986
 10
150.297961965977
 20
114.9841619388826
 10
150.3046583702275
 20
115.0082453091535
 10
150.3123560053387
 20
115.0318980424951
 10
150.3210548713105
 20
115.055055543368
 10
150.3307334362964
 20
115.0776532162329
 10
150.3413917002965
 20
115.0996264655502
 10
150.3530188973875
 20
115.1209322276271
 10
150.3656042616462
 20
115.1414843750778
 10
150.3791370271493
 20
115.161229078286
 10
150.3936064279737
 20
115.1801125076357
 10
150.4090232300425
 20
115.1980593016641
 10
150.4090232300425
 20
115.1980593016641
 10
150.4376498199175
 20
115.227374910626
 10
150.4683972966693
 20
115.2540313365494
 10
150.5010395759099
 20
115.2781254727436
 10
150.5353828710213
 20
115.2997434465942
 10
150.5712333953852
 20
115.3190359810267
 10
150.6083865964603
 20
115.3360784375036
 10
150.646637921705
 20
115.3509784752573
 10
150.6857720526548
 20
115.3638652853664
 10
150.7256059686147
 20
115.3748357611403
 10
150.7659351170433
 20
115.3839867958878
 10
150.8065549453992
 20
115.3914368147646
 10
150.8472716670642
 20
115.3972934770031
 10
150.8878699635736
 20
115.4016644418355
 10
150.928145282386
 20
115.4046466025708
 10
150.9679253687298
 20
115.4063583843648
 10
151.0069733722937
 20
115.4069074464496
 10
151.0069733722937
 20
115.4069074464496
 10
151.1038666813854
 20
115.4038606901749
 10
151.19547392217
 20
115.3948496124293
 10
151.2817950946475
 20
115.3802187227565
 10
151.3628301988178
 20
115.3602479351604
 10
151.4385684687578
 20
115.335217163645
 10
151.5090422022371
 20
115.3054063222145
 10
151.5742406333326
 20
115.2711168567192
 10
151.6341745279674
 20
115.2326286811634
 10
151.6888331202184
 20
115.1902432413974
 10
151.7382487078551
 20
115.1442512173485
 10
151.7824105249545
 20
115.0949325230209
 10
151.8213185715164
 20
115.0425670724184
 10
151.8549836134642
 20
114.9874670773149
 10
151.8834056507977
 20
114.9299124517145
 10
151.9065954494403
 20
114.8701938755443
 97
        0
 75
     1
 76
     1
 98
        0
  0
LWPOLYLINE
  5
95
330
1F
100
AcDbEntity
  8
レイヤー_1
  6
Continuous
 62
   250
420
  2367521
370
    13
100
AcDbPolyline
 90
       85
 70
     0
 43
0.0
 10
150.5727083268681
 20
115.1416135661566
 10
150.5553428926942
 20
115.1277685888797
 10
150.5391940078455
 20
115.1127608918937
 10
150.5242832041687
 20
115.0967196662775
 10
150.5105674179706
 20
115.079698741647
 10
150.498035883328
 20
115.0618273090812
 10
150.4866670683946
 20
115.0431807300427
 10
150.4764609731703
 20
115.0238881956102
 10
150.4673960658086
 20
115.0040250672464
 10
150.4594615803863
 20
114.9836990041836
 10
150.4526252191338
 20
114.9630176656541
 10
150.4468977479741
 20
114.9420671790439
 10
150.4422361032145
 20
114.9209552035851
 10
150.4386402848548
 20
114.8997678666638
 10
150.4360887610488
 20
114.8786128275121
 10
150.434570765873
 20
114.8575977453624
 10
150.4340647674811
 20
114.8368087476006
 10
150.4340647674811
 20
114.8368087476006
 10
150.4356904218892
 20
114.7963181103235
 10
150.440545853267
 20
114.757474659301
 10
150.4484588068428
 20
114.7204291174583
 10
150.4593431552308
 20
114.6852891440277
 10
150.4730804732753
 20
114.6522162278577
 10
150.4895415698977
 20
114.6213072622575
 10
150.5086187858655
 20
114.5927237360754
 10
150.5301936960233
 20
114.5665840744671
 10
150.5541586411386
 20
114.5430282344346
 10
150.5803736642095
 20
114.5221746411335
 10
150.6087526378502
 20
114.5041740174889
 10
150.6391556050585
 20
114.4891447886564
 10
150.6714641406789
 20
114.4772376775614
 10
150.7055813514024
 20
114.4685603434361
 10
150.7413780461502
 20
114.4632527432825
 10
150.7787357997667
 20
114.4614548341027
 10
150.7787357997667
 20
114.4614548341027
 10
150.8157382779165
 20
114.4629943611249
 10
150.8515349726642
 20
114.4676344740381
 10
150.8859643951615
 20
114.4753105773028
 10
150.91883275879
 20
114.486022670919
 10
150.9500001065478
 20
114.4997169252707
 10
150.9792941836632
 20
114.5163718085112
 10
151.0065750331341
 20
114.5359657887942
 10
151.0316811661121
 20
114.5584773342731
 10
151.0544080300558
 20
114.5838526153319
 10
151.0746479657327
 20
114.6120808660473
 10
151.092217952448
 20
114.6431297886496
 10
151.1069565013531
 20
114.6769563194458
 10
151.1186913576765
 20
114.713560458436
 10
151.1272717984927
 20
114.7528991419272
 10
151.1325471008766
 20
114.7949293062265
 10
151.1343342441331
 20
114.8396401854107
 10
151.1343342441331
 20
114.8396401854107
 10
151.1328162489574
 20
114.8768364501787
 10
151.1284345182018
 20
114.9131283773952
 10
151.121404370331
 20
114.9484298396742
 10
151.1119734215794
 20
114.982557816321
 10
151.1003677563349
 20
115.0153831162566
 10
151.0868565226782
 20
115.0467550165558
 10
151.0716335072276
 20
115.0765335602167
 10
151.0549570921406
 20
115.1045680243139
 10
151.0370533618051
 20
115.1307184518454
 10
151.0181591665322
 20
115.1548448858092
 10
150.9985221225563
 20
115.1767966032801
 10
150.978357548342
 20
115.1964228813328
 10
150.9579238260469
 20
115.2135837629652
 10
150.9374362741356
 20
115.2281500570987
 10
150.9171425088425
 20
115.2399495089614
 10
150.8972686145555
 20
115.2488529274746
 10
150.8972686145555
 20
115.2488529274746
 10
150.8759197887856
 20
115.2478301647675
 10
150.8542479853188
 20
115.2458707667392
 10
150.8323823952338
 20
115.242985499313
 10
150.81038761407
 20
115.2392281921048
 10
150.7883713010597
 20
115.2346742065775
 10
150.7664411154353
 20
115.2293020108846
 10
150.744704716429
 20
115.223208498335
 10
150.7232159336571
 20
115.2164044348522
 10
150.7020931922751
 20
115.2089221182056
 10
150.6814441515154
 20
115.2008476757813
 10
150.6613549387637
 20
115.1921811075792
 10
150.6419224473292
 20
115.1829762432155
 10
150.623243570521
 20
115.1732761463831
 10
150.6054152016481
 20
115.1631238807749
 10
150.5885449999429
 20
115.1525517441607
 10
150.5727083268681
 20
115.1416135661566
  0
LWPOLYLINE
  5
96
330
1F
100
AcDbEntity
  8
レイヤー_1
  6
Continuous
 62
   250
420
  2367521
370
    13
100
AcDbPolyline
 90
      172
 70
     0
 43
0.0
 10
151.924553009392
 20
114.8085912628085
 10
151.9291823563819
 20
114.7879422220487
 10
151.9335317893678
 20
114.7673254790586
 10
151.9375905424264
 20
114.7466979701454
 10
151.9413801474042
 20
114.7260919930785
 10
151.944889838378
 20
114.7054967819349
 10
151.9481088494245
 20
114.6849123367146
 10
151.9510264146205
 20
114.6643709551871
 10
151.9536532998892
 20
114.6438403395829
 10
151.9559787393074
 20
114.6233635535949
 10
151.9580134987983
 20
114.6028975335301
 10
151.9597360465155
 20
114.5824961090047
 10
151.9611679143054
 20
114.5621269822489
 10
151.9622660384751
 20
114.5418116851094
 10
151.9630627167943
 20
114.521550217586
 10
151.9635471833398
 20
114.501353345602
 10
151.9637086721883
 20
114.4812103032341
 10
151.9637086721883
 20
114.2921283935033
 10
151.8031995227163
 20
114.2921283935033
 10
151.8031995227163
 20
114.4388786930843
 10
151.8032748841789
 20
114.4425391069833
 10
151.8034471389506
 20
114.4461672231127
 10
151.8037270529547
 20
114.4497307437026
 10
151.8040823284213
 20
114.4532404346763
 10
151.8045021994274
 20
114.4567501256501
 10
151.8049866659728
 20
114.4602167529309
 10
151.8054926643647
 20
114.4636510824421
 10
151.8060201946031
 20
114.4671069437997
 10
151.8065477248416
 20
114.4705412733108
 10
151.8070537232335
 20
114.4739863687452
 10
151.8075381897789
 20
114.4774637619493
 10
151.807958060785
 20
114.4809519210766
 10
151.8083241021749
 20
114.4844723779736
 10
151.8086040161789
 20
114.4880358985635
 10
151.8087762709507
 20
114.4916532487696
 10
151.80884086649
 20
114.4953244285918
 10
151.80884086649
 20
114.4953244285918
 10
151.8087116754112
 20
114.5127867560748
 10
151.8083241021749
 20
114.5302275517113
 10
151.8076458490112
 20
114.5476360495781
 10
151.8067307455365
 20
114.565001483752
 10
151.8055357280577
 20
114.5823023223865
 10
151.8040715624981
 20
114.5995062677118
 10
151.8023597807041
 20
114.6166240856514
 10
151.8003788508294
 20
114.6336127125121
 10
151.7981287728738
 20
114.6504721482941
 10
151.7956095468374
 20
114.6672023929972
 10
151.7928427045667
 20
114.6837496170055
 10
151.7897959482919
 20
114.7001138203187
 10
151.7864908098596
 20
114.7162842370138
 10
151.7829165233464
 20
114.7322393352442
 10
151.7790730887525
 20
114.7479683490868
 10
151.7749712720009
 20
114.7634389807718
 10
151.7749712720009
 20
114.7634389807718
 10
151.7604480415604
 20
114.8109705318428
 10
151.7431472029259
 20
114.8571132788169
 10
151.7228103739399
 20
114.9017057328456
 10
151.6992114702144
 20
114.9445433413873
 10
151.6720490458991
 20
114.9854538496705
 10
151.6411185484523
 20
115.0242327051536
 10
151.6061077661005
 20
115.060707653065
 10
151.5667906144558
 20
115.0946956727097
 10
151.5229194772837
 20
115.1260029774696
 10
151.4742036746571
 20
115.1544465466496
 10
151.420417122188
 20
115.1798325936316
 10
151.3612799058723
 20
115.2019780977207
 10
151.2965551753991
 20
115.2207108041451
 10
151.2259737826874
 20
115.2358369262866
 10
151.1492988774262
 20
115.2471626775271
 10
151.0662397796881
 20
115.2545050371716
 10
151.0662397796881
 20
115.2545050371716
 10
151.0934883313894
 20
115.2360522447513
 10
151.118992803527
 20
115.2156723520723
 10
151.1427962597938
 20
115.193559145753
 10
151.1648233387273
 20
115.1698310509487
 10
151.1851278699436
 20
115.1446603224314
 10
151.2036883215963
 20
115.1181761512796
 10
151.2204831618389
 20
115.0905400263421
 10
151.2355339225178
 20
115.0618919046206
 10
151.2488298377098
 20
115.0323717431173
 10
151.2603601414917
 20
115.002151796604
 10
151.2701248338635
 20
114.9713720220825
 10
151.2781346807485
 20
114.940172376555
 10
151.2843573843768
 20
114.9087143488699
 10
151.288814476595
 20
114.8771378960292
 10
151.2914844255566
 20
114.8455937409583
 10
151.2923779971849
 20
114.8142326065823
 10
151.2923779971849
 20
114.8142326065823
 10
151.2894711979122
 20
114.7522747183797
 10
151.2809661185586
 20
114.6944940083914
 10
151.2672503323604
 20
114.6408043492314
 10
151.2486683488613
 20
114.5912272727461
 10
151.225629273144
 20
114.5457520130124
 10
151.1984560829054
 20
114.5043247404141
 10
151.1675578832284
 20
114.4669562208744
 10
151.1332791836564
 20
114.4335926247772
 10
151.0959752596561
 20
114.4042339521224
 10
151.056044450387
 20
114.3788694369869
 10
151.0138312653928
 20
114.3574452497544
 10
150.9697232779096
 20
114.3399721563482
 10
150.924064997481
 20
114.3264178589986
 10
150.8772439973432
 20
114.3167608258591
 10
150.829615552963
 20
114.3109902910065
 10
150.7815564716536
 20
114.3090631907479
 10
150.7815564716536
 20
114.3090631907479
 10
150.7322054795562
 20
114.3115178212449
 10
150.6838018887033
 20
114.3187740535035
 10
150.636679442715
 20
114.3306596327521
 10
150.5911395874419
 20
114.3470238360654
 10
150.5474837687345
 20
114.3677159405181
 10
150.5060241983665
 20
114.3925529254153
 10
150.4670515562652
 20
114.4213948337549
 10
150.4308888201275
 20
114.4540478789188
 10
150.3978482017272
 20
114.4903936357514
 10
150.368188083222
 20
114.5302275517113
 10
150.3422745060016
 20
114.573431201643
 10
150.3203873840701
 20
114.6198107989282
 10
150.302828163278
 20
114.6692156206417
 10
150.2898982894759
 20
114.7214949438583
 10
150.2819207403607
 20
114.776465747883
 10
150.2791969617829
 20
114.8339880757137
 10
150.2791969617829
 20
114.8339880757137
 10
150.2797352579445
 20
114.8593633567725
 10
150.2813070827364
 20
114.8847063400616
 10
150.2839124361587
 20
114.9099093663487
 10
150.2875728500577
 20
114.9349186060176
 10
150.2922452607406
 20
114.9597017612986
 10
150.297961965977
 20
114.9841619388826
 10
150.3046583702275
 20
115.0082453091535
 10
150.3123560053387
 20
115.0318980424951
 10
150.3210548713105
 20
115.055055543368
 10
150.3307334362964
 20
115.0776532162329
 10
150.3413917002965
 20
115.0996264655502
 10
150.3530188973875
 20
115.1209322276271
 10
150.3656042616462
 20
115.1414843750778
 10
150.3791370271493
 20
115.161229078286
 10
150.3936064279737
 20
115.1801125076357
 10
150.4090232300425
 20
115.1980593016641
 10
150.4090232300425
 20
115.1980593016641
 10
150.4376498199175
 20
115.227374910626
 10
150.4683972966693
 20
115.2540313365494
 10
150.5010395759099
 20
115.2781254727436
 10
150.5353828710213
 20
115.2997434465942
 10
150.5712333953852
 20
115.3190359810267
 10
150.6083865964603
 20
115.3360784375036
 10
150.646637921705
 20
115.3509784752573
 10
150.6857720526548
 20
115.3638652853664
 10
150.7256059686147
 20
115.3748357611403
 10
150.7659351170433
 20
115.3839867958878
 10
150.8065549453992
 20
115.3914368147646
 10
150.8472716670642
 20
115.3972934770031
 10
150.8878699635736
 20
115.4016644418355
 10
150.928145282386
 20
115.4046466025708
 10
150.9679253687298
 20
115.4063583843648
 10
151.0069733722937
 20
115.4069074464496
 10
151.0069733722937
 20
115.4069074464496
 10
151.1038666813854
 20
115.4038606901749
 10
151.19547392217
 20
115.3948496124293
 10
151.2817950946475
 20
115.3802187227565
 10
151.3628301988178
 20
115.3602479351604
 10
151.4385684687578
 20
115.335217163645
 10
151.5090422022371
 20
115.3054063222145
 10
151.5742406333326
 20
115.2711168567192
 10
151.6341745279674
 20
115.2326286811634
 10
151.6888331202184
 20
115.1902432413974
 10
151.7382487078551
 20
115.1442512173485
 10
151.7824105249545
 20
115.0949325230209
 10
151.8213185715164
 20
115.0425670724184
 10
151.8549836134642
 20
114.9874670773149
 10
151.8834056507977
 20
114.9299124517145
 10
151.9065954494403
 20
114.8701938755443
 10
151.924553009392
 20
114.8085912628085
  0
HATCH
  5
97
330
1F
100
AcDbEntity
  8
レイヤー_1
  6
Continuous
 62
   250
420
  2367521
370
    13
100
AcDbHatch
 10
0.0
 20
0.0
 30
0.0
210
0.0
220
0.0
230
1.0
  2
SOLID
 70
     1
 71
     0
 91
        2
 92
        3
 72
     0
 73
     1
 93
      101
 10
145.6717047960087
 20
112.3082055920814
 10
145.6515940514105
 20
112.2965030335278
 10
145.6325814309821
 20
112.2836700530348
 10
145.6146777006466
 20
112.2697497142953
 10
145.597925924097
 20
112.2547958469254
 10
145.5823476331797
 20
112.2388838123879
 10
145.5679751256644
 20
112.2220351425292
 10
145.5548299333976
 20
112.2043144328887
 10
145.5429335882258
 20
112.1857862790057
 10
145.5323506856884
 20
112.1664937445732
 10
145.523070459862
 20
112.1465014251306
 10
145.5151359744397
 20
112.1258523843709
 10
145.5085902931144
 20
112.1046112178333
 10
145.5034441818094
 20
112.0828102232877
 10
145.4997299382942
 20
112.0605247621966
 10
145.4974798603386
 20
112.037797898253
 10
145.4967262457123
 20
112.0146942269963
 10
145.4967262457123
 20
112.0146942269963
 10
145.5008065306174
 20
111.9591851268099
 10
145.5126490461731
 20
111.9089405630843
 10
145.5317154962177
 20
111.8637236855082
 10
145.5574245208966
 20
111.8233191756169
 10
145.5891839944323
 20
111.7874578853298
 10
145.6264556206629
 20
111.7559244961821
 10
145.6686903375036
 20
111.7285036897091
 10
145.7152744873302
 20
111.7049586155998
 10
145.7656697739811
 20
111.6850416576199
 10
145.8192840716785
 20
111.6685267313814
 10
145.875589850184
 20
111.6551985184196
 10
145.9339842177966
 20
111.6448094025004
 10
145.9939181124315
 20
111.6371225333124
 10
146.054810174234
 20
111.6319333583144
 10
146.1161113411193
 20
111.6289834953487
 10
146.1772402532329
 20
111.6280468600275
 10
146.1772402532329
 20
111.6280468600275
 10
146.2036275310755
 20
111.6282729444154
 10
146.2300255748414
 20
111.6289404316558
 10
146.2563697889911
 20
111.6300708535952
 10
146.2827032372176
 20
111.6316103806174
 10
146.3089613239815
 20
111.6336020764154
 10
146.3351548152059
 20
111.635992111373
 10
146.361240647198
 20
111.6388127832599
 10
146.3872295858811
 20
111.6420210283832
 10
146.4130893334853
 20
111.6456599104357
 10
146.4388091240875
 20
111.6496648338782
 10
146.4643781917645
 20
111.6540680964802
 10
146.4897750046698
 20
111.6588589323187
 10
146.5149780309568
 20
111.664015809547
 10
146.5399765047025
 20
111.6695494940884
 10
146.5647488940602
 20
111.6754276881733
 10
146.5892844331069
 20
111.6816719236481
 10
146.5892844331069
 20
111.6816719236481
 10
146.6035277495434
 20
111.685558421935
 10
146.6206455674829
 20
111.6910275109371
 10
146.6400780589174
 20
111.6981868498867
 10
146.6613622891479
 20
111.7072625231716
 10
146.6839384301663
 20
111.7183621900242
 10
146.7073004835806
 20
111.7316796370627
 10
146.7309101532293
 20
111.7473871190588
 10
146.7542614407204
 20
111.7656353589377
 10
146.7767945180458
 20
111.7865966114712
 10
146.7980356845833
 20
111.810443131431
 10
146.8174574100946
 20
111.8373148758191
 10
146.8344998665715
 20
111.8674056312536
 10
146.8486678215453
 20
111.9008768865832
 10
146.859444510701
 20
111.937879364733
 10
146.8662808719536
 20
111.9785853204747
 10
146.8686816728344
 20
112.0231562426569
 10
146.8686816728344
 20
112.0231562426569
 10
146.8641384532303
 20
112.082314990819
 10
146.8510363246565
 20
112.1351433761204
 10
146.830075072123
 20
112.1819859081047
 10
146.8020406080258
 20
112.2231870963151
 10
146.7676865469912
 20
112.2590914502952
 10
146.7277234399525
 20
112.2900542455116
 10
146.6829264333824
 20
112.316430757431
 10
146.6340491419073
 20
112.3385439637504
 10
146.5818128823836
 20
112.3567599058596
 10
146.526982035361
 20
112.3714230933021
 10
146.4702994495423
 20
112.3828672696982
 10
146.412518739554
 20
112.3914584764376
 10
146.3543935200222
 20
112.397541223064
 10
146.2966558737268
 20
112.4014492531973
 10
146.240059415294
 20
112.4035378423044
 10
146.1853469934269
 20
112.4041622658519
 10
146.1603054559884
 20
112.4041622658519
 10
146.1279646225982
 20
112.4034517149185
 10
146.0956776188242
 20
112.4023535907488
 10
146.0634875083593
 20
112.4007817659569
 10
146.0314265889731
 20
112.3986824109266
 10
145.9995271584355
 20
112.3960016960417
 10
145.9678430463626
 20
112.3926534939164
 10
145.9364280823704
 20
112.3885732090114
 10
145.9052930323822
 20
112.3837070117103
 10
145.8744809600911
 20
112.3779687746274
 10
145.8440672269596
 20
112.3713046681466
 10
145.8140625989108
 20
112.3636608626516
 10
145.7845101396379
 20
112.3549512307566
 10
145.7554529128336
 20
112.3451111769221
 10
145.7269447481142
 20
112.3340868715321
 10
145.6990179432493
 20
112.3218137190472
 97
        0
 92
        3
 72
     0
 73
     1
 93
      118
 10
147.0235494785326
 20
112.0146942269963
 10
147.0169822653608
 20
111.9286099048299
 10
146.9981634315506
 20
111.8520318928778
 10
146.9683741219665
 20
111.7844003631318
 10
146.9289170133197
 20
111.7251877853535
 10
146.8811055482446
 20
111.6738343315349
 10
146.8262208716058
 20
111.6298124714376
 10
146.7655656601144
 20
111.5925731429767
 10
146.7004533564048
 20
111.5615565181441
 10
146.6321543394184
 20
111.5362243007783
 10
146.5619928177128
 20
111.5160489606408
 10
146.4912499361526
 20
111.5004599038002
 10
146.4212391373723
 20
111.4889403659415
 10
146.3532523321596
 20
111.4809197531334
 10
146.2885814313025
 20
111.4758705351374
 10
146.2285398774354
 20
111.4732328839455
 10
146.1744088154228
 20
111.4724792693192
 10
146.1744088154228
 20
111.4724792693192
 10
146.1664420322308
 20
111.4725869285515
 10
146.1565589147035
 20
111.4728776084788
 10
146.1449424835357
 20
111.4733620750242
 10
146.1317865253457
 20
111.4740295622647
 10
146.1172848267516
 20
111.4748693042768
 10
146.1016096425253
 20
111.4758705351374
 10
146.0849762911312
 20
111.477011723
 10
146.0675677932643
 20
111.4783036337879
 10
146.0495564036966
 20
111.4797247356546
 10
146.0311466749691
 20
111.4812642626768
 10
146.0125216277771
 20
111.4829222148546
 10
145.9938858146618
 20
111.4846770603415
 10
145.9754007244717
 20
111.4865395650607
 10
145.9572924415948
 20
111.4884774312425
 10
145.9397224548795
 20
111.490490658887
 10
145.922884550944
 20
111.4925792479941
 10
145.922884550944
 20
111.4925792479941
 10
145.879293327776
 20
111.499243354475
 10
145.8354329565271
 20
111.5076515405195
 10
145.7915618193551
 20
111.5179006994367
 10
145.74801365988
 20
111.5300661926893
 10
145.7051006898756
 20
111.5442556795097
 10
145.6631351211157
 20
111.5605552872835
 10
145.6224291653739
 20
111.5790403774736
 10
145.5832950344241
 20
111.5998293752354
 10
145.5460341741168
 20
111.6229976420315
 10
145.5109695621488
 20
111.6486313052479
 10
145.478413410294
 20
111.6768272581936
 10
145.4486671644028
 20
111.7076931601009
 10
145.4220430362491
 20
111.7412936065092
 10
145.398874769453
 20
111.7777254907277
 10
145.3794422780185
 20
111.8170857060654
 10
145.3640793055658
 20
111.8594711458314
 10
145.3640793055658
 20
111.8594711458314
 10
145.3615062499132
 20
111.8690528175082
 10
145.3590623853395
 20
111.8787852121103
 10
145.3567584777678
 20
111.8886037340983
 10
145.3546052931213
 20
111.898551447165
 10
145.3525920654768
 20
111.9085852876176
 10
145.3507403266809
 20
111.9187052554561
 10
145.3490393108102
 20
111.9289113506804
 10
145.3475105497111
 20
111.9392035732906
 10
145.3461325115374
 20
111.949549625517
 10
145.3449267281354
 20
111.9599602732827
 10
145.343893199505
 20
111.9704139847414
 10
145.3430426915697
 20
111.980910759893
 10
145.3423752043293
 20
111.9914505987375
 10
145.3418907377838
 20
112.0020012035052
 10
145.3416000578565
 20
112.0125733401195
 10
145.3415031645474
 20
112.0231562426569
 10
145.3415031645474
 20
112.0231562426569
 10
145.3424397998687
 20
112.0578655791582
 10
145.3452281739858
 20
112.0910999841767
 10
145.3499005846687
 20
112.1229348191749
 10
145.3564677978405
 20
112.1534346796923
 10
145.3649298135012
 20
112.1826210975754
 10
145.375297397574
 20
112.2105802002099
 10
145.3876243796751
 20
112.2373765831354
 10
145.4018784620348
 20
112.2630425441215
 10
145.4180811764996
 20
112.287664210554
 10
145.4362540549159
 20
112.3112846461259
 10
145.4564186291302
 20
112.3339469145301
 10
145.4785748991425
 20
112.3557371431525
 10
145.502733630876
 20
112.376698395686
 10
145.5289163561772
 20
112.39689526767
 10
145.5571230750461
 20
112.4163708227974
 10
145.5873860852524
 20
112.4352004225309
 10
145.5873860852524
 20
112.4352004225309
 10
145.6224291653739
 20
112.4546975095048
 10
145.6587426244369
 20
112.4720198799858
 10
145.6960573143604
 20
112.4872859591293
 10
145.7340825552172
 20
112.5006034061678
 10
145.7725599648499
 20
112.5121229440265
 10
145.8112311611007
 20
112.5219629978609
 10
145.8498162299657
 20
112.5302742905963
 10
145.8880460233639
 20
112.5371644814651
 10
145.925662159138
 20
112.5427519956227
 10
145.9623847232837
 20
112.5471875559945
 10
145.9979553336436
 20
112.5505788218127
 10
146.0320833102903
 20
112.5530872819258
 10
146.0645318029128
 20
112.5547990637198
 10
146.095020897507
 20
112.5558648901198
 10
146.1232599141456
 20
112.5564139522046
 10
146.1490120025175
 20
112.5565646751299
 10
146.1490120025175
 20
112.5565646751299
 10
146.2024863432129
 20
112.5562201655864
 10
146.2626570881588
 20
112.5547021704107
 10
146.3280923695654
 20
112.5513109045925
 10
146.3974356811054
 20
112.545314285352
 10
146.4692443890656
 20
112.5360555913721
 10
146.5421512211954
 20
112.5227812080266
 10
146.6147458415516
 20
112.5048021162284
 10
146.685639446037
 20
112.4814185309676
 10
146.753410932785
 20
112.4519199013109
 10
146.8166930295451
 20
112.4155956763247
 10
146.8740754003738
 20
112.3717245391526
 10
146.924158475251
 20
112.319628236631
 10
146.9655534500796
 20
112.2585854519032
 10
146.996839222993
 20
112.187885634036
 10
147.0166377558174
 20
112.106818232096
 97
        0
 75
     1
 76
     1
 98
        0
  0
LWPOLYLINE
  5
98
330
1F
100
AcDbEntity
  8
レイヤー_1
  6
Continuous
 62
   250
420
  2367521
370
    13
100
AcDbPolyline
 90
      102
 70
     0
 43
0.0
 10
145.6717047960087
 20
112.3082055920814
 10
145.6515940514105
 20
112.2965030335278
 10
145.6325814309821
 20
112.2836700530348
 10
145.6146777006466
 20
112.2697497142953
 10
145.597925924097
 20
112.2547958469254
 10
145.5823476331797
 20
112.2388838123879
 10
145.5679751256644
 20
112.2220351425292
 10
145.5548299333976
 20
112.2043144328887
 10
145.5429335882258
 20
112.1857862790057
 10
145.5323506856884
 20
112.1664937445732
 10
145.523070459862
 20
112.1465014251306
 10
145.5151359744397
 20
112.1258523843709
 10
145.5085902931144
 20
112.1046112178333
 10
145.5034441818094
 20
112.0828102232877
 10
145.4997299382942
 20
112.0605247621966
 10
145.4974798603386
 20
112.037797898253
 10
145.4967262457123
 20
112.0146942269963
 10
145.4967262457123
 20
112.0146942269963
 10
145.5008065306174
 20
111.9591851268099
 10
145.5126490461731
 20
111.9089405630843
 10
145.5317154962177
 20
111.8637236855082
 10
145.5574245208966
 20
111.8233191756169
 10
145.5891839944323
 20
111.7874578853298
 10
145.6264556206629
 20
111.7559244961821
 10
145.6686903375036
 20
111.7285036897091
 10
145.7152744873302
 20
111.7049586155998
 10
145.7656697739811
 20
111.6850416576199
 10
145.8192840716785
 20
111.6685267313814
 10
145.875589850184
 20
111.6551985184196
 10
145.9339842177966
 20
111.6448094025004
 10
145.9939181124315
 20
111.6371225333124
 10
146.054810174234
 20
111.6319333583144
 10
146.1161113411193
 20
111.6289834953487
 10
146.1772402532329
 20
111.6280468600275
 10
146.1772402532329
 20
111.6280468600275
 10
146.2036275310755
 20
111.6282729444154
 10
146.2300255748414
 20
111.6289404316558
 10
146.2563697889911
 20
111.6300708535952
 10
146.2827032372176
 20
111.6316103806174
 10
146.3089613239815
 20
111.6336020764154
 10
146.3351548152059
 20
111.635992111373
 10
146.361240647198
 20
111.6388127832599
 10
146.3872295858811
 20
111.6420210283832
 10
146.4130893334853
 20
111.6456599104357
 10
146.4388091240875
 20
111.6496648338782
 10
146.4643781917645
 20
111.6540680964802
 10
146.4897750046698
 20
111.6588589323187
 10
146.5149780309568
 20
111.664015809547
 10
146.5399765047025
 20
111.6695494940884
 10
146.5647488940602
 20
111.6754276881733
 10
146.5892844331069
 20
111.6816719236481
 10
146.5892844331069
 20
111.6816719236481
 10
146.6035277495434
 20
111.685558421935
 10
146.6206455674829
 20
111.6910275109371
 10
146.6400780589174
 20
111.6981868498867
 10
146.6613622891479
 20
111.7072625231716
 10
146.6839384301663
 20
111.7183621900242
 10
146.7073004835806
 20
111.7316796370627
 10
146.7309101532293
 20
111.7473871190588
 10
146.7542614407204
 20
111.7656353589377
 10
146.7767945180458
 20
111.7865966114712
 10
146.7980356845833
 20
111.810443131431
 10
146.8174574100946
 20
111.8373148758191
 10
146.8344998665715
 20
111.8674056312536
 10
146.8486678215453
 20
111.9008768865832
 10
146.859444510701
 20
111.937879364733
 10
146.8662808719536
 20
111.9785853204747
 10
146.8686816728344
 20
112.0231562426569
 10
146.8686816728344
 20
112.0231562426569
 10
146.8641384532303
 20
112.082314990819
 10
146.8510363246565
 20
112.1351433761204
 10
146.830075072123
 20
112.1819859081047
 10
146.8020406080258
 20
112.2231870963151
 10
146.7676865469912
 20
112.2590914502952
 10
146.7277234399525
 20
112.2900542455116
 10
146.6829264333824
 20
112.316430757431
 10
146.6340491419073
 20
112.3385439637504
 10
146.5818128823836
 20
112.3567599058596
 10
146.526982035361
 20
112.3714230933021
 10
146.4702994495423
 20
112.3828672696982
 10
146.412518739554
 20
112.3914584764376
 10
146.3543935200222
 20
112.397541223064
 10
146.2966558737268
 20
112.4014492531973
 10
146.240059415294
 20
112.4035378423044
 10
146.1853469934269
 20
112.4041622658519
 10
146.1603054559884
 20
112.4041622658519
 10
146.1279646225982
 20
112.4034517149185
 10
146.0956776188242
 20
112.4023535907488
 10
146.0634875083593
 20
112.4007817659569
 10
146.0314265889731
 20
112.3986824109266
 10
145.9995271584355
 20
112.3960016960417
 10
145.9678430463626
 20
112.3926534939164
 10
145.9364280823704
 20
112.3885732090114
 10
145.9052930323822
 20
112.3837070117103
 10
145.8744809600911
 20
112.3779687746274
 10
145.8440672269596
 20
112.3713046681466
 10
145.8140625989108
 20
112.3636608626516
 10
145.7845101396379
 20
112.3549512307566
 10
145.7554529128336
 20
112.3451111769221
 10
145.7269447481142
 20
112.3340868715321
 10
145.6990179432493
 20
112.3218137190472
 10
145.6717047960087
 20
112.3082055920814
  0
LWPOLYLINE
  5
99
330
1F
100
AcDbEntity
  8
レイヤー_1
  6
Continuous
 62
   250
420
  2367521
370
    13
100
AcDbPolyline
 90
      119
 70
     0
 43
0.0
 10
147.0235494785326
 20
112.0146942269963
 10
147.0169822653608
 20
111.9286099048299
 10
146.9981634315506
 20
111.8520318928778
 10
146.9683741219665
 20
111.7844003631318
 10
146.9289170133197
 20
111.7251877853535
 10
146.8811055482446
 20
111.6738343315349
 10
146.8262208716058
 20
111.6298124714376
 10
146.7655656601144
 20
111.5925731429767
 10
146.7004533564048
 20
111.5615565181441
 10
146.6321543394184
 20
111.5362243007783
 10
146.5619928177128
 20
111.5160489606408
 10
146.4912499361526
 20
111.5004599038002
 10
146.4212391373723
 20
111.4889403659415
 10
146.3532523321596
 20
111.4809197531334
 10
146.2885814313025
 20
111.4758705351374
 10
146.2285398774354
 20
111.4732328839455
 10
146.1744088154228
 20
111.4724792693192
 10
146.1744088154228
 20
111.4724792693192
 10
146.1664420322308
 20
111.4725869285515
 10
146.1565589147035
 20
111.4728776084788
 10
146.1449424835357
 20
111.4733620750242
 10
146.1317865253457
 20
111.4740295622647
 10
146.1172848267516
 20
111.4748693042768
 10
146.1016096425253
 20
111.4758705351374
 10
146.0849762911312
 20
111.477011723
 10
146.0675677932643
 20
111.4783036337879
 10
146.0495564036966
 20
111.4797247356546
 10
146.0311466749691
 20
111.4812642626768
 10
146.0125216277771
 20
111.4829222148546
 10
145.9938858146618
 20
111.4846770603415
 10
145.9754007244717
 20
111.4865395650607
 10
145.9572924415948
 20
111.4884774312425
 10
145.9397224548795
 20
111.490490658887
 10
145.922884550944
 20
111.4925792479941
 10
145.922884550944
 20
111.4925792479941
 10
145.879293327776
 20
111.499243354475
 10
145.8354329565271
 20
111.5076515405195
 10
145.7915618193551
 20
111.5179006994367
 10
145.74801365988
 20
111.5300661926893
 10
145.7051006898756
 20
111.5442556795097
 10
145.6631351211157
 20
111.5605552872835
 10
145.6224291653739
 20
111.5790403774736
 10
145.5832950344241
 20
111.5998293752354
 10
145.5460341741168
 20
111.6229976420315
 10
145.5109695621488
 20
111.6486313052479
 10
145.478413410294
 20
111.6768272581936
 10
145.4486671644028
 20
111.7076931601009
 10
145.4220430362491
 20
111.7412936065092
 10
145.398874769453
 20
111.7777254907277
 10
145.3794422780185
 20
111.8170857060654
 10
145.3640793055658
 20
111.8594711458314
 10
145.3640793055658
 20
111.8594711458314
 10
145.3615062499132
 20
111.8690528175082
 10
145.3590623853395
 20
111.8787852121103
 10
145.3567584777678
 20
111.8886037340983
 10
145.3546052931213
 20
111.898551447165
 10
145.3525920654768
 20
111.9085852876176
 10
145.3507403266809
 20
111.9187052554561
 10
145.3490393108102
 20
111.9289113506804
 10
145.3475105497111
 20
111.9392035732906
 10
145.3461325115374
 20
111.949549625517
 10
145.3449267281354
 20
111.9599602732827
 10
145.343893199505
 20
111.9704139847414
 10
145.3430426915697
 20
111.980910759893
 10
145.3423752043293
 20
111.9914505987375
 10
145.3418907377838
 20
112.0020012035052
 10
145.3416000578565
 20
112.0125733401195
 10
145.3415031645474
 20
112.0231562426569
 10
145.3415031645474
 20
112.0231562426569
 10
145.3424397998687
 20
112.0578655791582
 10
145.3452281739858
 20
112.0910999841767
 10
145.3499005846687
 20
112.1229348191749
 10
145.3564677978405
 20
112.1534346796923
 10
145.3649298135012
 20
112.1826210975754
 10
145.375297397574
 20
112.2105802002099
 10
145.3876243796751
 20
112.2373765831354
 10
145.4018784620348
 20
112.2630425441215
 10
145.4180811764996
 20
112.287664210554
 10
145.4362540549159
 20
112.3112846461259
 10
145.4564186291302
 20
112.3339469145301
 10
145.4785748991425
 20
112.3557371431525
 10
145.502733630876
 20
112.376698395686
 10
145.5289163561772
 20
112.39689526767
 10
145.5571230750461
 20
112.4163708227974
 10
145.5873860852524
 20
112.4352004225309
 10
145.5873860852524
 20
112.4352004225309
 10
145.6224291653739
 20
112.4546975095048
 10
145.6587426244369
 20
112.4720198799858
 10
145.6960573143604
 20
112.4872859591293
 10
145.7340825552172
 20
112.5006034061678
 10
145.7725599648499
 20
112.5121229440265
 10
145.8112311611007
 20
112.5219629978609
 10
145.8498162299657
 20
112.5302742905963
 10
145.8880460233639
 20
112.5371644814651
 10
145.925662159138
 20
112.5427519956227
 10
145.9623847232837
 20
112.5471875559945
 10
145.9979553336436
 20
112.5505788218127
 10
146.0320833102903
 20
112.5530872819258
 10
146.0645318029128
 20
112.5547990637198
 10
146.095020897507
 20
112.5558648901198
 10
146.1232599141456
 20
112.5564139522046
 10
146.1490120025175
 20
112.5565646751299
 10
146.1490120025175
 20
112.5565646751299
 10
146.2024863432129
 20
112.5562201655864
 10
146.2626570881588
 20
112.5547021704107
 10
146.3280923695654
 20
112.5513109045925
 10
146.3974356811054
 20
112.545314285352
 10
146.4692443890656
 20
112.5360555913721
 10
146.5421512211954
 20
112.5227812080266
 10
146.6147458415516
 20
112.5048021162284
 10
146.685639446037
 20
112.4814185309676
 10
146.753410932785
 20
112.4519199013109
 10
146.8166930295451
 20
112.4155956763247
 10
146.8740754003738
 20
112.3717245391526
 10
146.924158475251
 20
112.319628236631
 10
146.9655534500796
 20
112.2585854519032
 10
146.996839222993
 20
112.187885634036
 10
147.0166377558174
 20
112.106818232096
 10
147.0235494785326
 20
112.0146942269963
  0
HATCH
  5
9A
330
1F
100
AcDbEntity
  8
レイヤー_1
  6
Continuous
 62
   250
420
  2367521
370
    13
100
AcDbHatch
 10
0.0
 20
0.0
 30
0.0
210
0.0
220
0.0
230
1.0
  2
SOLID
 70
     1
 71
     0
 91
        1
 92
        3
 72
     0
 73
     1
 93
       67
 10
147.0235925422255
 20
113.4285613932621
 10
147.0226451409811
 20
113.4067711646397
 10
147.0199213624033
 20
113.3859283372618
 10
147.015507333878
 20
113.3660544429747
 10
147.009532246484
 20
113.3472463750877
 10
147.0021037594536
 20
113.3295687291401
 10
146.993318766096
 20
113.313075334748
 10
146.9833279893363
 20
113.2978415533742
 10
146.9722175565605
 20
113.2839319805579
 10
146.9601274247705
 20
113.2714004459154
 10
146.9471221895057
 20
113.2603330768325
 10
146.9333848714612
 20
113.2507837029253
 10
146.918969300253
 20
113.2428276856566
 10
146.9040261988064
 20
113.2365188546424
 10
146.8886524604305
 20
113.2319325713454
 10
146.8729665102809
 20
113.2291334313049
 10
146.8570867735131
 20
113.2281860300605
 10
146.8570867735131
 20
113.2281860300605
 10
146.8398935941109
 20
113.2292195586908
 10
146.823174115331
 20
113.2322770808888
 10
146.8069929327127
 20
113.237240171499
 10
146.7914792373348
 20
113.2439796394424
 10
146.7766976247367
 20
113.2524093573334
 10
146.7627342223043
 20
113.2624216659396
 10
146.7496859233466
 20
113.2738981401053
 10
146.7376280893263
 20
113.2867418865216
 10
146.7266576135524
 20
113.300845245956
 10
146.716860623411
 20
113.3161005591763
 10
146.7083340122109
 20
113.3324001669502
 10
146.7011639073381
 20
113.3496256441221
 10
146.6954256702552
 20
113.3676800973828
 10
146.6912161942714
 20
113.3864558675001
 10
146.6886323726956
 20
113.4058452952417
 10
146.6877495669905
 20
113.4257407213752
 10
146.6877495669905
 20
113.4257407213752
 10
146.6887185000814
 20
113.4465081872905
 10
146.6915607038148
 20
113.4663928475008
 10
146.6961362211886
 20
113.4853731701595
 10
146.7023373929704
 20
113.5033522619576
 10
146.7100565599281
 20
113.520276293279
 10
146.7191537650595
 20
113.5360699026609
 10
146.729510583209
 20
113.5506900264105
 10
146.7410193551445
 20
113.5640397712187
 10
146.753550889787
 20
113.5760653074693
 10
146.7669867619811
 20
113.5866912736997
 10
146.7812085465711
 20
113.5958853721402
 10
146.7960978184015
 20
113.6035399435584
 10
146.8115361523168
 20
113.6096119242615
 10
146.8273943572381
 20
113.61403671871
 10
146.84355400801
 20
113.6167389654414
 10
146.8599074454
 20
113.6176540689161
 10
146.8599074454
 20
113.6176540689161
 10
146.8776173891173
 20
113.6165128810535
 10
146.8945952500548
 20
113.6132400403908
 10
146.9107764326731
 20
113.6079432061605
 10
146.9261071073561
 20
113.6008053990574
 10
146.940554976334
 20
113.5919881079301
 10
146.9540231462977
 20
113.5816312897805
 10
146.9664793194776
 20
113.5699179653036
 10
146.9778589003343
 20
113.5569773255783
 10
146.9881188251748
 20
113.5429816253761
 10
146.9971944984597
 20
113.5280815876225
 10
147.0050213246496
 20
113.5124387011658
 10
147.0115562400517
 20
113.4962036889313
 10
147.0167346491265
 20
113.4795488056908
 10
147.0205134881811
 20
113.4626140084462
 10
147.0228066298296
 20
113.4455715519693
 97
        0
 75
     1
 76
     1
 98
        0
  0
LWPOLYLINE
  5
9B
330
1F
100
AcDbEntity
  8
レイヤー_1
  6
Continuous
 62
   250
420
  2367521
370
    13
100
AcDbPolyline
 90
       68
 70
     0
 43
0.0
 10
147.0235925422255
 20
113.4285613932621
 10
147.0226451409811
 20
113.4067711646397
 10
147.0199213624033
 20
113.3859283372618
 10
147.015507333878
 20
113.3660544429747
 10
147.009532246484
 20
113.3472463750877
 10
147.0021037594536
 20
113.3295687291401
 10
146.993318766096
 20
113.313075334748
 10
146.9833279893363
 20
113.2978415533742
 10
146.9722175565605
 20
113.2839319805579
 10
146.9601274247705
 20
113.2714004459154
 10
146.9471221895057
 20
113.2603330768325
 10
146.9333848714612
 20
113.2507837029253
 10
146.918969300253
 20
113.2428276856566
 10
146.9040261988064
 20
113.2365188546424
 10
146.8886524604305
 20
113.2319325713454
 10
146.8729665102809
 20
113.2291334313049
 10
146.8570867735131
 20
113.2281860300605
 10
146.8570867735131
 20
113.2281860300605
 10
146.8398935941109
 20
113.2292195586908
 10
146.823174115331
 20
113.2322770808888
 10
146.8069929327127
 20
113.237240171499
 10
146.7914792373348
 20
113.2439796394424
 10
146.7766976247367
 20
113.2524093573334
 10
146.7627342223043
 20
113.2624216659396
 10
146.7496859233466
 20
113.2738981401053
 10
146.7376280893263
 20
113.2867418865216
 10
146.7266576135524
 20
113.300845245956
 10
146.716860623411
 20
113.3161005591763
 10
146.7083340122109
 20
113.3324001669502
 10
146.7011639073381
 20
113.3496256441221
 10
146.6954256702552
 20
113.3676800973828
 10
146.6912161942714
 20
113.3864558675001
 10
146.6886323726956
 20
113.4058452952417
 10
146.6877495669905
 20
113.4257407213752
 10
146.6877495669905
 20
113.4257407213752
 10
146.6887185000814
 20
113.4465081872905
 10
146.6915607038148
 20
113.4663928475008
 10
146.6961362211886
 20
113.4853731701595
 10
146.7023373929704
 20
113.5033522619576
 10
146.7100565599281
 20
113.520276293279
 10
146.7191537650595
 20
113.5360699026609
 10
146.729510583209
 20
113.5506900264105
 10
146.7410193551445
 20
113.5640397712187
 10
146.753550889787
 20
113.5760653074693
 10
146.7669867619811
 20
113.5866912736997
 10
146.7812085465711
 20
113.5958853721402
 10
146.7960978184015
 20
113.6035399435584
 10
146.8115361523168
 20
113.6096119242615
 10
146.8273943572381
 20
113.61403671871
 10
146.84355400801
 20
113.6167389654414
 10
146.8599074454
 20
113.6176540689161
 10
146.8599074454
 20
113.6176540689161
 10
146.8776173891173
 20
113.6165128810535
 10
146.8945952500548
 20
113.6132400403908
 10
146.9107764326731
 20
113.6079432061605
 10
146.9261071073561
 20
113.6008053990574
 10
146.940554976334
 20
113.5919881079301
 10
146.9540231462977
 20
113.5816312897805
 10
146.9664793194776
 20
113.5699179653036
 10
146.9778589003343
 20
113.5569773255783
 10
146.9881188251748
 20
113.5429816253761
 10
146.9971944984597
 20
113.5280815876225
 10
147.0050213246496
 20
113.5124387011658
 10
147.0115562400517
 20
113.4962036889313
 10
147.0167346491265
 20
113.4795488056908
 10
147.0205134881811
 20
113.4626140084462
 10
147.0228066298296
 20
113.4455715519693
 10
147.0235925422255
 20
113.4285613932621
  0
HATCH
  5
9C
330
1F
100
AcDbEntity
  8
レイヤー_1
  6
Continuous
 62
   250
420
  2367521
370
    13
100
AcDbHatch
 10
0.0
 20
0.0
 30
0.0
210
0.0
220
0.0
230
1.0
  2
SOLID
 70
     1
 71
     0
 91
        1
 92
        3
 72
     0
 73
     1
 93
        9
 10
146.9898306069687
 20
114.8508582774189
 10
146.9898306069687
 20
114.6787003990095
 10
145.5307465631267
 20
115.2318535346906
 10
145.5307465631267
 20
114.4162379565266
 10
145.762515358474
 20
114.4162379565266
 10
145.762515358474
 20
114.2638355472486
 10
145.3755234819619
 20
114.2638355472486
 10
145.3755234819619
 20
115.3983700693263
 10
145.5392085787874
 20
115.3983700693263
 97
        0
 75
     1
 76
     1
 98
        0
  0
LWPOLYLINE
  5
9D
330
1F
100
AcDbEntity
  8
レイヤー_1
  6
Continuous
 62
   250
420
  2367521
370
    13
100
AcDbPolyline
 90
       10
 70
     0
 43
0.0
 10
146.9898306069687
 20
114.8508582774189
 10
146.9898306069687
 20
114.6787003990095
 10
145.5307465631267
 20
115.2318535346906
 10
145.5307465631267
 20
114.4162379565266
 10
145.762515358474
 20
114.4162379565266
 10
145.762515358474
 20
114.2638355472486
 10
145.3755234819619
 20
114.2638355472486
 10
145.3755234819619
 20
115.3983700693263
 10
145.5392085787874
 20
115.3983700693263
 10
146.9898306069687
 20
114.8508582774189
  0
HATCH
  5
9E
330
1F
100
AcDbEntity
  8
レイヤー_1
  6
Continuous
 62
   250
420
  2367521
370
    13
100
AcDbHatch
 10
0.0
 20
0.0
 30
0.0
210
0.0
220
0.0
230
1.0
  2
SOLID
 70
     1
 71
     0
 91
        1
 92
        3
 72
     0
 73
     1
 93
      140
 10
145.3478981229475
 20
107.0094873251704
 10
145.3472844653232
 20
106.9741320332752
 10
145.3454973220667
 20
106.9388413369193
 10
145.3426012887172
 20
106.9036582997958
 10
145.3386824926606
 20
106.8685721559814
 10
145.3338162953595
 20
106.8336152032458
 10
145.3280457605069
 20
106.7987982075121
 10
145.3214785473352
 20
106.764142700627
 10
145.3141577195371
 20
106.7296486825904
 10
145.3061801704219
 20
106.6953484511719
 10
145.2976104955289
 20
106.6612527722949
 10
145.2885240563208
 20
106.627393943729
 10
145.2789854483369
 20
106.5937611995509
 10
145.269080798963
 20
106.5603868375304
 10
145.2588639378155
 20
106.527292389514
 10
145.24842099228
 20
106.4944778555016
 10
145.2378273238193
 20
106.461975533263
 10
145.0826042426545
 20
106.4930244558652
 10
145.093607016198
 20
106.52238312852
 10
145.1043729394304
 20
106.5521186084879
 10
145.1148051190426
 20
106.5821985979993
 10
145.1248604913417
 20
106.6125907992844
 10
145.1344744607882
 20
106.6433059782664
 10
145.1435931977661
 20
106.6743118371758
 10
145.1521305748894
 20
106.7055760782427
 10
145.1600435284652
 20
106.7370987014672
 10
145.1672566970309
 20
106.7688366431563
 10
145.1737162509704
 20
106.8007899033101
 10
145.1793575947441
 20
106.8329261841589
 10
145.1841161328128
 20
106.8652347197793
 10
145.1879165037139
 20
106.8976939783251
 10
145.1907156437543
 20
106.9302716620263
 10
145.1924381914715
 20
106.9629570049599
 10
145.1930303172493
 20
106.9957284752794
 10
145.1930303172493
 20
106.9957284752794
 10
145.1912754717624
 20
107.0503224719909
 10
145.1860647649179
 20
107.1018697124277
 10
145.1776027492572
 20
107.1503056010503
 10
145.1659970840127
 20
107.1955763082426
 10
145.1514092580328
 20
107.2375957066187
 10
145.134000760166
 20
107.2763099665624
 10
145.1139115474143
 20
107.3116544925344
 10
145.091292342703
 20
107.343553923072
 10
145.0663046348806
 20
107.3719651944824
 10
145.0390776150259
 20
107.3967914134563
 10
145.0097943038337
 20
107.4179787503777
 10
144.9785731264597
 20
107.4354626097071
 10
144.9455648058291
 20
107.4491783959052
 10
144.9109523626369
 20
107.4590615134326
 10
144.8748542220387
 20
107.4650366008266
 10
144.8374318728828
 20
107.4670390625478
 10
144.8374318728828
 20
107.4670390625478
 10
144.8035730443169
 20
107.4652519192912
 10
144.7700694912176
 20
107.4599335532144
 10
144.7371257661264
 20
107.4511054961638
 10
144.7050110171242
 20
107.4388000459092
 10
144.6740266900613
 20
107.4230817979899
 10
144.6443881034025
 20
107.4039830501756
 10
144.6163536393053
 20
107.3815145683895
 10
144.5901816799273
 20
107.3557409481711
 10
144.5661306074261
 20
107.3266944872901
 10
144.5444588039593
 20
107.2944074835161
 10
144.5254246516844
 20
107.2589230005421
 10
144.5092650009125
 20
107.220284102061
 10
144.4962597656478
 20
107.1785230858425
 10
144.4866565621244
 20
107.1336722496562
 10
144.4807030065769
 20
107.0857854231185
 10
144.4786574811628
 20
107.0348841380756
 10
144.4786574811628
 20
107.0348841380756
 10
144.4786790130092
 20
107.0257115714816
 10
144.4788727996274
 20
107.01414896993
 10
144.4793680320961
 20
107.0002716948835
 10
144.4803261992638
 20
106.9842627670369
 10
144.4819303218254
 20
106.9661867819296
 10
144.4843095908598
 20
106.946194462487
 10
144.4876362611386
 20
106.9243504042485
 10
144.4920610555871
 20
106.9008268619857
 10
144.4977454630538
 20
106.8757207290077
 10
144.504840206464
 20
106.8491288986236
 10
144.5135067746661
 20
106.8211805619123
 10
144.5238958905854
 20
106.7920049099525
 10
144.5361798089936
 20
106.76168807013
 10
144.5504984868926
 20
106.7303699994469
 10
144.5670241790544
 20
106.6981583571356
 10
144.5858968424808
 20
106.6651715683515
 10
144.5608553050422
 20
106.5554668106132
 10
143.6997214034515
 20
106.5554668106132
 10
143.6997214034515
 20
107.5316023041726
 10
143.855299760083
 20
107.5316023041726
 10
143.855299760083
 20
106.7103346163114
 10
144.4080976202976
 20
106.7103346163114
 10
144.3987743307783
 20
106.7302408083682
 10
144.3898924441116
 20
106.7507498921259
 10
144.3814519602973
 20
106.7718511016614
 10
144.3734959430286
 20
106.7934583095889
 10
144.3660351582286
 20
106.8155499840618
 10
144.3591019036669
 20
106.8380830613872
 10
144.3527069452668
 20
106.8609929460258
 10
144.3468825807981
 20
106.8842473402078
 10
144.3416718739536
 20
106.9078031802403
 10
144.3370640588101
 20
106.9316174024304
 10
144.3331021990606
 20
106.9556361771619
 10
144.3298078265515
 20
106.9798164407419
 10
144.3272024731293
 20
107.004093597631
 10
144.3253184365636
 20
107.0284676478291
 10
144.3241664827777
 20
107.0528524639505
 10
144.3237789095413
 20
107.0772157482255
 10
144.3237789095413
 20
107.0772157482255
 10
144.3265672836585
 20
107.14144524623
 10
144.3347170875455
 20
107.2017990118709
 10
144.3478945775819
 20
107.2582662792249
 10
144.3657875419942
 20
107.3107609209061
 10
144.3880837690085
 20
107.3592937028378
 10
144.4144495150047
 20
107.4038107954038
 10
144.4445833341322
 20
107.4442691349112
 10
144.4781299509244
 20
107.4806256576671
 10
144.5147771536075
 20
107.5128372999785
 10
144.5542234963311
 20
107.5408932959221
 10
144.5961352354748
 20
107.5647398158819
 10
144.6401893933418
 20
107.5843337961649
 10
144.6860737581584
 20
107.5996321730781
 10
144.7334545863042
 20
107.6106134147752
 10
144.7820196660056
 20
107.6172236916399
 10
144.8314352536424
 20
107.6194414718258
 10
144.8314352536424
 20
107.6194414718258
 10
144.8684054340225
 20
107.6179019448035
 10
144.9079163722854
 20
107.613014215656
 10
144.949311347114
 20
107.6044983703792
 10
144.9919013394214
 20
107.5920098994296
 10
145.0350188619672
 20
107.5751827614173
 10
145.0779425978948
 20
107.5536939786455
 10
145.1200265918103
 20
107.527220573417
 10
145.1605710587036
 20
107.4954395680349
 10
145.1989085113342
 20
107.4579956870326
 10
145.234339164692
 20
107.4145551867898
 10
145.2661955315368
 20
107.3648058555328
 10
145.2937885927814
 20
107.308392417795
 10
145.3164400952624
 20
107.2449918958794
 10
145.3334610198928
 20
107.1742597802424
 10
145.3441731135091
 20
107.0958730931873
 97
        0
 75
     1
 76
     1
 98
        0
  0
LWPOLYLINE
  5
9F
330
1F
100
AcDbEntity
  8
レイヤー_1
  6
Continuous
 62
   250
420
  2367521
370
    13
100
AcDbPolyline
 90
      141
 70
     0
 43
0.0
 10
145.3478981229475
 20
107.0094873251704
 10
145.3472844653232
 20
106.9741320332752
 10
145.3454973220667
 20
106.9388413369193
 10
145.3426012887172
 20
106.9036582997958
 10
145.3386824926606
 20
106.8685721559814
 10
145.3338162953595
 20
106.8336152032458
 10
145.3280457605069
 20
106.7987982075121
 10
145.3214785473352
 20
106.764142700627
 10
145.3141577195371
 20
106.7296486825904
 10
145.3061801704219
 20
106.6953484511719
 10
145.2976104955289
 20
106.6612527722949
 10
145.2885240563208
 20
106.627393943729
 10
145.2789854483369
 20
106.5937611995509
 10
145.269080798963
 20
106.5603868375304
 10
145.2588639378155
 20
106.527292389514
 10
145.24842099228
 20
106.4944778555016
 10
145.2378273238193
 20
106.461975533263
 10
145.0826042426545
 20
106.4930244558652
 10
145.093607016198
 20
106.52238312852
 10
145.1043729394304
 20
106.5521186084879
 10
145.1148051190426
 20
106.5821985979993
 10
145.1248604913417
 20
106.6125907992844
 10
145.1344744607882
 20
106.6433059782664
 10
145.1435931977661
 20
106.6743118371758
 10
145.1521305748894
 20
106.7055760782427
 10
145.1600435284652
 20
106.7370987014672
 10
145.1672566970309
 20
106.7688366431563
 10
145.1737162509704
 20
106.8007899033101
 10
145.1793575947441
 20
106.8329261841589
 10
145.1841161328128
 20
106.8652347197793
 10
145.1879165037139
 20
106.8976939783251
 10
145.1907156437543
 20
106.9302716620263
 10
145.1924381914715
 20
106.9629570049599
 10
145.1930303172493
 20
106.9957284752794
 10
145.1930303172493
 20
106.9957284752794
 10
145.1912754717624
 20
107.0503224719909
 10
145.1860647649179
 20
107.1018697124277
 10
145.1776027492572
 20
107.1503056010503
 10
145.1659970840127
 20
107.1955763082426
 10
145.1514092580328
 20
107.2375957066187
 10
145.134000760166
 20
107.2763099665624
 10
145.1139115474143
 20
107.3116544925344
 10
145.091292342703
 20
107.343553923072
 10
145.0663046348806
 20
107.3719651944824
 10
145.0390776150259
 20
107.3967914134563
 10
145.0097943038337
 20
107.4179787503777
 10
144.9785731264597
 20
107.4354626097071
 10
144.9455648058291
 20
107.4491783959052
 10
144.9109523626369
 20
107.4590615134326
 10
144.8748542220387
 20
107.4650366008266
 10
144.8374318728828
 20
107.4670390625478
 10
144.8374318728828
 20
107.4670390625478
 10
144.8035730443169
 20
107.4652519192912
 10
144.7700694912176
 20
107.4599335532144
 10
144.7371257661264
 20
107.4511054961638
 10
144.7050110171242
 20
107.4388000459092
 10
144.6740266900613
 20
107.4230817979899
 10
144.6443881034025
 20
107.4039830501756
 10
144.6163536393053
 20
107.3815145683895
 10
144.5901816799273
 20
107.3557409481711
 10
144.5661306074261
 20
107.3266944872901
 10
144.5444588039593
 20
107.2944074835161
 10
144.5254246516844
 20
107.2589230005421
 10
144.5092650009125
 20
107.220284102061
 10
144.4962597656478
 20
107.1785230858425
 10
144.4866565621244
 20
107.1336722496562
 10
144.4807030065769
 20
107.0857854231185
 10
144.4786574811628
 20
107.0348841380756
 10
144.4786574811628
 20
107.0348841380756
 10
144.4786790130092
 20
107.0257115714816
 10
144.4788727996274
 20
107.01414896993
 10
144.4793680320961
 20
107.0002716948835
 10
144.4803261992638
 20
106.9842627670369
 10
144.4819303218254
 20
106.9661867819296
 10
144.4843095908598
 20
106.946194462487
 10
144.4876362611386
 20
106.9243504042485
 10
144.4920610555871
 20
106.9008268619857
 10
144.4977454630538
 20
106.8757207290077
 10
144.504840206464
 20
106.8491288986236
 10
144.5135067746661
 20
106.8211805619123
 10
144.5238958905854
 20
106.7920049099525
 10
144.5361798089936
 20
106.76168807013
 10
144.5504984868926
 20
106.7303699994469
 10
144.5670241790544
 20
106.6981583571356
 10
144.5858968424808
 20
106.6651715683515
 10
144.5608553050422
 20
106.5554668106132
 10
143.6997214034515
 20
106.5554668106132
 10
143.6997214034515
 20
107.5316023041726
 10
143.855299760083
 20
107.5316023041726
 10
143.855299760083
 20
106.7103346163114
 10
144.4080976202976
 20
106.7103346163114
 10
144.3987743307783
 20
106.7302408083682
 10
144.3898924441116
 20
106.7507498921259
 10
144.3814519602973
 20
106.7718511016614
 10
144.3734959430286
 20
106.7934583095889
 10
144.3660351582286
 20
106.8155499840618
 10
144.3591019036669
 20
106.8380830613872
 10
144.3527069452668
 20
106.8609929460258
 10
144.3468825807981
 20
106.8842473402078
 10
144.3416718739536
 20
106.9078031802403
 10
144.3370640588101
 20
106.9316174024304
 10
144.3331021990606
 20
106.9556361771619
 10
144.3298078265515
 20
106.9798164407419
 10
144.3272024731293
 20
107.004093597631
 10
144.3253184365636
 20
107.0284676478291
 10
144.3241664827777
 20
107.0528524639505
 10
144.3237789095413
 20
107.0772157482255
 10
144.3237789095413
 20
107.0772157482255
 10
144.3265672836585
 20
107.14144524623
 10
144.3347170875455
 20
107.2017990118709
 10
144.3478945775819
 20
107.2582662792249
 10
144.3657875419942
 20
107.3107609209061
 10
144.3880837690085
 20
107.3592937028378
 10
144.4144495150047
 20
107.4038107954038
 10
144.4445833341322
 20
107.4442691349112
 10
144.4781299509244
 20
107.4806256576671
 10
144.5147771536075
 20
107.5128372999785
 10
144.5542234963311
 20
107.5408932959221
 10
144.5961352354748
 20
107.5647398158819
 10
144.6401893933418
 20
107.5843337961649
 10
144.6860737581584
 20
107.5996321730781
 10
144.7334545863042
 20
107.6106134147752
 10
144.7820196660056
 20
107.6172236916399
 10
144.8314352536424
 20
107.6194414718258
 10
144.8314352536424
 20
107.6194414718258
 10
144.8684054340225
 20
107.6179019448035
 10
144.9079163722854
 20
107.613014215656
 10
144.949311347114
 20
107.6044983703792
 10
144.9919013394214
 20
107.5920098994296
 10
145.0350188619672
 20
107.5751827614173
 10
145.0779425978948
 20
107.5536939786455
 10
145.1200265918103
 20
107.527220573417
 10
145.1605710587036
 20
107.4954395680349
 10
145.1989085113342
 20
107.4579956870326
 10
145.234339164692
 20
107.4145551867898
 10
145.2661955315368
 20
107.3648058555328
 10
145.2937885927814
 20
107.308392417795
 10
145.3164400952624
 20
107.2449918958794
 10
145.3334610198928
 20
107.1742597802424
 10
145.3441731135091
 20
107.0958730931873
 10
145.3478981229475
 20
107.0094873251704
  0
HATCH
  5
A0
330
1F
100
AcDbEntity
  8
レイヤー_1
  6
Continuous
 62
   250
420
  2367521
370
    13
100
AcDbHatch
 10
0.0
 20
0.0
 30
0.0
210
0.0
220
0.0
230
1.0
  2
SOLID
 70
     1
 71
     0
 91
        1
 92
        3
 72
     0
 73
     1
 93
       10
 10
108.2793495022795
 20
116.8609207404491
 10
108.2793495022795
 20
117.016143821614
 10
108.7760569024532
 20
117.016143821614
 10
108.7760569024532
 20
118.3115427686304
 10
108.2793495022795
 20
118.2099447510862
 10
108.2793495022795
 20
118.365167832251
 10
108.9312799836181
 20
118.5090974599451
 10
108.9312799836181
 20
117.016143821614
 10
109.4138840243573
 20
117.016143821614
 10
109.4138840243573
 20
116.8609207404491
 97
        0
 75
     1
 76
     1
 98
        0
  0
LWPOLYLINE
  5
A1
330
1F
100
AcDbEntity
  8
レイヤー_1
  6
Continuous
 62
   250
420
  2367521
370
    13
100
AcDbPolyline
 90
       11
 70
     0
 43
0.0
 10
108.2793495022795
 20
116.8609207404491
 10
108.2793495022795
 20
117.016143821614
 10
108.7760569024532
 20
117.016143821614
 10
108.7760569024532
 20
118.3115427686304
 10
108.2793495022795
 20
118.2099447510862
 10
108.2793495022795
 20
118.365167832251
 10
108.9312799836181
 20
118.5090974599451
 10
108.9312799836181
 20
117.016143821614
 10
109.4138840243573
 20
117.016143821614
 10
109.4138840243573
 20
116.8609207404491
 10
108.2793495022795
 20
116.8609207404491
  0
HATCH
  5
A2
330
1F
100
AcDbEntity
  8
レイヤー_1
  6
Continuous
 62
   250
420
  2367521
370
    13
100
AcDbHatch
 10
0.0
 20
0.0
 30
0.0
210
0.0
220
0.0
230
1.0
  2
SOLID
 70
     1
 71
     0
 91
        1
 92
        3
 72
     0
 73
     1
 93
      140
 10
110.4776541330284
 20
116.8269757844973
 10
110.442245011517
 20
116.8275894421216
 10
110.4069112514683
 20
116.8293765853782
 10
110.3716851506518
 20
116.8323049164974
 10
110.3365882409141
 20
116.8362344784772
 10
110.3016205222553
 20
116.8411329735479
 10
110.2668035265217
 20
116.8469142743238
 10
110.2321587855598
 20
116.8535137852652
 10
110.1976862993696
 20
116.8608453789865
 10
110.1634075997976
 20
116.8688336940249
 10
110.129333452767
 20
116.8774141348412
 10
110.0954853901243
 20
116.8865005740493
 10
110.0618741777928
 20
116.8960391820332
 10
110.028532113542
 20
116.9059330654838
 10
109.9954376655256
 20
116.9161068629385
 10
109.9626446633596
 20
116.926506744781
 10
109.930142341121
 20
116.9370465836255
 10
109.9611912637233
 20
117.0922696647904
 10
109.9904961067619
 20
117.0812668912468
 10
110.0201669911904
 20
117.0705332657841
 10
110.0501931510856
 20
117.0601010861719
 10
110.080553054601
 20
117.0500672457193
 10
110.1112359358134
 20
117.0404748081192
 10
110.1422202628762
 20
117.0313991348343
 10
110.1734629720967
 20
117.0228940554807
 10
110.2049532975515
 20
117.0150026337514
 10
110.2366912392406
 20
117.0078217629553
 10
110.2686337334712
 20
117.0013945067856
 10
110.3007592483967
 20
116.9957962267047
 10
110.3330570180939
 20
116.9910592204825
 10
110.3655055107164
 20
116.9872803814279
 10
110.3980831944177
 20
116.9844920073107
 10
110.4307685373513
 20
116.9827802255168
 10
110.4635400076707
 20
116.9821988656622
 10
110.4635400076707
 20
116.9821988656622
 10
110.5181340043823
 20
116.9839644770723
 10
110.5696920107423
 20
116.9891428861471
 10
110.6181278993649
 20
116.9976049018078
 10
110.6633878406339
 20
117.0091890352059
 10
110.7054180049333
 20
117.0237445634161
 10
110.7441430308002
 20
117.0411315294364
 10
110.779476790849
 20
117.0611992103416
 10
110.8113762213866
 20
117.0837968832065
 10
110.839787492797
 20
117.1087845910289
 10
110.8646029458477
 20
117.1359900790372
 10
110.8857902827691
 20
117.1652841561526
 10
110.9032741420985
 20
117.1965160994498
 10
110.9169899282966
 20
117.2295244200804
 10
110.9268730458239
 20
117.2641799269655
 10
110.9328481332179
 20
117.3003211312567
 10
110.9348505949391
 20
117.3377973100287
 10
110.9348505949391
 20
117.3377973100287
 10
110.9330634516825
 20
117.3715915430552
 10
110.927755851529
 20
117.4050520324615
 10
110.9189385604016
 20
117.4379419279366
 10
110.9066761738399
 20
117.4700028473227
 10
110.8909794577671
 20
117.5009656425391
 10
110.8719022417992
 20
117.5305826973514
 10
110.8494660577829
 20
117.5585848636789
 10
110.8237355012574
 20
117.5847460571337
 10
110.7947105722229
 20
117.6087755977884
 10
110.7624558662186
 20
117.630436635332
 10
110.7270144469375
 20
117.6494707876069
 10
110.6883970803028
 20
117.6656089065323
 10
110.6466575959308
 20
117.6786141417971
 10
110.601828291591
 20
117.6882281112436
 10
110.5539414650533
 20
117.6941709008679
 10
110.5030509459337
 20
117.696216426282
 10
110.5030509459337
 20
117.696216426282
 10
110.4938783793396
 20
117.6961948944356
 10
110.4822942459416
 20
117.6960118737406
 10
110.4684492686647
 20
117.695516641272
 10
110.4524295748949
 20
117.6945369422578
 10
110.4343535897876
 20
117.6929435856194
 10
110.4143612703451
 20
117.6905535506618
 10
110.3925279780297
 20
117.6872376463062
 10
110.3689936698437
 20
117.6828128518577
 10
110.3438767709425
 20
117.677128444391
 10
110.3172957064817
 20
117.6700337009809
 10
110.2893473697703
 20
117.6613671327788
 10
110.2601717178105
 20
117.6509780168595
 10
110.229854877988
 20
117.6386940984513
 10
110.198536807305
 20
117.6243754205522
 10
110.1663251649936
 20
117.6078497283904
 10
110.1333383762095
 20
117.588977064964
 10
110.0232783430046
 20
117.6143738778693
 10
110.0232783430046
 20
118.4751525039933
 10
110.9994138365639
 20
118.4751525039933
 10
110.9994138365639
 20
118.3199294228285
 10
110.1785014241695
 20
118.3199294228285
 10
110.1785014241695
 20
117.7667762871473
 10
110.198396850303
 20
117.7760995766665
 10
110.2189166999839
 20
117.7849922292565
 10
110.2400071435962
 20
117.793443478994
 10
110.2616251174469
 20
117.8014317940324
 10
110.2837167919198
 20
117.8089248766021
 10
110.3062498692452
 20
117.8158904289335
 10
110.3291597538838
 20
117.82230691918
 10
110.3524141480658
 20
117.8281635814185
 10
110.3759699880983
 20
117.8334065860327
 10
110.3997842102884
 20
117.8380466989458
 10
110.4237922190967
 20
117.8420300905418
 10
110.4479724826767
 20
117.8453567608206
 10
110.4722711714122
 20
117.8479728801661
 10
110.4966236897639
 20
117.8498892145015
 10
110.5210192718086
 20
117.8510411682873
 10
110.5453825560835
 20
117.8514395074469
 10
110.5453825560835
 20
117.8514395074469
 10
110.6096012881648
 20
117.8486403674065
 10
110.6699442878825
 20
117.8404905635196
 10
110.72639002339
 20
117.8272807757134
 10
110.778873899148
 20
117.8093770453779
 10
110.8273851492332
 20
117.7870485205939
 10
110.8718591781063
 20
117.7606612427513
 10
110.912285219844
 20
117.7305058917773
 10
110.9486094448302
 20
117.6969269772154
 10
110.9807995552951
 20
117.6602367108393
 10
111.008823253469
 20
117.6207580703461
 10
111.0326267097359
 20
117.5788140334326
 10
111.0521883922492
 20
117.5347383437192
 10
111.0674760032392
 20
117.4888324470562
 10
111.0784357130898
 20
117.4414408529871
 10
111.0850459899545
 20
117.3928650073625
 10
111.0872530042171
 20
117.3434386538025
 10
111.0872530042171
 20
117.3434386538025
 10
111.0857027112717
 20
117.3064792393456
 10
111.0808580458171
 20
117.2669575351594
 10
111.0723637323867
 20
117.2255625603308
 10
111.0598644955139
 20
117.1829833339467
 10
111.0430696552713
 20
117.1398658114009
 10
111.0216239361923
 20
117.0969420754732
 10
110.9951828287336
 20
117.0548580815578
 10
110.9634341211212
 20
117.0143028487413
 10
110.9260117719653
 20
116.9759653961107
 10
110.8826143354155
 20
116.9405347427528
 10
110.832886536005
 20
116.9086783759081
 10
110.7765053960369
 20
116.8810853146634
 10
110.7131156400444
 20
116.8584338121824
 10
110.642405056254
 20
116.841412887552
 10
110.564029135122
 20
116.8307007939357
 97
        0
 75
     1
 76
     1
 98
        0
  0
LWPOLYLINE
  5
A3
330
1F
100
AcDbEntity
  8
レイヤー_1
  6
Continuous
 62
   250
420
  2367521
370
    13
100
AcDbPolyline
 90
      141
 70
     0
 43
0.0
 10
110.4776541330284
 20
116.8269757844973
 10
110.442245011517
 20
116.8275894421216
 10
110.4069112514683
 20
116.8293765853782
 10
110.3716851506518
 20
116.8323049164974
 10
110.3365882409141
 20
116.8362344784772
 10
110.3016205222553
 20
116.8411329735479
 10
110.2668035265217
 20
116.8469142743238
 10
110.2321587855598
 20
116.8535137852652
 10
110.1976862993696
 20
116.8608453789865
 10
110.1634075997976
 20
116.8688336940249
 10
110.129333452767
 20
116.8774141348412
 10
110.0954853901243
 20
116.8865005740493
 10
110.0618741777928
 20
116.8960391820332
 10
110.028532113542
 20
116.9059330654838
 10
109.9954376655256
 20
116.9161068629385
 10
109.9626446633596
 20
116.926506744781
 10
109.930142341121
 20
116.9370465836255
 10
109.9611912637233
 20
117.0922696647904
 10
109.9904961067619
 20
117.0812668912468
 10
110.0201669911904
 20
117.0705332657841
 10
110.0501931510856
 20
117.0601010861719
 10
110.080553054601
 20
117.0500672457193
 10
110.1112359358134
 20
117.0404748081192
 10
110.1422202628762
 20
117.0313991348343
 10
110.1734629720967
 20
117.0228940554807
 10
110.2049532975515
 20
117.0150026337514
 10
110.2366912392406
 20
117.0078217629553
 10
110.2686337334712
 20
117.0013945067856
 10
110.3007592483967
 20
116.9957962267047
 10
110.3330570180939
 20
116.9910592204825
 10
110.3655055107164
 20
116.9872803814279
 10
110.3980831944177
 20
116.9844920073107
 10
110.4307685373513
 20
116.9827802255168
 10
110.4635400076707
 20
116.9821988656622
 10
110.4635400076707
 20
116.9821988656622
 10
110.5181340043823
 20
116.9839644770723
 10
110.5696920107423
 20
116.9891428861471
 10
110.6181278993649
 20
116.9976049018078
 10
110.6633878406339
 20
117.0091890352059
 10
110.7054180049333
 20
117.0237445634161
 10
110.7441430308002
 20
117.0411315294364
 10
110.779476790849
 20
117.0611992103416
 10
110.8113762213866
 20
117.0837968832065
 10
110.839787492797
 20
117.1087845910289
 10
110.8646029458477
 20
117.1359900790372
 10
110.8857902827691
 20
117.1652841561526
 10
110.9032741420985
 20
117.1965160994498
 10
110.9169899282966
 20
117.2295244200804
 10
110.9268730458239
 20
117.2641799269655
 10
110.9328481332179
 20
117.3003211312567
 10
110.9348505949391
 20
117.3377973100287
 10
110.9348505949391
 20
117.3377973100287
 10
110.9330634516825
 20
117.3715915430552
 10
110.927755851529
 20
117.4050520324615
 10
110.9189385604016
 20
117.4379419279366
 10
110.9066761738399
 20
117.4700028473227
 10
110.8909794577671
 20
117.5009656425391
 10
110.8719022417992
 20
117.5305826973514
 10
110.8494660577829
 20
117.5585848636789
 10
110.8237355012574
 20
117.5847460571337
 10
110.7947105722229
 20
117.6087755977884
 10
110.7624558662186
 20
117.630436635332
 10
110.7270144469375
 20
117.6494707876069
 10
110.6883970803028
 20
117.6656089065323
 10
110.6466575959308
 20
117.6786141417971
 10
110.601828291591
 20
117.6882281112436
 10
110.5539414650533
 20
117.6941709008679
 10
110.5030509459337
 20
117.696216426282
 10
110.5030509459337
 20
117.696216426282
 10
110.4938783793396
 20
117.6961948944356
 10
110.4822942459416
 20
117.6960118737406
 10
110.4684492686647
 20
117.695516641272
 10
110.4524295748949
 20
117.6945369422578
 10
110.4343535897876
 20
117.6929435856194
 10
110.4143612703451
 20
117.6905535506618
 10
110.3925279780297
 20
117.6872376463062
 10
110.3689936698437
 20
117.6828128518577
 10
110.3438767709425
 20
117.677128444391
 10
110.3172957064817
 20
117.6700337009809
 10
110.2893473697703
 20
117.6613671327788
 10
110.2601717178105
 20
117.6509780168595
 10
110.229854877988
 20
117.6386940984513
 10
110.198536807305
 20
117.6243754205522
 10
110.1663251649936
 20
117.6078497283904
 10
110.1333383762095
 20
117.588977064964
 10
110.0232783430046
 20
117.6143738778693
 10
110.0232783430046
 20
118.4751525039933
 10
110.9994138365639
 20
118.4751525039933
 10
110.9994138365639
 20
118.3199294228285
 10
110.1785014241695
 20
118.3199294228285
 10
110.1785014241695
 20
117.7667762871473
 10
110.198396850303
 20
117.7760995766665
 10
110.2189166999839
 20
117.7849922292565
 10
110.2400071435962
 20
117.793443478994
 10
110.2616251174469
 20
117.8014317940324
 10
110.2837167919198
 20
117.8089248766021
 10
110.3062498692452
 20
117.8158904289335
 10
110.3291597538838
 20
117.82230691918
 10
110.3524141480658
 20
117.8281635814185
 10
110.3759699880983
 20
117.8334065860327
 10
110.3997842102884
 20
117.8380466989458
 10
110.4237922190967
 20
117.8420300905418
 10
110.4479724826767
 20
117.8453567608206
 10
110.4722711714122
 20
117.8479728801661
 10
110.4966236897639
 20
117.8498892145015
 10
110.5210192718086
 20
117.8510411682873
 10
110.5453825560835
 20
117.8514395074469
 10
110.5453825560835
 20
117.8514395074469
 10
110.6096012881648
 20
117.8486403674065
 10
110.6699442878825
 20
117.8404905635196
 10
110.72639002339
 20
117.8272807757134
 10
110.778873899148
 20
117.8093770453779
 10
110.8273851492332
 20
117.7870485205939
 10
110.8718591781063
 20
117.7606612427513
 10
110.912285219844
 20
117.7305058917773
 10
110.9486094448302
 20
117.6969269772154
 10
110.9807995552951
 20
117.6602367108393
 10
111.008823253469
 20
117.6207580703461
 10
111.0326267097359
 20
117.5788140334326
 10
111.0521883922492
 20
117.5347383437192
 10
111.0674760032392
 20
117.4888324470562
 10
111.0784357130898
 20
117.4414408529871
 10
111.0850459899545
 20
117.3928650073625
 10
111.0872530042171
 20
117.3434386538025
 10
111.0872530042171
 20
117.3434386538025
 10
111.0857027112717
 20
117.3064792393456
 10
111.0808580458171
 20
117.2669575351594
 10
111.0723637323867
 20
117.2255625603308
 10
111.0598644955139
 20
117.1829833339467
 10
111.0430696552713
 20
117.1398658114009
 10
111.0216239361923
 20
117.0969420754732
 10
110.9951828287336
 20
117.0548580815578
 10
110.9634341211212
 20
117.0143028487413
 10
110.9260117719653
 20
116.9759653961107
 10
110.8826143354155
 20
116.9405347427528
 10
110.832886536005
 20
116.9086783759081
 10
110.7765053960369
 20
116.8810853146634
 10
110.7131156400444
 20
116.8584338121824
 10
110.642405056254
 20
116.841412887552
 10
110.564029135122
 20
116.8307007939357
 10
110.4776541330284
 20
116.8269757844973
  0
HATCH
  5
A4
330
1F
100
AcDbEntity
  8
レイヤー_1
  6
Continuous
 62
   250
420
  2367521
370
    13
100
AcDbHatch
 10
0.0
 20
0.0
 30
0.0
210
0.0
220
0.0
230
1.0
  2
SOLID
 70
     1
 71
     0
 91
        1
 92
        3
 72
     0
 73
     1
 93
      240
 10
118.8044820956727
 20
94.14826781549992
 10
118.7912615419433
 20
94.14847236804134
 10
118.7750372956321
 20
94.14911832343529
 10
118.7560677388966
 20
94.15027027722115
 10
118.7345897220479
 20
94.15196052716864
 10
118.7108616272437
 20
94.15425366881715
 10
118.6850880070253
 20
94.15718199993636
 10
118.65755954132
 20
94.16079935014244
 10
118.6284915485925
 20
94.16515954905157
 10
118.5981424110004
 20
94.17030566035666
 10
118.5667489788547
 20
94.17629151367387
 10
118.5345588683898
 20
94.18317093861938
 10
118.50181969584
 20
94.19098699888613
 10
118.4687683115165
 20
94.199782758167
 10
118.4356630975769
 20
94.20961204607819
 10
118.4027193724857
 20
94.2205394581591
 10
118.370217050247
 20
94.23258652625614
 10
118.2679084817695
 20
94.27244197406253
 10
118.3077746954991
 20
94.40508891420905
 10
118.3335698475639
 20
94.39558260399482
 10
118.3600863164854
 20
94.38613012339678
 10
118.3872918044936
 20
94.37681759980075
 10
118.4151109501262
 20
94.36773116059258
 10
118.4434899237668
 20
94.3589354013117
 10
118.4723748957994
 20
94.35050568342072
 10
118.5017120366077
 20
94.34252813430552
 10
118.5314367506524
 20
94.33506734950547
 10
118.561484442394
 20
94.32819869048318
 10
118.5918120481397
 20
94.32199751870131
 10
118.6223549723501
 20
94.31654996154572
 10
118.6530593854089
 20
94.31192061455577
 10
118.6838499258536
 20
94.30819560511736
 10
118.7146942959144
 20
94.30542876284663
 10
118.7455171341288
 20
94.30372774697591
 10
118.7762646108806
 20
94.30313562119812
 10
118.7762646108806
 20
94.30313562119812
 10
118.8245282447315
 20
94.30467514822035
 10
118.8708001827844
 20
94.30919683597799
 10
118.9149189361908
 20
94.3166145570851
 10
118.956712250179
 20
94.3267775886165
 10
118.9960724655167
 20
94.3395998031863
 10
119.0328057955857
 20
94.35495200971572
 10
119.0667722833839
 20
94.37271578304919
 10
119.097810440063
 20
94.3927834639544
 10
119.1257803086207
 20
94.41504739319902
 10
119.1505311661321
 20
94.43936761378103
 10
119.1718907578252
 20
94.46565799831458
 10
119.1897083607748
 20
94.49378935572086
 10
119.2038332520557
 20
94.5236324949211
 10
119.2141147087427
 20
94.55510128852944
 10
119.2203912419872
 20
94.58805577954385
 10
119.2225228947872
 20
94.62239907465522
 10
119.2225228947872
 20
94.62239907465522
 10
119.220983367765
 20
94.65068115498676
 10
119.216493977777
 20
94.67731604906375
 10
119.2093454047507
 20
94.7023145228094
 10
119.1997637330739
 20
94.72570887399343
 10
119.1880181108273
 20
94.74752063446229
 10
119.1743561542454
 20
94.76776057013922
 10
119.1590470114089
 20
94.78645021287068
 10
119.1423060007825
 20
94.80358956265667
 10
119.1244238022935
 20
94.81923244911337
 10
119.1056480321761
 20
94.83335734039429
 10
119.0862155407416
 20
94.84601806611559
 10
119.066406241994
 20
94.85720386035408
 10
119.0464462203211
 20
94.8669470208794
 10
119.0266046238038
 20
94.87526907953806
 10
119.0071290686764
 20
94.88217003633002
 10
118.9882779370964
 20
94.88769295494825
 10
118.9882779370964
 20
94.88769295494825
 10
118.9733671334195
 20
94.89117034815231
 10
118.95838096828
 20
94.89434629550588
 10
118.9433517394476
 20
94.89724232885541
 10
118.9282794469222
 20
94.89984768227765
 10
118.9131533247807
 20
94.90218388761909
 10
118.8979841389462
 20
94.90425094487969
 10
118.8827718894188
 20
94.90608115182921
 10
118.867538108045
 20
94.90766374254437
 10
118.8522827948246
 20
94.90902024887166
 10
118.8370059497578
 20
94.91017220265752
 10
118.8217075728446
 20
94.91110883797874
 10
118.8064091959313
 20
94.91185168668179
 10
118.7911000530949
 20
94.91241151468986
 10
118.7758016761816
 20
94.912788322003
 10
118.7605032992684
 20
94.91301440639089
 10
118.7452156882783
 20
94.9130897678535
 10
118.7000634062416
 20
94.9130897678535
 10
118.7000634062416
 20
95.06795757355172
 10
118.7085254219023
 20
95.06795757355172
 10
118.7629471638421
 20
95.06996003527294
 10
118.8130410046425
 20
95.07576286789521
 10
118.8589146035358
 20
95.08506462556801
 10
118.9006971516008
 20
95.0975530965176
 10
118.9384855421465
 20
95.11293760081672
 10
118.9723982003286
 20
95.13087362892192
 10
119.0025427853794
 20
95.15109203275239
 10
119.0290269565311
 20
95.17325906868791
 10
119.0519906707858
 20
95.19709482272447
 10
119.0715092896062
 20
95.22226555124183
 10
119.0877335359174
 20
95.24848057431277
 10
119.1007495371054
 20
95.27542768016347
 10
119.1106757183257
 20
95.30279465702026
 10
119.1176197388106
 20
95.33029082495582
 10
119.1217107896389
 20
95.35759320627322
 10
119.1230457641197
 20
95.38440035512193
 10
119.1230457641197
 20
95.38440035512193
 10
119.1217538533318
 20
95.41142282243527
 10
119.1178565891217
 20
95.43833763051629
 10
119.1113216737196
 20
95.46492946090035
 10
119.1021060434327
 20
95.49098299512278
 10
119.0901881664144
 20
95.51625061694924
 10
119.0755142130486
 20
95.5405170079151
 10
119.0580626514889
 20
95.56354531770921
 10
119.0378011839655
 20
95.58513099379019
 10
119.0146975127088
 20
95.60502641992369
 10
118.9887085740257
 20
95.62299474579858
 10
118.9598020701467
 20
95.63882065295022
 10
118.9279349373788
 20
95.65228882291396
 10
118.8930856438755
 20
95.6631624053787
 10
118.8552111259439
 20
95.67120455003331
 10
118.8142898517375
 20
95.67619993841313
 10
118.7702679916401
 20
95.6779117202071
 10
118.7702679916401
 20
95.6779117202071
 10
118.7361184831469
 20
95.67682436196063
 10
118.7024211434295
 20
95.67370224422322
 10
118.6693159294898
 20
95.66878221730602
 10
118.6369320324068
 20
95.66230113152011
 10
118.605441706952
 20
95.65446353940692
 10
118.5749203145881
 20
95.64551705720078
 10
118.5455831737797
 20
95.63569853521281
 10
118.5175056459896
 20
95.62521252598445
 10
118.4908492200662
 20
95.61430664575002
 10
118.4657538530114
 20
95.60320697889742
 10
118.4423702677507
 20
95.59212884389126
 10
118.4208168894394
 20
95.58131985696592
 10
118.4012336750796
 20
95.57099533658604
 10
118.3837713475966
 20
95.56140289898596
 10
118.3685698639925
 20
95.55274709670711
 10
118.3557476494227
 20
95.54526478006059
 10
118.3049540236122
 20
95.66944970454642
 10
118.3331930402508
 20
95.68706275495464
 10
118.361830396049
 20
95.70391142481336
 10
118.3908876228533
 20
95.71993111858319
 10
118.4203539547404
 20
95.73506800664796
 10
118.4502509235568
 20
95.74927902531473
 10
118.4805892952257
 20
95.7625211108906
 10
118.5113798356704
 20
95.77472966783616
 10
118.5426333108141
 20
95.78586163245846
 10
118.57436048658
 20
95.79588470698783
 10
118.6065613629681
 20
95.80471276403841
 10
118.639257471825
 20
95.81233503768695
 10
118.6724488131505
 20
95.81867616647085
 10
118.7061676847144
 20
95.82369308669715
 10
118.7404033205934
 20
95.82734273467294
 10
118.7751664867109
 20
95.82956051485881
 10
118.8104787149132
 20
95.83031412948509
 10
118.8104787149132
 20
95.83031412948509
 10
118.8454356676488
 20
95.82912987792952
 10
118.8794344532168
 20
95.82569554841838
 10
118.9124643056938
 20
95.82012956610723
 10
118.9444175658476
 20
95.81253959022837
 10
118.975240404062
 20
95.80306557778385
 10
119.0048359270279
 20
95.79182595392922
 10
119.0331718369756
 20
95.77894990974326
 10
119.060151240596
 20
95.76456663630475
 10
119.0857310741962
 20
95.74879455876928
 10
119.1098252103903
 20
95.73176286821561
 10
119.1323582877158
 20
95.71361152164576
 10
119.1532764765563
 20
95.69443741236884
 10
119.1725044154494
 20
95.67438049738686
 10
119.1899775088556
 20
95.65356996777862
 10
119.2056096293891
 20
95.63213501462289
 10
119.2193469474336
 20
95.61018329715202
 10
119.2193469474336
 20
95.61018329715202
 10
119.2251605459791
 20
95.59937431022666
 10
119.2307911238297
 20
95.58822081375789
 10
119.236227915062
 20
95.57673357366892
 10
119.2414170900601
 20
95.56486952626679
 10
119.2463586488237
 20
95.55263943747478
 10
119.2510095276601
 20
95.54003254136964
 10
119.2553481947228
 20
95.52701654018165
 10
119.259342352242
 20
95.51360219983407
 10
119.2629812342946
 20
95.49976798848041
 10
119.2662110112643
 20
95.48549237427424
 10
119.269020917228
 20
95.47076459129231
 10
119.2713894203391
 20
95.45559540545784
 10
119.2732734569048
 20
95.43994175307793
 10
119.2746514950785
 20
95.42381440007577
 10
119.2755020030139
 20
95.40718104868171
 10
119.2757926829411
 20
95.39004169889571
 10
119.2757926829411
 20
95.39004169889571
 10
119.274533069923
 20
95.35036927178427
 10
119.2708511241775
 20
95.31371130317793
 10
119.2649083345532
 20
95.27990630422815
 10
119.2568661898986
 20
95.24874972239357
 10
119.2469077109086
 20
95.22003700513272
 10
119.2351728545853
 20
95.19357436582746
 10
119.2218015779306
 20
95.16915725193635
 10
119.2070091994093
 20
95.14658111091799
 10
119.1909033782536
 20
95.12566292207742
 10
119.1736779010817
 20
95.10618736695
 10
119.155483490819
 20
95.08797142484076
 10
119.136492402237
 20
95.0708105432083
 10
119.1168445923379
 20
95.05450016951121
 10
119.0967230818165
 20
95.03883575120804
 10
119.0762678276749
 20
95.02363426760388
 10
119.0556618506081
 20
95.0086911661573
 10
119.0556618506081
 20
95.0086911661573
 10
119.074975916887
 20
95.00377113924009
 10
119.0966907840468
 20
94.9971608623754
 10
119.1203327514652
 20
94.98868808079149
 10
119.1453742889037
 20
94.97815900787019
 10
119.1713416957403
 20
94.96535832514687
 10
119.19768590989
 20
94.95007071415684
 10
119.2239224648074
 20
94.93211315420518
 10
119.2495561280238
 20
94.91128109275047
 10
119.2740593693007
 20
94.88735921132806
 10
119.2969477220928
 20
94.86016448924298
 10
119.3176936561617
 20
94.82949237395385
 10
119.3358019390386
 20
94.795127546996
 10
119.3507665723316
 20
94.75686545582802
 10
119.3620923235721
 20
94.71452307975495
 10
119.3692516625217
 20
94.66788510031216
 10
119.3717493567116
 20
94.61675773088145
 10
119.3717493567116
 20
94.61675773088145
 10
119.368293495354
 20
94.5589447231234
 10
119.3582596549014
 20
94.50507204326843
 10
119.3421323018993
 20
94.45509662762359
 10
119.3204282006627
 20
94.40901847618888
 10
119.293621051814
 20
94.36678375934812
 10
119.2622168537451
 20
94.32838171117814
 10
119.2267108389246
 20
94.29376926798594
 10
119.1875982398212
 20
94.26292489792507
 10
119.145385054827
 20
94.23581630322587
 10
119.1005557504872
 20
94.21241118611862
 10
119.0536055592707
 20
94.19269878068008
 10
119.0050404795693
 20
94.17662525729409
 10
118.9553449779285
 20
94.16417985003741
 10
118.9050250527402
 20
94.15531949521716
 10
118.8545759364731
 20
94.1500226609868
 97
        0
 75
     1
 76
     1
 98
        0
  0
LWPOLYLINE
  5
A5
330
1F
100
AcDbEntity
  8
レイヤー_1
  6
Continuous
 62
   250
420
  2367521
370
    13
100
AcDbPolyline
 90
      241
 70
     0
 43
0.0
 10
118.8044820956727
 20
94.14826781549992
 10
118.7912615419433
 20
94.14847236804134
 10
118.7750372956321
 20
94.14911832343529
 10
118.7560677388966
 20
94.15027027722115
 10
118.7345897220479
 20
94.15196052716864
 10
118.7108616272437
 20
94.15425366881715
 10
118.6850880070253
 20
94.15718199993636
 10
118.65755954132
 20
94.16079935014244
 10
118.6284915485925
 20
94.16515954905157
 10
118.5981424110004
 20
94.17030566035666
 10
118.5667489788547
 20
94.17629151367387
 10
118.5345588683898
 20
94.18317093861938
 10
118.50181969584
 20
94.19098699888613
 10
118.4687683115165
 20
94.199782758167
 10
118.4356630975769
 20
94.20961204607819
 10
118.4027193724857
 20
94.2205394581591
 10
118.370217050247
 20
94.23258652625614
 10
118.2679084817695
 20
94.27244197406253
 10
118.3077746954991
 20
94.40508891420905
 10
118.3335698475639
 20
94.39558260399482
 10
118.3600863164854
 20
94.38613012339678
 10
118.3872918044936
 20
94.37681759980075
 10
118.4151109501262
 20
94.36773116059258
 10
118.4434899237668
 20
94.3589354013117
 10
118.4723748957994
 20
94.35050568342072
 10
118.5017120366077
 20
94.34252813430552
 10
118.5314367506524
 20
94.33506734950547
 10
118.561484442394
 20
94.32819869048318
 10
118.5918120481397
 20
94.32199751870131
 10
118.6223549723501
 20
94.31654996154572
 10
118.6530593854089
 20
94.31192061455577
 10
118.6838499258536
 20
94.30819560511736
 10
118.7146942959144
 20
94.30542876284663
 10
118.7455171341288
 20
94.30372774697591
 10
118.7762646108806
 20
94.30313562119812
 10
118.7762646108806
 20
94.30313562119812
 10
118.8245282447315
 20
94.30467514822035
 10
118.8708001827844
 20
94.30919683597799
 10
118.9149189361908
 20
94.3166145570851
 10
118.956712250179
 20
94.3267775886165
 10
118.9960724655167
 20
94.3395998031863
 10
119.0328057955857
 20
94.35495200971572
 10
119.0667722833839
 20
94.37271578304919
 10
119.097810440063
 20
94.3927834639544
 10
119.1257803086207
 20
94.41504739319902
 10
119.1505311661321
 20
94.43936761378103
 10
119.1718907578252
 20
94.46565799831458
 10
119.1897083607748
 20
94.49378935572086
 10
119.2038332520557
 20
94.5236324949211
 10
119.2141147087427
 20
94.55510128852944
 10
119.2203912419872
 20
94.58805577954385
 10
119.2225228947872
 20
94.62239907465522
 10
119.2225228947872
 20
94.62239907465522
 10
119.220983367765
 20
94.65068115498676
 10
119.216493977777
 20
94.67731604906375
 10
119.2093454047507
 20
94.7023145228094
 10
119.1997637330739
 20
94.72570887399343
 10
119.1880181108273
 20
94.74752063446229
 10
119.1743561542454
 20
94.76776057013922
 10
119.1590470114089
 20
94.78645021287068
 10
119.1423060007825
 20
94.80358956265667
 10
119.1244238022935
 20
94.81923244911337
 10
119.1056480321761
 20
94.83335734039429
 10
119.0862155407416
 20
94.84601806611559
 10
119.066406241994
 20
94.85720386035408
 10
119.0464462203211
 20
94.8669470208794
 10
119.0266046238038
 20
94.87526907953806
 10
119.0071290686764
 20
94.88217003633002
 10
118.9882779370964
 20
94.88769295494825
 10
118.9882779370964
 20
94.88769295494825
 10
118.9733671334195
 20
94.89117034815231
 10
118.95838096828
 20
94.89434629550588
 10
118.9433517394476
 20
94.89724232885541
 10
118.9282794469222
 20
94.89984768227765
 10
118.9131533247807
 20
94.90218388761909
 10
118.8979841389462
 20
94.90425094487969
 10
118.8827718894188
 20
94.90608115182921
 10
118.867538108045
 20
94.90766374254437
 10
118.8522827948246
 20
94.90902024887166
 10
118.8370059497578
 20
94.91017220265752
 10
118.8217075728446
 20
94.91110883797874
 10
118.8064091959313
 20
94.91185168668179
 10
118.7911000530949
 20
94.91241151468986
 10
118.7758016761816
 20
94.912788322003
 10
118.7605032992684
 20
94.91301440639089
 10
118.7452156882783
 20
94.9130897678535
 10
118.7000634062416
 20
94.9130897678535
 10
118.7000634062416
 20
95.06795757355172
 10
118.7085254219023
 20
95.06795757355172
 10
118.7629471638421
 20
95.06996003527294
 10
118.8130410046425
 20
95.07576286789521
 10
118.8589146035358
 20
95.08506462556801
 10
118.9006971516008
 20
95.0975530965176
 10
118.9384855421465
 20
95.11293760081672
 10
118.9723982003286
 20
95.13087362892192
 10
119.0025427853794
 20
95.15109203275239
 10
119.0290269565311
 20
95.17325906868791
 10
119.0519906707858
 20
95.19709482272447
 10
119.0715092896062
 20
95.22226555124183
 10
119.0877335359174
 20
95.24848057431277
 10
119.1007495371054
 20
95.27542768016347
 10
119.1106757183257
 20
95.30279465702026
 10
119.1176197388106
 20
95.33029082495582
 10
119.1217107896389
 20
95.35759320627322
 10
119.1230457641197
 20
95.38440035512193
 10
119.1230457641197
 20
95.38440035512193
 10
119.1217538533318
 20
95.41142282243527
 10
119.1178565891217
 20
95.43833763051629
 10
119.1113216737196
 20
95.46492946090035
 10
119.1021060434327
 20
95.49098299512278
 10
119.0901881664144
 20
95.51625061694924
 10
119.0755142130486
 20
95.5405170079151
 10
119.0580626514889
 20
95.56354531770921
 10
119.0378011839655
 20
95.58513099379019
 10
119.0146975127088
 20
95.60502641992369
 10
118.9887085740257
 20
95.62299474579858
 10
118.9598020701467
 20
95.63882065295022
 10
118.9279349373788
 20
95.65228882291396
 10
118.8930856438755
 20
95.6631624053787
 10
118.8552111259439
 20
95.67120455003331
 10
118.8142898517375
 20
95.67619993841313
 10
118.7702679916401
 20
95.6779117202071
 10
118.7702679916401
 20
95.6779117202071
 10
118.7361184831469
 20
95.67682436196063
 10
118.7024211434295
 20
95.67370224422322
 10
118.6693159294898
 20
95.66878221730602
 10
118.6369320324068
 20
95.66230113152011
 10
118.605441706952
 20
95.65446353940692
 10
118.5749203145881
 20
95.64551705720078
 10
118.5455831737797
 20
95.63569853521281
 10
118.5175056459896
 20
95.62521252598445
 10
118.4908492200662
 20
95.61430664575002
 10
118.4657538530114
 20
95.60320697889742
 10
118.4423702677507
 20
95.59212884389126
 10
118.4208168894394
 20
95.58131985696592
 10
118.4012336750796
 20
95.57099533658604
 10
118.3837713475966
 20
95.56140289898596
 10
118.3685698639925
 20
95.55274709670711
 10
118.3557476494227
 20
95.54526478006059
 10
118.3049540236122
 20
95.66944970454642
 10
118.3331930402508
 20
95.68706275495464
 10
118.361830396049
 20
95.70391142481336
 10
118.3908876228533
 20
95.71993111858319
 10
118.4203539547404
 20
95.73506800664796
 10
118.4502509235568
 20
95.74927902531473
 10
118.4805892952257
 20
95.7625211108906
 10
118.5113798356704
 20
95.77472966783616
 10
118.5426333108141
 20
95.78586163245846
 10
118.57436048658
 20
95.79588470698783
 10
118.6065613629681
 20
95.80471276403841
 10
118.639257471825
 20
95.81233503768695
 10
118.6724488131505
 20
95.81867616647085
 10
118.7061676847144
 20
95.82369308669715
 10
118.7404033205934
 20
95.82734273467294
 10
118.7751664867109
 20
95.82956051485881
 10
118.8104787149132
 20
95.83031412948509
 10
118.8104787149132
 20
95.83031412948509
 10
118.8454356676488
 20
95.82912987792952
 10
118.8794344532168
 20
95.82569554841838
 10
118.9124643056938
 20
95.82012956610723
 10
118.9444175658476
 20
95.81253959022837
 10
118.975240404062
 20
95.80306557778385
 10
119.0048359270279
 20
95.79182595392922
 10
119.0331718369756
 20
95.77894990974326
 10
119.060151240596
 20
95.76456663630475
 10
119.0857310741962
 20
95.74879455876928
 10
119.1098252103903
 20
95.73176286821561
 10
119.1323582877158
 20
95.71361152164576
 10
119.1532764765563
 20
95.69443741236884
 10
119.1725044154494
 20
95.67438049738686
 10
119.1899775088556
 20
95.65356996777862
 10
119.2056096293891
 20
95.63213501462289
 10
119.2193469474336
 20
95.61018329715202
 10
119.2193469474336
 20
95.61018329715202
 10
119.2251605459791
 20
95.59937431022666
 10
119.2307911238297
 20
95.58822081375789
 10
119.236227915062
 20
95.57673357366892
 10
119.2414170900601
 20
95.56486952626679
 10
119.2463586488237
 20
95.55263943747478
 10
119.2510095276601
 20
95.54003254136964
 10
119.2553481947228
 20
95.52701654018165
 10
119.259342352242
 20
95.51360219983407
 10
119.2629812342946
 20
95.49976798848041
 10
119.2662110112643
 20
95.48549237427424
 10
119.269020917228
 20
95.47076459129231
 10
119.2713894203391
 20
95.45559540545784
 10
119.2732734569048
 20
95.43994175307793
 10
119.2746514950785
 20
95.42381440007577
 10
119.2755020030139
 20
95.40718104868171
 10
119.2757926829411
 20
95.39004169889571
 10
119.2757926829411
 20
95.39004169889571
 10
119.274533069923
 20
95.35036927178427
 10
119.2708511241775
 20
95.31371130317793
 10
119.2649083345532
 20
95.27990630422815
 10
119.2568661898986
 20
95.24874972239357
 10
119.2469077109086
 20
95.22003700513272
 10
119.2351728545853
 20
95.19357436582746
 10
119.2218015779306
 20
95.16915725193635
 10
119.2070091994093
 20
95.14658111091799
 10
119.1909033782536
 20
95.12566292207742
 10
119.1736779010817
 20
95.10618736695
 10
119.155483490819
 20
95.08797142484076
 10
119.136492402237
 20
95.0708105432083
 10
119.1168445923379
 20
95.05450016951121
 10
119.0967230818165
 20
95.03883575120804
 10
119.0762678276749
 20
95.02363426760388
 10
119.0556618506081
 20
95.0086911661573
 10
119.0556618506081
 20
95.0086911661573
 10
119.074975916887
 20
95.00377113924009
 10
119.0966907840468
 20
94.9971608623754
 10
119.1203327514652
 20
94.98868808079149
 10
119.1453742889037
 20
94.97815900787019
 10
119.1713416957403
 20
94.96535832514687
 10
119.19768590989
 20
94.95007071415684
 10
119.2239224648074
 20
94.93211315420518
 10
119.2495561280238
 20
94.91128109275047
 10
119.2740593693007
 20
94.88735921132806
 10
119.2969477220928
 20
94.86016448924298
 10
119.3176936561617
 20
94.82949237395385
 10
119.3358019390386
 20
94.795127546996
 10
119.3507665723316
 20
94.75686545582802
 10
119.3620923235721
 20
94.71452307975495
 10
119.3692516625217
 20
94.66788510031216
 10
119.3717493567116
 20
94.61675773088145
 10
119.3717493567116
 20
94.61675773088145
 10
119.368293495354
 20
94.5589447231234
 10
119.3582596549014
 20
94.50507204326843
 10
119.3421323018993
 20
94.45509662762359
 10
119.3204282006627
 20
94.40901847618888
 10
119.293621051814
 20
94.36678375934812
 10
119.2622168537451
 20
94.32838171117814
 10
119.2267108389246
 20
94.29376926798594
 10
119.1875982398212
 20
94.26292489792507
 10
119.145385054827
 20
94.23581630322587
 10
119.1005557504872
 20
94.21241118611862
 10
119.0536055592707
 20
94.19269878068008
 10
119.0050404795693
 20
94.17662525729409
 10
118.9553449779285
 20
94.16417985003741
 10
118.9050250527402
 20
94.15531949521716
 10
118.8545759364731
 20
94.1500226609868
 10
118.8044820956727
 20
94.14826781549992
  0
HATCH
  5
A6
330
1F
100
AcDbEntity
  8
レイヤー_1
  6
Continuous
 62
   250
420
  2367521
370
    13
100
AcDbHatch
 10
0.0
 20
0.0
 30
0.0
210
0.0
220
0.0
230
1.0
  2
SOLID
 70
     1
 71
     0
 91
        3
 92
        3
 72
     0
 73
     1
 93
       67
 10
120.5683709580707
 20
95.67513411201313
 10
120.5510701194362
 20
95.6748219002394
 10
120.5301842283653
 20
95.67361611683737
 10
120.5063377084055
 20
95.67120455003331
 10
120.4801980467972
 20
95.66724269028379
 10
120.4524111989344
 20
95.66136449619889
 10
120.4236231202109
 20
95.65325775600488
 10
120.3944797660208
 20
95.64255642831186
 10
120.3656486236044
 20
95.62891600357639
 10
120.3377756483557
 20
95.61201350410153
 10
120.3115175615919
 20
95.59148288849732
 10
120.2874987868603
 20
95.5670011790668
 10
120.2663975773248
 20
95.53821310034336
 10
120.248849122456
 20
95.50477414278349
 10
120.235510143571
 20
95.46635056276702
 10
120.2270265960639
 20
95.42259785075052
 10
120.2240552012518
 20
95.37316073126729
 10
120.2240552012518
 20
95.37316073126729
 10
120.2268651072154
 20
95.32705028206288
 10
120.23490725187
 20
95.28601058270092
 10
120.247600275361
 20
95.24975095325418
 10
120.2643628178339
 20
95.21799147971856
 10
120.2845919875876
 20
95.19045224809007
 10
120.3076956588444
 20
95.16682104659493
 10
120.3331032376728
 20
95.14680719530588
 10
120.3602225982953
 20
95.13014154614211
 10
120.3884831467803
 20
95.11652265325311
 10
120.4172604595806
 20
95.10564907078839
 10
120.4459947086879
 20
95.0972516506671
 10
120.4740937683245
 20
95.09102894703878
 10
120.5009655127126
 20
95.08669027997611
 10
120.5260285819976
 20
95.08395573547509
 10
120.5486908504018
 20
95.08252386768517
 10
120.5683709580707
 20
95.08211476260234
 10
120.5683709580707
 20
95.08211476260234
 10
120.6057287116871
 20
95.08349280077609
 10
120.6416330656672
 20
95.0875515538347
 10
120.6759548289321
 20
95.0942264262388
 10
120.7085755763263
 20
95.10340975875604
 10
120.7393445849246
 20
95.11503695584705
 10
120.768132663648
 20
95.12900035827948
 10
120.7947998554947
 20
95.14521383866749
 10
120.8192385012323
 20
95.16360203554845
 10
120.8412978779355
 20
95.18407882153647
 10
120.8608487945255
 20
95.20654730332252
 10
120.8777405280772
 20
95.23093211944393
 10
120.8918761852813
 20
95.2571363765916
 10
120.9030942772895
 20
95.28507394737971
 10
120.9112763789461
 20
95.3146694703456
 10
120.916271767326
 20
95.34581528625696
 10
120.9179727831967
 20
95.37844679957439
 10
120.9179727831967
 20
95.37844679957439
 10
120.916411724328
 20
95.40881746901303
 10
120.9117393136451
 20
95.43829456682337
 10
120.9040955081501
 20
95.46673813600339
 10
120.8935126056127
 20
95.49400821955109
 10
120.8800982652651
 20
95.51994332861796
 10
120.8639063167235
 20
95.54440350620199
 10
120.8450551851436
 20
95.56724879530117
 10
120.8235987001414
 20
95.58830694114376
 10
120.7996445209493
 20
95.60744875265098
 10
120.7732464771834
 20
95.62451274097435
 10
120.7445014621529
 20
95.63935894911184
 10
120.7134848373203
 20
95.65184742006144
 10
120.6802827300716
 20
95.66180589905142
 10
120.6449705018693
 20
95.66911596092622
 10
120.6076450460225
 20
95.67360535091413
 97
        0
 92
        3
 72
     0
 73
     1
 93
       67
 10
120.5683709580707
 20
94.92407100955057
 10
120.5444598425715
 20
94.92345735192632
 10
120.5176096300299
 20
94.92146565612833
 10
120.4884124462236
 20
94.91781600815253
 10
120.4575142465466
 20
94.91225002584139
 10
120.4255179226998
 20
94.90449856111405
 10
120.3930478982309
 20
94.89430323181296
 10
120.3607393626104
 20
94.88139488985729
 10
120.3291844416162
 20
94.86550438716625
 10
120.2990290906423
 20
94.8463841075055
 10
120.2708762013895
 20
94.82374337094774
 10
120.2453609633287
 20
94.79734532718189
 10
120.2230862681608
 20
94.76689929628063
 10
120.2046873053566
 20
94.73216842793286
 10
120.1907777325404
 20
94.69286204221135
 10
120.1819712073363
 20
94.6487325228817
 10
120.178902919215
 20
94.59951072186313
 10
120.178902919215
 20
94.59951072186313
 10
120.1819819732595
 20
94.55432614205671
 10
120.1907992643868
 20
94.51384627070284
 10
120.2047841986657
 20
94.47784502341366
 10
120.2233015866255
 20
94.44605325210836
 10
120.245791600258
 20
94.41823410647581
 10
120.2716190500926
 20
94.39412920435845
 10
120.3002133421978
 20
94.37350169544516
 10
120.3309500530264
 20
94.35609319757836
 10
120.3632478227236
 20
94.34166686044692
 10
120.3964929936653
 20
94.32996430189328
 10
120.4301042059968
 20
94.32074867160635
 10
120.4634570361708
 20
94.31376158742852
 10
120.495980890256
 20
94.30875543312544
 10
120.5270621106279
 20
94.30549335838603
 10
120.5560978055857
 20
94.30371698105267
 10
120.5824850834284
 20
94.30317868489107
 10
120.5824850834284
 20
94.30317868489107
 10
120.6142660888104
 20
94.3040937883658
 10
120.6469083680511
 20
94.30690369432946
 10
120.6799920501443
 20
94.31174835978405
 10
120.7131403277769
 20
94.31869238026897
 10
120.745944095866
 20
94.3279080105559
 10
120.7779942493289
 20
94.33949214395398
 10
120.8088924490059
 20
94.3535524396955
 10
120.8382403557375
 20
94.37020732293604
 10
120.8656503962872
 20
94.38957521883114
 10
120.8906919337258
 20
94.41176378661314
 10
120.9129881607401
 20
94.43690221736082
 10
120.9321192063241
 20
94.46510893622973
 10
120.9477082631646
 20
94.49648083652897
 10
120.9593354602556
 20
94.53113634341409
 10
120.9666132243607
 20
94.56921541388712
 10
120.9691216844739
 20
94.61080417533393
 10
120.9691216844739
 20
94.61080417533393
 10
120.9670007975971
 20
94.64693461370189
 10
120.9608103917384
 20
94.68108412219509
 10
120.9507657853626
 20
94.71319887119736
 10
120.9370607650878
 20
94.74324656293902
 10
120.9199429471482
 20
94.77115183595743
 10
120.8996168840854
 20
94.79690392432934
 10
120.8763086602873
 20
94.82040593474571
 10
120.8502335942184
 20
94.84165786720646
 10
120.8216177702666
 20
94.86057359432581
 10
120.7906657409735
 20
94.87713158425726
 10
120.75761435665
 20
94.89127800738464
 10
120.7226681698376
 20
94.90295903409182
 10
120.6860532649241
 20
94.91212083476259
 10
120.6479849603743
 20
94.9187311116273
 10
120.6086785746528
 20
94.92272526914653
 97
        0
 92
        3
 72
     0
 73
     1
 93
      135
 10
120.5743675773111
 20
94.14549020730595
 10
120.5100842496904
 20
94.14808479480497
 10
120.4495474633546
 20
94.15565323883735
 10
120.3928002819965
 20
94.16791562539908
 10
120.3399395989254
 20
94.18450591310021
 10
120.2909761800644
 20
94.2051657197832
 10
120.2459961527994
 20
94.22956130182784
 10
120.2050210489769
 20
94.25738044746039
 10
120.1681477619059
 20
94.28832171083033
 10
120.1353978234329
 20
94.32207288016394
 10
120.1068358290973
 20
94.35831097776423
 10
120.0825156085153
 20
94.39673455778069
 10
120.0625017572262
 20
94.43704217436283
 10
120.0468265729998
 20
94.47891084981367
 10
120.035576183222
 20
94.52203913828271
 10
120.0287721197391
 20
94.56610406207295
 10
120.026500509937
 20
94.61080417533393
 10
120.026500509937
 20
94.61080417533393
 10
120.0287075241997
 20
94.65679619938277
 10
120.0349948233674
 20
94.69956921238514
 10
120.0449102386645
 20
94.73920934172688
 10
120.0579477716989
 20
94.77581348071706
 10
120.0736337218485
 20
94.80948928858803
 10
120.0914836225679
 20
94.84030136087918
 10
120.1110237732347
 20
94.86834659089962
 10
120.1317697073035
 20
94.89373263788164
 10
120.1532261923057
 20
94.91653486328788
 10
120.1749410594655
 20
94.93685016042744
 10
120.1963975444677
 20
94.95476465668617
 10
120.2171542444598
 20
94.97037524537316
 10
120.2366943951266
 20
94.98376805387429
 10
120.2545658276924
 20
94.99502920957538
 10
120.2702625437653
 20
95.00426637170878
 10
120.2833216086462
 20
95.01155490173713
 10
120.2833216086462
 20
95.01155490173713
 10
120.2585922829813
 20
95.02535681532108
 10
120.2352194636438
 20
95.0402783849212
 10
120.21322468248
 20
95.05636267423041
 10
120.1926725350293
 20
95.0735989173255
 10
120.1735522553685
 20
95.09201941197615
 10
120.1559284390371
 20
95.11162415818237
 10
120.1398333838046
 20
95.13242392186739
 10
120.1252778555944
 20
95.15444023487765
 10
120.112337215869
 20
95.1776730972132
 10
120.1009899327821
 20
95.20214404072047
 10
120.0913006018729
 20
95.2278638313227
 10
120.0833122868345
 20
95.25484323494311
 10
120.0770249876667
 20
95.28309301750495
 10
120.0725032999091
 20
95.31263471085468
 10
120.0697687554081
 20
95.34347908091553
 10
120.0688428860101
 20
95.37562612768751
 10
120.0688428860101
 20
95.37562612768751
 10
120.0713513461233
 20
95.42913276615258
 10
120.0787583013072
 20
95.47953881872672
 10
120.0908376671739
 20
95.52681198764023
 10
120.1073848911821
 20
95.57088767735371
 10
120.1282061867136
 20
95.61172282417425
 10
120.1530754693805
 20
95.64927436440888
 10
120.1818097184878
 20
95.68347770251825
 10
120.2141828496476
 20
95.7142897748094
 10
120.2500010762419
 20
95.74166751758943
 10
120.2890490798058
 20
95.7655463353189
 10
120.3311330737213
 20
95.78590469615139
 10
120.3760269736004
 20
95.80266723862425
 10
120.4235262269018
 20
95.81578013312134
 10
120.4734478129305
 20
95.82521108187292
 10
120.5255548813754
 20
95.8309170211861
 10
120.5796644115415
 20
95.83282258959824
 10
120.5796644115415
 20
95.83282258959824
 10
120.6475004938289
 20
95.82982966293963
 10
120.7093399568758
 20
95.821184626584
 10
120.7654196509935
 20
95.8073611811536
 10
120.8159441287232
 20
95.7888653250403
 10
120.8611287085296
 20
95.76619229071285
 10
120.9012317725703
 20
95.73982654471669
 10
120.9364578733867
 20
95.7102633195205
 10
120.9670115635203
 20
95.67799784759296
 10
120.9931404592054
 20
95.64352536140278
 10
121.0150706448298
 20
95.60733032749542
 10
121.033006672935
 20
95.56990797833956
 10
121.0471853938321
 20
95.53174278048067
 10
121.0578221259857
 20
95.49334073231067
 10
121.0651429537837
 20
95.45519706629824
 10
121.0693739616141
 20
95.41779624898885
 10
121.0707304679414
 20
95.38162274692796
 10
121.0707304679414
 20
95.38162274692796
 10
121.0692986001514
 20
95.33943109378015
 10
121.0651860174767
 20
95.30056611091115
 10
121.0585865065352
 20
95.26486630947248
 10
121.0497369176382
 20
95.23217020061566
 10
121.0388525692502
 20
95.20229476364571
 10
121.0261380139127
 20
95.17507850971418
 10
121.0118301019368
 20
95.15034918404935
 10
120.9961549177105
 20
95.12793453187948
 10
120.9793277796982
 20
95.10766229843284
 10
120.961574772288
 20
95.08937099486099
 10
120.9431004480211
 20
95.07287760046893
 10
120.9241308912856
 20
95.0580206264082
 10
120.9048921864693
 20
95.04462781790708
 10
120.8856104179601
 20
95.03253768611708
 10
120.8664901382993
 20
95.02156721034326
 10
120.8477681977981
 20
95.01155490173713
 10
120.8477681977981
 20
95.01155490173713
 10
120.8675774965458
 20
95.00349122523605
 10
120.8886787060813
 20
94.99388802171273
 10
120.910716550938
 20
94.98263763193486
 10
120.9333465215726
 20
94.96955703520749
 10
120.956202576595
 20
94.95454933822151
 10
120.9789186746154
 20
94.93746381805168
 10
121.0011718379368
 20
94.91816051769598
 10
121.0225744933228
 20
94.8965102460756
 10
121.04278213123
 20
94.87237304618853
 10
121.061450242115
 20
94.845619726956
 10
121.0782127845879
 20
94.81611033137597
 10
121.0927360150284
 20
94.78369413652318
 10
121.1046431261234
 20
94.74827424908855
 10
121.1135896083296
 20
94.70966764837713
 10
121.1192094202569
 20
94.66777744107983
 10
121.1211688182852
 20
94.62244213834816
 10
121.1211688182852
 20
94.62244213834816
 10
121.1188326129438
 20
94.57376939941443
 10
121.1118885924589
 20
94.52649623050092
 10
121.1004228842163
 20
94.48082718414904
 10
121.0845000837556
 20
94.43704217436283
 10
121.0641955525393
 20
94.39536728553017
 10
121.0395954179532
 20
94.35602860203895
 10
121.0107750414601
 20
94.3193060378932
 10
120.9778097845224
 20
94.28540414563435
 10
120.9407857745262
 20
94.25459207334319
 10
120.8997783729339
 20
94.22709590540762
 10
120.8548521752851
 20
94.20317402398521
 10
120.8061040748887
 20
94.18305251346383
 10
120.7535986672843
 20
94.16697899007785
 10
120.6974328457808
 20
94.1552010700616
 10
120.6376604399945
 20
94.14795560372619
 97
        0
 75
     1
 76
     1
 98
        0
  0
LWPOLYLINE
  5
A7
330
1F
100
AcDbEntity
  8
レイヤー_1
  6
Continuous
 62
   250
420
  2367521
370
    13
100
AcDbPolyline
 90
       68
 70
     0
 43
0.0
 10
120.5683709580707
 20
95.67513411201313
 10
120.5510701194362
 20
95.6748219002394
 10
120.5301842283653
 20
95.67361611683737
 10
120.5063377084055
 20
95.67120455003331
 10
120.4801980467972
 20
95.66724269028379
 10
120.4524111989344
 20
95.66136449619889
 10
120.4236231202109
 20
95.65325775600488
 10
120.3944797660208
 20
95.64255642831186
 10
120.3656486236044
 20
95.62891600357639
 10
120.3377756483557
 20
95.61201350410153
 10
120.3115175615919
 20
95.59148288849732
 10
120.2874987868603
 20
95.5670011790668
 10
120.2663975773248
 20
95.53821310034336
 10
120.248849122456
 20
95.50477414278349
 10
120.235510143571
 20
95.46635056276702
 10
120.2270265960639
 20
95.42259785075052
 10
120.2240552012518
 20
95.37316073126729
 10
120.2240552012518
 20
95.37316073126729
 10
120.2268651072154
 20
95.32705028206288
 10
120.23490725187
 20
95.28601058270092
 10
120.247600275361
 20
95.24975095325418
 10
120.2643628178339
 20
95.21799147971856
 10
120.2845919875876
 20
95.19045224809007
 10
120.3076956588444
 20
95.16682104659493
 10
120.3331032376728
 20
95.14680719530588
 10
120.3602225982953
 20
95.13014154614211
 10
120.3884831467803
 20
95.11652265325311
 10
120.4172604595806
 20
95.10564907078839
 10
120.4459947086879
 20
95.0972516506671
 10
120.4740937683245
 20
95.09102894703878
 10
120.5009655127126
 20
95.08669027997611
 10
120.5260285819976
 20
95.08395573547509
 10
120.5486908504018
 20
95.08252386768517
 10
120.5683709580707
 20
95.08211476260234
 10
120.5683709580707
 20
95.08211476260234
 10
120.6057287116871
 20
95.08349280077609
 10
120.6416330656672
 20
95.0875515538347
 10
120.6759548289321
 20
95.0942264262388
 10
120.7085755763263
 20
95.10340975875604
 10
120.7393445849246
 20
95.11503695584705
 10
120.768132663648
 20
95.12900035827948
 10
120.7947998554947
 20
95.14521383866749
 10
120.8192385012323
 20
95.16360203554845
 10
120.8412978779355
 20
95.18407882153647
 10
120.8608487945255
 20
95.20654730332252
 10
120.8777405280772
 20
95.23093211944393
 10
120.8918761852813
 20
95.2571363765916
 10
120.9030942772895
 20
95.28507394737971
 10
120.9112763789461
 20
95.3146694703456
 10
120.916271767326
 20
95.34581528625696
 10
120.9179727831967
 20
95.37844679957439
 10
120.9179727831967
 20
95.37844679957439
 10
120.916411724328
 20
95.40881746901303
 10
120.9117393136451
 20
95.43829456682337
 10
120.9040955081501
 20
95.46673813600339
 10
120.8935126056127
 20
95.49400821955109
 10
120.8800982652651
 20
95.51994332861796
 10
120.8639063167235
 20
95.54440350620199
 10
120.8450551851436
 20
95.56724879530117
 10
120.8235987001414
 20
95.58830694114376
 10
120.7996445209493
 20
95.60744875265098
 10
120.7732464771834
 20
95.62451274097435
 10
120.7445014621529
 20
95.63935894911184
 10
120.7134848373203
 20
95.65184742006144
 10
120.6802827300716
 20
95.66180589905142
 10
120.6449705018693
 20
95.66911596092622
 10
120.6076450460225
 20
95.67360535091413
 10
120.5683709580707
 20
95.67513411201313
  0
LWPOLYLINE
  5
A8
330
1F
100
AcDbEntity
  8
レイヤー_1
  6
Continuous
 62
   250
420
  2367521
370
    13
100
AcDbPolyline
 90
       68
 70
     0
 43
0.0
 10
120.5683709580707
 20
94.92407100955057
 10
120.5444598425715
 20
94.92345735192632
 10
120.5176096300299
 20
94.92146565612833
 10
120.4884124462236
 20
94.91781600815253
 10
120.4575142465466
 20
94.91225002584139
 10
120.4255179226998
 20
94.90449856111405
 10
120.3930478982309
 20
94.89430323181296
 10
120.3607393626104
 20
94.88139488985729
 10
120.3291844416162
 20
94.86550438716625
 10
120.2990290906423
 20
94.8463841075055
 10
120.2708762013895
 20
94.82374337094774
 10
120.2453609633287
 20
94.79734532718189
 10
120.2230862681608
 20
94.76689929628063
 10
120.2046873053566
 20
94.73216842793286
 10
120.1907777325404
 20
94.69286204221135
 10
120.1819712073363
 20
94.6487325228817
 10
120.178902919215
 20
94.59951072186313
 10
120.178902919215
 20
94.59951072186313
 10
120.1819819732595
 20
94.55432614205671
 10
120.1907992643868
 20
94.51384627070284
 10
120.2047841986657
 20
94.47784502341366
 10
120.2233015866255
 20
94.44605325210836
 10
120.245791600258
 20
94.41823410647581
 10
120.2716190500926
 20
94.39412920435845
 10
120.3002133421978
 20
94.37350169544516
 10
120.3309500530264
 20
94.35609319757836
 10
120.3632478227236
 20
94.34166686044692
 10
120.3964929936653
 20
94.32996430189328
 10
120.4301042059968
 20
94.32074867160635
 10
120.4634570361708
 20
94.31376158742852
 10
120.495980890256
 20
94.30875543312544
 10
120.5270621106279
 20
94.30549335838603
 10
120.5560978055857
 20
94.30371698105267
 10
120.5824850834284
 20
94.30317868489107
 10
120.5824850834284
 20
94.30317868489107
 10
120.6142660888104
 20
94.3040937883658
 10
120.6469083680511
 20
94.30690369432946
 10
120.6799920501443
 20
94.31174835978405
 10
120.7131403277769
 20
94.31869238026897
 10
120.745944095866
 20
94.3279080105559
 10
120.7779942493289
 20
94.33949214395398
 10
120.8088924490059
 20
94.3535524396955
 10
120.8382403557375
 20
94.37020732293604
 10
120.8656503962872
 20
94.38957521883114
 10
120.8906919337258
 20
94.41176378661314
 10
120.9129881607401
 20
94.43690221736082
 10
120.9321192063241
 20
94.46510893622973
 10
120.9477082631646
 20
94.49648083652897
 10
120.9593354602556
 20
94.53113634341409
 10
120.9666132243607
 20
94.56921541388712
 10
120.9691216844739
 20
94.61080417533393
 10
120.9691216844739
 20
94.61080417533393
 10
120.9670007975971
 20
94.64693461370189
 10
120.9608103917384
 20
94.68108412219509
 10
120.9507657853626
 20
94.71319887119736
 10
120.9370607650878
 20
94.74324656293902
 10
120.9199429471482
 20
94.77115183595743
 10
120.8996168840854
 20
94.79690392432934
 10
120.8763086602873
 20
94.82040593474571
 10
120.8502335942184
 20
94.84165786720646
 10
120.8216177702666
 20
94.86057359432581
 10
120.7906657409735
 20
94.87713158425726
 10
120.75761435665
 20
94.89127800738464
 10
120.7226681698376
 20
94.90295903409182
 10
120.6860532649241
 20
94.91212083476259
 10
120.6479849603743
 20
94.9187311116273
 10
120.6086785746528
 20
94.92272526914653
 10
120.5683709580707
 20
94.92407100955057
  0
LWPOLYLINE
  5
A9
330
1F
100
AcDbEntity
  8
レイヤー_1
  6
Continuous
 62
   250
420
  2367521
370
    13
100
AcDbPolyline
 90
      136
 70
     0
 43
0.0
 10
120.5743675773111
 20
94.14549020730595
 10
120.5100842496904
 20
94.14808479480497
 10
120.4495474633546
 20
94.15565323883735
 10
120.3928002819965
 20
94.16791562539908
 10
120.3399395989254
 20
94.18450591310021
 10
120.2909761800644
 20
94.2051657197832
 10
120.2459961527994
 20
94.22956130182784
 10
120.2050210489769
 20
94.25738044746039
 10
120.1681477619059
 20
94.28832171083033
 10
120.1353978234329
 20
94.32207288016394
 10
120.1068358290973
 20
94.35831097776423
 10
120.0825156085153
 20
94.39673455778069
 10
120.0625017572262
 20
94.43704217436283
 10
120.0468265729998
 20
94.47891084981367
 10
120.035576183222
 20
94.52203913828271
 10
120.0287721197391
 20
94.56610406207295
 10
120.026500509937
 20
94.61080417533393
 10
120.026500509937
 20
94.61080417533393
 10
120.0287075241997
 20
94.65679619938277
 10
120.0349948233674
 20
94.69956921238514
 10
120.0449102386645
 20
94.73920934172688
 10
120.0579477716989
 20
94.77581348071706
 10
120.0736337218485
 20
94.80948928858803
 10
120.0914836225679
 20
94.84030136087918
 10
120.1110237732347
 20
94.86834659089962
 10
120.1317697073035
 20
94.89373263788164
 10
120.1532261923057
 20
94.91653486328788
 10
120.1749410594655
 20
94.93685016042744
 10
120.1963975444677
 20
94.95476465668617
 10
120.2171542444598
 20
94.97037524537316
 10
120.2366943951266
 20
94.98376805387429
 10
120.2545658276924
 20
94.99502920957538
 10
120.2702625437653
 20
95.00426637170878
 10
120.2833216086462
 20
95.01155490173713
 10
120.2833216086462
 20
95.01155490173713
 10
120.2585922829813
 20
95.02535681532108
 10
120.2352194636438
 20
95.0402783849212
 10
120.21322468248
 20
95.05636267423041
 10
120.1926725350293
 20
95.0735989173255
 10
120.1735522553685
 20
95.09201941197615
 10
120.1559284390371
 20
95.11162415818237
 10
120.1398333838046
 20
95.13242392186739
 10
120.1252778555944
 20
95.15444023487765
 10
120.112337215869
 20
95.1776730972132
 10
120.1009899327821
 20
95.20214404072047
 10
120.0913006018729
 20
95.2278638313227
 10
120.0833122868345
 20
95.25484323494311
 10
120.0770249876667
 20
95.28309301750495
 10
120.0725032999091
 20
95.31263471085468
 10
120.0697687554081
 20
95.34347908091553
 10
120.0688428860101
 20
95.37562612768751
 10
120.0688428860101
 20
95.37562612768751
 10
120.0713513461233
 20
95.42913276615258
 10
120.0787583013072
 20
95.47953881872672
 10
120.0908376671739
 20
95.52681198764023
 10
120.1073848911821
 20
95.57088767735371
 10
120.1282061867136
 20
95.61172282417425
 10
120.1530754693805
 20
95.64927436440888
 10
120.1818097184878
 20
95.68347770251825
 10
120.2141828496476
 20
95.7142897748094
 10
120.2500010762419
 20
95.74166751758943
 10
120.2890490798058
 20
95.7655463353189
 10
120.3311330737213
 20
95.78590469615139
 10
120.3760269736004
 20
95.80266723862425
 10
120.4235262269018
 20
95.81578013312134
 10
120.4734478129305
 20
95.82521108187292
 10
120.5255548813754
 20
95.8309170211861
 10
120.5796644115415
 20
95.83282258959824
 10
120.5796644115415
 20
95.83282258959824
 10
120.6475004938289
 20
95.82982966293963
 10
120.7093399568758
 20
95.821184626584
 10
120.7654196509935
 20
95.8073611811536
 10
120.8159441287232
 20
95.7888653250403
 10
120.8611287085296
 20
95.76619229071285
 10
120.9012317725703
 20
95.73982654471669
 10
120.9364578733867
 20
95.7102633195205
 10
120.9670115635203
 20
95.67799784759296
 10
120.9931404592054
 20
95.64352536140278
 10
121.0150706448298
 20
95.60733032749542
 10
121.033006672935
 20
95.56990797833956
 10
121.0471853938321
 20
95.53174278048067
 10
121.0578221259857
 20
95.49334073231067
 10
121.0651429537837
 20
95.45519706629824
 10
121.0693739616141
 20
95.41779624898885
 10
121.0707304679414
 20
95.38162274692796
 10
121.0707304679414
 20
95.38162274692796
 10
121.0692986001514
 20
95.33943109378015
 10
121.0651860174767
 20
95.30056611091115
 10
121.0585865065352
 20
95.26486630947248
 10
121.0497369176382
 20
95.23217020061566
 10
121.0388525692502
 20
95.20229476364571
 10
121.0261380139127
 20
95.17507850971418
 10
121.0118301019368
 20
95.15034918404935
 10
120.9961549177105
 20
95.12793453187948
 10
120.9793277796982
 20
95.10766229843284
 10
120.961574772288
 20
95.08937099486099
 10
120.9431004480211
 20
95.07287760046893
 10
120.9241308912856
 20
95.0580206264082
 10
120.9048921864693
 20
95.04462781790708
 10
120.8856104179601
 20
95.03253768611708
 10
120.8664901382993
 20
95.02156721034326
 10
120.8477681977981
 20
95.01155490173713
 10
120.8477681977981
 20
95.01155490173713
 10
120.8675774965458
 20
95.00349122523605
 10
120.8886787060813
 20
94.99388802171273
 10
120.910716550938
 20
94.98263763193486
 10
120.9333465215726
 20
94.96955703520749
 10
120.956202576595
 20
94.95454933822151
 10
120.9789186746154
 20
94.93746381805168
 10
121.0011718379368
 20
94.91816051769598
 10
121.0225744933228
 20
94.8965102460756
 10
121.04278213123
 20
94.87237304618853
 10
121.061450242115
 20
94.845619726956
 10
121.0782127845879
 20
94.81611033137597
 10
121.0927360150284
 20
94.78369413652318
 10
121.1046431261234
 20
94.74827424908855
 10
121.1135896083296
 20
94.70966764837713
 10
121.1192094202569
 20
94.66777744107983
 10
121.1211688182852
 20
94.62244213834816
 10
121.1211688182852
 20
94.62244213834816
 10
121.1188326129438
 20
94.57376939941443
 10
121.1118885924589
 20
94.52649623050092
 10
121.1004228842163
 20
94.48082718414904
 10
121.0845000837556
 20
94.43704217436283
 10
121.0641955525393
 20
94.39536728553017
 10
121.0395954179532
 20
94.35602860203895
 10
121.0107750414601
 20
94.3193060378932
 10
120.9778097845224
 20
94.28540414563435
 10
120.9407857745262
 20
94.25459207334319
 10
120.8997783729339
 20
94.22709590540762
 10
120.8548521752851
 20
94.20317402398521
 10
120.8061040748887
 20
94.18305251346383
 10
120.7535986672843
 20
94.16697899007785
 10
120.6974328457808
 20
94.1552010700616
 10
120.6376604399945
 20
94.14795560372619
 10
120.5743675773111
 20
94.14549020730595
  0
HATCH
  5
AA
330
1F
100
AcDbEntity
  8
レイヤー_1
  6
Continuous
 62
   250
420
  2367521
370
    13
100
AcDbHatch
 10
0.0
 20
0.0
 30
0.0
210
0.0
220
0.0
230
1.0
  2
SOLID
 70
     1
 71
     0
 91
        1
 92
        3
 72
     0
 73
     1
 93
       67
 10
122.2871075384319
 20
94.14826781549992
 10
122.2653280757327
 20
94.14920445082114
 10
122.2444744824315
 20
94.15192822939895
 10
122.2246005881445
 20
94.15634225792422
 10
122.2057925202575
 20
94.16233887716467
 10
122.1881148743099
 20
94.16976736419505
 10
122.1716214799178
 20
94.17854159162945
 10
122.1563769326207
 20
94.18853236838913
 10
122.1424781257277
 20
94.19963203524175
 10
122.1299465910852
 20
94.21174369887821
 10
122.1188792220022
 20
94.2247274022965
 10
122.1093298480951
 20
94.23847548626428
 10
122.1013738308263
 20
94.25289105747248
 10
122.0950649998122
 20
94.26783415891906
 10
122.0904787165152
 20
94.28320789729494
 10
122.0876795764747
 20
94.29889384744456
 10
122.0867321752303
 20
94.31477358421236
 10
122.0867321752303
 20
94.31477358421236
 10
122.0877657038606
 20
94.33196676361453
 10
122.0908016942121
 20
94.34868624239445
 10
122.0957432529758
 20
94.36485665908953
 10
122.1024719549961
 20
94.38037035446743
 10
122.1108801410406
 20
94.39516273298877
 10
122.1208709178002
 20
94.40912613542119
 10
122.1323366260428
 20
94.42218520030211
 10
122.1451588406126
 20
94.43423226839917
 10
122.1592406682006
 20
94.445202744173
 10
122.1744959814209
 20
94.4549997343145
 10
122.1907955891947
 20
94.46352634551457
 10
122.2080210663666
 20
94.47069645038735
 10
122.2261078173971
 20
94.47643468747023
 10
122.2449051193608
 20
94.48064416345409
 10
122.2643376107953
 20
94.48322798502987
 10
122.284286866545
 20
94.48411079073493
 10
122.284286866545
 20
94.48411079073493
 10
122.3050328006138
 20
94.48314185764401
 10
122.3249282267473
 20
94.4803104198339
 10
122.3438870175596
 20
94.47572413653688
 10
122.3618445775113
 20
94.46952296475501
 10
122.3787470769861
 20
94.46180379779739
 10
122.3944976226752
 20
94.45270659266599
 10
122.4090854486551
 20
94.44234977451642
 10
122.4223921297703
 20
94.43084100258096
 10
122.4343853682512
 20
94.41830946793844
 10
122.4450005685584
 20
94.40487359574439
 10
122.4541516033059
 20
94.39065181115438
 10
122.4617846428777
 20
94.37576253932397
 10
122.4678350917343
 20
94.36033497133192
 10
122.4722491202596
 20
94.34447676641058
 10
122.4749298351445
 20
94.3283063497155
 10
122.4758449386193
 20
94.31195291232547
 10
122.4758449386193
 20
94.31195291232547
 10
122.4747145166799
 20
94.2942537345314
 10
122.4714416760172
 20
94.27726510767064
 10
122.4661663736333
 20
94.26108392505233
 10
122.4590608642999
 20
94.24575325036939
 10
122.4502651050191
 20
94.23131614731473
 10
122.4399405846392
 20
94.21783721142775
 10
122.4282487920088
 20
94.20538103824785
 10
122.4153404500531
 20
94.1940014573912
 10
122.4013770476207
 20
94.18374153255071
 10
122.38652007356
 20
94.17466585926579
 10
122.3708987189497
 20
94.16683903307583
 10
122.3546960044849
 20
94.16030411767375
 10
122.3380626530909
 20
94.15512570859897
 10
122.3211493876928
 20
94.15135763546763
 10
122.3041069312159
 20
94.14904296197265
 97
        0
 75
     1
 76
     1
 98
        0
  0
LWPOLYLINE
  5
AB
330
1F
100
AcDbEntity
  8
レイヤー_1
  6
Continuous
 62
   250
420
  2367521
370
    13
100
AcDbPolyline
 90
       68
 70
     0
 43
0.0
 10
122.2871075384319
 20
94.14826781549992
 10
122.2653280757327
 20
94.14920445082114
 10
122.2444744824315
 20
94.15192822939895
 10
122.2246005881445
 20
94.15634225792422
 10
122.2057925202575
 20
94.16233887716467
 10
122.1881148743099
 20
94.16976736419505
 10
122.1716214799178
 20
94.17854159162945
 10
122.1563769326207
 20
94.18853236838913
 10
122.1424781257277
 20
94.19963203524175
 10
122.1299465910852
 20
94.21174369887821
 10
122.1188792220022
 20
94.2247274022965
 10
122.1093298480951
 20
94.23847548626428
 10
122.1013738308263
 20
94.25289105747248
 10
122.0950649998122
 20
94.26783415891906
 10
122.0904787165152
 20
94.28320789729494
 10
122.0876795764747
 20
94.29889384744456
 10
122.0867321752303
 20
94.31477358421236
 10
122.0867321752303
 20
94.31477358421236
 10
122.0877657038606
 20
94.33196676361453
 10
122.0908016942121
 20
94.34868624239445
 10
122.0957432529758
 20
94.36485665908953
 10
122.1024719549961
 20
94.38037035446743
 10
122.1108801410406
 20
94.39516273298877
 10
122.1208709178002
 20
94.40912613542119
 10
122.1323366260428
 20
94.42218520030211
 10
122.1451588406126
 20
94.43423226839917
 10
122.1592406682006
 20
94.445202744173
 10
122.1744959814209
 20
94.4549997343145
 10
122.1907955891947
 20
94.46352634551457
 10
122.2080210663666
 20
94.47069645038735
 10
122.2261078173971
 20
94.47643468747023
 10
122.2449051193608
 20
94.48064416345409
 10
122.2643376107953
 20
94.48322798502987
 10
122.284286866545
 20
94.48411079073493
 10
122.284286866545
 20
94.48411079073493
 10
122.3050328006138
 20
94.48314185764401
 10
122.3249282267473
 20
94.4803104198339
 10
122.3438870175596
 20
94.47572413653688
 10
122.3618445775113
 20
94.46952296475501
 10
122.3787470769861
 20
94.46180379779739
 10
122.3944976226752
 20
94.45270659266599
 10
122.4090854486551
 20
94.44234977451642
 10
122.4223921297703
 20
94.43084100258096
 10
122.4343853682512
 20
94.41830946793844
 10
122.4450005685584
 20
94.40487359574439
 10
122.4541516033059
 20
94.39065181115438
 10
122.4617846428777
 20
94.37576253932397
 10
122.4678350917343
 20
94.36033497133192
 10
122.4722491202596
 20
94.34447676641058
 10
122.4749298351445
 20
94.3283063497155
 10
122.4758449386193
 20
94.31195291232547
 10
122.4758449386193
 20
94.31195291232547
 10
122.4747145166799
 20
94.2942537345314
 10
122.4714416760172
 20
94.27726510767064
 10
122.4661663736333
 20
94.26108392505233
 10
122.4590608642999
 20
94.24575325036939
 10
122.4502651050191
 20
94.23131614731473
 10
122.4399405846392
 20
94.21783721142775
 10
122.4282487920088
 20
94.20538103824785
 10
122.4153404500531
 20
94.1940014573912
 10
122.4013770476207
 20
94.18374153255071
 10
122.38652007356
 20
94.17466585926579
 10
122.3708987189497
 20
94.16683903307583
 10
122.3546960044849
 20
94.16030411767375
 10
122.3380626530909
 20
94.15512570859897
 10
122.3211493876928
 20
94.15135763546763
 10
122.3041069312159
 20
94.14904296197265
 10
122.2871075384319
 20
94.14826781549992
  0
HATCH
  5
AC
330
1F
100
AcDbEntity
  8
レイヤー_1
  6
Continuous
 62
   250
420
  2367521
370
    13
100
AcDbHatch
 10
0.0
 20
0.0
 30
0.0
210
0.0
220
0.0
230
1.0
  2
SOLID
 70
     1
 71
     0
 91
        1
 92
        3
 72
     0
 73
     1
 93
      140
 10
123.9211378348005
 20
94.14826781549992
 10
123.8857179473659
 20
94.14888147312416
 10
123.8504057191636
 20
94.15066861638076
 10
123.8151796183471
 20
94.15356464973027
 10
123.7800827086095
 20
94.15748344578687
 10
123.7451149899506
 20
94.16236040901114
 10
123.7102872282938
 20
94.1681201779405
 10
123.6756424873319
 20
94.17468739111226
 10
123.6411592352185
 20
94.18200821891028
 10
123.6068805356465
 20
94.18998576802551
 10
123.5728171545391
 20
94.19854467699528
 10
123.5389690918964
 20
94.20764188212667
 10
123.5053578795648
 20
94.21718049011056
 10
123.4720050493909
 20
94.22708513948439
 10
123.4389213672977
 20
94.23730200063196
 10
123.4061283651317
 20
94.24774494616739
 10
123.3736260428931
 20
94.25833861462807
 10
123.4046749654954
 20
94.41356169579295
 10
123.4339690426107
 20
94.40255892224943
 10
123.4636506929625
 20
94.39180376494025
 10
123.4936768528577
 20
94.38136081940482
 10
123.5240475222963
 20
94.37130544710575
 10
123.5547304035087
 20
94.36168071173597
 10
123.5856931987251
 20
94.35258350660459
 10
123.6169466738688
 20
94.34403536355805
 10
123.6484369993236
 20
94.33612240998224
 10
123.6801641750895
 20
94.32890924141651
 10
123.7121066693201
 20
94.32244968747708
 10
123.7442429501688
 20
94.31680834370329
 10
123.776540719866
 20
94.3120605715578
 10
123.8089892124885
 20
94.30824943473353
 10
123.8415668961898
 20
94.30545029469309
 10
123.8742522391234
 20
94.30372774697591
 10
123.9070237094428
 20
94.30313562119812
 10
123.9070237094428
 20
94.30313562119812
 10
123.9616284720776
 20
94.30491199853148
 10
124.0131649465911
 20
94.31010117352949
 10
124.0616008352138
 20
94.31857395511341
 10
124.1068823083293
 20
94.3301688544347
 10
124.1489017067054
 20
94.34475668041463
 10
124.1876052007259
 20
94.36216517828143
 10
124.2229604926211
 20
94.38225439103311
 10
124.254870689082
 20
94.40487359574439
 10
124.2832711945691
 20
94.42986130356681
 10
124.3080866476197
 20
94.45707755749835
 10
124.3292847504644
 20
94.48638240053697
 10
124.3467578438706
 20
94.51760357791096
 10
124.3604736300687
 20
94.55059036669505
 10
124.370356747596
 20
94.58521357581049
 10
124.37633183499
 20
94.62131171640875
 10
124.3783342967112
 20
94.6587340655646
 10
124.3783342967112
 20
94.6587340655646
 10
124.3765579193779
 20
94.69259289413054
 10
124.3712503192243
 20
94.72610721315303
 10
124.3624222621737
 20
94.7590509382442
 10
124.3501491096888
 20
94.79114415540002
 10
124.3344523936159
 20
94.82213924838612
 10
124.3153644117249
 20
94.85177783504494
 10
124.2929282277085
 20
94.87982306506537
 10
124.2671653734134
 20
94.90599502444334
 10
124.2381404443788
 20
94.93003533102132
 10
124.2058534406048
 20
94.95170713448816
 10
124.170379723554
 20
94.9707520526863
 10
124.1317300591497
 20
94.9869009375349
 10
124.0899475110847
 20
94.99990617279965
 10
124.045075143052
 20
95.0095201422462
 10
123.9971452528213
 20
95.01546293187049
 10
123.9461901381623
 20
95.01750845728465
 10
123.9461901381623
 20
95.01750845728465
 10
123.9370606352612
 20
95.01748692543819
 10
123.925562629249
 20
95.01729313882001
 10
123.9117499497418
 20
95.01679790635131
 10
123.8957733196649
 20
95.0158289732604
 10
123.8777403982507
 20
95.01423561662199
 10
123.8577480788081
 20
95.01185634758764
 10
123.8359470842624
 20
95.00852967730881
 10
123.8124450738461
 20
95.0041048828603
 10
123.7873389408681
 20
94.99842047539359
 10
123.7607578764073
 20
94.99132573198344
 10
123.7328203056192
 20
94.98265916378134
 10
123.7036446536594
 20
94.97227004786205
 10
123.6733385797601
 20
94.95998612945388
 10
123.6420205090771
 20
94.94566745155478
 10
123.6098088667657
 20
94.92914175939303
 10
123.5768220779816
 20
94.91026909596661
 10
123.4667620447767
 20
94.93531063340521
 10
123.4667620447767
 20
95.79644453499591
 10
124.442897538336
 20
95.79644453499591
 10
124.442897538336
 20
95.64086617836438
 10
123.6216298504749
 20
95.64086617836438
 10
123.6216298504749
 20
95.08806831814985
 10
123.6415898721477
 20
95.09738084174589
 10
123.6621527855217
 20
95.10627349433585
 10
123.6832647609804
 20
95.11471397815006
 10
123.7049042666776
 20
95.12266999541882
 10
123.7270174729969
 20
95.13013078021888
 10
123.7495505503224
 20
95.13707480070379
 10
123.7724712008842
 20
95.1434589931806
 10
123.7957255950662
 20
95.1492725917261
 10
123.8192814350987
 20
95.15449406449383
 10
123.8430956572888
 20
95.15910187963729
 10
123.8671144320203
 20
95.16306373938681
 10
123.8913054615235
 20
95.16635811189593
 10
123.9156149161823
 20
95.16896346531817
 10
123.9400104982269
 20
95.17084750188386
 10
123.9644383780412
 20
95.17199945566972
 10
123.9888662578556
 20
95.17238702890609
 10
123.9888662578556
 20
95.17238702890609
 10
124.0530849899369
 20
95.1695986547889
 10
124.1134387555778
 20
95.1614596168252
 10
124.1698629592389
 20
95.14828212678873
 10
124.2223576009201
 20
95.13037839645322
 10
124.2708688510053
 20
95.10808216943892
 10
124.3153428798784
 20
95.08171642344274
 10
124.3557581556929
 20
95.05159337023846
 10
124.3920931466022
 20
95.01804675344627
 10
124.4242832570671
 20
94.98138878483991
 10
124.4522961893179
 20
94.94194244211636
 10
124.4761211774312
 20
94.9000307029726
 10
124.4956828599445
 20
94.85597654510558
 10
124.5109597050113
 20
94.81009218028905
 10
124.5219194148619
 20
94.76271135214321
 10
124.5285296917266
 20
94.71414627244181
 10
124.5307367059892
 20
94.66473068480505
 10
124.5307367059892
 20
94.66473068480505
 10
124.529197178967
 20
94.6277712703482
 10
124.5243309816659
 20
94.58824956616203
 10
124.5158366682356
 20
94.54685459133341
 10
124.5033589632092
 20
94.504264599026
 10
124.4865641229666
 20
94.46115784240342
 10
124.4651076379644
 20
94.41822334055259
 10
124.4386665305056
 20
94.3761393466371
 10
124.40690705697
 20
94.33559487974384
 10
124.3694954737374
 20
94.29725742711324
 10
124.3260980371876
 20
94.26182677375537
 10
124.2763702377771
 20
94.22997040691067
 10
124.2199890978089
 20
94.20237734566601
 10
124.1565993418165
 20
94.17972584318503
 10
124.0858887580261
 20
94.16270491855458
 10
124.0075128368941
 20
94.15199282493833
 97
        0
 75
     1
 76
     1
 98
        0
  0
LWPOLYLINE
  5
AD
330
1F
100
AcDbEntity
  8
レイヤー_1
  6
Continuous
 62
   250
420
  2367521
370
    13
100
AcDbPolyline
 90
      141
 70
     0
 43
0.0
 10
123.9211378348005
 20
94.14826781549992
 10
123.8857179473659
 20
94.14888147312416
 10
123.8504057191636
 20
94.15066861638076
 10
123.8151796183471
 20
94.15356464973027
 10
123.7800827086095
 20
94.15748344578687
 10
123.7451149899506
 20
94.16236040901114
 10
123.7102872282938
 20
94.1681201779405
 10
123.6756424873319
 20
94.17468739111226
 10
123.6411592352185
 20
94.18200821891028
 10
123.6068805356465
 20
94.18998576802551
 10
123.5728171545391
 20
94.19854467699528
 10
123.5389690918964
 20
94.20764188212667
 10
123.5053578795648
 20
94.21718049011056
 10
123.4720050493909
 20
94.22708513948439
 10
123.4389213672977
 20
94.23730200063196
 10
123.4061283651317
 20
94.24774494616739
 10
123.3736260428931
 20
94.25833861462807
 10
123.4046749654954
 20
94.41356169579295
 10
123.4339690426107
 20
94.40255892224943
 10
123.4636506929625
 20
94.39180376494025
 10
123.4936768528577
 20
94.38136081940482
 10
123.5240475222963
 20
94.37130544710575
 10
123.5547304035087
 20
94.36168071173597
 10
123.5856931987251
 20
94.35258350660459
 10
123.6169466738688
 20
94.34403536355805
 10
123.6484369993236
 20
94.33612240998224
 10
123.6801641750895
 20
94.32890924141651
 10
123.7121066693201
 20
94.32244968747708
 10
123.7442429501688
 20
94.31680834370329
 10
123.776540719866
 20
94.3120605715578
 10
123.8089892124885
 20
94.30824943473353
 10
123.8415668961898
 20
94.30545029469309
 10
123.8742522391234
 20
94.30372774697591
 10
123.9070237094428
 20
94.30313562119812
 10
123.9070237094428
 20
94.30313562119812
 10
123.9616284720776
 20
94.30491199853148
 10
124.0131649465911
 20
94.31010117352949
 10
124.0616008352138
 20
94.31857395511341
 10
124.1068823083293
 20
94.3301688544347
 10
124.1489017067054
 20
94.34475668041463
 10
124.1876052007259
 20
94.36216517828143
 10
124.2229604926211
 20
94.38225439103311
 10
124.254870689082
 20
94.40487359574439
 10
124.2832711945691
 20
94.42986130356681
 10
124.3080866476197
 20
94.45707755749835
 10
124.3292847504644
 20
94.48638240053697
 10
124.3467578438706
 20
94.51760357791096
 10
124.3604736300687
 20
94.55059036669505
 10
124.370356747596
 20
94.58521357581049
 10
124.37633183499
 20
94.62131171640875
 10
124.3783342967112
 20
94.6587340655646
 10
124.3783342967112
 20
94.6587340655646
 10
124.3765579193779
 20
94.69259289413054
 10
124.3712503192243
 20
94.72610721315303
 10
124.3624222621737
 20
94.7590509382442
 10
124.3501491096888
 20
94.79114415540002
 10
124.3344523936159
 20
94.82213924838612
 10
124.3153644117249
 20
94.85177783504494
 10
124.2929282277085
 20
94.87982306506537
 10
124.2671653734134
 20
94.90599502444334
 10
124.2381404443788
 20
94.93003533102132
 10
124.2058534406048
 20
94.95170713448816
 10
124.170379723554
 20
94.9707520526863
 10
124.1317300591497
 20
94.9869009375349
 10
124.0899475110847
 20
94.99990617279965
 10
124.045075143052
 20
95.0095201422462
 10
123.9971452528213
 20
95.01546293187049
 10
123.9461901381623
 20
95.01750845728465
 10
123.9461901381623
 20
95.01750845728465
 10
123.9370606352612
 20
95.01748692543819
 10
123.925562629249
 20
95.01729313882001
 10
123.9117499497418
 20
95.01679790635131
 10
123.8957733196649
 20
95.0158289732604
 10
123.8777403982507
 20
95.01423561662199
 10
123.8577480788081
 20
95.01185634758764
 10
123.8359470842624
 20
95.00852967730881
 10
123.8124450738461
 20
95.0041048828603
 10
123.7873389408681
 20
94.99842047539359
 10
123.7607578764073
 20
94.99132573198344
 10
123.7328203056192
 20
94.98265916378134
 10
123.7036446536594
 20
94.97227004786205
 10
123.6733385797601
 20
94.95998612945388
 10
123.6420205090771
 20
94.94566745155478
 10
123.6098088667657
 20
94.92914175939303
 10
123.5768220779816
 20
94.91026909596661
 10
123.4667620447767
 20
94.93531063340521
 10
123.4667620447767
 20
95.79644453499591
 10
124.442897538336
 20
95.79644453499591
 10
124.442897538336
 20
95.64086617836438
 10
123.6216298504749
 20
95.64086617836438
 10
123.6216298504749
 20
95.08806831814985
 10
123.6415898721477
 20
95.09738084174589
 10
123.6621527855217
 20
95.10627349433585
 10
123.6832647609804
 20
95.11471397815006
 10
123.7049042666776
 20
95.12266999541882
 10
123.7270174729969
 20
95.13013078021888
 10
123.7495505503224
 20
95.13707480070379
 10
123.7724712008842
 20
95.1434589931806
 10
123.7957255950662
 20
95.1492725917261
 10
123.8192814350987
 20
95.15449406449383
 10
123.8430956572888
 20
95.15910187963729
 10
123.8671144320203
 20
95.16306373938681
 10
123.8913054615235
 20
95.16635811189593
 10
123.9156149161823
 20
95.16896346531817
 10
123.9400104982269
 20
95.17084750188386
 10
123.9644383780412
 20
95.17199945566972
 10
123.9888662578556
 20
95.17238702890609
 10
123.9888662578556
 20
95.17238702890609
 10
124.0530849899369
 20
95.1695986547889
 10
124.1134387555778
 20
95.1614596168252
 10
124.1698629592389
 20
95.14828212678873
 10
124.2223576009201
 20
95.13037839645322
 10
124.2708688510053
 20
95.10808216943892
 10
124.3153428798784
 20
95.08171642344274
 10
124.3557581556929
 20
95.05159337023846
 10
124.3920931466022
 20
95.01804675344627
 10
124.4242832570671
 20
94.98138878483991
 10
124.4522961893179
 20
94.94194244211636
 10
124.4761211774312
 20
94.9000307029726
 10
124.4956828599445
 20
94.85597654510558
 10
124.5109597050113
 20
94.81009218028905
 10
124.5219194148619
 20
94.76271135214321
 10
124.5285296917266
 20
94.71414627244181
 10
124.5307367059892
 20
94.66473068480505
 10
124.5307367059892
 20
94.66473068480505
 10
124.529197178967
 20
94.6277712703482
 10
124.5243309816659
 20
94.58824956616203
 10
124.5158366682356
 20
94.54685459133341
 10
124.5033589632092
 20
94.504264599026
 10
124.4865641229666
 20
94.46115784240342
 10
124.4651076379644
 20
94.41822334055259
 10
124.4386665305056
 20
94.3761393466371
 10
124.40690705697
 20
94.33559487974384
 10
124.3694954737374
 20
94.29725742711324
 10
124.3260980371876
 20
94.26182677375537
 10
124.2763702377771
 20
94.22997040691067
 10
124.2199890978089
 20
94.20237734566601
 10
124.1565993418165
 20
94.17972584318503
 10
124.0858887580261
 20
94.16270491855458
 10
124.0075128368941
 20
94.15199282493833
 10
123.9211378348005
 20
94.14826781549992
  0
LINE
  5
AE
330
1F
100
AcDbEntity
  8
レイヤー_1
  6
Continuous
 62
   250
420
  2367521
370
    13
100
AcDbLine
 10
146.1740320081097
 20
104.9055567774768
 30
0.0
 11
146.1740320081097
 21
111.1578343969288
 31
0.0
  0
LINE
  5
AF
330
1F
100
AcDbEntity
  8
レイヤー_1
  6
Continuous
 62
   250
420
  2367521
370
    13
100
AcDbLine
 10
101.1759179920733
 20
106.6046778457086
 30
0.0
 11
96.17071109024741
 21
106.6046778457086
 31
0.0
  0
LINE
  5
B0
330
1F
100
AcDbEntity
  8
レイヤー_1
  6
Continuous
 62
   250
420
  2367521
370
    13
100
AcDbLine
 10
101.1759179920733
 20
103.6046995073816
 30
0.0
 11
96.17071109024741
 21
103.6046995073816
 31
0.0
  0
HATCH
  5
B1
330
1F
100
AcDbEntity
  8
レイヤー_1
  6
Continuous
 62
   250
420
  2367521
370
    13
100
AcDbHatch
 10
0.0
 20
0.0
 30
0.0
210
0.0
220
0.0
230
1.0
  2
SOLID
 70
     1
 71
     0
 91
        1
 92
        3
 72
     0
 73
     1
 93
       67
 10
96.67800139295852
 20
103.354574812923
 10
96.65246462305126
 20
103.3558667237109
 10
96.62764917000055
 20
103.3596563286887
 10
96.60369499080844
 20
103.3658036708544
 10
96.5807312765537
 20
103.3742010909757
 10
96.55887645239191
 20
103.384730163897
 10
96.53824894347862
 20
103.3972509326163
 10
96.5189779408926
 20
103.411644971978
 10
96.50121416755914
 20
103.4277723249801
 10
96.48506528271051
 20
103.4455360983136
 10
96.47064971150232
 20
103.4647748031299
 10
96.45810741093656
 20
103.4854023120432
 10
96.4475568061688
 20
103.5072679021283
 10
96.43913785420105
 20
103.5302639141527
 10
96.43296898018889
 20
103.5542503911145
 10
96.42916860928784
 20
103.5790981419349
 10
96.42787669849996
 20
103.6046995073816
 10
96.42787669849996
 20
103.6046995073816
 10
96.4291578433646
 20
103.6302362772888
 10
96.43296898018889
 20
103.6550409644163
 10
96.43913785420105
 20
103.6789628458387
 10
96.44756757209203
 20
103.7019157941702
 10
96.45810741093656
 20
103.7237490864855
 10
96.47064971150232
 20
103.7443442976291
 10
96.48505451678729
 20
103.7635722365222
 10
96.50121416755914
 20
103.781303712086
 10
96.51898870681583
 20
103.7974202991649
 10
96.53824894347862
 20
103.8118035726034
 10
96.55886568646869
 20
103.8243135753995
 10
96.5807312765537
 20
103.8348318823976
 10
96.60369499080844
 20
103.8432293025188
 10
96.62764917000055
 20
103.8493874106077
 10
96.65246462305126
 20
103.8531662496623
 10
96.67800139295852
 20
103.8544581604502
 10
96.67800139295852
 20
103.8544581604502
 10
96.7035381628658
 20
103.8531554837391
 10
96.72834284999327
 20
103.8493874106077
 10
96.75229702918537
 20
103.8432293025188
 10
96.77528227528657
 20
103.8348318823976
 10
96.79713709944836
 20
103.8243135753995
 10
96.81776460836167
 20
103.8118035726034
 10
96.83701407910121
 20
103.7974202991649
 10
96.85478861835792
 20
103.781303712086
 10
96.87094826912977
 20
103.7635722365222
 10
96.88535307441472
 20
103.7443335317059
 10
96.8978953749805
 20
103.7237490864855
 10
96.90843521382502
 20
103.7019157941702
 10
96.91686493171599
 20
103.6789736117619
 10
96.92303380572815
 20
103.6550301984931
 10
96.9268341766292
 20
103.6302362772888
 10
96.9281260874171
 20
103.6046995073816
 10
96.9281260874171
 20
103.6046995073816
 10
96.92682341070596
 20
103.5790981419349
 10
96.92303380572815
 20
103.5542503911145
 10
96.91685416579276
 20
103.5302531482294
 10
96.90844597974825
 20
103.5072679021283
 10
96.8978953749805
 20
103.4854130779665
 10
96.88535307441472
 20
103.4647748031299
 10
96.87093750320653
 20
103.4455360983136
 10
96.85478861835792
 20
103.4277830909034
 10
96.83701407910121
 20
103.411644971978
 10
96.81776460836167
 20
103.3972509326163
 10
96.79713709944836
 20
103.384730163897
 10
96.77527150936334
 20
103.3742118568989
 10
96.7523077951086
 20
103.3658036708544
 10
96.7283536159165
 20
103.3596563286887
 10
96.7035381628658
 20
103.3558667237109
 97
        0
 75
     1
 76
     1
 98
        0
  0
LWPOLYLINE
  5
B2
330
1F
100
AcDbEntity
  8
レイヤー_1
  6
Continuous
 62
   250
420
  2367521
370
    13
100
AcDbPolyline
 90
       68
 70
     0
 43
0.0
 10
96.67800139295852
 20
103.354574812923
 10
96.65246462305126
 20
103.3558667237109
 10
96.62764917000055
 20
103.3596563286887
 10
96.60369499080844
 20
103.3658036708544
 10
96.5807312765537
 20
103.3742010909757
 10
96.55887645239191
 20
103.384730163897
 10
96.53824894347862
 20
103.3972509326163
 10
96.5189779408926
 20
103.411644971978
 10
96.50121416755914
 20
103.4277723249801
 10
96.48506528271051
 20
103.4455360983136
 10
96.47064971150232
 20
103.4647748031299
 10
96.45810741093656
 20
103.4854023120432
 10
96.4475568061688
 20
103.5072679021283
 10
96.43913785420105
 20
103.5302639141527
 10
96.43296898018889
 20
103.5542503911145
 10
96.42916860928784
 20
103.5790981419349
 10
96.42787669849996
 20
103.6046995073816
 10
96.42787669849996
 20
103.6046995073816
 10
96.4291578433646
 20
103.6302362772888
 10
96.43296898018889
 20
103.6550409644163
 10
96.43913785420105
 20
103.6789628458387
 10
96.44756757209203
 20
103.7019157941702
 10
96.45810741093656
 20
103.7237490864855
 10
96.47064971150232
 20
103.7443442976291
 10
96.48505451678729
 20
103.7635722365222
 10
96.50121416755914
 20
103.781303712086
 10
96.51898870681583
 20
103.7974202991649
 10
96.53824894347862
 20
103.8118035726034
 10
96.55886568646869
 20
103.8243135753995
 10
96.5807312765537
 20
103.8348318823976
 10
96.60369499080844
 20
103.8432293025188
 10
96.62764917000055
 20
103.8493874106077
 10
96.65246462305126
 20
103.8531662496623
 10
96.67800139295852
 20
103.8544581604502
 10
96.67800139295852
 20
103.8544581604502
 10
96.7035381628658
 20
103.8531554837391
 10
96.72834284999327
 20
103.8493874106077
 10
96.75229702918537
 20
103.8432293025188
 10
96.77528227528657
 20
103.8348318823976
 10
96.79713709944836
 20
103.8243135753995
 10
96.81776460836167
 20
103.8118035726034
 10
96.83701407910121
 20
103.7974202991649
 10
96.85478861835792
 20
103.781303712086
 10
96.87094826912977
 20
103.7635722365222
 10
96.88535307441472
 20
103.7443335317059
 10
96.8978953749805
 20
103.7237490864855
 10
96.90843521382502
 20
103.7019157941702
 10
96.91686493171599
 20
103.6789736117619
 10
96.92303380572815
 20
103.6550301984931
 10
96.9268341766292
 20
103.6302362772888
 10
96.9281260874171
 20
103.6046995073816
 10
96.9281260874171
 20
103.6046995073816
 10
96.92682341070596
 20
103.5790981419349
 10
96.92303380572815
 20
103.5542503911145
 10
96.91685416579276
 20
103.5302531482294
 10
96.90844597974825
 20
103.5072679021283
 10
96.8978953749805
 20
103.4854130779665
 10
96.88535307441472
 20
103.4647748031299
 10
96.87093750320653
 20
103.4455360983136
 10
96.85478861835792
 20
103.4277830909034
 10
96.83701407910121
 20
103.411644971978
 10
96.81776460836167
 20
103.3972509326163
 10
96.79713709944836
 20
103.384730163897
 10
96.77527150936334
 20
103.3742118568989
 10
96.7523077951086
 20
103.3658036708544
 10
96.7283536159165
 20
103.3596563286887
 10
96.7035381628658
 20
103.3558667237109
 10
96.67800139295852
 20
103.354574812923
  0
HATCH
  5
B3
330
1F
100
AcDbEntity
  8
レイヤー_1
  6
Continuous
 62
   250
420
  2367521
370
    13
100
AcDbHatch
 10
0.0
 20
0.0
 30
0.0
210
0.0
220
0.0
230
1.0
  2
SOLID
 70
     1
 71
     0
 91
        1
 92
        3
 72
     0
 73
     1
 93
       67
 10
96.67800139295852
 20
106.35455315125
 10
96.65247538897448
 20
106.3558342961147
 10
96.62768146777024
 20
106.3596454329389
 10
96.60377035227106
 20
106.3658143069511
 10
96.58084970170927
 20
106.3742332589188
 10
96.5590379412404
 20
106.3847730977634
 10
96.53846426194326
 20
106.3973153983291
 10
96.51926862081987
 20
106.4117309695373
 10
96.5015694430258
 20
106.4278906203092
 10
96.48548515371658
 20
106.4456543936427
 10
96.47113417804778
 20
106.4649146303054
 10
96.45865647302142
 20
106.4855421392187
 10
96.44815969786981
 20
106.5074077293038
 10
96.43978380959501
 20
106.5303714435585
 10
96.43364723335253
 20
106.5543256227506
 10
96.42986839429796
 20
106.5791410758013
 10
96.42858724943329
 20
106.6046778457086
 10
96.42858724943329
 20
106.6046778457086
 10
96.42986839429796
 20
106.6302146156158
 10
96.43364723335253
 20
106.6550300686665
 10
96.43978380959501
 20
106.6789842478587
 10
96.44815969786981
 20
106.7019371961902
 10
96.45865647302142
 20
106.7238027862752
 10
96.47113417804778
 20
106.7444302951885
 10
96.48547438779335
 20
106.7636905318513
 10
96.5015694430258
 20
106.781465071108
 10
96.51926862081987
 20
106.7976139559566
 10
96.5384750278665
 20
106.8120187612415
 10
96.5590379412404
 20
106.8245718277305
 10
96.58083893578603
 20
106.8351116665751
 10
96.60375958634782
 20
106.8435306185428
 10
96.62768146777024
 20
106.849699492555
 10
96.65246462305126
 20
106.853499863456
 10
96.67800139295852
 20
106.8547917742439
 10
96.67800139295852
 20
106.8547917742439
 10
96.70365658802135
 20
106.853499863456
 10
96.72854740253469
 20
106.849699492555
 10
96.75255541134297
 20
106.8435306185428
 10
96.77558372113708
 20
106.8351009006518
 10
96.7974493112221
 20
106.8245610618073
 10
96.8180768201354
 20
106.8120187612415
 10
96.83731552495172
 20
106.7976139559566
 10
96.85505776643873
 20
106.781465071108
 10
96.87117435351765
 20
106.7636905318513
 10
96.8855468610329
 20
106.7444302951885
 10
96.8980353319825
 20
106.7238027862752
 10
96.90854287305734
 20
106.7019479621134
 10
96.91691876133214
 20
106.6789842478587
 10
96.92306610349786
 20
106.6550300686665
 10
96.92684494255244
 20
106.6302146156158
 10
96.9281260874171
 20
106.6046778457086
 10
96.9281260874171
 20
106.6046778457086
 10
96.9268341766292
 20
106.5791410758013
 10
96.92306610349786
 20
106.5543363886738
 10
96.91691876133214
 20
106.5303714435585
 10
96.90854287305734
 20
106.5073969633805
 10
96.8980353319825
 20
106.4855313732955
 10
96.8855468610329
 20
106.4649146303054
 10
96.87117435351765
 20
106.4456543936427
 10
96.85505776643873
 20
106.4278906203092
 10
96.83731552495172
 20
106.4117309695373
 10
96.8180768201354
 20
106.3973153983291
 10
96.7974493112221
 20
106.3847838636866
 10
96.77557295521385
 20
106.3742332589188
 10
96.75256617726619
 20
106.3658143069511
 10
96.72855816845791
 20
106.3596454329389
 10
96.70365658802135
 20
106.3558450620379
 97
        0
 75
     1
 76
     1
 98
        0
  0
LWPOLYLINE
  5
B4
330
1F
100
AcDbEntity
  8
レイヤー_1
  6
Continuous
 62
   250
420
  2367521
370
    13
100
AcDbPolyline
 90
       68
 70
     0
 43
0.0
 10
96.67800139295852
 20
106.35455315125
 10
96.65247538897448
 20
106.3558342961147
 10
96.62768146777024
 20
106.3596454329389
 10
96.60377035227106
 20
106.3658143069511
 10
96.58084970170927
 20
106.3742332589188
 10
96.5590379412404
 20
106.3847730977634
 10
96.53846426194326
 20
106.3973153983291
 10
96.51926862081987
 20
106.4117309695373
 10
96.5015694430258
 20
106.4278906203092
 10
96.48548515371658
 20
106.4456543936427
 10
96.47113417804778
 20
106.4649146303054
 10
96.45865647302142
 20
106.4855421392187
 10
96.44815969786981
 20
106.5074077293038
 10
96.43978380959501
 20
106.5303714435585
 10
96.43364723335253
 20
106.5543256227506
 10
96.42986839429796
 20
106.5791410758013
 10
96.42858724943329
 20
106.6046778457086
 10
96.42858724943329
 20
106.6046778457086
 10
96.42986839429796
 20
106.6302146156158
 10
96.43364723335253
 20
106.6550300686665
 10
96.43978380959501
 20
106.6789842478587
 10
96.44815969786981
 20
106.7019371961902
 10
96.45865647302142
 20
106.7238027862752
 10
96.47113417804778
 20
106.7444302951885
 10
96.48547438779335
 20
106.7636905318513
 10
96.5015694430258
 20
106.781465071108
 10
96.51926862081987
 20
106.7976139559566
 10
96.5384750278665
 20
106.8120187612415
 10
96.5590379412404
 20
106.8245718277305
 10
96.58083893578603
 20
106.8351116665751
 10
96.60375958634782
 20
106.8435306185428
 10
96.62768146777024
 20
106.849699492555
 10
96.65246462305126
 20
106.853499863456
 10
96.67800139295852
 20
106.8547917742439
 10
96.67800139295852
 20
106.8547917742439
 10
96.70365658802135
 20
106.853499863456
 10
96.72854740253469
 20
106.849699492555
 10
96.75255541134297
 20
106.8435306185428
 10
96.77558372113708
 20
106.8351009006518
 10
96.7974493112221
 20
106.8245610618073
 10
96.8180768201354
 20
106.8120187612415
 10
96.83731552495172
 20
106.7976139559566
 10
96.85505776643873
 20
106.781465071108
 10
96.87117435351765
 20
106.7636905318513
 10
96.8855468610329
 20
106.7444302951885
 10
96.8980353319825
 20
106.7238027862752
 10
96.90854287305734
 20
106.7019479621134
 10
96.91691876133214
 20
106.6789842478587
 10
96.92306610349786
 20
106.6550300686665
 10
96.92684494255244
 20
106.6302146156158
 10
96.9281260874171
 20
106.6046778457086
 10
96.9281260874171
 20
106.6046778457086
 10
96.9268341766292
 20
106.5791410758013
 10
96.92306610349786
 20
106.5543363886738
 10
96.91691876133214
 20
106.5303714435585
 10
96.90854287305734
 20
106.5073969633805
 10
96.8980353319825
 20
106.4855313732955
 10
96.8855468610329
 20
106.4649146303054
 10
96.87117435351765
 20
106.4456543936427
 10
96.85505776643873
 20
106.4278906203092
 10
96.83731552495172
 20
106.4117309695373
 10
96.8180768201354
 20
106.3973153983291
 10
96.7974493112221
 20
106.3847838636866
 10
96.77557295521385
 20
106.3742332589188
 10
96.75256617726619
 20
106.3658143069511
 10
96.72855816845791
 20
106.3596454329389
 10
96.70365658802135
 20
106.3558450620379
 10
96.67800139295852
 20
106.35455315125
  0
LINE
  5
B5
330
1F
100
AcDbEntity
  8
レイヤー_1
  6
Continuous
 62
   250
420
  2367521
370
    13
100
AcDbLine
 10
96.67800139295852
 20
103.6046995073816
 30
0.0
 11
96.67800139295852
 21
106.6047209094015
 31
0.0
  0
TEXT
  5
B6
330
1F
100
AcDbEntity
  8
レイヤー_1
  6
Continuous
 62
   250
420
  2367521
100
AcDbText
 10
95.55365892734119
 20
104.3615654250722
 30
0.0
 40
2.150533301035563
  1
3
 50
90.00000250447816
 41
0.7819976806640623
  7
MS Gothic
100
AcDbText
  0
LINE
  5
B7
330
1F
100
AcDbEntity
  8
レイヤー_2
  6
UserDefined01
 62
   140
420
    44526
370
    13
100
AcDbLine
 10
125.6047236758079
 20
98.15385874519657
 30
0.0
 11
140.6051859613742
 21
98.15385874519657
 31
0.0
  0
HATCH
  5
B8
330
1F
100
AcDbEntity
  8
レイヤー_2
  6
Continuous
 62
   140
420
    44526
370
    13
100
AcDbHatch
 10
0.0
 20
0.0
 30
0.0
210
0.0
220
0.0
230
1.0
  2
SOLID
 70
     1
 71
     0
 91
        1
 92
        3
 72
     0
 73
     1
 93
       10
 10
131.6026563588942
 20
98.94759796735242
 10
131.6026563588942
 20
99.0834208548525
 10
132.0372766797866
 20
99.0834208548525
 10
132.0372766797866
 20
100.2168895505302
 10
131.6026563588942
 20
100.1279953224002
 10
131.6026563588942
 20
100.2638074439771
 10
132.1730995672867
 20
100.389757979873
 10
132.1730995672867
 20
99.0834208548525
 10
132.5953713742314
 20
99.0834208548525
 10
132.5953713742314
 20
98.94759796735242
 97
        0
 75
     1
 76
     1
 98
        0
  0
LWPOLYLINE
  5
B9
330
1F
100
AcDbEntity
  8
レイヤー_2
  6
Continuous
 62
   140
420
    44526
370
    13
100
AcDbPolyline
 90
       11
 70
     0
 43
0.0
 10
131.6026563588942
 20
98.94759796735242
 10
131.6026563588942
 20
99.0834208548525
 10
132.0372766797866
 20
99.0834208548525
 10
132.0372766797866
 20
100.2168895505302
 10
131.6026563588942
 20
100.1279953224002
 10
131.6026563588942
 20
100.2638074439771
 10
132.1730995672867
 20
100.389757979873
 10
132.1730995672867
 20
99.0834208548525
 10
132.5953713742314
 20
99.0834208548525
 10
132.5953713742314
 20
98.94759796735242
 10
131.6026563588942
 20
98.94759796735242
  0
HATCH
  5
BA
330
1F
100
AcDbEntity
  8
レイヤー_2
  6
Continuous
 62
   140
420
    44526
370
    13
100
AcDbHatch
 10
0.0
 20
0.0
 30
0.0
210
0.0
220
0.0
230
1.0
  2
SOLID
 70
     1
 71
     0
 91
        1
 92
        3
 72
     0
 73
     1
 93
      140
 10
133.5263868835237
 20
98.9179916784633
 10
133.4953810246144
 20
98.91852997462492
 10
133.4644612930909
 20
98.92010179941684
 10
133.4336169230301
 20
98.92265332322293
 10
133.4028694462783
 20
98.92608765273407
 10
133.3722403946821
 20
98.9303832561038
 10
133.3417297682415
 20
98.93544324002303
 10
133.3113913965725
 20
98.94121377487559
 10
133.2812037478288
 20
98.94761949919888
 10
133.2511991197801
 20
98.95461734929995
 10
133.2213990442728
 20
98.96212119779294
 10
133.1918142872302
 20
98.97007721506169
 10
133.1624556145754
 20
98.9784208055668
 10
133.1333445581549
 20
98.98707660784567
 10
133.1045026498153
 20
98.99598002635886
 10
133.0759298895565
 20
99.00507723149025
 10
133.0476693410714
 20
99.01430362770043
 10
133.0744764899201
 20
99.15011574927726
 10
133.1001209190597
 20
99.1404910139075
 10
133.1260883258963
 20
99.13109236292561
 10
133.1523571785834
 20
99.12197362594776
 10
133.178927477121
 20
99.11319939851333
 10
133.2057776896626
 20
99.10479121246883
 10
133.2328862843618
 20
99.09685672704654
 10
133.2602209634489
 20
99.08940670816972
 10
133.2877817269238
 20
99.08251651730097
 10
133.315536277017
 20
99.07622921813325
 10
133.3434846137283
 20
99.07060940620593
 10
133.3716052052114
 20
99.06570014521195
 10
133.3998657536965
 20
99.0615660306907
 10
133.4282554932603
 20
99.05826089225835
 10
133.4567636579797
 20
99.05582779360783
 10
133.485357950085
 20
99.05433133027853
 10
133.5140383695762
 20
99.05381456596336
 10
133.5140383695762
 20
99.05381456596336
 10
133.5618175368816
 20
99.0553540929856
 10
133.6069267552254
 20
99.05989731258968
 10
133.6493337268378
 20
99.06729350185034
 10
133.6889630902563
 20
99.07742423561204
 10
133.7257610158647
 20
99.09016032279598
 10
133.7596629081236
 20
99.10538333824661
 10
133.7906149374168
 20
99.12293179311544
 10
133.8185740400513
 20
99.14271956001662
 10
133.8434540886414
 20
99.1645743841784
 10
133.8652120194941
 20
99.18837784044526
 10
133.8837940029933
 20
99.21401150366162
 10
133.899113911753
 20
99.24133541682548
 10
133.9111286820803
 20
99.27022038885804
 10
133.9197952502824
 20
99.3005372286805
 10
133.9250382548966
 20
99.33216751113731
 10
133.9267931003835
 20
99.36496051330323
 10
133.9267931003835
 20
99.36496051330323
 10
133.9252320415148
 20
99.39452373849943
 10
133.9205703967552
 20
99.42380704969159
 10
133.9128512297975
 20
99.45259512841504
 10
133.9020853065651
 20
99.48062959251223
 10
133.8883264566741
 20
99.50772742128821
 10
133.8715962119709
 20
99.53364099850862
 10
133.8519376361485
 20
99.55815500570881
 10
133.8293830269766
 20
99.58104335850092
 10
133.8039539163017
 20
99.60206920657382
 10
133.7757041337399
 20
99.62101723146284
 10
133.7446552111376
 20
99.63767211470339
 10
133.7108394462646
 20
99.65180777190754
 10
133.6742999028138
 20
99.6631873527642
 10
133.6350473467084
 20
99.67158477288548
 10
133.5931463734879
 20
99.67679547972998
 10
133.5486077490754
 20
99.67858262298654
 10
133.5486077490754
 20
99.67858262298654
 10
133.5405333066511
 20
99.67855032521685
 10
133.5303595091965
 20
99.67839960229159
 10
133.5182370796368
 20
99.67795819943908
 10
133.5042306135114
 20
99.6771076915037
 10
133.488415472283
 20
99.6757081214835
 10
133.4709316129536
 20
99.67363029829963
 10
133.4518759288322
 20
99.67072349902688
 10
133.4313130154583
 20
99.66684776666321
 10
133.4093612979875
 20
99.66188467605308
 10
133.3861392015751
 20
99.65567273834799
 10
133.3617113217608
 20
99.64809352839237
 10
133.3361853177768
 20
99.63899632326098
 10
133.3096688488553
 20
99.62825193187504
 10
133.2822480423824
 20
99.61572039723251
 10
133.2540305575902
 20
99.60126176233138
 10
133.225113287788
 20
99.58474683609288
 10
133.1288013385509
 20
99.60696770164455
 10
133.1288013385509
 20
100.3601516909839
 10
133.983238835891
 20
100.3601516909839
 10
133.983238835891
 20
100.2243288034838
 10
133.2646242260509
 20
100.2243288034838
 10
133.2646242260509
 20
99.74031442680118
 10
133.2820973194571
 20
99.74848576253459
 10
133.3000979431017
 20
99.75625875910838
 10
133.3185830332918
 20
99.76366571429227
 10
133.3374987604111
 20
99.77064203254687
 10
133.356855890383
 20
99.77718771387218
 10
133.3765575298983
 20
99.78329199234496
 10
133.396603678957
 20
99.78891180427227
 10
133.4169405079431
 20
99.79402561780768
 10
133.4375357190867
 20
99.7986226670279
 10
133.4583462486949
 20
99.80268142008653
 10
133.4793397989981
 20
99.80616957921383
 10
133.5004625403801
 20
99.80907637848658
 10
133.5217037069176
 20
99.81136952013509
 10
133.5430094689946
 20
99.8130382382361
 10
133.564336762918
 20
99.81405023501995
 10
133.5856532909181
 20
99.81439474456339
 10
133.5856532909181
 20
99.81439474456339
 10
133.6418406442681
 20
99.81195087998964
 10
133.6946582636463
 20
99.80481307288655
 10
133.7440415535133
 20
99.7932720031814
 10
133.7899582160996
 20
99.77757528710855
 10
133.8323974854817
 20
99.75804590236496
 10
133.8713270638901
 20
99.73495299703144
 10
133.9066931217086
 20
99.70858725103527
 10
133.9384741270907
 20
99.6791962806108
 10
133.9666377822666
 20
99.64709229753174
 10
133.9911517894668
 20
99.61254444987895
 10
134.0119946168448
 20
99.5758541835029
 10
134.0291124347843
 20
99.53727988056117
 10
134.042483711439
 20
99.49712298690429
 10
134.052076149039
 20
99.45564188468981
 10
134.0578466838916
 20
99.4131487856915
 10
134.0597845500735
 20
99.3699020720669
 10
134.0597845500735
 20
99.3699020720669
 10
134.0584388096694
 20
99.33756123867676
 10
134.0541862699926
 20
99.30297032733102
 10
134.046747017039
 20
99.26676452750043
 10
134.0358303708813
 20
99.22949290126982
 10
134.0211241197459
 20
99.19176910626346
 10
134.0023591155518
 20
99.15420680010558
 10
133.9792231465253
 20
99.11738734265074
 10
133.9514362986625
 20
99.08190285967672
 10
133.918707892036
 20
99.04835624288454
 10
133.880725714872
 20
99.0173503839752
 10
133.8372206190899
 20
98.98947740872649
 10
133.7878696269925
 20
98.96534020883942
 10
133.7324143564223
 20
98.94552014416857
 10
133.6705425956057
 20
98.93062010641492
 10
133.6019636646153
 20
98.9212537532027
 97
        0
 75
     1
 76
     1
 98
        0
  0
LWPOLYLINE
  5
BB
330
1F
100
AcDbEntity
  8
レイヤー_2
  6
Continuous
 62
   140
420
    44526
370
    13
100
AcDbPolyline
 90
      141
 70
     0
 43
0.0
 10
133.5263868835237
 20
98.9179916784633
 10
133.4953810246144
 20
98.91852997462492
 10
133.4644612930909
 20
98.92010179941684
 10
133.4336169230301
 20
98.92265332322293
 10
133.4028694462783
 20
98.92608765273407
 10
133.3722403946821
 20
98.9303832561038
 10
133.3417297682415
 20
98.93544324002303
 10
133.3113913965725
 20
98.94121377487559
 10
133.2812037478288
 20
98.94761949919888
 10
133.2511991197801
 20
98.95461734929995
 10
133.2213990442728
 20
98.96212119779294
 10
133.1918142872302
 20
98.97007721506169
 10
133.1624556145754
 20
98.9784208055668
 10
133.1333445581549
 20
98.98707660784567
 10
133.1045026498153
 20
98.99598002635886
 10
133.0759298895565
 20
99.00507723149025
 10
133.0476693410714
 20
99.01430362770043
 10
133.0744764899201
 20
99.15011574927726
 10
133.1001209190597
 20
99.1404910139075
 10
133.1260883258963
 20
99.13109236292561
 10
133.1523571785834
 20
99.12197362594776
 10
133.178927477121
 20
99.11319939851333
 10
133.2057776896626
 20
99.10479121246883
 10
133.2328862843618
 20
99.09685672704654
 10
133.2602209634489
 20
99.08940670816972
 10
133.2877817269238
 20
99.08251651730097
 10
133.315536277017
 20
99.07622921813325
 10
133.3434846137283
 20
99.07060940620593
 10
133.3716052052114
 20
99.06570014521195
 10
133.3998657536965
 20
99.0615660306907
 10
133.4282554932603
 20
99.05826089225835
 10
133.4567636579797
 20
99.05582779360783
 10
133.485357950085
 20
99.05433133027853
 10
133.5140383695762
 20
99.05381456596336
 10
133.5140383695762
 20
99.05381456596336
 10
133.5618175368816
 20
99.0553540929856
 10
133.6069267552254
 20
99.05989731258968
 10
133.6493337268378
 20
99.06729350185034
 10
133.6889630902563
 20
99.07742423561204
 10
133.7257610158647
 20
99.09016032279598
 10
133.7596629081236
 20
99.10538333824661
 10
133.7906149374168
 20
99.12293179311544
 10
133.8185740400513
 20
99.14271956001662
 10
133.8434540886414
 20
99.1645743841784
 10
133.8652120194941
 20
99.18837784044526
 10
133.8837940029933
 20
99.21401150366162
 10
133.899113911753
 20
99.24133541682548
 10
133.9111286820803
 20
99.27022038885804
 10
133.9197952502824
 20
99.3005372286805
 10
133.9250382548966
 20
99.33216751113731
 10
133.9267931003835
 20
99.36496051330323
 10
133.9267931003835
 20
99.36496051330323
 10
133.9252320415148
 20
99.39452373849943
 10
133.9205703967552
 20
99.42380704969159
 10
133.9128512297975
 20
99.45259512841504
 10
133.9020853065651
 20
99.48062959251223
 10
133.8883264566741
 20
99.50772742128821
 10
133.8715962119709
 20
99.53364099850862
 10
133.8519376361485
 20
99.55815500570881
 10
133.8293830269766
 20
99.58104335850092
 10
133.8039539163017
 20
99.60206920657382
 10
133.7757041337399
 20
99.62101723146284
 10
133.7446552111376
 20
99.63767211470339
 10
133.7108394462646
 20
99.65180777190754
 10
133.6742999028138
 20
99.6631873527642
 10
133.6350473467084
 20
99.67158477288548
 10
133.5931463734879
 20
99.67679547972998
 10
133.5486077490754
 20
99.67858262298654
 10
133.5486077490754
 20
99.67858262298654
 10
133.5405333066511
 20
99.67855032521685
 10
133.5303595091965
 20
99.67839960229159
 10
133.5182370796368
 20
99.67795819943908
 10
133.5042306135114
 20
99.6771076915037
 10
133.488415472283
 20
99.6757081214835
 10
133.4709316129536
 20
99.67363029829963
 10
133.4518759288322
 20
99.67072349902688
 10
133.4313130154583
 20
99.66684776666321
 10
133.4093612979875
 20
99.66188467605308
 10
133.3861392015751
 20
99.65567273834799
 10
133.3617113217608
 20
99.64809352839237
 10
133.3361853177768
 20
99.63899632326098
 10
133.3096688488553
 20
99.62825193187504
 10
133.2822480423824
 20
99.61572039723251
 10
133.2540305575902
 20
99.60126176233138
 10
133.225113287788
 20
99.58474683609288
 10
133.1288013385509
 20
99.60696770164455
 10
133.1288013385509
 20
100.3601516909839
 10
133.983238835891
 20
100.3601516909839
 10
133.983238835891
 20
100.2243288034838
 10
133.2646242260509
 20
100.2243288034838
 10
133.2646242260509
 20
99.74031442680118
 10
133.2820973194571
 20
99.74848576253459
 10
133.3000979431017
 20
99.75625875910838
 10
133.3185830332918
 20
99.76366571429227
 10
133.3374987604111
 20
99.77064203254687
 10
133.356855890383
 20
99.77718771387218
 10
133.3765575298983
 20
99.78329199234496
 10
133.396603678957
 20
99.78891180427227
 10
133.4169405079431
 20
99.79402561780768
 10
133.4375357190867
 20
99.7986226670279
 10
133.4583462486949
 20
99.80268142008653
 10
133.4793397989981
 20
99.80616957921383
 10
133.5004625403801
 20
99.80907637848658
 10
133.5217037069176
 20
99.81136952013509
 10
133.5430094689946
 20
99.8130382382361
 10
133.564336762918
 20
99.81405023501995
 10
133.5856532909181
 20
99.81439474456339
 10
133.5856532909181
 20
99.81439474456339
 10
133.6418406442681
 20
99.81195087998964
 10
133.6946582636463
 20
99.80481307288655
 10
133.7440415535133
 20
99.7932720031814
 10
133.7899582160996
 20
99.77757528710855
 10
133.8323974854817
 20
99.75804590236496
 10
133.8713270638901
 20
99.73495299703144
 10
133.9066931217086
 20
99.70858725103527
 10
133.9384741270907
 20
99.6791962806108
 10
133.9666377822666
 20
99.64709229753174
 10
133.9911517894668
 20
99.61254444987895
 10
134.0119946168448
 20
99.5758541835029
 10
134.0291124347843
 20
99.53727988056117
 10
134.042483711439
 20
99.49712298690429
 10
134.052076149039
 20
99.45564188468981
 10
134.0578466838916
 20
99.4131487856915
 10
134.0597845500735
 20
99.3699020720669
 10
134.0597845500735
 20
99.3699020720669
 10
134.0584388096694
 20
99.33756123867676
 10
134.0541862699926
 20
99.30297032733102
 10
134.046747017039
 20
99.26676452750043
 10
134.0358303708813
 20
99.22949290126982
 10
134.0211241197459
 20
99.19176910626346
 10
134.0023591155518
 20
99.15420680010558
 10
133.9792231465253
 20
99.11738734265074
 10
133.9514362986625
 20
99.08190285967672
 10
133.918707892036
 20
99.04835624288454
 10
133.880725714872
 20
99.0173503839752
 10
133.8372206190899
 20
98.98947740872649
 10
133.7878696269925
 20
98.96534020883942
 10
133.7324143564223
 20
98.94552014416857
 10
133.6705425956057
 20
98.93062010641492
 10
133.6019636646153
 20
98.9212537532027
 10
133.5263868835237
 20
98.9179916784633
  0
HATCH
  5
BC
330
1F
100
AcDbEntity
  8
レイヤー_2
  6
Continuous
 62
   140
420
    44526
370
    13
100
AcDbHatch
 10
0.0
 20
0.0
 30
0.0
210
0.0
220
0.0
230
1.0
  2
SOLID
 70
     1
 71
     0
 91
        1
 92
        3
 72
     0
 73
     1
 93
        3
 10
124.7386159176838
 20
107.6068453416438
 10
126.4707560724694
 20
107.6061347907105
 10
125.6061017139816
 20
106.1078950840723
 97
        0
 75
     1
 76
     1
 98
        0
  0
LWPOLYLINE
  5
BD
330
1F
100
AcDbEntity
  8
レイヤー_2
  6
Continuous
 62
   140
420
    44526
370
    13
100
AcDbPolyline
 90
        4
 70
     0
 43
0.0
 10
124.7386159176838
 20
107.6068453416438
 10
126.4707560724694
 20
107.6061347907105
 10
125.6061017139816
 20
106.1078950840723
 10
124.7386159176838
 20
107.6068453416438
  0
ENDSEC
  0
SECTION
  2
OBJECTS
  0
DICTIONARY
  5
C
330
0
100
AcDbDictionary
281
     1
  3
ACAD_DETAILVIEWSTYLE
350
C5
  3
ACAD_GROUP
350
D
  3
ACAD_LAYOUT
350
1A
  3
ACAD_MATERIAL
350
43
  3
ACAD_MLEADERSTYLE
350
5B
  3
ACAD_MLINESTYLE
350
17
  3
ACAD_PLOTSETTINGS
350
19
  3
ACAD_PLOTSTYLENAME
350
E
  3
ACAD_SCALELIST
350
47
  3
ACAD_SECTIONVIEWSTYLE
350
C6
  3
ACAD_TABLESTYLE
350
59
  3
ACAD_VISUALSTYLE
350
2A
  3
ACDB_RECOMPOSE_DATA
350
C2
  3
AcDbVariableDictionary
350
BE
  0
SUN
  5
5D
330
29
100
AcDbSun
 90
        1
290
     0
 63
     7
421
 16777215
 40
1.0
291
     1
 91
  2455826
 92
 54000000
292
     0
 70
     2
 71
   256
280
     1
  0
DICTIONARY
  5
C5
102
{ACAD_REACTORS
330
C
102
}
330
C
100
AcDbDictionary
281
     1
  0
DICTIONARY
  5
D
102
{ACAD_REACTORS
330
C
102
}
330
C
100
AcDbDictionary
281
     1
  0
DICTIONARY
  5
1A
102
{ACAD_REACTORS
330
C
102
}
330
C
100
AcDbDictionary
281
     1
  3
Layout1
350
1E
  3
Layout2
350
26
  3
Model
350
22
  0
DICTIONARY
  5
43
102
{ACAD_REACTORS
330
C
102
}
330
C
100
AcDbDictionary
281
     1
  3
ByBlock
350
45
  3
ByLayer
350
44
  3
Global
350
46
  0
DICTIONARY
  5
5B
102
{ACAD_REACTORS
330
C
102
}
330
C
100
AcDbDictionary
281
     1
  3
Standard
350
5C
  0
DICTIONARY
  5
17
102
{ACAD_REACTORS
330
C
102
}
330
C
100
AcDbDictionary
281
     1
  3
Standard
350
18
  0
DICTIONARY
  5
19
102
{ACAD_REACTORS
330
C
102
}
330
C
100
AcDbDictionary
281
     1
  0
ACDBDICTIONARYWDFLT
  5
E
102
{ACAD_REACTORS
330
C
102
}
330
C
100
AcDbDictionary
281
     1
  3
Normal
350
F
100
AcDbDictionaryWithDefault
340
F
  0
DICTIONARY
  5
47
102
{ACAD_REACTORS
330
C
102
}
330
C
100
AcDbDictionary
281
     1
  3
A0
350
48
  3
A1
350
49
  3
A2
350
4A
  3
A3
350
4B
  3
A4
350
4C
  3
A5
350
4D
  3
A6
350
4E
  3
A7
350
4F
  3
A8
350
50
  3
A9
350
51
  3
B0
350
52
  3
B1
350
53
  3
B2
350
54
  3
B3
350
55
  3
B4
350
56
  3
B5
350
57
  3
B6
350
58
  0
DICTIONARY
  5
C6
102
{ACAD_REACTORS
330
C
102
}
330
C
100
AcDbDictionary
281
     1
  0
DICTIONARY
  5
59
102
{ACAD_REACTORS
330
C
102
}
330
C
100
AcDbDictionary
281
     1
  3
Standard
350
5A
  0
DICTIONARY
  5
2A
102
{ACAD_REACTORS
330
C
102
}
330
C
100
AcDbDictionary
281
     1
  3
2dWireframe
350
2F
  3
Basic
350
32
  3
Brighten
350
36
  3
ColorChange
350
3A
  3
Conceptual
350
34
  3
Dim
350
35
  3
EdgeColorOff
350
3D
  3
Facepattern
350
39
  3
Flat
350
2B
  3
FlatWithEdges
350
2C
  3
Gouraud
350
2D
  3
GouraudWithEdges
350
2E
  3
Hidden
350
31
  3
JitterOff
350
3B
  3
Linepattern
350
38
  3
OverhangOff
350
3C
  3
Realistic
350
33
  3
Shaded
350
42
  3
Shaded with edges
350
41
  3
Shades of Gray
350
3E
  3
Sketchy
350
3F
  3
Thicken
350
37
  3
Wireframe
350
30
  3
X-Ray
350
40
  0
XRECORD
  5
C2
102
{ACAD_REACTORS
330
C
102
}
330
C
100
AcDbXrecord
280
     1
 90
        1
330
5A
  0
DICTIONARY
  5
BE
102
{ACAD_REACTORS
330
C
102
}
330
C
100
AcDbDictionary
281
     1
  3
CANNOSCALE
350
BF
  3
CENTEREXE
350
C7
  3
CENTERLTYPEFILE
350
C8
  3
CMLEADERSTYLE
350
C4
  3
CTABLESTYLE
350
C3
  0
LAYOUT
  5
1E
102
{ACAD_REACTORS
330
1A
102
}
330
1A
100
AcDbPlotSettings
  1

  2
none_device
  4

  6

 40
0.0
 41
0.0
 42
0.0
 43
0.0
 44
0.0
 45
0.0
 46
0.0
 47
0.0
 48
0.0
 49
0.0
140
0.0
141
0.0
142
1.0
143
1.0
 70
   688
 72
     1
 73
     0
 74
     5
  7

 75
    16
 76
     0
 77
     5
 78
   300
147
1.0
148
0.0
149
0.0
100
AcDbLayout
  1
Layout1
 70
     1
 71
     1
 10
0.0
 20
0.0
 11
420.0
 21
297.0
 12
0.0
 22
0.0
 32
0.0
 14
1.000000000000000E+20
 24
1.000000000000000E+20
 34
1.000000000000000E+20
 15
-1.000000000000000E+20
 25
-1.000000000000000E+20
 35
-1.000000000000000E+20
146
0.0
 13
0.0
 23
0.0
 33
0.0
 16
1.0
 26
0.0
 36
0.0
 17
0.0
 27
1.0
 37
0.0
 76
     0
330
1B
  0
LAYOUT
  5
26
102
{ACAD_REACTORS
330
1A
102
}
330
1A
100
AcDbPlotSettings
  1

  2
none_device
  4

  6

 40
0.0
 41
0.0
 42
0.0
 43
0.0
 44
0.0
 45
0.0
 46
0.0
 47
0.0
 48
0.0
 49
0.0
140
0.0
141
0.0
142
1.0
143
1.0
 70
   688
 72
     1
 73
     0
 74
     5
  7

 75
    16
 76
     0
 77
     5
 78
   300
147
1.0
148
0.0
149
0.0
100
AcDbLayout
  1
Layout2
 70
     1
 71
     2
 10
0.0
 20
0.0
 11
0.0
 21
0.0
 12
0.0
 22
0.0
 32
0.0
 14
0.0
 24
0.0
 34
0.0
 15
0.0
 25
0.0
 35
0.0
146
0.0
 13
0.0
 23
0.0
 33
0.0
 16
1.0
 26
0.0
 36
0.0
 17
0.0
 27
1.0
 37
0.0
 76
     0
330
23
  0
LAYOUT
  5
22
102
{ACAD_REACTORS
330
1A
102
}
330
1A
100
AcDbPlotSettings
  1

  2
none_device
  4
Letter_(8.50_x_11.00_Inches)
  6

 40
6.35
 41
6.35
 42
6.35000508
 43
6.35000508
 44
215.9
 45
279.4
 46
0.0
 47
0.0
 48
0.0
 49
0.0
140
0.0
141
0.0
142
1.0
143
1.0
 70
  1712
 72
     1
 73
     0
 74
     0
  7

 75
     0
 76
     0
 77
     5
 78
   300
147
1.0
148
0.0
149
0.0
100
AcDbLayout
  1
Model
 70
     1
 71
     0
 10
0.0
 20
0.0
 11
302.9997823349792
 21
216.0016055409748
 12
0.0
 22
0.0
 32
0.0
 14
0.0
 24
0.0
 34
0.0
 15
302.9997823349792
 25
216.0016055409748
 35
0.0
146
0.0
 13
0.0
 23
0.0
 33
0.0
 16
1.0
 26
0.0
 36
0.0
 17
0.0
 27
1.0
 37
0.0
 76
     0
330
1F
331
29
  0
MATERIAL
  5
45
102
{ACAD_REACTORS
330
43
102
}
330
43
100
AcDbMaterial
  1
ByBlock
 72
     1
 94
      127
  0
MATERIAL
  5
44
102
{ACAD_REACTORS
330
43
102
}
330
43
100
AcDbMaterial
  1
ByLayer
 72
     1
 94
      127
  0
MATERIAL
  5
46
102
{ACAD_REACTORS
330
43
102
}
330
43
100
AcDbMaterial
  1
Global
 72
     1
 94
      127
  0
MLEADERSTYLE
  5
5C
102
{ACAD_REACTORS
330
5B
102
}
330
5B
100
AcDbMLeaderStyle
179
     2
170
     2
171
     1
172
     0
 90
        2
 40
0.0
 41
0.0
173
     1
 91
-1056964608
340
14
 92
       -2
290
     1
 42
2.0
291
     1
 43
8.0
  3
Standard
341
0
 44
4.0
300

342
11
174
     1
178
     6
175
     1
176
     0
 93
-1056964608
 45
4.0
292
     0
297
     0
 46
4.0
343
0
 94
-1056964608
 47
1.0
 49
1.0
140
1.0
293
     1
141
0.0
294
     1
177
     0
142
1.0
295
     0
296
     0
143
3.75
271
     0
272
     9
273
     9
298
     0
  0
MLINESTYLE
  5
18
102
{ACAD_REACTORS
330
17
102
}
330
17
100
AcDbMlineStyle
  2
Standard
 70
     0
  3

 62
   256
 51
90.0
 52
90.0
 71
     2
 49
0.5
 62
   256
  6
BYLAYER
 49
-0.5
 62
   256
  6
BYLAYER
  0
ACDBPLACEHOLDER
  5
F
102
{ACAD_REACTORS
330
E
102
}
330
E
  0
SCALE
  5
48
102
{ACAD_REACTORS
330
47
102
}
330
47
100
AcDbScale
 70
     0
300
1:1
140
1.0
141
1.0
290
     1
  0
SCALE
  5
49
102
{ACAD_REACTORS
330
47
102
}
330
47
100
AcDbScale
 70
     0
300
1:2
140
1.0
141
2.0
290
     0
  0
SCALE
  5
4A
102
{ACAD_REACTORS
330
47
102
}
330
47
100
AcDbScale
 70
     0
300
1:4
140
1.0
141
4.0
290
     0
  0
SCALE
  5
4B
102
{ACAD_REACTORS
330
47
102
}
330
47
100
AcDbScale
 70
     0
300
1:5
140
1.0
141
5.0
290
     0
  0
SCALE
  5
4C
102
{ACAD_REACTORS
330
47
102
}
330
47
100
AcDbScale
 70
     0
300
1:8
140
1.0
141
8.0
290
     0
  0
SCALE
  5
4D
102
{ACAD_REACTORS
330
47
102
}
330
47
100
AcDbScale
 70
     0
300
1:10
140
1.0
141
10.0
290
     0
  0
SCALE
  5
4E
102
{ACAD_REACTORS
330
47
102
}
330
47
100
AcDbScale
 70
     0
300
1:16
140
1.0
141
16.0
290
     0
  0
SCALE
  5
4F
102
{ACAD_REACTORS
330
47
102
}
330
47
100
AcDbScale
 70
     0
300
1:20
140
1.0
141
20.0
290
     0
  0
SCALE
  5
50
102
{ACAD_REACTORS
330
47
102
}
330
47
100
AcDbScale
 70
     0
300
1:30
140
1.0
141
30.0
290
     0
  0
SCALE
  5
51
102
{ACAD_REACTORS
330
47
102
}
330
47
100
AcDbScale
 70
     0
300
1:40
140
1.0
141
40.0
290
     0
  0
SCALE
  5
52
102
{ACAD_REACTORS
330
47
102
}
330
47
100
AcDbScale
 70
     0
300
1:50
140
1.0
141
50.0
290
     0
  0
SCALE
  5
53
102
{ACAD_REACTORS
330
47
102
}
330
47
100
AcDbScale
 70
     0
300
1:100
140
1.0
141
100.0
290
     0
  0
SCALE
  5
54
102
{ACAD_REACTORS
330
47
102
}
330
47
100
AcDbScale
 70
     0
300
2:1
140
2.0
141
1.0
290
     0
  0
SCALE
  5
55
102
{ACAD_REACTORS
330
47
102
}
330
47
100
AcDbScale
 70
     0
300
4:1
140
4.0
141
1.0
290
     0
  0
SCALE
  5
56
102
{ACAD_REACTORS
330
47
102
}
330
47
100
AcDbScale
 70
     0
300
8:1
140
8.0
141
1.0
290
     0
  0
SCALE
  5
57
102
{ACAD_REACTORS
330
47
102
}
330
47
100
AcDbScale
 70
     0
300
10:1
140
10.0
141
1.0
290
     0
  0
SCALE
  5
58
102
{ACAD_REACTORS
330
47
102
}
330
47
100
AcDbScale
 70
     0
300
100:1
140
100.0
141
1.0
290
     0
  0
TABLESTYLE
  5
5A
102
{ACAD_REACTORS
330
59
102
}
102
{ACAD_XDICTIONARY
360
C0
102
}
330
59
100
AcDbTableStyle
  3
Standard
 70
     0
 71
     0
 40
0.06
 41
0.06
280
     0
281
     0
  7
Standard
140
4.5
170
     2
 62
     0
 63
   257
283
     0
 90
        4
 91
        0
  1

274
    -2
284
     1
 64
     0
275
    -2
285
     1
 65
     0
276
    -2
286
     1
 66
     0
277
    -2
287
     1
 67
     0
278
    -2
288
     1
 68
     0
279
    -2
289
     1
 69
     0
  7
Standard
140
6.0
170
     5
 62
     0
 63
   257
283
     0
 90
        4
 91
        0
  1

274
    -2
284
     1
 64
     0
275
    -2
285
     1
 65
     0
276
    -2
286
     1
 66
     0
277
    -2
287
     1
 67
     0
278
    -2
288
     1
 68
     0
279
    -2
289
     1
 69
     0
  7
Standard
140
4.5
170
     5
 62
     0
 63
   257
283
     0
 90
        4
 91
        0
  1

274
    -2
284
     1
 64
     0
275
    -2
285
     1
 65
     0
276
    -2
286
     1
 66
     0
277
    -2
287
     1
 67
     0
278
    -2
288
     1
 68
     0
279
    -2
289
     1
 69
     0
  0
VISUALSTYLE
  5
2F
102
{ACAD_REACTORS
330
2A
102
}
330
2A
100
AcDbVisualStyle
  2
2dWireframe
 70
     4
177
     3
291
     0
 70
    58
 90
        0
176
     1
 90
        2
176
     1
 90
        0
176
     1
 90
        0
176
     1
 40
0.6
176
     1
 40
30.0
176
     1
 62
     7
420
 16777215
176
     1
 90
        1
176
     1
 90
        4
176
     1
 62
     7
176
     1
 62
   257
176
     1
 90
        1
176
     1
 90
        1
176
     1
 40
1.0
176
     1
 90
        0
176
     1
 62
   257
176
     1
 40
1.0
176
     1
 90
        1
176
     1
 90
        6
176
     1
 90
        2
176
     1
 62
     7
176
     1
 90
        5
176
     1
 90
        0
176
     1
 90
        0
176
     1
290
     0
176
     1
 90
        1
176
     1
 40
0.0
176
     1
 90
        0
176
     1
290
     1
176
     1
290
     1
176
     1
290
     0
176
     1
290
     0
176
     1
290
     0
176
     1
290
     0
176
     1
290
     0
176
     1
290
     0
176
     1
290
     0
176
     1
 90
       50
176
     1
 40
0.0
176
     1
 40
1.0
176
     1
 90
        0
176
     1
 62
    18
420
        0
176
     1
 90
       50
176
     1
 90
        3
176
     1
 62
     5
420
      255
176
     1
290
     0
176
     1
 90
       50
176
     1
 90
       50
176
     1
 90
       50
176
     1
290
     0
176
     1
 90
       50
176
     1
 62
   256
176
     0
 40
1.0
176
     0
 90
        2
176
     1
  1
strokes_ogs.tif
176
     1
290
     0
176
     1
 40
1.0
176
     1
 40
1.0
176
     1
  0
VISUALSTYLE
  5
32
102
{ACAD_REACTORS
330
2A
102
}
330
2A
100
AcDbVisualStyle
  2
Basic
 70
     7
177
     3
291
     1
 70
    58
 90
        1
176
     1
 90
        0
176
     1
 90
        1
176
     1
 90
        0
176
     1
 40
0.6
176
     1
 40
30.0
176
     1
 62
     7
420
 16777215
176
     1
 90
        0
176
     1
 90
        4
176
     1
 62
     7
176
     1
 62
   257
176
     1
 90
        1
176
     1
 90
        1
176
     1
 40
1.0
176
     1
 90
        8
176
     1
 62
     7
176
     1
 40
1.0
176
     1
 90
        1
176
     1
 90
        6
176
     1
 90
        2
176
     1
 62
     7
176
     1
 90
        5
176
     1
 90
        0
176
     1
 90
        0
176
     1
290
     0
176
     1
 90
        1
176
     1
 40
0.0
176
     1
 90
        0
176
     1
290
     0
176
     1
290
     1
176
     1
290
     1
176
     1
290
     0
176
     1
290
     0
176
     1
290
     0
176
     1
290
     0
176
     1
290
     0
176
     1
290
     0
176
     1
 90
       50
176
     1
 40
0.0
176
     1
 40
1.0
176
     1
 90
        0
176
     1
 62
    18
420
        0
176
     1
 90
       50
176
     1
 90
        3
176
     1
 62
     5
420
      255
176
     1
290
     0
176
     1
 90
       50
176
     1
 90
       50
176
     1
 90
       50
176
     1
290
     0
176
     1
 90
       50
176
     1
 62
   256
176
     0
 40
1.0
176
     0
 90
        2
176
     1
  1
strokes_ogs.tif
176
     1
290
     0
176
     1
 40
1.0
176
     1
 40
1.0
176
     1
  0
VISUALSTYLE
  5
36
102
{ACAD_REACTORS
330
2A
102
}
330
2A
100
AcDbVisualStyle
  2
Brighten
 70
    12
177
     3
291
     1
 70
    58
 90
        2
176
     1
 90
        2
176
     1
 90
        0
176
     1
 90
        0
176
     1
 40
0.6
176
     1
 40
30.0
176
     1
 62
     7
420
 16777215
176
     1
 90
        1
176
     1
 90
        4
176
     1
 62
     7
176
     1
 62
   257
176
     1
 90
        1
176
     1
 90
        1
176
     1
 40
1.0
176
     1
 90
        8
176
     1
 62
     7
176
     1
 40
1.0
176
     1
 90
        1
176
     1
 90
        6
176
     1
 90
        2
176
     1
 62
     7
176
     1
 90
        5
176
     1
 90
        0
176
     1
 90
        0
176
     1
290
     0
176
     1
 90
        1
176
     1
 40
50.0
176
     1
 90
        0
176
     1
290
     0
176
     1
290
     1
176
     1
290
     1
176
     1
290
     0
176
     1
290
     0
176
     1
290
     0
176
     1
290
     0
176
     1
290
     0
176
     1
290
     0
176
     1
 90
       50
176
     1
 40
0.0
176
     1
 40
1.0
176
     1
 90
        0
176
     1
 62
    18
420
        0
176
     1
 90
       50
176
     1
 90
        3
176
     1
 62
     5
420
      255
176
     1
290
     0
176
     1
 90
       50
176
     1
 90
       50
176
     1
 90
       50
176
     1
290
     0
176
     1
 90
       50
176
     1
 62
   256
176
     0
 40
1.0
176
     0
 90
        2
176
     1
  1
strokes_ogs.tif
176
     1
290
     0
176
     1
 40
1.0
176
     1
 40
1.0
176
     1
  0
VISUALSTYLE
  5
3A
102
{ACAD_REACTORS
330
2A
102
}
330
2A
100
AcDbVisualStyle
  2
ColorChange
 70
    16
177
     3
291
     1
 70
    58
 90
        2
176
     1
 90
        2
176
     1
 90
        3
176
     1
 90
        0
176
     1
 40
0.6
176
     1
 40
30.0
176
     1
 62
     8
420
  8421504
176
     1
 90
        1
176
     1
 90
        4
176
     1
 62
     7
176
     1
 62
   257
176
     1
 90
        1
176
     1
 90
        1
176
     1
 40
1.0
176
     1
 90
        8
176
     1
 62
     8
420
  8421504
176
     1
 40
1.0
176
     1
 90
        1
176
     1
 90
        6
176
     1
 90
        2
176
     1
 62
     7
176
     1
 90
        5
176
     1
 90
        0
176
     1
 90
        0
176
     1
290
     0
176
     1
 90
        1
176
     1
 40
0.0
176
     1
 90
        0
176
     1
290
     0
176
     1
290
     1
176
     1
290
     1
176
     1
290
     0
176
     1
290
     0
176
     1
290
     0
176
     1
290
     0
176
     1
290
     0
176
     1
290
     0
176
     1
 90
       50
176
     1
 40
0.0
176
     1
 40
1.0
176
     1
 90
        0
176
     1
 62
    18
420
        0
176
     1
 90
       50
176
     1
 90
        3
176
     1
 62
     5
420
      255
176
     1
290
     0
176
     1
 90
       50
176
     1
 90
       50
176
     1
 90
       50
176
     1
290
     0
176
     1
 90
       50
176
     1
 62
   256
176
     0
 40
1.0
176
     0
 90
        2
176
     1
  1
strokes_ogs.tif
176
     1
290
     0
176
     1
 40
1.0
176
     1
 40
1.0
176
     1
  0
VISUALSTYLE
  5
34
102
{ACAD_REACTORS
330
2A
102
}
330
2A
100
AcDbVisualStyle
  2
Conceptual
 70
     9
177
     3
291
     0
 70
    58
 90
        3
176
     1
 90
        2
176
     1
 90
        0
176
     1
 90
        0
176
     1
 40
0.6
176
     1
 40
30.0
176
     1
 62
     7
420
 16777215
176
     1
 90
        2
176
     1
 90
        2
176
     1
 62
     7
176
     1
 62
   257
176
     1
 90
        1
176
     1
 90
        1
176
     1
 40
179.0
176
     1
 90
        8
176
     1
 62
     7
176
     1
 40
1.0
176
     1
 90
        1
176
     1
 90
        6
176
     1
 90
        2
176
     1
 62
     7
176
     1
 90
        3
176
     1
 90
        0
176
     1
 90
        0
176
     1
290
     0
176
     1
 90
        1
176
     1
 40
0.0
176
     1
 90
        0
176
     1
290
     0
176
     1
290
     1
176
     1
290
     1
176
     1
290
     0
176
     1
290
     0
176
     1
290
     0
176
     1
290
     0
176
     1
290
     0
176
     1
290
     0
176
     1
 90
       50
176
     1
 40
0.0
176
     1
 40
1.0
176
     1
 90
        0
176
     1
 62
    18
420
        0
176
     1
 90
       50
176
     1
 90
        3
176
     1
 62
     5
420
      255
176
     1
290
     0
176
     1
 90
       50
176
     1
 90
       50
176
     1
 90
       50
176
     1
290
     0
176
     1
 90
       50
176
     1
 62
   256
176
     0
 40
1.0
176
     0
 90
        2
176
     1
  1
strokes_ogs.tif
176
     1
290
     0
176
     1
 40
1.0
176
     1
 40
1.0
176
     1
  0
VISUALSTYLE
  5
35
102
{ACAD_REACTORS
330
2A
102
}
330
2A
100
AcDbVisualStyle
  2
Dim
 70
    11
177
     3
291
     1
 70
    58
 90
        2
176
     1
 90
        2
176
     1
 90
        0
176
     1
 90
        0
176
     1
 40
0.6
176
     1
 40
30.0
176
     1
 62
     7
420
 16777215
176
     1
 90
        1
176
     1
 90
        4
176
     1
 62
     7
176
     1
 62
   257
176
     1
 90
        1
176
     1
 90
        1
176
     1
 40
1.0
176
     1
 90
        8
176
     1
 62
     7
176
     1
 40
1.0
176
     1
 90
        1
176
     1
 90
        6
176
     1
 90
        2
176
     1
 62
     7
176
     1
 90
        5
176
     1
 90
        0
176
     1
 90
        0
176
     1
290
     0
176
     1
 90
        1
176
     1
 40
-50.0
176
     1
 90
        0
176
     1
290
     0
176
     1
290
     1
176
     1
290
     1
176
     1
290
     0
176
     1
290
     0
176
     1
290
     0
176
     1
290
     0
176
     1
290
     0
176
     1
290
     0
176
     1
 90
       50
176
     1
 40
0.0
176
     1
 40
1.0
176
     1
 90
        0
176
     1
 62
    18
420
        0
176
     1
 90
       50
176
     1
 90
        3
176
     1
 62
     5
420
      255
176
     1
290
     0
176
     1
 90
       50
176
     1
 90
       50
176
     1
 90
       50
176
     1
290
     0
176
     1
 90
       50
176
     1
 62
   256
176
     0
 40
1.0
176
     0
 90
        2
176
     1
  1
strokes_ogs.tif
176
     1
290
     0
176
     1
 40
1.0
176
     1
 40
1.0
176
     1
  0
VISUALSTYLE
  5
3D
102
{ACAD_REACTORS
330
2A
102
}
330
2A
100
AcDbVisualStyle
  2
EdgeColorOff
 70
    22
177
     3
291
     1
 70
    58
 90
        2
176
     0
 90
        2
176
     0
 90
        0
176
     0
 90
        0
176
     0
 40
0.6
176
     0
 40
30.0
176
     0
 62
     7
420
 16777215
176
     0
 90
        1
176
     0
 90
        4
176
     0
 62
     7
176
     0
 62
   257
176
     0
 90
        1
176
     0
 90
        1
176
     0
 40
1.0
176
     0
 90
        8
176
     2
 62
     7
176
     0
 40
1.0
176
     0
 90
        1
176
     0
 90
        6
176
     0
 90
        2
176
     0
 62
     7
176
     0
 90
        5
176
     0
 90
        0
176
     0
 90
        0
176
     0
290
     0
176
     0
 90
        1
176
     0
 40
0.0
176
     0
 90
        0
176
     0
290
     0
176
     0
290
     1
176
     0
290
     1
176
     0
290
     0
176
     0
290
     0
176
     0
290
     0
176
     0
290
     0
176
     0
290
     0
176
     0
290
     0
176
     0
 90
       50
176
     0
 40
0.0
176
     0
 40
1.0
176
     0
 90
        0
176
     0
 62
    18
420
        0
176
     0
 90
       50
176
     0
 90
        3
176
     0
 62
     5
420
      255
176
     0
290
     0
176
     0
 90
       50
176
     0
 90
       50
176
     0
 90
       50
176
     0
290
     0
176
     0
 90
       50
176
     0
 62
   256
176
     0
 40
1.0
176
     0
 90
        2
176
     0
  1
strokes_ogs.tif
176
     0
290
     0
176
     0
 40
1.0
176
     0
 40
1.0
176
     0
  0
VISUALSTYLE
  5
39
102
{ACAD_REACTORS
330
2A
102
}
330
2A
100
AcDbVisualStyle
  2
Facepattern
 70
    15
177
     3
291
     1
 70
    58
 90
        2
176
     1
 90
        2
176
     1
 90
        0
176
     1
 90
        0
176
     1
 40
0.6
176
     1
 40
30.0
176
     1
 62
     7
420
 16777215
176
     1
 90
        1
176
     1
 90
        4
176
     1
 62
     7
176
     1
 62
   257
176
     1
 90
        1
176
     1
 90
        1
176
     1
 40
1.0
176
     1
 90
        8
176
     1
 62
     7
176
     1
 40
1.0
176
     1
 90
        1
176
     1
 90
        6
176
     1
 90
        2
176
     1
 62
     7
176
     1
 90
        5
176
     1
 90
        0
176
     1
 90
        0
176
     1
290
     0
176
     1
 90
        1
176
     1
 40
0.0
176
     1
 90
        0
176
     1
290
     0
176
     1
290
     1
176
     1
290
     1
176
     1
290
     0
176
     1
290
     0
176
     1
290
     0
176
     1
290
     0
176
     1
290
     0
176
     1
290
     0
176
     1
 90
       50
176
     1
 40
0.0
176
     1
 40
1.0
176
     1
 90
        0
176
     1
 62
    18
420
        0
176
     1
 90
       50
176
     1
 90
        3
176
     1
 62
     5
420
      255
176
     1
290
     0
176
     1
 90
       50
176
     1
 90
       50
176
     1
 90
       50
176
     1
290
     0
176
     1
 90
       50
176
     1
 62
   256
176
     0
 40
1.0
176
     0
 90
        2
176
     1
  1
strokes_ogs.tif
176
     1
290
     0
176
     1
 40
1.0
176
     1
 40
1.0
176
     1
  0
VISUALSTYLE
  5
2B
102
{ACAD_REACTORS
330
2A
102
}
330
2A
100
AcDbVisualStyle
  2
Flat
 70
     0
177
     3
291
     1
 70
    58
 90
        2
176
     1
 90
        1
176
     1
 90
        1
176
     1
 90
        2
176
     1
 40
0.6
176
     1
 40
30.0
176
     1
 62
     7
420
 16777215
176
     1
 90
        0
176
     1
 90
        0
176
     1
 62
     7
176
     1
 62
   257
176
     1
 90
        1
176
     1
 90
        1
176
     1
 40
1.0
176
     1
 90
        8
176
     1
 62
     7
176
     1
 40
1.0
176
     1
 90
        1
176
     1
 90
        6
176
     1
 90
        2
176
     1
 62
     7
176
     1
 90
        5
176
     1
 90
        0
176
     1
 90
        0
176
     1
290
     0
176
     1
 90
       13
176
     1
 40
0.0
176
     1
 90
        0
176
     1
290
     0
176
     1
290
     1
176
     1
290
     1
176
     1
290
     0
176
     1
290
     0
176
     1
290
     0
176
     1
290
     0
176
     1
290
     0
176
     1
290
     0
176
     1
 90
       50
176
     1
 40
0.0
176
     1
 40
1.0
176
     1
 90
        0
176
     1
 62
    18
420
        0
176
     1
 90
       50
176
     1
 90
        3
176
     1
 62
     5
420
      255
176
     1
290
     0
176
     1
 90
       50
176
     1
 90
       50
176
     1
 90
       50
176
     1
290
     0
176
     1
 90
       50
176
     1
 62
   256
176
     0
 40
1.0
176
     0
 90
        2
176
     1
  1
strokes_ogs.tif
176
     1
290
     0
176
     1
 40
1.0
176
     1
 40
1.0
176
     1
  0
VISUALSTYLE
  5
2C
102
{ACAD_REACTORS
330
2A
102
}
330
2A
100
AcDbVisualStyle
  2
FlatWithEdges
 70
     1
177
     3
291
     1
 70
    58
 90
        2
176
     1
 90
        1
176
     1
 90
        1
176
     1
 90
        2
176
     1
 40
0.6
176
     1
 40
30.0
176
     1
 62
     7
420
 16777215
176
     1
 90
        1
176
     1
 90
        0
176
     1
 62
     7
176
     1
 62
   257
176
     1
 90
        1
176
     1
 90
        1
176
     1
 40
1.0
176
     1
 90
        0
176
     1
 62
   257
176
     1
 40
1.0
176
     1
 90
        1
176
     1
 90
        6
176
     1
 90
        2
176
     1
 62
     7
176
     1
 90
        5
176
     1
 90
        0
176
     1
 90
        0
176
     1
290
     0
176
     1
 90
       13
176
     1
 40
0.0
176
     1
 90
        0
176
     1
290
     0
176
     1
290
     1
176
     1
290
     1
176
     1
290
     0
176
     1
290
     0
176
     1
290
     0
176
     1
290
     0
176
     1
290
     0
176
     1
290
     0
176
     1
 90
       50
176
     1
 40
0.0
176
     1
 40
1.0
176
     1
 90
        0
176
     1
 62
    18
420
        0
176
     1
 90
       50
176
     1
 90
        3
176
     1
 62
     5
420
      255
176
     1
290
     0
176
     1
 90
       50
176
     1
 90
       50
176
     1
 90
       50
176
     1
290
     0
176
     1
 90
       50
176
     1
 62
   256
176
     0
 40
1.0
176
     0
 90
        2
176
     1
  1
strokes_ogs.tif
176
     1
290
     0
176
     1
 40
1.0
176
     1
 40
1.0
176
     1
  0
VISUALSTYLE
  5
2D
102
{ACAD_REACTORS
330
2A
102
}
330
2A
100
AcDbVisualStyle
  2
Gouraud
 70
     2
177
     3
291
     1
 70
    58
 90
        2
176
     1
 90
        2
176
     1
 90
        1
176
     1
 90
        2
176
     1
 40
0.6
176
     1
 40
30.0
176
     1
 62
     7
420
 16777215
176
     1
 90
        0
176
     1
 90
        0
176
     1
 62
     7
176
     1
 62
   257
176
     1
 90
        1
176
     1
 90
        1
176
     1
 40
1.0
176
     1
 90
        0
176
     1
 62
     7
176
     1
 40
1.0
176
     1
 90
        1
176
     1
 90
        6
176
     1
 90
        2
176
     1
 62
     7
176
     1
 90
        5
176
     1
 90
        0
176
     1
 90
        0
176
     1
290
     0
176
     1
 90
       13
176
     1
 40
0.0
176
     1
 90
        0
176
     1
290
     0
176
     1
290
     1
176
     1
290
     1
176
     1
290
     0
176
     1
290
     0
176
     1
290
     0
176
     1
290
     0
176
     1
290
     0
176
     1
290
     0
176
     1
 90
       50
176
     1
 40
0.0
176
     1
 40
1.0
176
     1
 90
        0
176
     1
 62
    18
420
        0
176
     1
 90
       50
176
     1
 90
        3
176
     1
 62
     5
420
      255
176
     1
290
     0
176
     1
 90
       50
176
     1
 90
       50
176
     1
 90
       50
176
     1
290
     0
176
     1
 90
       50
176
     1
 62
   256
176
     0
 40
1.0
176
     0
 90
        2
176
     1
  1
strokes_ogs.tif
176
     1
290
     0
176
     1
 40
1.0
176
     1
 40
1.0
176
     1
  0
VISUALSTYLE
  5
2E
102
{ACAD_REACTORS
330
2A
102
}
330
2A
100
AcDbVisualStyle
  2
GouraudWithEdges
 70
     3
177
     3
291
     1
 70
    58
 90
        2
176
     1
 90
        2
176
     1
 90
        1
176
     1
 90
        2
176
     1
 40
0.6
176
     1
 40
30.0
176
     1
 62
     7
420
 16777215
176
     1
 90
        1
176
     1
 90
        0
176
     1
 62
     7
176
     1
 62
   257
176
     1
 90
        1
176
     1
 90
        1
176
     1
 40
1.0
176
     1
 90
        0
176
     1
 62
   257
176
     1
 40
1.0
176
     1
 90
        1
176
     1
 90
        6
176
     1
 90
        2
176
     1
 62
     7
176
     1
 90
        5
176
     1
 90
        0
176
     1
 90
        0
176
     1
290
     0
176
     1
 90
       13
176
     1
 40
0.0
176
     1
 90
        0
176
     1
290
     0
176
     1
290
     1
176
     1
290
     1
176
     1
290
     0
176
     1
290
     0
176
     1
290
     0
176
     1
290
     0
176
     1
290
     0
176
     1
290
     0
176
     1
 90
       50
176
     1
 40
0.0
176
     1
 40
1.0
176
     1
 90
        0
176
     1
 62
    18
420
        0
176
     1
 90
       50
176
     1
 90
        3
176
     1
 62
     5
420
      255
176
     1
290
     0
176
     1
 90
       50
176
     1
 90
       50
176
     1
 90
       50
176
     1
290
     0
176
     1
 90
       50
176
     1
 62
   256
176
     0
 40
1.0
176
     0
 90
        2
176
     1
  1
strokes_ogs.tif
176
     1
290
     0
176
     1
 40
1.0
176
     1
 40
1.0
176
     1
  0
VISUALSTYLE
  5
31
102
{ACAD_REACTORS
330
2A
102
}
330
2A
100
AcDbVisualStyle
  2
Hidden
 70
     6
177
     3
291
     0
 70
    58
 90
        1
176
     1
 90
        2
176
     1
 90
        2
176
     1
 90
        0
176
     1
 40
0.6
176
     1
 40
30.0
176
     1
 62
     7
420
 16777215
176
     1
 90
        2
176
     1
 90
        2
176
     1
 62
     7
176
     1
 62
   257
176
     1
 90
        2
176
     1
 90
        1
176
     1
 40
40.0
176
     1
 90
        0
176
     1
 62
   257
176
     1
 40
1.0
176
     1
 90
        1
176
     1
 90
        6
176
     1
 90
        2
176
     1
 62
     7
176
     1
 90
        3
176
     1
 90
        0
176
     1
 90
        0
176
     1
290
     0
176
     1
 90
        1
176
     1
 40
0.0
176
     1
 90
        0
176
     1
290
     0
176
     1
290
     1
176
     1
290
     1
176
     1
290
     0
176
     1
290
     0
176
     1
290
     0
176
     1
290
     0
176
     1
290
     0
176
     1
290
     0
176
     1
 90
       50
176
     1
 40
0.0
176
     1
 40
1.0
176
     1
 90
        0
176
     1
 62
    18
420
        0
176
     1
 90
       50
176
     1
 90
        3
176
     1
 62
     5
420
      255
176
     1
290
     0
176
     1
 90
       50
176
     1
 90
       50
176
     1
 90
       50
176
     1
290
     0
176
     1
 90
       50
176
     1
 62
   256
176
     0
 40
1.0
176
     0
 90
        2
176
     1
  1
strokes_ogs.tif
176
     1
290
     0
176
     1
 40
1.0
176
     1
 40
1.0
176
     1
  0
VISUALSTYLE
  5
3B
102
{ACAD_REACTORS
330
2A
102
}
330
2A
100
AcDbVisualStyle
  2
JitterOff
 70
    20
177
     3
291
     1
 70
    58
 90
        2
176
     0
 90
        2
176
     0
 90
        0
176
     0
 90
        0
176
     0
 40
0.6
176
     0
 40
30.0
176
     0
 62
     7
420
 16777215
176
     0
 90
        1
176
     0
 90
        4
176
     0
 62
     7
176
     0
 62
   257
176
     0
 90
        1
176
     0
 90
        1
176
     0
 40
1.0
176
     0
 90
       10
176
     2
 62
     7
176
     0
 40
1.0
176
     0
 90
        1
176
     0
 90
        6
176
     0
 90
        2
176
     0
 62
     7
176
     0
 90
        5
176
     0
 90
        0
176
     0
 90
        0
176
     0
290
     0
176
     0
 90
        1
176
     0
 40
0.0
176
     0
 90
        0
176
     0
290
     0
176
     0
290
     1
176
     0
290
     1
176
     0
290
     0
176
     0
290
     0
176
     0
290
     0
176
     0
290
     0
176
     0
290
     0
176
     0
290
     0
176
     0
 90
       50
176
     0
 40
0.0
176
     0
 40
1.0
176
     0
 90
        0
176
     0
 62
    18
420
        0
176
     0
 90
       50
176
     0
 90
        3
176
     0
 62
     5
420
      255
176
     0
290
     0
176
     0
 90
       50
176
     0
 90
       50
176
     0
 90
       50
176
     0
290
     0
176
     0
 90
       50
176
     0
 62
   256
176
     0
 40
1.0
176
     0
 90
        2
176
     0
  1
strokes_ogs.tif
176
     0
290
     0
176
     0
 40
1.0
176
     0
 40
1.0
176
     0
  0
VISUALSTYLE
  5
38
102
{ACAD_REACTORS
330
2A
102
}
330
2A
100
AcDbVisualStyle
  2
Linepattern
 70
    14
177
     3
291
     1
 70
    58
 90
        2
176
     1
 90
        2
176
     1
 90
        0
176
     1
 90
        0
176
     1
 40
0.6
176
     1
 40
30.0
176
     1
 62
     7
420
 16777215
176
     1
 90
        1
176
     1
 90
        4
176
     1
 62
     7
176
     1
 62
   257
176
     1
 90
        7
176
     1
 90
        7
176
     1
 40
1.0
176
     1
 90
        8
176
     1
 62
     7
176
     1
 40
1.0
176
     1
 90
        1
176
     1
 90
        6
176
     1
 90
        2
176
     1
 62
     7
176
     1
 90
        5
176
     1
 90
        0
176
     1
 90
        0
176
     1
290
     0
176
     1
 90
        1
176
     1
 40
0.0
176
     1
 90
        0
176
     1
290
     0
176
     1
290
     1
176
     1
290
     1
176
     1
290
     0
176
     1
290
     0
176
     1
290
     0
176
     1
290
     0
176
     1
290
     0
176
     1
290
     0
176
     1
 90
       50
176
     1
 40
0.0
176
     1
 40
1.0
176
     1
 90
        0
176
     1
 62
    18
420
        0
176
     1
 90
       50
176
     1
 90
        3
176
     1
 62
     5
420
      255
176
     1
290
     0
176
     1
 90
       50
176
     1
 90
       50
176
     1
 90
       50
176
     1
290
     0
176
     1
 90
       50
176
     1
 62
   256
176
     0
 40
1.0
176
     0
 90
        2
176
     1
  1
strokes_ogs.tif
176
     1
290
     0
176
     1
 40
1.0
176
     1
 40
1.0
176
     1
  0
VISUALSTYLE
  5
3C
102
{ACAD_REACTORS
330
2A
102
}
330
2A
100
AcDbVisualStyle
  2
OverhangOff
 70
    21
177
     3
291
     1
 70
    58
 90
        2
176
     0
 90
        2
176
     0
 90
        0
176
     0
 90
        0
176
     0
 40
0.6
176
     0
 40
30.0
176
     0
 62
     7
420
 16777215
176
     0
 90
        1
176
     0
 90
        4
176
     0
 62
     7
176
     0
 62
   257
176
     0
 90
        1
176
     0
 90
        1
176
     0
 40
1.0
176
     0
 90
        9
176
     2
 62
     7
176
     0
 40
1.0
176
     0
 90
        1
176
     0
 90
        6
176
     0
 90
        2
176
     0
 62
     7
176
     0
 90
        5
176
     0
 90
        0
176
     0
 90
        0
176
     0
290
     0
176
     0
 90
        1
176
     0
 40
0.0
176
     0
 90
        0
176
     0
290
     0
176
     0
290
     1
176
     0
290
     1
176
     0
290
     0
176
     0
290
     0
176
     0
290
     0
176
     0
290
     0
176
     0
290
     0
176
     0
290
     0
176
     0
 90
       50
176
     0
 40
0.0
176
     0
 40
1.0
176
     0
 90
        0
176
     0
 62
    18
420
        0
176
     0
 90
       50
176
     0
 90
        3
176
     0
 62
     5
420
      255
176
     0
290
     0
176
     0
 90
       50
176
     0
 90
       50
176
     0
 90
       50
176
     0
290
     0
176
     0
 90
       50
176
     0
 62
   256
176
     0
 40
1.0
176
     0
 90
        2
176
     0
  1
strokes_ogs.tif
176
     0
290
     0
176
     0
 40
1.0
176
     0
 40
1.0
176
     0
  0
VISUALSTYLE
  5
33
102
{ACAD_REACTORS
330
2A
102
}
330
2A
100
AcDbVisualStyle
  2
Realistic
 70
     8
177
     3
291
     0
 70
    58
 90
        2
176
     1
 90
        3
176
     1
 90
        0
176
     1
 90
        2
176
     1
 40
0.6
176
     1
 40
30.0
176
     1
 62
     7
420
 16777215
176
     1
 90
        0
176
     1
 90
        0
176
     1
 62
     7
176
     1
 62
   257
176
     1
 90
        1
176
     1
 90
        1
176
     1
 40
1.0
176
     1
 90
        8
176
     1
 62
   257
176
     1
 40
1.0
176
     1
 90
        1
176
     1
 90
        6
176
     1
 90
        2
176
     1
 62
     7
176
     1
 90
        3
176
     1
 90
        0
176
     1
 90
        0
176
     1
290
     0
176
     1
 90
       13
176
     1
 40
0.0
176
     1
 90
        0
176
     1
290
     0
176
     1
290
     1
176
     1
290
     1
176
     1
290
     0
176
     1
290
     0
176
     1
290
     0
176
     1
290
     0
176
     1
290
     0
176
     1
290
     0
176
     1
 90
       50
176
     1
 40
0.0
176
     1
 40
1.0
176
     1
 90
        0
176
     1
 62
    18
420
        0
176
     1
 90
       50
176
     1
 90
        3
176
     1
 62
     5
420
      255
176
     1
290
     0
176
     1
 90
       50
176
     1
 90
       50
176
     1
 90
       50
176
     1
290
     0
176
     1
 90
       50
176
     1
 62
   256
176
     0
 40
1.0
176
     0
 90
        2
176
     1
  1
strokes_ogs.tif
176
     1
290
     0
176
     1
 40
1.0
176
     1
 40
1.0
176
     1
  0
VISUALSTYLE
  5
42
102
{ACAD_REACTORS
330
2A
102
}
330
2A
100
AcDbVisualStyle
  2
Shaded
 70
    27
177
     3
291
     0
 70
    58
 90
        2
176
     1
 90
        2
176
     1
 90
        1
176
     1
 90
        2
176
     1
 40
0.6
176
     1
 40
30.0
176
     1
 62
     7
420
 16777215
176
     1
 90
        0
176
     1
 90
        4
176
     1
 62
     7
176
     1
 62
   257
176
     1
 90
        1
176
     1
 90
        1
176
     1
 40
1.0
176
     1
 90
        8
176
     1
 62
   257
176
     1
 40
1.0
176
     1
 90
        1
176
     1
 90
        6
176
     1
 90
        2
176
     1
 62
     8
420
  7895160
176
     1
 90
        3
176
     1
 90
        0
176
     1
 90
        0
176
     1
290
     0
176
     1
 90
        5
176
     1
 40
0.0
176
     1
 90
        0
176
     1
290
     0
176
     1
290
     1
176
     1
290
     1
176
     1
290
     0
176
     1
290
     0
176
     1
290
     0
176
     1
290
     0
176
     1
290
     0
176
     1
290
     0
176
     1
 90
       50
176
     1
 40
0.0
176
     1
 40
1.0
176
     1
 90
        0
176
     1
 62
    18
420
        0
176
     1
 90
       50
176
     1
 90
        3
176
     1
 62
     5
420
      255
176
     1
290
     0
176
     1
 90
       50
176
     1
 90
       50
176
     1
 90
       50
176
     1
290
     0
176
     1
 90
       50
176
     1
 62
   256
176
     0
 40
1.0
176
     0
 90
        2
176
     1
  1
strokes_ogs.tif
176
     1
290
     0
176
     1
 40
1.0
176
     1
 40
1.0
176
     1
  0
VISUALSTYLE
  5
41
102
{ACAD_REACTORS
330
2A
102
}
330
2A
100
AcDbVisualStyle
  2
Shaded with edges
 70
    26
177
     3
291
     0
 70
    58
 90
        2
176
     1
 90
        2
176
     1
 90
        1
176
     1
 90
        2
176
     1
 40
0.6
176
     1
 40
30.0
176
     1
 62
     7
420
 16777215
176
     1
 90
        1
176
     1
 90
       10
176
     1
 62
     7
176
     1
 62
   257
176
     1
 90
        2
176
     1
 90
        1
176
     1
 40
1.0
176
     1
 90
        8
176
     1
 62
   257
176
     1
 40
1.0
176
     1
 90
        1
176
     1
 90
        6
176
     1
 90
        2
176
     1
 62
     7
176
     1
 90
        3
176
     1
 90
        0
176
     1
 90
        0
176
     1
290
     0
176
     1
 90
        5
176
     1
 40
0.0
176
     1
 90
        0
176
     1
290
     0
176
     1
290
     1
176
     1
290
     1
176
     1
290
     0
176
     1
290
     0
176
     1
290
     0
176
     1
290
     0
176
     1
290
     0
176
     1
290
     0
176
     1
 90
       50
176
     1
 40
0.0
176
     1
 40
1.0
176
     1
 90
        0
176
     1
 62
    18
420
        0
176
     1
 90
       50
176
     1
 90
        3
176
     1
 62
     5
420
      255
176
     1
290
     0
176
     1
 90
       50
176
     1
 90
       50
176
     1
 90
       50
176
     1
290
     0
176
     1
 90
       50
176
     1
 62
   256
176
     0
 40
1.0
176
     0
 90
        2
176
     1
  1
strokes_ogs.tif
176
     1
290
     0
176
     1
 40
1.0
176
     1
 40
1.0
176
     1
  0
VISUALSTYLE
  5
3E
102
{ACAD_REACTORS
330
2A
102
}
330
2A
100
AcDbVisualStyle
  2
Shades of Gray
 70
    23
177
     3
291
     0
 70
    58
 90
        2
176
     1
 90
        2
176
     1
 90
        3
176
     1
 90
        0
176
     1
 40
0.6
176
     1
 40
30.0
176
     1
 62
     7
420
 16777215
176
     1
 90
        2
176
     1
 90
        2
176
     1
 62
     7
176
     1
 62
     7
176
     1
 90
        1
176
     1
 90
        1
176
     1
 40
40.0
176
     1
 90
        8
176
     1
 62
     7
176
     1
 40
1.0
176
     1
 90
        1
176
     1
 90
        6
176
     1
 90
        2
176
     1
 62
     7
176
     1
 90
        3
176
     1
 90
        0
176
     1
 90
        0
176
     1
290
     0
176
     1
 90
        1
176
     1
 40
0.0
176
     1
 90
        0
176
     1
290
     0
176
     1
290
     1
176
     1
290
     1
176
     1
290
     0
176
     1
290
     0
176
     1
290
     0
176
     1
290
     0
176
     1
290
     0
176
     1
290
     0
176
     1
 90
       50
176
     1
 40
0.0
176
     1
 40
1.0
176
     1
 90
        0
176
     1
 62
    18
420
        0
176
     1
 90
       50
176
     1
 90
        3
176
     1
 62
     5
420
      255
176
     1
290
     0
176
     1
 90
       50
176
     1
 90
       50
176
     1
 90
       50
176
     1
290
     0
176
     1
 90
       50
176
     1
 62
   256
176
     0
 40
1.0
176
     0
 90
        2
176
     1
  1
strokes_ogs.tif
176
     1
290
     0
176
     1
 40
1.0
176
     1
 40
1.0
176
     1
  0
VISUALSTYLE
  5
3F
102
{ACAD_REACTORS
330
2A
102
}
330
2A
100
AcDbVisualStyle
  2
Sketchy
 70
    24
177
     3
291
     0
 70
    58
 90
        1
176
     1
 90
        2
176
     1
 90
        2
176
     1
 90
        0
176
     1
 40
0.6
176
     1
 40
30.0
176
     1
 62
     7
420
 16777215
176
     1
 90
        2
176
     1
 90
        2
176
     1
 62
     7
176
     1
 62
     7
176
     1
 90
        1
176
     1
 90
        1
176
     1
 40
40.0
176
     1
 90
       11
176
     1
 62
     7
176
     1
 40
1.0
176
     1
 90
        1
176
     1
 90
        6
176
     1
 90
        2
176
     1
 62
     7
176
     1
 90
        6
176
     1
 90
        0
176
     1
 90
        0
176
     1
290
     0
176
     1
 90
        1
176
     1
 40
0.0
176
     1
 90
        0
176
     1
290
     0
176
     1
290
     1
176
     1
290
     1
176
     1
290
     0
176
     1
290
     0
176
     1
290
     0
176
     1
290
     0
176
     1
290
     0
176
     1
290
     0
176
     1
 90
       50
176
     1
 40
0.0
176
     1
 40
1.0
176
     1
 90
        0
176
     1
 62
    18
420
        0
176
     1
 90
       50
176
     1
 90
        3
176
     1
 62
     5
420
      255
176
     1
290
     0
176
     1
 90
       50
176
     1
 90
       50
176
     1
 90
       50
176
     1
290
     0
176
     1
 90
       50
176
     1
 62
   256
176
     0
 40
1.0
176
     0
 90
        2
176
     1
  1
strokes_ogs.tif
176
     1
290
     0
176
     1
 40
1.0
176
     1
 40
1.0
176
     1
  0
VISUALSTYLE
  5
37
102
{ACAD_REACTORS
330
2A
102
}
330
2A
100
AcDbVisualStyle
  2
Thicken
 70
    13
177
     3
291
     1
 70
    58
 90
        2
176
     1
 90
        2
176
     1
 90
        0
176
     1
 90
        0
176
     1
 40
0.6
176
     1
 40
30.0
176
     1
 62
     7
420
 16777215
176
     1
 90
        1
176
     1
 90
        4
176
     1
 62
     7
176
     1
 62
   257
176
     1
 90
        1
176
     1
 90
        1
176
     1
 40
1.0
176
     1
 90
       12
176
     1
 62
     7
176
     1
 40
1.0
176
     1
 90
        1
176
     1
 90
        6
176
     1
 90
        2
176
     1
 62
     7
176
     1
 90
        5
176
     1
 90
        0
176
     1
 90
        0
176
     1
290
     0
176
     1
 90
        1
176
     1
 40
0.0
176
     1
 90
        0
176
     1
290
     0
176
     1
290
     1
176
     1
290
     1
176
     1
290
     0
176
     1
290
     0
176
     1
290
     0
176
     1
290
     0
176
     1
290
     0
176
     1
290
     0
176
     1
 90
       50
176
     1
 40
0.0
176
     1
 40
1.0
176
     1
 90
        0
176
     1
 62
    18
420
        0
176
     1
 90
       50
176
     1
 90
        3
176
     1
 62
     5
420
      255
176
     1
290
     0
176
     1
 90
       50
176
     1
 90
       50
176
     1
 90
       50
176
     1
290
     0
176
     1
 90
       50
176
     1
 62
   256
176
     0
 40
1.0
176
     0
 90
        2
176
     1
  1
strokes_ogs.tif
176
     1
290
     0
176
     1
 40
1.0
176
     1
 40
1.0
176
     1
  0
VISUALSTYLE
  5
30
102
{ACAD_REACTORS
330
2A
102
}
330
2A
100
AcDbVisualStyle
  2
Wireframe
 70
     5
177
     3
291
     0
 70
    58
 90
        0
176
     1
 90
        2
176
     1
 90
        0
176
     1
 90
        0
176
     1
 40
0.6
176
     1
 40
30.0
176
     1
 62
     7
420
 16777215
176
     1
 90
        1
176
     1
 90
        4
176
     1
 62
     7
176
     1
 62
   257
176
     1
 90
        1
176
     1
 90
        1
176
     1
 40
1.0
176
     1
 90
        0
176
     1
 62
   257
176
     1
 40
1.0
176
     1
 90
        1
176
     1
 90
        6
176
     1
 90
        2
176
     1
 62
     7
176
     1
 90
        3
176
     1
 90
        0
176
     1
 90
        0
176
     1
290
     0
176
     1
 90
        1
176
     1
 40
0.0
176
     1
 90
        0
176
     1
290
     0
176
     1
290
     1
176
     1
290
     1
176
     1
290
     0
176
     1
290
     0
176
     1
290
     0
176
     1
290
     0
176
     1
290
     0
176
     1
290
     0
176
     1
 90
       50
176
     1
 40
0.0
176
     1
 40
1.0
176
     1
 90
        0
176
     1
 62
    18
420
        0
176
     1
 90
       50
176
     1
 90
        3
176
     1
 62
     5
420
      255
176
     1
290
     0
176
     1
 90
       50
176
     1
 90
       50
176
     1
 90
       50
176
     1
290
     0
176
     1
 90
       50
176
     1
 62
   256
176
     0
 40
1.0
176
     0
 90
        2
176
     1
  1
strokes_ogs.tif
176
     1
290
     0
176
     1
 40
1.0
176
     1
 40
1.0
176
     1
  0
VISUALSTYLE
  5
40
102
{ACAD_REACTORS
330
2A
102
}
330
2A
100
AcDbVisualStyle
  2
X-Ray
 70
    25
177
     3
291
     0
 70
    58
 90
        2
176
     1
 90
        2
176
     1
 90
        1
176
     1
 90
        1
176
     1
 40
0.5
176
     1
 40
30.0
176
     1
 62
     7
420
 16777215
176
     1
 90
        1
176
     1
 90
        0
176
     1
 62
     7
176
     1
 62
   257
176
     1
 90
        1
176
     1
 90
        1
176
     1
 40
1.0
176
     1
 90
        8
176
     1
 62
     7
176
     1
 40
1.0
176
     1
 90
        1
176
     1
 90
        6
176
     1
 90
        2
176
     1
 62
     7
176
     1
 90
        3
176
     1
 90
        0
176
     1
 90
        0
176
     1
290
     0
176
     1
 90
       13
176
     1
 40
0.0
176
     1
 90
        0
176
     1
290
     0
176
     1
290
     1
176
     1
290
     1
176
     1
290
     0
176
     1
290
     0
176
     1
290
     0
176
     1
290
     0
176
     1
290
     0
176
     1
290
     0
176
     1
 90
       50
176
     1
 40
0.0
176
     1
 40
1.0
176
     1
 90
        0
176
     1
 62
    18
420
        0
176
     1
 90
       50
176
     1
 90
        3
176
     1
 62
     5
420
      255
176
     1
290
     0
176
     1
 90
       50
176
     1
 90
       50
176
     1
 90
       50
176
     1
290
     0
176
     1
 90
       50
176
     1
 62
   256
176
     0
 40
1.0
176
     0
 90
        2
176
     1
  1
strokes_ogs.tif
176
     1
290
     0
176
     1
 40
1.0
176
     1
 40
1.0
176
     1
  0
DICTIONARYVAR
  5
BF
102
{ACAD_REACTORS
330
BE
102
}
330
BE
100
DictionaryVariables
280
     0
  1
1:1
  0
DICTIONARYVAR
  5
C7
102
{ACAD_REACTORS
330
BE
102
}
330
BE
100
DictionaryVariables
280
     0
  1
3.500000
  0
DICTIONARYVAR
  5
C8
102
{ACAD_REACTORS
330
BE
102
}
330
BE
100
DictionaryVariables
280
     0
  1
acadiso.lin
  0
DICTIONARYVAR
  5
C4
102
{ACAD_REACTORS
330
BE
102
}
330
BE
100
DictionaryVariables
280
     0
  1
Standard
  0
DICTIONARYVAR
  5
C3
102
{ACAD_REACTORS
330
BE
102
}
330
BE
100
DictionaryVariables
280
     0
  1
Standard
  0
DICTIONARY
  5
C0
330
5A
100
AcDbDictionary
280
     1
281
     1
  3
ACAD_ROUNDTRIP_2008_TABLESTYLE_CELLSTYLEMAP
360
C1
  0
CELLSTYLEMAP
  5
C1
102
{ACAD_REACTORS
330
C0
102
}
330
C0
100
AcDbCellStyleMap
 90
        3
300
CELLSTYLE
  1
TABLEFORMAT_BEGIN
 90
        5
170
     1
 91
        0
 92
    32768
 62
   257
 93
        1
300
CONTENTFORMAT
  1
CONTENTFORMAT_BEGIN
 90
        0
 91
        0
 92
        4
 93
        0
300

 40
0.0
140
1.0
 94
        5
 62
     0
340
11
144
6.0
309
CONTENTFORMAT_END
171
     1
301
MARGIN
  1
CELLMARGIN_BEGIN
 40
1.5
 40
1.5
 40
1.5
 40
1.5
 40
1.5
 40
1.5
309
CELLMARGIN_END
 94
        6
 95
        1
302
GRIDFORMAT
  1
GRIDFORMAT_BEGIN
 90
        0
 91
        1
 62
     0
 92
       -2
340
14
 93
        0
 40
0.045
309
GRIDFORMAT_END
 95
        2
302
GRIDFORMAT
  1
GRIDFORMAT_BEGIN
 90
        0
 91
        1
 62
     0
 92
       -2
340
14
 93
        0
 40
0.045
309
GRIDFORMAT_END
 95
        4
302
GRIDFORMAT
  1
GRIDFORMAT_BEGIN
 90
        0
 91
        1
 62
     0
 92
       -2
340
14
 93
        0
 40
0.045
309
GRIDFORMAT_END
 95
        8
302
GRIDFORMAT
  1
GRIDFORMAT_BEGIN
 90
        0
 91
        1
 62
     0
 92
       -2
340
14
 93
        0
 40
0.045
309
GRIDFORMAT_END
 95
       16
302
GRIDFORMAT
  1
GRIDFORMAT_BEGIN
 90
        0
 91
        1
 62
     0
 92
       -2
340
14
 93
        0
 40
0.045
309
GRIDFORMAT_END
 95
       32
302
GRIDFORMAT
  1
GRIDFORMAT_BEGIN
 90
        0
 91
        1
 62
     0
 92
       -2
340
14
 93
        0
 40
0.045
309
GRIDFORMAT_END
309
TABLEFORMAT_END
  1
CELLSTYLE_BEGIN
 90
        1
 91
        1
300
_TITLE
309
CELLSTYLE_END
300
CELLSTYLE
  1
TABLEFORMAT_BEGIN
 90
        5
170
     1
 91
        0
 92
        0
 62
   257
 93
        1
300
CONTENTFORMAT
  1
CONTENTFORMAT_BEGIN
 90
        0
 91
        0
 92
        4
 93
        0
300

 40
0.0
140
1.0
 94
        5
 62
     0
340
11
144
4.5
309
CONTENTFORMAT_END
171
     1
301
MARGIN
  1
CELLMARGIN_BEGIN
 40
1.5
 40
1.5
 40
1.5
 40
1.5
 40
1.5
 40
1.5
309
CELLMARGIN_END
 94
        6
 95
        1
302
GRIDFORMAT
  1
GRIDFORMAT_BEGIN
 90
        0
 91
        1
 62
     0
 92
       -2
340
14
 93
        0
 40
0.045
309
GRIDFORMAT_END
 95
        2
302
GRIDFORMAT
  1
GRIDFORMAT_BEGIN
 90
        0
 91
        1
 62
     0
 92
       -2
340
14
 93
        0
 40
0.045
309
GRIDFORMAT_END
 95
        4
302
GRIDFORMAT
  1
GRIDFORMAT_BEGIN
 90
        0
 91
        1
 62
     0
 92
       -2
340
14
 93
        0
 40
0.045
309
GRIDFORMAT_END
 95
        8
302
GRIDFORMAT
  1
GRIDFORMAT_BEGIN
 90
        0
 91
        1
 62
     0
 92
       -2
340
14
 93
        0
 40
0.045
309
GRIDFORMAT_END
 95
       16
302
GRIDFORMAT
  1
GRIDFORMAT_BEGIN
 90
        0
 91
        1
 62
     0
 92
       -2
340
14
 93
        0
 40
0.045
309
GRIDFORMAT_END
 95
       32
302
GRIDFORMAT
  1
GRIDFORMAT_BEGIN
 90
        0
 91
        1
 62
     0
 92
       -2
340
14
 93
        0
 40
0.045
309
GRIDFORMAT_END
309
TABLEFORMAT_END
  1
CELLSTYLE_BEGIN
 90
        2
 91
        1
300
_HEADER
309
CELLSTYLE_END
300
CELLSTYLE
  1
TABLEFORMAT_BEGIN
 90
        5
170
     1
 91
        0
 92
        0
 62
   257
 93
        1
300
CONTENTFORMAT
  1
CONTENTFORMAT_BEGIN
 90
        0
 91
        0
 92
        4
 93
        0
300

 40
0.0
140
1.0
 94
        2
 62
     0
340
11
144
4.5
309
CONTENTFORMAT_END
171
     1
301
MARGIN
  1
CELLMARGIN_BEGIN
 40
1.5
 40
1.5
 40
1.5
 40
1.5
 40
1.5
 40
1.5
309
CELLMARGIN_END
 94
        6
 95
        1
302
GRIDFORMAT
  1
GRIDFORMAT_BEGIN
 90
        0
 91
        1
 62
     0
 92
       -2
340
14
 93
        0
 40
0.045
309
GRIDFORMAT_END
 95
        2
302
GRIDFORMAT
  1
GRIDFORMAT_BEGIN
 90
        0
 91
        1
 62
     0
 92
       -2
340
14
 93
        0
 40
0.045
309
GRIDFORMAT_END
 95
        4
302
GRIDFORMAT
  1
GRIDFORMAT_BEGIN
 90
        0
 91
        1
 62
     0
 92
       -2
340
14
 93
        0
 40
0.045
309
GRIDFORMAT_END
 95
        8
302
GRIDFORMAT
  1
GRIDFORMAT_BEGIN
 90
        0
 91
        1
 62
     0
 92
       -2
340
14
 93
        0
 40
0.045
309
GRIDFORMAT_END
 95
       16
302
GRIDFORMAT
  1
GRIDFORMAT_BEGIN
 90
        0
 91
        1
 62
     0
 92
       -2
340
14
 93
        0
 40
0.045
309
GRIDFORMAT_END
 95
       32
302
GRIDFORMAT
  1
GRIDFORMAT_BEGIN
 90
        0
 91
        1
 62
     0
 92
       -2
340
14
 93
        0
 40
0.045
309
GRIDFORMAT_END
309
TABLEFORMAT_END
  1
CELLSTYLE_BEGIN
 90
        3
 91
        2
300
_DATA
309
CELLSTYLE_END
  0
ENDSEC
  0
EOF
