  0
SECTION
  2
HEADER
  9
$ACADVER
  1
AC1027
  9
$ACADMAINTVER
 70
   105
  9
$DWGCODEPAGE
  3
ANSI_932
  9
$LASTSAVEDBY
  1
a.yasuda
  9
$REQUIREDVERSIONS
160
                 0
  9
$INSBASE
 10
0.0
 20
0.0
 30
0.0
  9
$EXTMIN
 10
0.0
 20
0.0
 30
0.0
  9
$EXTMAX
 10
302.9997823349792
 20
216.0016055409748
 30
0.0
  9
$LIMMIN
 10
0.0
 20
0.0
  9
$LIMMAX
 10
302.9997823349792
 20
216.0016055409748
  9
$ORTHOMODE
 70
     0
  9
$REGENMODE
 70
     1
  9
$FILLMODE
 70
     1
  9
$QTEXTMODE
 70
     0
  9
$MIRRTEXT
 70
     1
  9
$LTSCALE
 40
1.0
  9
$ATTMODE
 70
     1
  9
$TEXTSIZE
 40
2.5
  9
$TRACEWID
 40
1.0
  9
$TEXTSTYLE
  7
Standard
  9
$CLAYER
  8
0
  9
$CELTYPE
  6
ByLayer
  9
$CECOLOR
 62
   256
  9
$CELTSCALE
 40
1.0
  9
$DISPSILH
 70
     0
  9
$DIMSCALE
 40
1.0
  9
$DIMASZ
 40
2.5
  9
$DIMEXO
 40
0.625
  9
$DIMDLI
 40
3.75
  9
$DIMRND
 40
0.0
  9
$DIMDLE
 40
0.0
  9
$DIMEXE
 40
1.25
  9
$DIMTP
 40
0.0
  9
$DIMTM
 40
0.0
  9
$DIMTXT
 40
2.5
  9
$DIMCEN
 40
2.5
  9
$DIMTSZ
 40
0.0
  9
$DIMTOL
 70
     0
  9
$DIMLIM
 70
     0
  9
$DIMTIH
 70
     0
  9
$DIMTOH
 70
     0
  9
$DIMSE1
 70
     0
  9
$DIMSE2
 70
     0
  9
$DIMTAD
 70
     1
  9
$DIMZIN
 70
     8
  9
$DIMBLK
  1

  9
$DIMASO
 70
     1
  9
$DIMSHO
 70
     1
  9
$DIMPOST
  1

  9
$DIMAPOST
  1

  9
$DIMALT
 70
     0
  9
$DIMALTD
 70
     3
  9
$DIMALTF
 40
0.03937007874016
  9
$DIMLFAC
 40
1.0
  9
$DIMTOFL
 70
     1
  9
$DIMTVP
 40
0.0
  9
$DIMTIX
 70
     0
  9
$DIMSOXD
 70
     0
  9
$DIMSAH
 70
     0
  9
$DIMBLK1
  1

  9
$DIMBLK2
  1

  9
$DIMSTYLE
  2
ISO-25
  9
$DIMCLRD
 70
     0
  9
$DIMCLRE
 70
     0
  9
$DIMCLRT
 70
     0
  9
$DIMTFAC
 40
1.0
  9
$DIMGAP
 40
0.625
  9
$DIMJUST
 70
     0
  9
$DIMSD1
 70
     0
  9
$DIMSD2
 70
     0
  9
$DIMTOLJ
 70
     0
  9
$DIMTZIN
 70
     8
  9
$DIMALTZ
 70
     0
  9
$DIMALTTZ
 70
     0
  9
$DIMUPT
 70
     0
  9
$DIMDEC
 70
     2
  9
$DIMTDEC
 70
     2
  9
$DIMALTU
 70
     2
  9
$DIMALTTD
 70
     3
  9
$DIMTXSTY
  7
Standard
  9
$DIMAUNIT
 70
     0
  9
$DIMADEC
 70
     0
  9
$DIMALTRND
 40
0.0
  9
$DIMAZIN
 70
     0
  9
$DIMDSEP
 70
    44
  9
$DIMATFIT
 70
     3
  9
$DIMFRAC
 70
     0
  9
$DIMLDRBLK
  1

  9
$DIMLUNIT
 70
     2
  9
$DIMLWD
 70
    -2
  9
$DIMLWE
 70
    -2
  9
$DIMTMOVE
 70
     0
  9
$DIMFXL
 40
1.0
  9
$DIMFXLON
 70
     0
  9
$DIMJOGANG
 40
0.7853981633974483
  9
$DIMTFILL
 70
     0
  9
$DIMTFILLCLR
 70
     0
  9
$DIMARCSYM
 70
     0
  9
$DIMLTYPE
  6

  9
$DIMLTEX1
  6

  9
$DIMLTEX2
  6

  9
$DIMTXTDIRECTION
 70
     0
  9
$LUNITS
 70
     2
  9
$LUPREC
 70
     4
  9
$SKETCHINC
 40
1.0
  9
$FILLETRAD
 40
0.0
  9
$AUNITS
 70
     0
  9
$AUPREC
 70
     0
  9
$MENU
  1
.
  9
$ELEVATION
 40
0.0
  9
$PELEVATION
 40
0.0
  9
$THICKNESS
 40
0.0
  9
$LIMCHECK
 70
     0
  9
$CHAMFERA
 40
0.0
  9
$CHAMFERB
 40
0.0
  9
$CHAMFERC
 40
0.0
  9
$CHAMFERD
 40
0.0
  9
$SKPOLY
 70
     0
  9
$TDCREATE
 40
2459866.618869028
  9
$TDUCREATE
 40
2459866.243869028
  9
$TDUPDATE
 40
2459866.618869086
  9
$TDUUPDATE
 40
2459866.243869086
  9
$TDINDWG
 40
0.0000000116
  9
$TDUSRTIMER
 40
0.0000000116
  9
$USRTIMER
 70
     1
  9
$ANGBASE
 50
0.0
  9
$ANGDIR
 70
     0
  9
$PDMODE
 70
     0
  9
$PDSIZE
 40
0.0
  9
$PLINEWID
 40
0.0
  9
$SPLFRAME
 70
     0
  9
$SPLINETYPE
 70
     6
  9
$SPLINESEGS
 70
     8
  9
$HANDSEED
  5
A9
  9
$SURFTAB1
 70
     6
  9
$SURFTAB2
 70
     6
  9
$SURFTYPE
 70
     6
  9
$SURFU
 70
     6
  9
$SURFV
 70
     6
  9
$UCSBASE
  2

  9
$UCSNAME
  2

  9
$UCSORG
 10
0.0
 20
0.0
 30
0.0
  9
$UCSXDIR
 10
1.0
 20
0.0
 30
0.0
  9
$UCSYDIR
 10
0.0
 20
1.0
 30
0.0
  9
$UCSORTHOREF
  2

  9
$UCSORTHOVIEW
 70
     0
  9
$UCSORGTOP
 10
0.0
 20
0.0
 30
0.0
  9
$UCSORGBOTTOM
 10
0.0
 20
0.0
 30
0.0
  9
$UCSORGLEFT
 10
0.0
 20
0.0
 30
0.0
  9
$UCSORGRIGHT
 10
0.0
 20
0.0
 30
0.0
  9
$UCSORGFRONT
 10
0.0
 20
0.0
 30
0.0
  9
$UCSORGBACK
 10
0.0
 20
0.0
 30
0.0
  9
$PUCSBASE
  2

  9
$PUCSNAME
  2

  9
$PUCSORG
 10
0.0
 20
0.0
 30
0.0
  9
$PUCSXDIR
 10
1.0
 20
0.0
 30
0.0
  9
$PUCSYDIR
 10
0.0
 20
1.0
 30
0.0
  9
$PUCSORTHOREF
  2

  9
$PUCSORTHOVIEW
 70
     0
  9
$PUCSORGTOP
 10
0.0
 20
0.0
 30
0.0
  9
$PUCSORGBOTTOM
 10
0.0
 20
0.0
 30
0.0
  9
$PUCSORGLEFT
 10
0.0
 20
0.0
 30
0.0
  9
$PUCSORGRIGHT
 10
0.0
 20
0.0
 30
0.0
  9
$PUCSORGFRONT
 10
0.0
 20
0.0
 30
0.0
  9
$PUCSORGBACK
 10
0.0
 20
0.0
 30
0.0
  9
$USERI1
 70
     0
  9
$USERI2
 70
     0
  9
$USERI3
 70
     0
  9
$USERI4
 70
     0
  9
$USERI5
 70
     0
  9
$USERR1
 40
0.0
  9
$USERR2
 40
0.0
  9
$USERR3
 40
0.0
  9
$USERR4
 40
0.0
  9
$USERR5
 40
0.0
  9
$WORLDVIEW
 70
     1
  9
$SHADEDGE
 70
     3
  9
$SHADEDIF
 70
    70
  9
$TILEMODE
 70
     1
  9
$MAXACTVP
 70
    64
  9
$PINSBASE
 10
0.0
 20
0.0
 30
0.0
  9
$PLIMCHECK
 70
     0
  9
$PEXTMIN
 10
1.000000000000000E+20
 20
1.000000000000000E+20
 30
1.000000000000000E+20
  9
$PEXTMAX
 10
-1.000000000000000E+20
 20
-1.000000000000000E+20
 30
-1.000000000000000E+20
  9
$PLIMMIN
 10
0.0
 20
0.0
  9
$PLIMMAX
 10
420.0
 20
297.0
  9
$UNITMODE
 70
     0
  9
$VISRETAIN
 70
     1
  9
$PLINEGEN
 70
     0
  9
$PSLTSCALE
 70
     1
  9
$TREEDEPTH
 70
  3020
  9
$CMLSTYLE
  2
Standard
  9
$CMLJUST
 70
     0
  9
$CMLSCALE
 40
20.0
  9
$PROXYGRAPHICS
 70
     1
  9
$MEASUREMENT
 70
     1
  9
$CELWEIGHT
370
    -1
  9
$ENDCAPS
280
     0
  9
$JOINSTYLE
280
     0
  9
$LWDISPLAY
290
     0
  9
$INSUNITS
 70
     4
  9
$HYPERLINKBASE
  1

  9
$STYLESHEET
  1

  9
$XEDIT
290
     1
  9
$CEPSNTYPE
380
     0
  9
$PSTYLEMODE
290
     1
  9
$FINGERPRINTGUID
  2
{7e6c139b-3e59-4b80-a4fb-6b71fe673540}
  9
$VERSIONGUID
  2
{FAEB1C32-E019-11D5-929B-00C0DF256EC4}
  9
$EXTNAMES
290
     1
  9
$PSVPSCALE
 40
0.0
  9
$OLESTARTUP
290
     0
  9
$SORTENTS
280
   127
  9
$INDEXCTL
280
     0
  9
$HIDETEXT
280
     1
  9
$XCLIPFRAME
280
     2
  9
$HALOGAP
280
     0
  9
$OBSCOLOR
 70
   257
  9
$OBSLTYPE
280
     0
  9
$INTERSECTIONDISPLAY
280
     0
  9
$INTERSECTIONCOLOR
 70
   257
  9
$DIMASSOC
280
     2
  9
$PROJECTNAME
  1

  9
$CAMERADISPLAY
290
     0
  9
$LENSLENGTH
 40
50.0
  9
$CAMERAHEIGHT
 40
0.0
  9
$STEPSPERSEC
 40
2.0
  9
$STEPSIZE
 40
6.0
  9
$3DDWFPREC
 40
2.0
  9
$PSOLWIDTH
 40
5.0
  9
$PSOLHEIGHT
 40
80.0
  9
$LOFTANG1
 40
1.570796326794897
  9
$LOFTANG2
 40
1.570796326794897
  9
$LOFTMAG1
 40
0.0
  9
$LOFTMAG2
 40
0.0
  9
$LOFTPARAM
 70
     7
  9
$LOFTNORMALS
280
     1
  9
$LATITUDE
 40
37.795
  9
$LONGITUDE
 40
-122.394
  9
$NORTHDIRECTION
 40
0.0
  9
$TIMEZONE
 70
 -8000
  9
$LIGHTGLYPHDISPLAY
280
     1
  9
$TILEMODELIGHTSYNCH
280
     1
  9
$CMATERIAL
347
44
  9
$SOLIDHIST
280
     0
  9
$SHOWHIST
280
     1
  9
$DWFFRAME
280
     2
  9
$DGNFRAME
280
     2
  9
$REALWORLDSCALE
290
     1
  9
$INTERFERECOLOR
 62
   256
  9
$CSHADOW
280
     0
  9
$SHADOWPLANELOCATION
 40
0.0
  0
ENDSEC
  0
SECTION
  2
CLASSES
  0
CLASS
  1
ACDBDICTIONARYWDFLT
  2
AcDbDictionaryWithDefault
  3
ObjectDBX Classes
 90
        0
 91
        3
280
     0
281
     0
  0
CLASS
  1
VISUALSTYLE
  2
AcDbVisualStyle
  3
ObjectDBX Classes
 90
     4095
 91
        3
280
     0
281
     0
  0
CLASS
  1
MATERIAL
  2
AcDbMaterial
  3
ObjectDBX Classes
 90
     1153
 91
        3
280
     0
281
     0
  0
CLASS
  1
SCALE
  2
AcDbScale
  3
ObjectDBX Classes
 90
     1153
 91
        3
280
     0
281
     0
  0
CLASS
  1
TABLESTYLE
  2
AcDbTableStyle
  3
ObjectDBX Classes
 90
     4095
 91
        3
280
     0
281
     0
  0
CLASS
  1
MLEADERSTYLE
  2
AcDbMLeaderStyle
  3
ACDB_MLEADERSTYLE_CLASS
 90
     4095
 91
        3
280
     0
281
     0
  0
CLASS
  1
SUN
  2
AcDbSun
  3
SCENEOE
 90
     1153
 91
        3
280
     0
281
     0
  0
CLASS
  1
DICTIONARYVAR
  2
AcDbDictionaryVar
  3
ObjectDBX Classes
 90
        0
 91
        3
280
     0
281
     0
  0
CLASS
  1
CELLSTYLEMAP
  2
AcDbCellStyleMap
  3
ObjectDBX Classes
 90
     1152
 91
        3
280
     0
281
     0
  0
ENDSEC
  0
SECTION
  2
TABLES
  0
TABLE
  2
VPORT
  5
8
330
0
100
AcDbSymbolTable
 70
     1
  0
VPORT
  5
29
330
8
100
AcDbSymbolTableRecord
100
AcDbViewportTableRecord
  2
*Active
 70
     0
 10
0.0
 20
0.0
 11
1.0
 21
1.0
 12
151.4998911674896
 22
108.0008027704874
 13
0.0
 23
0.0
 14
10.0
 24
10.0
 15
10.0
 25
10.0
 16
0.0
 26
0.0
 36
1.0
 17
0.0
 27
0.0
 37
0.0
 40
237.6017660950723
 41
1.402766343222857
 42
50.0
 43
0.0
 44
0.0
 50
0.0
 51
0.0
 71
     0
 72
 10000
 73
     1
 74
     3
 75
     0
 76
     0
 77
     0
 78
     0
281
     0
 65
     1
110
0.0
120
0.0
130
0.0
111
1.0
121
0.0
131
0.0
112
0.0
122
1.0
132
0.0
 79
     0
146
0.0
348
2F
 60
     3
 61
     5
292
     1
282
     1
141
0.0
142
0.0
 63
   250
361
5D
  0
ENDTAB
  0
TABLE
  2
LTYPE
  5
5
330
0
100
AcDbSymbolTable
 70
     2
  0
LTYPE
  5
14
330
5
100
AcDbSymbolTableRecord
100
AcDbLinetypeTableRecord
  2
ByBlock
 70
     0
  3

 72
    65
 73
     0
 40
0.0
  0
LTYPE
  5
15
330
5
100
AcDbSymbolTableRecord
100
AcDbLinetypeTableRecord
  2
ByLayer
 70
     0
  3

 72
    65
 73
     0
 40
0.0
  0
LTYPE
  5
16
330
5
100
AcDbSymbolTableRecord
100
AcDbLinetypeTableRecord
  2
Continuous
 70
     0
  3
Solid line
 72
    65
 73
     0
 40
0.0
  0
LTYPE
  5
5F
330
5
100
AcDbSymbolTableRecord
100
AcDbLinetypeTableRecord
  2
UserDefined01
 70
     0
  3
----------------                
 72
    65
 73
     2
 40
0.7055555449591743
 49
0.3527777724795871
 74
     0
 49
-0.3527777724795871
 74
     0
  0
ENDTAB
  0
TABLE
  2
LAYER
  5
2
330
0
100
AcDbSymbolTable
 70
     3
  0
LAYER
  5
10
330
2
100
AcDbSymbolTableRecord
100
AcDbLayerTableRecord
  2
0
 70
     0
 62
     7
  6
Continuous
370
    -3
390
F
347
46
348
0
  0
LAYER
  5
60
330
2
100
AcDbSymbolTableRecord
100
AcDbLayerTableRecord
  2
外枠
 70
     0
 62
     7
  6
Continuous
370
    -3
390
F
347
46
348
0
  0
LAYER
  5
61
330
2
100
AcDbSymbolTableRecord
100
AcDbLayerTableRecord
  2
ISS138金台
 70
     0
 62
     7
  6
Continuous
370
    -3
390
F
347
46
348
0
  0
ENDTAB
  0
TABLE
  2
STYLE
  5
3
330
0
100
AcDbSymbolTable
 70
     2
  0
STYLE
  5
11
330
3
100
AcDbSymbolTableRecord
100
AcDbTextStyleTableRecord
  2
Standard
 70
     0
 40
0.0
 41
1.0
 50
0.0
 71
     0
 42
2.5
  3

  4

  0
STYLE
  5
5E
330
3
100
AcDbSymbolTableRecord
100
AcDbTextStyleTableRecord
  2
MS Gothic
 70
     0
 40
1.0
 41
1.0
 50
0.0
 71
     0
 42
2.5
  3
msgothic.ttc
  4

1001
ACAD
1000
MS Gothic
1071
    32817
  0
ENDTAB
  0
TABLE
  2
VIEW
  5
6
330
0
100
AcDbSymbolTable
 70
     0
  0
ENDTAB
  0
TABLE
  2
UCS
  5
7
330
0
100
AcDbSymbolTable
 70
     0
  0
ENDTAB
  0
TABLE
  2
APPID
  5
9
330
0
100
AcDbSymbolTable
 70
     1
  0
APPID
  5
12
330
9
100
AcDbSymbolTableRecord
100
AcDbRegAppTableRecord
  2
ACAD
 70
     0
  0
ENDTAB
  0
TABLE
  2
DIMSTYLE
  5
A
330
0
100
AcDbSymbolTable
 70
     1
100
AcDbDimStyleTable
  0
DIMSTYLE
105
27
330
A
100
AcDbSymbolTableRecord
100
AcDbDimStyleTableRecord
  2
ISO-25
 70
     0
 41
2.5
 42
0.625
 43
3.75
 44
1.25
 73
     0
 74
     0
 77
     1
 78
     8
140
2.5
141
2.5
143
0.03937007874016
147
0.625
171
     3
172
     1
178
     0
271
     2
272
     2
274
     3
278
    44
283
     0
284
     8
340
11
  0
ENDTAB
  0
TABLE
  2
BLOCK_RECORD
  5
1
330
0
100
AcDbSymbolTable
 70
     1
  0
BLOCK_RECORD
  5
1F
330
1
100
AcDbSymbolTableRecord
100
AcDbBlockTableRecord
  2
*Model_Space
340
22
 70
     0
280
     1
281
     0
  0
BLOCK_RECORD
  5
1B
330
1
100
AcDbSymbolTableRecord
100
AcDbBlockTableRecord
  2
*Paper_Space
340
1E
 70
     0
280
     1
281
     0
  0
BLOCK_RECORD
  5
23
330
1
100
AcDbSymbolTableRecord
100
AcDbBlockTableRecord
  2
*Paper_Space0
340
26
 70
     0
280
     1
281
     0
  0
ENDTAB
  0
ENDSEC
  0
SECTION
  2
BLOCKS
  0
BLOCK
  5
20
330
1F
100
AcDbEntity
  8
0
100
AcDbBlockBegin
  2
*Model_Space
 70
     0
 10
0.0
 20
0.0
 30
0.0
  3
*Model_Space
  1

  0
ENDBLK
  5
21
330
1F
100
AcDbEntity
  8
0
100
AcDbBlockEnd
  0
BLOCK
  5
1C
330
1B
100
AcDbEntity
 67
     1
  8
0
100
AcDbBlockBegin
  2
*Paper_Space
 70
     0
 10
0.0
 20
0.0
 30
0.0
  3
*Paper_Space
  1

  0
ENDBLK
  5
1D
330
1B
100
AcDbEntity
 67
     1
  8
0
100
AcDbBlockEnd
  0
BLOCK
  5
24
330
23
100
AcDbEntity
  8
0
100
AcDbBlockBegin
  2
*Paper_Space0
 70
     0
 10
0.0
 20
0.0
 30
0.0
  3
*Paper_Space0
  1

  0
ENDBLK
  5
25
330
23
100
AcDbEntity
  8
0
100
AcDbBlockEnd
  0
ENDSEC
  0
SECTION
  2
ENTITIES
  0
LWPOLYLINE
  5
62
330
1F
100
AcDbEntity
  8
外枠
  6
Continuous
 62
   250
420
  2367521
370
   100
100
AcDbPolyline
 90
        5
 70
     0
 43
0.0
 10
281.9999662644599
 20
13.29407825637392
 10
20.99981607051935
 20
13.29407825637392
 10
20.99981607051935
 20
193.0018900389566
 10
281.9999662644599
 20
193.0018900389566
 10
281.9999662644599
 20
13.29407825637392
  0
LINE
  5
63
330
1F
100
AcDbEntity
  8
外枠
  6
Continuous
 62
   250
420
  2367521
370
    25
100
AcDbLine
 10
223.3097080177524
 20
174.0786160074276
 30
0.0
 11
281.9999232007669
 21
174.0786160074276
 31
0.0
  0
LINE
  5
64
330
1F
100
AcDbEntity
  8
外枠
  6
Continuous
 62
   250
420
  2367521
370
    25
100
AcDbLine
 10
223.3097080177524
 20
50.37109023844297
 30
0.0
 11
281.9999232007669
 21
50.37109023844297
 31
0.0
  0
LINE
  5
65
330
1F
100
AcDbEntity
  8
外枠
  6
Continuous
 62
   250
420
  2367521
370
    25
100
AcDbLine
 10
223.3097080177524
 20
36.25997933925949
 30
0.0
 11
281.9999232007669
 21
36.25997933925949
 31
0.0
  0
LINE
  5
66
330
1F
100
AcDbEntity
  8
外枠
  6
Continuous
 62
   250
420
  2367521
370
    50
100
AcDbLine
 10
223.0158413772006
 20
193.3637327187979
 30
0.0
 11
223.0158413772006
 21
13.29396655992039
 31
0.0
  0
TEXT
  5
67
330
1F
100
AcDbEntity
  8
外枠
  6
Continuous
 62
   250
420
  2367521
100
AcDbText
 10
224.7190965599536
 20
186.6888051931772
 30
0.0
 40
2.688166626294454
  1
品名：
 41
0.974166170756022
  7
MS Gothic
100
AcDbText
  0
TEXT
  5
68
330
1F
100
AcDbEntity
  8
外枠
  6
Continuous
 62
   250
420
  2367521
100
AcDbText
 10
224.7190965599536
 20
168.1080059455944
 30
0.0
 40
2.688166626294454
  1
仕様：
 41
0.9978878657023111
  7
MS Gothic
100
AcDbText
  0
TEXT
  5
69
330
1F
100
AcDbEntity
  8
外枠
  6
Continuous
 62
   250
420
  2367521
100
AcDbText
 10
224.7190965599536
 20
44.16660664327048
 30
0.0
 40
2.688166626294454
  1
縮尺：
 41
0.9939999262491861
  7
MS Gothic
100
AcDbText
  0
TEXT
  5
6A
330
1F
100
AcDbEntity
  8
外枠
  6
Continuous
 62
   250
420
  2367521
100
AcDbText
 10
250.2379519709696
 20
40.59738467878129
 30
0.0
 40
2.150533301035563
  1
1/1
 41
1.000003814697266
  7
MS Gothic
100
AcDbText
  0
TEXT
  5
6B
330
1F
100
AcDbEntity
  8
外枠
  6
Continuous
 62
   250
420
  2367521
100
AcDbText
 10
232.7757967427735
 20
181.9845273775436
 30
0.0
 40
2.688166626294454
  1
アドロック106 (W)
 41
1.043089473948759
  7
MS Gothic
100
AcDbText
  0
TEXT
  5
6C
330
1F
100
AcDbEntity
  8
外枠
  6
Continuous
 62
   250
420
  2367521
100
AcDbText
 10
226.1633020978884
 20
24.25683874973963
 30
0.0
 40
2.553758294979732
  1
ヤスダインテリアサプライ株式会社
 41
1.0194908945184
  7
MS Gothic
100
AcDbText
  0
TEXT
  5
6D
330
1F
100
AcDbEntity
  8
外枠
  6
Continuous
 62
   250
420
  2367521
100
AcDbText
 10
227.7635273953072
 20
161.7763665048245
 30
0.0
 40
2.150533301035563
  1
材質
 41
1.028502464294433
  7
MS Gothic
100
AcDbText
  0
TEXT
  5
6E
330
1F
100
AcDbEntity
  8
外枠
  6
Continuous
 62
   250
420
  2367521
100
AcDbText
 10
232.7757967427735
 20
156.199681315683
 30
0.0
 40
2.016124969720841
  1
アルミ押出形材（A6063S-T5）/
 41
1.030580357142857
  7
MS Gothic
100
AcDbText
  0
TEXT
  5
6F
330
1F
100
AcDbEntity
  8
外枠
  6
Continuous
 62
   250
420
  2367521
100
AcDbText
 10
232.7757967427735
 20
151.9663480459279
 30
0.0
 40
2.016124969720841
  1
ホワイト仕上(アルマイト)
 41
1.053163825141059
  7
MS Gothic
100
AcDbText
  0
LINE
  5
70
330
1F
100
AcDbEntity
  8
ISS138金台
  6
Continuous
 62
   250
420
  2367521
370
    13
100
AcDbLine
 10
105.6595159132889
 20
112.3280471885988
 30
0.0
 11
105.6595159132889
 21
117.3332540904246
 31
0.0
  0
LINE
  5
71
330
1F
100
AcDbEntity
  8
ISS138金台
  6
Continuous
 62
   250
420
  2367521
370
    13
100
AcDbLine
 10
121.6597556598329
 20
116.8261037447155
 30
0.0
 11
105.9096406077475
 21
116.8261037447155
 31
0.0
  0
LINE
  5
72
330
1F
100
AcDbEntity
  8
ISS138金台
  6
Continuous
 62
   250
420
  2367521
370
    13
100
AcDbLine
 10
121.6597556598329
 20
117.3332110267317
 30
0.0
 11
121.6597556598329
 21
112.3280041249058
 31
0.0
  0
LINE
  5
73
330
1F
100
AcDbEntity
  8
ISS138金台
  6
Continuous
 62
   250
420
  2367521
370
    13
100
AcDbLine
 10
105.6595159132889
 20
102.6283486953576
 30
0.0
 11
105.6595159132889
 21
92.68425297881751
 31
0.0
  0
LINE
  5
74
330
1F
100
AcDbEntity
  8
ISS138金台
  6
Continuous
 62
   250
420
  2367521
370
    13
100
AcDbLine
 10
144.1600399830996
 20
93.19154328152864
 30
0.0
 11
105.9094037574363
 21
93.19154328152864
 31
0.0
  0
LINE
  5
75
330
1F
100
AcDbEntity
  8
ISS138金台
  6
Continuous
 62
   250
420
  2367521
370
    13
100
AcDbLine
 10
144.1600399830996
 20
102.6283486953576
 30
0.0
 11
144.1600399830996
 21
92.68425297881751
 31
0.0
  0
LINE
  5
76
330
1F
100
AcDbEntity
  8
ISS138金台
  6
Continuous
 62
   250
420
  2367521
370
    13
100
AcDbLine
 10
145.1598066781541
 20
110.8290538673343
 30
0.0
 11
150.1650135799799
 21
110.8290538673343
 31
0.0
  0
LINE
  5
77
330
1F
100
AcDbEntity
  8
ISS138金台
  6
Continuous
 62
   250
420
  2367521
370
    13
100
AcDbLine
 10
145.1598066781541
 20
104.8284081715934
 30
0.0
 11
150.1650135799799
 21
104.8284081715934
 31
0.0
  0
LINE
  5
78
330
1F
100
AcDbEntity
  8
ISS138金台
  6
Continuous
 62
   250
420
  2367521
370
    13
100
AcDbLine
 10
145.1598066781541
 20
111.6283375399548
 30
0.0
 11
155.1698759722624
 21
111.6283375399548
 31
0.0
  0
LINE
  5
79
330
1F
100
AcDbEntity
  8
ISS138金台
  6
Continuous
 62
   250
420
  2367521
370
    13
100
AcDbLine
 10
154.6627471583997
 20
103.6284706658787
 30
0.0
 11
154.6627471583997
 21
112.5304680772145
 31
0.0
  0
LINE
  5
7A
330
1F
100
AcDbEntity
  8
ISS138金台
  6
Continuous
 62
   250
420
  2367521
370
    13
100
AcDbLine
 10
145.1598066781541
 20
103.6284706658787
 30
0.0
 11
155.1698759722624
 21
103.6284706658787
 31
0.0
  0
HATCH
  5
7B
330
1F
100
AcDbEntity
  8
ISS138金台
  6
Continuous
 62
   250
420
  2367521
370
    13
100
AcDbHatch
 10
0.0
 20
0.0
 30
0.0
210
0.0
220
0.0
230
1.0
  2
SOLID
 70
     1
 71
     0
 91
        1
 92
        3
 72
     0
 73
     1
 93
       67
 10
105.6595159132889
 20
116.5760113480267
 10
105.6850634491194
 20
116.5773032588145
 10
105.7098466044004
 20
116.5810820978691
 10
105.7337900176693
 20
116.587240205958
 10
105.7567322000775
 20
116.5956376260793
 10
105.7785654923929
 20
116.6061666990006
 10
105.7991607035365
 20
116.6186874677199
 10
105.8183886424296
 20
116.6330815070817
 10
105.8361308839166
 20
116.6492088600838
 10
105.8522474709955
 20
116.666961867494
 10
105.8666199785108
 20
116.6862221041568
 10
105.87914074723
 20
116.7068388471469
 10
105.8896590542281
 20
116.7287152031551
 10
105.8980564743494
 20
116.7517004492563
 10
105.9042145824383
 20
116.7756869262181
 10
105.9079934214929
 20
116.8005346770385
 10
105.9092853322808
 20
116.8261360424852
 10
105.9092853322808
 20
116.8261360424852
 10
105.9079934214929
 20
116.8516728123925
 10
105.9042038165151
 20
116.87647749952
 10
105.8980564743494
 20
116.9004101468656
 10
105.8896590542281
 20
116.9233523292739
 10
105.8791299813068
 20
116.9451856215892
 10
105.866630744434
 20
116.9657700668096
 10
105.8522474709955
 20
116.9850087716259
 10
105.8361308839166
 20
117.0027402471896
 10
105.8183886424296
 20
117.0188568342686
 10
105.7991607035365
 20
117.0332401077071
 10
105.7785654923929
 20
117.0457501105031
 10
105.7567322000775
 20
117.0562684175012
 10
105.7337900176693
 20
117.0646658376225
 10
105.7098466044004
 20
117.0708239457114
 10
105.6850526831962
 20
117.074602784766
 10
105.6595159132889
 20
117.0758946955539
 10
105.6595159132889
 20
117.0758946955539
 10
105.6339253137655
 20
117.074602784766
 10
105.6090775629451
 20
117.0708131797882
 10
105.5851126178297
 20
117.0646658376225
 10
105.562148903575
 20
117.056257651578
 10
105.5403048453364
 20
117.0457501105031
 10
105.5197096341928
 20
117.0332401077071
 10
105.500492461223
 20
117.0188568342686
 10
105.4827717515824
 20
117.0027402471896
 10
105.4666659304267
 20
116.9849980057026
 10
105.4523149547579
 20
116.9657808327328
 10
105.4398264838083
 20
116.9451856215892
 10
105.4293297086567
 20
116.9233523292739
 10
105.4209430544587
 20
116.9004101468656
 10
105.4148064782162
 20
116.8764667335967
 10
105.4110276391617
 20
116.8516728123925
 10
105.409746494297
 20
116.8261360424852
 10
105.409746494297
 20
116.8261360424852
 10
105.4110384050849
 20
116.8005454429618
 10
105.4148064782162
 20
116.7756869262181
 10
105.4209538203819
 20
116.7517004492563
 10
105.4293297086567
 20
116.7287044372319
 10
105.4398157178851
 20
116.7068496130701
 10
105.4523149547579
 20
116.6862221041568
 10
105.4666659304267
 20
116.666961867494
 10
105.4827717515824
 20
116.6492088600838
 10
105.5005032271462
 20
116.6330707411584
 10
105.5197204001161
 20
116.6186874677199
 10
105.5403048453364
 20
116.6061666990006
 10
105.562148903575
 20
116.5956483920026
 10
105.5851126178297
 20
116.587240205958
 10
105.6090775629451
 20
116.5810928637923
 10
105.6339253137655
 20
116.5773032588145
 97
        0
 75
     1
 76
     1
 98
        0
  0
LWPOLYLINE
  5
7C
330
1F
100
AcDbEntity
  8
ISS138金台
  6
Continuous
 62
   250
420
  2367521
370
    13
100
AcDbPolyline
 90
       68
 70
     0
 43
0.0
 10
105.6595159132889
 20
116.5760113480267
 10
105.6850634491194
 20
116.5773032588145
 10
105.7098466044004
 20
116.5810820978691
 10
105.7337900176693
 20
116.587240205958
 10
105.7567322000775
 20
116.5956376260793
 10
105.7785654923929
 20
116.6061666990006
 10
105.7991607035365
 20
116.6186874677199
 10
105.8183886424296
 20
116.6330815070817
 10
105.8361308839166
 20
116.6492088600838
 10
105.8522474709955
 20
116.666961867494
 10
105.8666199785108
 20
116.6862221041568
 10
105.87914074723
 20
116.7068388471469
 10
105.8896590542281
 20
116.7287152031551
 10
105.8980564743494
 20
116.7517004492563
 10
105.9042145824383
 20
116.7756869262181
 10
105.9079934214929
 20
116.8005346770385
 10
105.9092853322808
 20
116.8261360424852
 10
105.9092853322808
 20
116.8261360424852
 10
105.9079934214929
 20
116.8516728123925
 10
105.9042038165151
 20
116.87647749952
 10
105.8980564743494
 20
116.9004101468656
 10
105.8896590542281
 20
116.9233523292739
 10
105.8791299813068
 20
116.9451856215892
 10
105.866630744434
 20
116.9657700668096
 10
105.8522474709955
 20
116.9850087716259
 10
105.8361308839166
 20
117.0027402471896
 10
105.8183886424296
 20
117.0188568342686
 10
105.7991607035365
 20
117.0332401077071
 10
105.7785654923929
 20
117.0457501105031
 10
105.7567322000775
 20
117.0562684175012
 10
105.7337900176693
 20
117.0646658376225
 10
105.7098466044004
 20
117.0708239457114
 10
105.6850526831962
 20
117.074602784766
 10
105.6595159132889
 20
117.0758946955539
 10
105.6595159132889
 20
117.0758946955539
 10
105.6339253137655
 20
117.074602784766
 10
105.6090775629451
 20
117.0708131797882
 10
105.5851126178297
 20
117.0646658376225
 10
105.562148903575
 20
117.056257651578
 10
105.5403048453364
 20
117.0457501105031
 10
105.5197096341928
 20
117.0332401077071
 10
105.500492461223
 20
117.0188568342686
 10
105.4827717515824
 20
117.0027402471896
 10
105.4666659304267
 20
116.9849980057026
 10
105.4523149547579
 20
116.9657808327328
 10
105.4398264838083
 20
116.9451856215892
 10
105.4293297086567
 20
116.9233523292739
 10
105.4209430544587
 20
116.9004101468656
 10
105.4148064782162
 20
116.8764667335967
 10
105.4110276391617
 20
116.8516728123925
 10
105.409746494297
 20
116.8261360424852
 10
105.409746494297
 20
116.8261360424852
 10
105.4110384050849
 20
116.8005454429618
 10
105.4148064782162
 20
116.7756869262181
 10
105.4209538203819
 20
116.7517004492563
 10
105.4293297086567
 20
116.7287044372319
 10
105.4398157178851
 20
116.7068496130701
 10
105.4523149547579
 20
116.6862221041568
 10
105.4666659304267
 20
116.666961867494
 10
105.4827717515824
 20
116.6492088600838
 10
105.5005032271462
 20
116.6330707411584
 10
105.5197204001161
 20
116.6186874677199
 10
105.5403048453364
 20
116.6061666990006
 10
105.562148903575
 20
116.5956483920026
 10
105.5851126178297
 20
116.587240205958
 10
105.6090775629451
 20
116.5810928637923
 10
105.6339253137655
 20
116.5773032588145
 10
105.6595159132889
 20
116.5760113480267
  0
HATCH
  5
7D
330
1F
100
AcDbEntity
  8
ISS138金台
  6
Continuous
 62
   250
420
  2367521
370
    13
100
AcDbHatch
 10
0.0
 20
0.0
 30
0.0
210
0.0
220
0.0
230
1.0
  2
SOLID
 70
     1
 71
     0
 91
        1
 92
        3
 72
     0
 73
     1
 93
       67
 10
149.6577232772688
 20
104.578294243058
 10
149.6832600471761
 20
104.5795753879227
 10
149.7080755002268
 20
104.5833757588237
 10
149.7320189134957
 20
104.5895231009894
 10
149.7549933936736
 20
104.5979312870339
 10
149.7768589837586
 20
104.608449594032
 10
149.797486492672
 20
104.6209703627513
 10
149.8167359634115
 20
104.635364402113
 10
149.8345105026682
 20
104.6514917551152
 10
149.85067015344
 20
104.6692555284487
 10
149.865074958725
 20
104.6885049991882
 10
149.8776172592908
 20
104.7091217421783
 10
149.8881678640585
 20
104.7309873322633
 10
149.8965868160263
 20
104.7539833442877
 10
149.9027556900384
 20
104.7779590553263
 10
149.9065560609395
 20
104.8028175720699
 10
149.9078479717274
 20
104.8284189375166
 10
149.9078479717274
 20
104.8284189375166
 10
149.9065452950163
 20
104.8539557074239
 10
149.9027556900384
 20
104.8787496286281
 10
149.8965868160263
 20
104.902693041897
 10
149.8881678640585
 20
104.9256352243053
 10
149.8776172592908
 20
104.9474685166206
 10
149.865074958725
 20
104.9680637277642
 10
149.85067015344
 20
104.987280900734
 10
149.8345105026682
 20
105.005023142221
 10
149.8167467293347
 20
105.0211504952232
 10
149.7974757267487
 20
105.0355230027384
 10
149.7768589837586
 20
105.0480330055345
 10
149.7549933936736
 20
105.0585513125326
 10
149.7320296794189
 20
105.0669487326538
 10
149.7080755002268
 20
105.0731068407428
 10
149.6832600471761
 20
105.0768856797974
 10
149.6577232772688
 20
105.0781775905853
 10
149.6577232772688
 20
105.0781775905853
 10
149.6321757414383
 20
105.0768856797974
 10
149.6073818202341
 20
105.0731068407428
 10
149.5834168751187
 20
105.0669487326538
 10
149.560453160864
 20
105.0585513125326
 10
149.538587570779
 20
105.0480222396113
 10
149.5179600618657
 20
105.0355230027384
 10
149.4986998252029
 20
105.0211504952232
 10
149.4809360518694
 20
105.005023142221
 10
149.4647871670208
 20
104.9872916666573
 10
149.4503715958126
 20
104.9680529618409
 10
149.4378185293236
 20
104.9474685166206
 10
149.4272786904791
 20
104.9256352243053
 10
149.4188597385113
 20
104.902693041897
 10
149.4126908644992
 20
104.8787496286281
 10
149.4088904935981
 20
104.8539557074239
 10
149.4075985828102
 20
104.8284189375166
 10
149.4075985828102
 20
104.8284189375166
 10
149.4088904935981
 20
104.8028175720699
 10
149.4127016304224
 20
104.7779590553263
 10
149.4188597385113
 20
104.7539833442877
 10
149.4272894564023
 20
104.7309980981865
 10
149.4378292952468
 20
104.7091217421783
 10
149.4503715958126
 20
104.688494233265
 10
149.4647871670208
 20
104.6692555284487
 10
149.4809360518694
 20
104.6514917551152
 10
149.4987105911261
 20
104.635364402113
 10
149.5179708277889
 20
104.6209703627513
 10
149.538587570779
 20
104.608449594032
 10
149.560453160864
 20
104.5979312870339
 10
149.5834168751187
 20
104.5895231009894
 10
149.6073710543108
 20
104.5833649929005
 10
149.6321865073616
 20
104.5795861538459
 97
        0
 75
     1
 76
     1
 98
        0
  0
LWPOLYLINE
  5
7E
330
1F
100
AcDbEntity
  8
ISS138金台
  6
Continuous
 62
   250
420
  2367521
370
    13
100
AcDbPolyline
 90
       68
 70
     0
 43
0.0
 10
149.6577232772688
 20
104.578294243058
 10
149.6832600471761
 20
104.5795753879227
 10
149.7080755002268
 20
104.5833757588237
 10
149.7320189134957
 20
104.5895231009894
 10
149.7549933936736
 20
104.5979312870339
 10
149.7768589837586
 20
104.608449594032
 10
149.797486492672
 20
104.6209703627513
 10
149.8167359634115
 20
104.635364402113
 10
149.8345105026682
 20
104.6514917551152
 10
149.85067015344
 20
104.6692555284487
 10
149.865074958725
 20
104.6885049991882
 10
149.8776172592908
 20
104.7091217421783
 10
149.8881678640585
 20
104.7309873322633
 10
149.8965868160263
 20
104.7539833442877
 10
149.9027556900384
 20
104.7779590553263
 10
149.9065560609395
 20
104.8028175720699
 10
149.9078479717274
 20
104.8284189375166
 10
149.9078479717274
 20
104.8284189375166
 10
149.9065452950163
 20
104.8539557074239
 10
149.9027556900384
 20
104.8787496286281
 10
149.8965868160263
 20
104.902693041897
 10
149.8881678640585
 20
104.9256352243053
 10
149.8776172592908
 20
104.9474685166206
 10
149.865074958725
 20
104.9680637277642
 10
149.85067015344
 20
104.987280900734
 10
149.8345105026682
 20
105.005023142221
 10
149.8167467293347
 20
105.0211504952232
 10
149.7974757267487
 20
105.0355230027384
 10
149.7768589837586
 20
105.0480330055345
 10
149.7549933936736
 20
105.0585513125326
 10
149.7320296794189
 20
105.0669487326538
 10
149.7080755002268
 20
105.0731068407428
 10
149.6832600471761
 20
105.0768856797974
 10
149.6577232772688
 20
105.0781775905853
 10
149.6577232772688
 20
105.0781775905853
 10
149.6321757414383
 20
105.0768856797974
 10
149.6073818202341
 20
105.0731068407428
 10
149.5834168751187
 20
105.0669487326538
 10
149.560453160864
 20
105.0585513125326
 10
149.538587570779
 20
105.0480222396113
 10
149.5179600618657
 20
105.0355230027384
 10
149.4986998252029
 20
105.0211504952232
 10
149.4809360518694
 20
105.005023142221
 10
149.4647871670208
 20
104.9872916666573
 10
149.4503715958126
 20
104.9680529618409
 10
149.4378185293236
 20
104.9474685166206
 10
149.4272786904791
 20
104.9256352243053
 10
149.4188597385113
 20
104.902693041897
 10
149.4126908644992
 20
104.8787496286281
 10
149.4088904935981
 20
104.8539557074239
 10
149.4075985828102
 20
104.8284189375166
 10
149.4075985828102
 20
104.8284189375166
 10
149.4088904935981
 20
104.8028175720699
 10
149.4127016304224
 20
104.7779590553263
 10
149.4188597385113
 20
104.7539833442877
 10
149.4272894564023
 20
104.7309980981865
 10
149.4378292952468
 20
104.7091217421783
 10
149.4503715958126
 20
104.688494233265
 10
149.4647871670208
 20
104.6692555284487
 10
149.4809360518694
 20
104.6514917551152
 10
149.4987105911261
 20
104.635364402113
 10
149.5179708277889
 20
104.6209703627513
 10
149.538587570779
 20
104.608449594032
 10
149.560453160864
 20
104.5979312870339
 10
149.5834168751187
 20
104.5895231009894
 10
149.6073710543108
 20
104.5833649929005
 10
149.6321865073616
 20
104.5795861538459
 10
149.6577232772688
 20
104.578294243058
  0
HATCH
  5
7F
330
1F
100
AcDbEntity
  8
ISS138金台
  6
Continuous
 62
   250
420
  2367521
370
    13
100
AcDbHatch
 10
0.0
 20
0.0
 30
0.0
210
0.0
220
0.0
230
1.0
  2
SOLID
 70
     1
 71
     0
 91
        1
 92
        3
 72
     0
 73
     1
 93
       67
 10
105.6595159132889
 20
92.94176309661351
 10
105.6850634491194
 20
92.9430550074014
 10
105.7098466044004
 20
92.94684461237921
 10
105.7337900176693
 20
92.95299195454491
 10
105.7567322000775
 20
92.9613893746662
 10
105.7785654923929
 20
92.97190768166425
 10
105.7991607035365
 20
92.98441768446031
 10
105.8183886424296
 20
92.99880095789882
 10
105.8361308839166
 20
93.01491754497773
 10
105.8522474709955
 20
93.03265978646473
 10
105.8666199785108
 20
93.05188772535783
 10
105.87914074723
 20
93.07248293650142
 10
105.8896590542281
 20
93.09431622881675
 10
105.8980564743494
 20
93.11725841122501
 10
105.9042145824383
 20
93.14119105857066
 10
105.9079934214929
 20
93.16599574569813
 10
105.9092853322808
 20
93.19153251560542
 10
105.9092853322808
 20
93.19153251560542
 10
105.9079934214929
 20
93.21713388105208
 10
105.9042038165151
 20
93.24198163187248
 10
105.8980564743494
 20
93.26596810883429
 10
105.8896590542281
 20
93.28895335493547
 10
105.8791299813068
 20
93.3108189450205
 10
105.866630744434
 20
93.33143568801057
 10
105.8522474709955
 20
93.35069592467335
 10
105.8361308839166
 20
93.3684489320836
 10
105.8183886424296
 20
93.38457628508573
 10
105.7991607035365
 20
93.39897032444748
 10
105.7785654923929
 20
93.41149109316676
 10
105.7567322000775
 20
93.42200940016482
 10
105.7337900176693
 20
93.43041758620933
 10
105.7098466044004
 20
93.43656492837505
 10
105.6850526831962
 20
93.44035453335286
 10
105.6595159132889
 20
93.44164644414073
 10
105.6595159132889
 20
93.44164644414073
 10
105.6339253137655
 20
93.44035453335286
 10
105.6090775629451
 20
93.43657569429828
 10
105.5851126178297
 20
93.43041758620933
 10
105.562148903575
 20
93.42200940016482
 10
105.5403048453364
 20
93.41149109316676
 10
105.5197096341928
 20
93.39898109037071
 10
105.500492461223
 20
93.38458705100896
 10
105.4827717515824
 20
93.3684489320836
 10
105.4666659304267
 20
93.35069592467335
 10
105.4523149547579
 20
93.33143568801057
 10
105.4398264838083
 20
93.3108189450205
 10
105.4293297086567
 20
93.28895335493547
 10
105.4209430544587
 20
93.26596810883429
 10
105.4148064782162
 20
93.24198163187248
 10
105.4110276391617
 20
93.21713388105208
 10
105.409746494297
 20
93.19153251560542
 10
105.409746494297
 20
93.19153251560542
 10
105.4110384050849
 20
93.16600651162136
 10
105.4148064782162
 20
93.14119105857066
 10
105.4209538203819
 20
93.11725841122501
 10
105.4293297086567
 20
93.09431622881675
 10
105.4398157178851
 20
93.0724721705782
 10
105.4523149547579
 20
93.0518769594346
 10
105.4666659304267
 20
93.03264902054151
 10
105.4827717515824
 20
93.01491754497773
 10
105.5005032271462
 20
92.99880095789882
 10
105.5197204001161
 20
92.98441768446031
 10
105.5403048453364
 20
92.97190768166425
 10
105.562148903575
 20
92.9613893746662
 10
105.5851126178297
 20
92.95299195454491
 10
105.6090775629451
 20
92.94683384645597
 10
105.6339253137655
 20
92.9430550074014
 97
        0
 75
     1
 76
     1
 98
        0
  0
LWPOLYLINE
  5
80
330
1F
100
AcDbEntity
  8
ISS138金台
  6
Continuous
 62
   250
420
  2367521
370
    13
100
AcDbPolyline
 90
       68
 70
     0
 43
0.0
 10
105.6595159132889
 20
92.94176309661351
 10
105.6850634491194
 20
92.9430550074014
 10
105.7098466044004
 20
92.94684461237921
 10
105.7337900176693
 20
92.95299195454491
 10
105.7567322000775
 20
92.9613893746662
 10
105.7785654923929
 20
92.97190768166425
 10
105.7991607035365
 20
92.98441768446031
 10
105.8183886424296
 20
92.99880095789882
 10
105.8361308839166
 20
93.01491754497773
 10
105.8522474709955
 20
93.03265978646473
 10
105.8666199785108
 20
93.05188772535783
 10
105.87914074723
 20
93.07248293650142
 10
105.8896590542281
 20
93.09431622881675
 10
105.8980564743494
 20
93.11725841122501
 10
105.9042145824383
 20
93.14119105857066
 10
105.9079934214929
 20
93.16599574569813
 10
105.9092853322808
 20
93.19153251560542
 10
105.9092853322808
 20
93.19153251560542
 10
105.9079934214929
 20
93.21713388105208
 10
105.9042038165151
 20
93.24198163187248
 10
105.8980564743494
 20
93.26596810883429
 10
105.8896590542281
 20
93.28895335493547
 10
105.8791299813068
 20
93.3108189450205
 10
105.866630744434
 20
93.33143568801057
 10
105.8522474709955
 20
93.35069592467335
 10
105.8361308839166
 20
93.3684489320836
 10
105.8183886424296
 20
93.38457628508573
 10
105.7991607035365
 20
93.39897032444748
 10
105.7785654923929
 20
93.41149109316676
 10
105.7567322000775
 20
93.42200940016482
 10
105.7337900176693
 20
93.43041758620933
 10
105.7098466044004
 20
93.43656492837505
 10
105.6850526831962
 20
93.44035453335286
 10
105.6595159132889
 20
93.44164644414073
 10
105.6595159132889
 20
93.44164644414073
 10
105.6339253137655
 20
93.44035453335286
 10
105.6090775629451
 20
93.43657569429828
 10
105.5851126178297
 20
93.43041758620933
 10
105.562148903575
 20
93.42200940016482
 10
105.5403048453364
 20
93.41149109316676
 10
105.5197096341928
 20
93.39898109037071
 10
105.500492461223
 20
93.38458705100896
 10
105.4827717515824
 20
93.3684489320836
 10
105.4666659304267
 20
93.35069592467335
 10
105.4523149547579
 20
93.33143568801057
 10
105.4398264838083
 20
93.3108189450205
 10
105.4293297086567
 20
93.28895335493547
 10
105.4209430544587
 20
93.26596810883429
 10
105.4148064782162
 20
93.24198163187248
 10
105.4110276391617
 20
93.21713388105208
 10
105.409746494297
 20
93.19153251560542
 10
105.409746494297
 20
93.19153251560542
 10
105.4110384050849
 20
93.16600651162136
 10
105.4148064782162
 20
93.14119105857066
 10
105.4209538203819
 20
93.11725841122501
 10
105.4293297086567
 20
93.09431622881675
 10
105.4398157178851
 20
93.0724721705782
 10
105.4523149547579
 20
93.0518769594346
 10
105.4666659304267
 20
93.03264902054151
 10
105.4827717515824
 20
93.01491754497773
 10
105.5005032271462
 20
92.99880095789882
 10
105.5197204001161
 20
92.98441768446031
 10
105.5403048453364
 20
92.97190768166425
 10
105.562148903575
 20
92.9613893746662
 10
105.5851126178297
 20
92.95299195454491
 10
105.6090775629451
 20
92.94683384645597
 10
105.6339253137655
 20
92.9430550074014
 10
105.6595159132889
 20
92.94176309661351
  0
HATCH
  5
81
330
1F
100
AcDbEntity
  8
ISS138金台
  6
Continuous
 62
   250
420
  2367521
370
    13
100
AcDbHatch
 10
0.0
 20
0.0
 30
0.0
210
0.0
220
0.0
230
1.0
  2
SOLID
 70
     1
 71
     0
 91
        1
 92
        3
 72
     0
 73
     1
 93
       67
 10
154.6627471583997
 20
103.3787120128101
 10
154.688283928307
 20
103.3799931576747
 10
154.713067083588
 20
103.3837935285758
 10
154.7369781990872
 20
103.3899408707415
 10
154.7599096155722
 20
103.3983382908627
 10
154.7817106101178
 20
103.4088565978608
 10
154.8022735234917
 20
103.4213666006569
 10
154.8214799305384
 20
103.4357498740954
 10
154.8391791083324
 20
103.4518664611743
 10
154.8552633976417
 20
103.4696087026613
 10
154.8696143733105
 20
103.4888366415544
 10
154.8820920783368
 20
103.509431852698
 10
154.8925888534884
 20
103.5312543790901
 10
154.9009647417632
 20
103.5542073274216
 10
154.9071013180057
 20
103.5781399747672
 10
154.9108801570603
 20
103.6029446618947
 10
154.912161301925
 20
103.628481431802
 10
154.912161301925
 20
103.628481431802
 10
154.9108801570603
 20
103.6540827972486
 10
154.9071013180057
 20
103.678930548069
 10
154.9009647417632
 20
103.7029170250308
 10
154.8925888534884
 20
103.725902271132
 10
154.8821028442601
 20
103.747767861217
 10
154.8696143733105
 20
103.7683846042071
 10
154.8552633976417
 20
103.7876448408699
 10
154.8391791083324
 20
103.8053978482801
 10
154.8214799305384
 20
103.8215252012823
 10
154.802284289415
 20
103.835919240644
 10
154.7817106101178
 20
103.8484400093633
 10
154.7599096155722
 20
103.8589583163614
 10
154.7369889650104
 20
103.8673665024059
 10
154.713067083588
 20
103.8735246104948
 10
154.688283928307
 20
103.8773034495494
 10
154.6627471583997
 20
103.8785953603373
 10
154.6627471583997
 20
103.8785953603373
 10
154.6371027292601
 20
103.8773034495494
 10
154.6121903829003
 20
103.8735246104948
 10
154.5881823740921
 20
103.8673665024059
 10
154.5651755961444
 20
103.8589583163614
 10
154.5433100060594
 20
103.8484400093633
 10
154.5226717312228
 20
103.835919240644
 10
154.5034437923298
 20
103.8215359672055
 10
154.4856907849195
 20
103.8053978482801
 10
154.4695741978406
 20
103.7876448408699
 10
154.4552124562486
 20
103.7683846042071
 10
154.4427132193757
 20
103.747767861217
 10
154.4322056783009
 20
103.725902271132
 10
154.4238190241029
 20
103.7029170250308
 10
154.4176824478604
 20
103.678930548069
 10
154.4139036088058
 20
103.6540827972486
 10
154.4126224639411
 20
103.628481431802
 10
154.4126224639411
 20
103.628481431802
 10
154.4139036088058
 20
103.6029446618947
 10
154.4176824478604
 20
103.5781399747672
 10
154.4238190241029
 20
103.5542073274216
 10
154.4322056783009
 20
103.5312651450133
 10
154.4427024534525
 20
103.5094210867747
 10
154.4552124562486
 20
103.4888366415544
 10
154.4695741978406
 20
103.4695979367381
 10
154.4856907849195
 20
103.4518664611743
 10
154.5034330264065
 20
103.4357498740954
 10
154.5226824971461
 20
103.4213666006569
 10
154.5432992401362
 20
103.4088565978608
 10
154.5651755961444
 20
103.3983382908627
 10
154.5881823740921
 20
103.3899408707415
 10
154.6121903829003
 20
103.3837827626525
 10
154.6370919633369
 20
103.3800039235979
 97
        0
 75
     1
 76
     1
 98
        0
  0
LWPOLYLINE
  5
82
330
1F
100
AcDbEntity
  8
ISS138金台
  6
Continuous
 62
   250
420
  2367521
370
    13
100
AcDbPolyline
 90
       68
 70
     0
 43
0.0
 10
154.6627471583997
 20
103.3787120128101
 10
154.688283928307
 20
103.3799931576747
 10
154.713067083588
 20
103.3837935285758
 10
154.7369781990872
 20
103.3899408707415
 10
154.7599096155722
 20
103.3983382908627
 10
154.7817106101178
 20
103.4088565978608
 10
154.8022735234917
 20
103.4213666006569
 10
154.8214799305384
 20
103.4357498740954
 10
154.8391791083324
 20
103.4518664611743
 10
154.8552633976417
 20
103.4696087026613
 10
154.8696143733105
 20
103.4888366415544
 10
154.8820920783368
 20
103.509431852698
 10
154.8925888534884
 20
103.5312543790901
 10
154.9009647417632
 20
103.5542073274216
 10
154.9071013180057
 20
103.5781399747672
 10
154.9108801570603
 20
103.6029446618947
 10
154.912161301925
 20
103.628481431802
 10
154.912161301925
 20
103.628481431802
 10
154.9108801570603
 20
103.6540827972486
 10
154.9071013180057
 20
103.678930548069
 10
154.9009647417632
 20
103.7029170250308
 10
154.8925888534884
 20
103.725902271132
 10
154.8821028442601
 20
103.747767861217
 10
154.8696143733105
 20
103.7683846042071
 10
154.8552633976417
 20
103.7876448408699
 10
154.8391791083324
 20
103.8053978482801
 10
154.8214799305384
 20
103.8215252012823
 10
154.802284289415
 20
103.835919240644
 10
154.7817106101178
 20
103.8484400093633
 10
154.7599096155722
 20
103.8589583163614
 10
154.7369889650104
 20
103.8673665024059
 10
154.713067083588
 20
103.8735246104948
 10
154.688283928307
 20
103.8773034495494
 10
154.6627471583997
 20
103.8785953603373
 10
154.6627471583997
 20
103.8785953603373
 10
154.6371027292601
 20
103.8773034495494
 10
154.6121903829003
 20
103.8735246104948
 10
154.5881823740921
 20
103.8673665024059
 10
154.5651755961444
 20
103.8589583163614
 10
154.5433100060594
 20
103.8484400093633
 10
154.5226717312228
 20
103.835919240644
 10
154.5034437923298
 20
103.8215359672055
 10
154.4856907849195
 20
103.8053978482801
 10
154.4695741978406
 20
103.7876448408699
 10
154.4552124562486
 20
103.7683846042071
 10
154.4427132193757
 20
103.747767861217
 10
154.4322056783009
 20
103.725902271132
 10
154.4238190241029
 20
103.7029170250308
 10
154.4176824478604
 20
103.678930548069
 10
154.4139036088058
 20
103.6540827972486
 10
154.4126224639411
 20
103.628481431802
 10
154.4126224639411
 20
103.628481431802
 10
154.4139036088058
 20
103.6029446618947
 10
154.4176824478604
 20
103.5781399747672
 10
154.4238190241029
 20
103.5542073274216
 10
154.4322056783009
 20
103.5312651450133
 10
154.4427024534525
 20
103.5094210867747
 10
154.4552124562486
 20
103.4888366415544
 10
154.4695741978406
 20
103.4695979367381
 10
154.4856907849195
 20
103.4518664611743
 10
154.5034330264065
 20
103.4357498740954
 10
154.5226824971461
 20
103.4213666006569
 10
154.5432992401362
 20
103.4088565978608
 10
154.5651755961444
 20
103.3983382908627
 10
154.5881823740921
 20
103.3899408707415
 10
154.6121903829003
 20
103.3837827626525
 10
154.6370919633369
 20
103.3800039235979
 10
154.6627471583997
 20
103.3787120128101
  0
HATCH
  5
83
330
1F
100
AcDbEntity
  8
ISS138金台
  6
Continuous
 62
   250
420
  2367521
370
    13
100
AcDbHatch
 10
0.0
 20
0.0
 30
0.0
210
0.0
220
0.0
230
1.0
  2
SOLID
 70
     1
 71
     0
 91
        1
 92
        3
 72
     0
 73
     1
 93
       67
 10
154.6627471583997
 20
111.3785788868861
 10
154.688283928307
 20
111.379870797674
 10
154.713067083588
 20
111.3836388708053
 10
154.7369781990872
 20
111.3897754470478
 10
154.7599096155722
 20
111.3981621012459
 10
154.7817106101178
 20
111.4086588763975
 10
154.8022735234917
 20
111.4211473473471
 10
154.8214799305384
 20
111.4354983230159
 10
154.8391791083324
 20
111.4516041441715
 10
154.8552633976417
 20
111.4693248538121
 10
154.8696143733105
 20
111.4885527927052
 10
154.8820920783368
 20
111.5091372379255
 10
154.8925888534884
 20
111.5309812961641
 10
154.9009647417632
 20
111.5539450104188
 10
154.9071013180057
 20
111.5779099555342
 10
154.9108801570603
 20
111.6027577063546
 10
154.912161301925
 20
111.628348305878
 10
154.912161301925
 20
111.628348305878
 10
154.9108801570603
 20
111.6539496713247
 10
154.9071013180057
 20
111.6787866562218
 10
154.9009647417632
 20
111.7027516013372
 10
154.8925888534884
 20
111.7257153155919
 10
154.8821028442601
 20
111.7475593738305
 10
154.8696143733105
 20
111.7681438190508
 10
154.8552633976417
 20
111.7873609920207
 10
154.8391791083324
 20
111.8050817016613
 10
154.8214799305384
 20
111.8211875228169
 10
154.802284289415
 20
111.835549264409
 10
154.7817106101178
 20
111.8480269694353
 10
154.7599096155722
 20
111.8585237445869
 10
154.7369889650104
 20
111.866910398785
 10
154.713067083588
 20
111.8730469750274
 10
154.688283928307
 20
111.876825814082
 10
154.6627471583997
 20
111.8781069589467
 10
154.6627471583997
 20
111.8781069589467
 10
154.6371027292601
 20
111.8768150481588
 10
154.6121903829003
 20
111.8730362091042
 10
154.5881823740921
 20
111.8668996328617
 10
154.5651755961444
 20
111.8585345105102
 10
154.5433100060594
 20
111.8480377353586
 10
154.5226717312228
 20
111.835549264409
 10
154.5034437923298
 20
111.8211875228169
 10
154.4856907849195
 20
111.8050817016613
 10
154.4695741978406
 20
111.7873609920207
 10
154.4552124562486
 20
111.7681438190508
 10
154.4427132193757
 20
111.7475486079072
 10
154.4322056783009
 20
111.7257153155919
 10
154.4238190241029
 20
111.7027516013372
 10
154.4176824478604
 20
111.6787866562218
 10
154.4139036088058
 20
111.6539389054014
 10
154.4126224639411
 20
111.628348305878
 10
154.4126224639411
 20
111.628348305878
 10
154.4139036088058
 20
111.6027577063546
 10
154.4176824478604
 20
111.5779099555342
 10
154.4238190241029
 20
111.5539450104188
 10
154.4322056783009
 20
111.5309812961641
 10
154.4427024534525
 20
111.5091480038488
 10
154.4552124562486
 20
111.4885527927052
 10
154.4695741978406
 20
111.4693248538121
 10
154.4856907849195
 20
111.4516041441715
 10
154.5034330264065
 20
111.4354983230159
 10
154.5226824971461
 20
111.4211473473471
 10
154.5432992401362
 20
111.4086588763975
 10
154.5651755961444
 20
111.3981621012459
 10
154.5881823740921
 20
111.3897754470478
 10
154.6121903829003
 20
111.3836388708053
 10
154.6370919633369
 20
111.3798600317508
 97
        0
 75
     1
 76
     1
 98
        0
  0
LWPOLYLINE
  5
84
330
1F
100
AcDbEntity
  8
ISS138金台
  6
Continuous
 62
   250
420
  2367521
370
    13
100
AcDbPolyline
 90
       68
 70
     0
 43
0.0
 10
154.6627471583997
 20
111.3785788868861
 10
154.688283928307
 20
111.379870797674
 10
154.713067083588
 20
111.3836388708053
 10
154.7369781990872
 20
111.3897754470478
 10
154.7599096155722
 20
111.3981621012459
 10
154.7817106101178
 20
111.4086588763975
 10
154.8022735234917
 20
111.4211473473471
 10
154.8214799305384
 20
111.4354983230159
 10
154.8391791083324
 20
111.4516041441715
 10
154.8552633976417
 20
111.4693248538121
 10
154.8696143733105
 20
111.4885527927052
 10
154.8820920783368
 20
111.5091372379255
 10
154.8925888534884
 20
111.5309812961641
 10
154.9009647417632
 20
111.5539450104188
 10
154.9071013180057
 20
111.5779099555342
 10
154.9108801570603
 20
111.6027577063546
 10
154.912161301925
 20
111.628348305878
 10
154.912161301925
 20
111.628348305878
 10
154.9108801570603
 20
111.6539496713247
 10
154.9071013180057
 20
111.6787866562218
 10
154.9009647417632
 20
111.7027516013372
 10
154.8925888534884
 20
111.7257153155919
 10
154.8821028442601
 20
111.7475593738305
 10
154.8696143733105
 20
111.7681438190508
 10
154.8552633976417
 20
111.7873609920207
 10
154.8391791083324
 20
111.8050817016613
 10
154.8214799305384
 20
111.8211875228169
 10
154.802284289415
 20
111.835549264409
 10
154.7817106101178
 20
111.8480269694353
 10
154.7599096155722
 20
111.8585237445869
 10
154.7369889650104
 20
111.866910398785
 10
154.713067083588
 20
111.8730469750274
 10
154.688283928307
 20
111.876825814082
 10
154.6627471583997
 20
111.8781069589467
 10
154.6627471583997
 20
111.8781069589467
 10
154.6371027292601
 20
111.8768150481588
 10
154.6121903829003
 20
111.8730362091042
 10
154.5881823740921
 20
111.8668996328617
 10
154.5651755961444
 20
111.8585345105102
 10
154.5433100060594
 20
111.8480377353586
 10
154.5226717312228
 20
111.835549264409
 10
154.5034437923298
 20
111.8211875228169
 10
154.4856907849195
 20
111.8050817016613
 10
154.4695741978406
 20
111.7873609920207
 10
154.4552124562486
 20
111.7681438190508
 10
154.4427132193757
 20
111.7475486079072
 10
154.4322056783009
 20
111.7257153155919
 10
154.4238190241029
 20
111.7027516013372
 10
154.4176824478604
 20
111.6787866562218
 10
154.4139036088058
 20
111.6539389054014
 10
154.4126224639411
 20
111.628348305878
 10
154.4126224639411
 20
111.628348305878
 10
154.4139036088058
 20
111.6027577063546
 10
154.4176824478604
 20
111.5779099555342
 10
154.4238190241029
 20
111.5539450104188
 10
154.4322056783009
 20
111.5309812961641
 10
154.4427024534525
 20
111.5091480038488
 10
154.4552124562486
 20
111.4885527927052
 10
154.4695741978406
 20
111.4693248538121
 10
154.4856907849195
 20
111.4516041441715
 10
154.5034330264065
 20
111.4354983230159
 10
154.5226824971461
 20
111.4211473473471
 10
154.5432992401362
 20
111.4086588763975
 10
154.5651755961444
 20
111.3981621012459
 10
154.5881823740921
 20
111.3897754470478
 10
154.6121903829003
 20
111.3836388708053
 10
154.6370919633369
 20
111.3798600317508
 10
154.6627471583997
 20
111.3785788868861
  0
HATCH
  5
85
330
1F
100
AcDbEntity
  8
ISS138金台
  6
Continuous
 62
   250
420
  2367521
370
    13
100
AcDbHatch
 10
0.0
 20
0.0
 30
0.0
210
0.0
220
0.0
230
1.0
  2
SOLID
 70
     1
 71
     0
 91
        1
 92
        3
 72
     0
 73
     1
 93
       67
 10
121.6597556598329
 20
116.5760113480267
 10
121.6853462593564
 20
116.5773032588145
 10
121.7101832442535
 20
116.5810820978691
 10
121.7341481893689
 20
116.587240205958
 10
121.7571226695468
 20
116.5956376260793
 10
121.7789559618622
 20
116.6061666990006
 10
121.799561938929
 20
116.6186874677199
 10
121.8187791118988
 20
116.6330815070817
 10
121.8364998215394
 20
116.6492088600838
 10
121.8525948767718
 20
116.666961867494
 10
121.8669566183639
 20
116.6862221041568
 10
121.8794450893135
 20
116.7068388471469
 10
121.8899526303883
 20
116.7287152031551
 10
121.8983285186631
 20
116.7517004492563
 10
121.9044650949056
 20
116.7756869262181
 10
121.9082439339602
 20
116.8005346770385
 10
121.9095250788248
 20
116.8261360424852
 10
121.9095250788248
 20
116.8261360424852
 10
121.9082439339602
 20
116.8516728123925
 10
121.9044650949056
 20
116.87647749952
 10
121.8983285186631
 20
116.9004101468656
 10
121.8899526303883
 20
116.9233523292739
 10
121.8794450893135
 20
116.9451856215892
 10
121.8669566183639
 20
116.9657700668096
 10
121.8526056426951
 20
116.9850087716259
 10
121.8364998215394
 20
117.0027402471896
 10
121.8187791118988
 20
117.0188568342686
 10
121.7995511730058
 20
117.0332401077071
 10
121.7789667277854
 20
117.0457501105031
 10
121.7571226695468
 20
117.0562684175012
 10
121.7341589552921
 20
117.0646658376225
 10
121.7101940101768
 20
117.0708239457114
 10
121.6853462593564
 20
117.074602784766
 10
121.6597556598329
 20
117.0758946955539
 10
121.6597556598329
 20
117.0758946955539
 10
121.6341650603095
 20
117.074602784766
 10
121.6093173094891
 20
117.0708131797882
 10
121.5853523643737
 20
117.0646658376225
 10
121.562388650119
 20
117.056257651578
 10
121.5405445918805
 20
117.0457501105031
 10
121.5199601466601
 20
117.0332401077071
 10
121.500732207767
 20
117.0188568342686
 10
121.4830114981265
 20
117.0027402471896
 10
121.466916442894
 20
116.9849980057026
 10
121.4525439353787
 20
116.9657808327328
 10
121.4400554644292
 20
116.9451856215892
 10
121.4295586892776
 20
116.9233523292739
 10
121.4211828010027
 20
116.9004101468656
 10
121.4150462247603
 20
116.8764667335967
 10
121.4112673857057
 20
116.8516728123925
 10
121.409986240841
 20
116.8261360424852
 10
121.409986240841
 20
116.8261360424852
 10
121.4112673857057
 20
116.8005454429618
 10
121.4150462247603
 20
116.7756869262181
 10
121.4211828010027
 20
116.7517004492563
 10
121.4295586892776
 20
116.7287044372319
 10
121.4400554644292
 20
116.7068496130701
 10
121.452554701302
 20
116.6862221041568
 10
121.4669056769708
 20
116.666961867494
 10
121.4830114981265
 20
116.6492088600838
 10
121.500732207767
 20
116.6330707411584
 10
121.5199493807369
 20
116.6186874677199
 10
121.5405445918805
 20
116.6061666990006
 10
121.562388650119
 20
116.5956483920026
 10
121.5853523643737
 20
116.587240205958
 10
121.6093173094891
 20
116.5810928637923
 10
121.6341650603095
 20
116.5773032588145
 97
        0
 75
     1
 76
     1
 98
        0
  0
LWPOLYLINE
  5
86
330
1F
100
AcDbEntity
  8
ISS138金台
  6
Continuous
 62
   250
420
  2367521
370
    13
100
AcDbPolyline
 90
       68
 70
     0
 43
0.0
 10
121.6597556598329
 20
116.5760113480267
 10
121.6853462593564
 20
116.5773032588145
 10
121.7101832442535
 20
116.5810820978691
 10
121.7341481893689
 20
116.587240205958
 10
121.7571226695468
 20
116.5956376260793
 10
121.7789559618622
 20
116.6061666990006
 10
121.799561938929
 20
116.6186874677199
 10
121.8187791118988
 20
116.6330815070817
 10
121.8364998215394
 20
116.6492088600838
 10
121.8525948767718
 20
116.666961867494
 10
121.8669566183639
 20
116.6862221041568
 10
121.8794450893135
 20
116.7068388471469
 10
121.8899526303883
 20
116.7287152031551
 10
121.8983285186631
 20
116.7517004492563
 10
121.9044650949056
 20
116.7756869262181
 10
121.9082439339602
 20
116.8005346770385
 10
121.9095250788248
 20
116.8261360424852
 10
121.9095250788248
 20
116.8261360424852
 10
121.9082439339602
 20
116.8516728123925
 10
121.9044650949056
 20
116.87647749952
 10
121.8983285186631
 20
116.9004101468656
 10
121.8899526303883
 20
116.9233523292739
 10
121.8794450893135
 20
116.9451856215892
 10
121.8669566183639
 20
116.9657700668096
 10
121.8526056426951
 20
116.9850087716259
 10
121.8364998215394
 20
117.0027402471896
 10
121.8187791118988
 20
117.0188568342686
 10
121.7995511730058
 20
117.0332401077071
 10
121.7789667277854
 20
117.0457501105031
 10
121.7571226695468
 20
117.0562684175012
 10
121.7341589552921
 20
117.0646658376225
 10
121.7101940101768
 20
117.0708239457114
 10
121.6853462593564
 20
117.074602784766
 10
121.6597556598329
 20
117.0758946955539
 10
121.6597556598329
 20
117.0758946955539
 10
121.6341650603095
 20
117.074602784766
 10
121.6093173094891
 20
117.0708131797882
 10
121.5853523643737
 20
117.0646658376225
 10
121.562388650119
 20
117.056257651578
 10
121.5405445918805
 20
117.0457501105031
 10
121.5199601466601
 20
117.0332401077071
 10
121.500732207767
 20
117.0188568342686
 10
121.4830114981265
 20
117.0027402471896
 10
121.466916442894
 20
116.9849980057026
 10
121.4525439353787
 20
116.9657808327328
 10
121.4400554644292
 20
116.9451856215892
 10
121.4295586892776
 20
116.9233523292739
 10
121.4211828010027
 20
116.9004101468656
 10
121.4150462247603
 20
116.8764667335967
 10
121.4112673857057
 20
116.8516728123925
 10
121.409986240841
 20
116.8261360424852
 10
121.409986240841
 20
116.8261360424852
 10
121.4112673857057
 20
116.8005454429618
 10
121.4150462247603
 20
116.7756869262181
 10
121.4211828010027
 20
116.7517004492563
 10
121.4295586892776
 20
116.7287044372319
 10
121.4400554644292
 20
116.7068496130701
 10
121.452554701302
 20
116.6862221041568
 10
121.4669056769708
 20
116.666961867494
 10
121.4830114981265
 20
116.6492088600838
 10
121.500732207767
 20
116.6330707411584
 10
121.5199493807369
 20
116.6186874677199
 10
121.5405445918805
 20
116.6061666990006
 10
121.562388650119
 20
116.5956483920026
 10
121.5853523643737
 20
116.587240205958
 10
121.6093173094891
 20
116.5810928637923
 10
121.6341650603095
 20
116.5773032588145
 10
121.6597556598329
 20
116.5760113480267
  0
HATCH
  5
87
330
1F
100
AcDbEntity
  8
ISS138金台
  6
Continuous
 62
   250
420
  2367521
370
    13
100
AcDbHatch
 10
0.0
 20
0.0
 30
0.0
210
0.0
220
0.0
230
1.0
  2
SOLID
 70
     1
 71
     0
 91
        1
 92
        3
 72
     0
 73
     1
 93
       67
 10
144.1600399830996
 20
92.94145088483978
 10
144.1855875189301
 20
92.94273202970443
 10
144.2103922060576
 20
92.94653240060546
 10
144.2343356193265
 20
92.95267974277118
 10
144.2573100995044
 20
92.96108792881569
 10
144.2791756895895
 20
92.97161700173697
 10
144.2997924325795
 20
92.98412700453304
 10
144.3190526692423
 20
92.99852104389478
 10
144.336827208499
 20
93.01464839689692
 10
144.3529868592709
 20
93.03240140430717
 10
144.3673916645558
 20
93.05166164096994
 10
144.3799339651216
 20
93.07227838396001
 10
144.3904845698893
 20
93.09414397404504
 10
144.3989035218571
 20
93.11713998606946
 10
144.4050723958692
 20
93.14112646303127
 10
144.4088727667703
 20
93.16597421385167
 10
144.4101646775582
 20
93.19157557929833
 10
144.4101646775582
 20
93.19157557929833
 10
144.4088727667703
 20
93.21710158328239
 10
144.4050723958692
 20
93.24190627040986
 10
144.3988927559338
 20
93.26584968367874
 10
144.3904845698893
 20
93.288791866087
 10
144.3799447310448
 20
93.31062515840232
 10
144.3673916645558
 20
93.33122036954592
 10
144.3529760933476
 20
93.35043754251578
 10
144.336827208499
 20
93.36817978400278
 10
144.3190634351656
 20
93.38429637108169
 10
144.2997924325795
 20
93.3986796445202
 10
144.2791756895895
 20
93.41118964731626
 10
144.2573100995044
 20
93.42170795431431
 10
144.2343463852497
 20
93.4301053744356
 10
144.2103922060576
 20
93.43626348252454
 10
144.1855767530069
 20
93.44004232157911
 10
144.1600399830996
 20
93.441334232367
 10
144.1600399830996
 20
93.441334232367
 10
144.1344924472691
 20
93.44004232157911
 10
144.1096985260649
 20
93.43626348252454
 10
144.0857443468728
 20
93.4301053744356
 10
144.0627698666948
 20
93.42170795431431
 10
144.040915042533
 20
93.41118964731626
 10
144.0202875336197
 20
93.3986796445202
 10
144.0010165310337
 20
93.38429637108169
 10
143.9832527577002
 20
93.36817978400278
 10
143.9671038728516
 20
93.350448308439
 10
143.9526883016434
 20
93.33120960362268
 10
143.9401460010777
 20
93.31062515840232
 10
143.9295953963099
 20
93.288791866087
 10
143.9211764443422
 20
93.26584968367874
 10
143.91500757033
 20
93.24190627040986
 10
143.9112071994289
 20
93.21711234920562
 10
143.9099152886411
 20
93.19157557929833
 10
143.9099152886411
 20
93.19157557929833
 10
143.9112179653522
 20
93.16597421385167
 10
143.91500757033
 20
93.14111569710803
 10
143.9211872102654
 20
93.11713998606946
 10
143.9296061622331
 20
93.09415473996827
 10
143.9401460010777
 20
93.07227838396001
 10
143.9526775357202
 20
93.05166164096994
 10
143.9670931069284
 20
93.03240140430717
 10
143.9832527577002
 20
93.01465916282015
 10
144.0010272969569
 20
92.99851027797155
 10
144.0202875336197
 20
92.98412700453304
 10
144.0409042766098
 20
92.97160623581375
 10
144.0627698666948
 20
92.96108792881569
 10
144.0857443468728
 20
92.95267974277118
 10
144.1096877601416
 20
92.94652163468223
 10
144.1345032131923
 20
92.94274279562765
 97
        0
 75
     1
 76
     1
 98
        0
  0
LWPOLYLINE
  5
88
330
1F
100
AcDbEntity
  8
ISS138金台
  6
Continuous
 62
   250
420
  2367521
370
    13
100
AcDbPolyline
 90
       68
 70
     0
 43
0.0
 10
144.1600399830996
 20
92.94145088483978
 10
144.1855875189301
 20
92.94273202970443
 10
144.2103922060576
 20
92.94653240060546
 10
144.2343356193265
 20
92.95267974277118
 10
144.2573100995044
 20
92.96108792881569
 10
144.2791756895895
 20
92.97161700173697
 10
144.2997924325795
 20
92.98412700453304
 10
144.3190526692423
 20
92.99852104389478
 10
144.336827208499
 20
93.01464839689692
 10
144.3529868592709
 20
93.03240140430717
 10
144.3673916645558
 20
93.05166164096994
 10
144.3799339651216
 20
93.07227838396001
 10
144.3904845698893
 20
93.09414397404504
 10
144.3989035218571
 20
93.11713998606946
 10
144.4050723958692
 20
93.14112646303127
 10
144.4088727667703
 20
93.16597421385167
 10
144.4101646775582
 20
93.19157557929833
 10
144.4101646775582
 20
93.19157557929833
 10
144.4088727667703
 20
93.21710158328239
 10
144.4050723958692
 20
93.24190627040986
 10
144.3988927559338
 20
93.26584968367874
 10
144.3904845698893
 20
93.288791866087
 10
144.3799447310448
 20
93.31062515840232
 10
144.3673916645558
 20
93.33122036954592
 10
144.3529760933476
 20
93.35043754251578
 10
144.336827208499
 20
93.36817978400278
 10
144.3190634351656
 20
93.38429637108169
 10
144.2997924325795
 20
93.3986796445202
 10
144.2791756895895
 20
93.41118964731626
 10
144.2573100995044
 20
93.42170795431431
 10
144.2343463852497
 20
93.4301053744356
 10
144.2103922060576
 20
93.43626348252454
 10
144.1855767530069
 20
93.44004232157911
 10
144.1600399830996
 20
93.441334232367
 10
144.1600399830996
 20
93.441334232367
 10
144.1344924472691
 20
93.44004232157911
 10
144.1096985260649
 20
93.43626348252454
 10
144.0857443468728
 20
93.4301053744356
 10
144.0627698666948
 20
93.42170795431431
 10
144.040915042533
 20
93.41118964731626
 10
144.0202875336197
 20
93.3986796445202
 10
144.0010165310337
 20
93.38429637108169
 10
143.9832527577002
 20
93.36817978400278
 10
143.9671038728516
 20
93.350448308439
 10
143.9526883016434
 20
93.33120960362268
 10
143.9401460010777
 20
93.31062515840232
 10
143.9295953963099
 20
93.288791866087
 10
143.9211764443422
 20
93.26584968367874
 10
143.91500757033
 20
93.24190627040986
 10
143.9112071994289
 20
93.21711234920562
 10
143.9099152886411
 20
93.19157557929833
 10
143.9099152886411
 20
93.19157557929833
 10
143.9112179653522
 20
93.16597421385167
 10
143.91500757033
 20
93.14111569710803
 10
143.9211872102654
 20
93.11713998606946
 10
143.9296061622331
 20
93.09415473996827
 10
143.9401460010777
 20
93.07227838396001
 10
143.9526775357202
 20
93.05166164096994
 10
143.9670931069284
 20
93.03240140430717
 10
143.9832527577002
 20
93.01465916282015
 10
144.0010272969569
 20
92.99851027797155
 10
144.0202875336197
 20
92.98412700453304
 10
144.0409042766098
 20
92.97160623581375
 10
144.0627698666948
 20
92.96108792881569
 10
144.0857443468728
 20
92.95267974277118
 10
144.1096877601416
 20
92.94652163468223
 10
144.1345032131923
 20
92.94274279562765
 10
144.1600399830996
 20
92.94145088483978
  0
HATCH
  5
89
330
1F
100
AcDbEntity
  8
ISS138金台
  6
Continuous
 62
   250
420
  2367521
370
    13
100
AcDbHatch
 10
0.0
 20
0.0
 30
0.0
210
0.0
220
0.0
230
1.0
  2
SOLID
 70
     1
 71
     0
 91
        1
 92
        3
 72
     0
 73
     1
 93
       67
 10
149.6577232772688
 20
110.5789291728757
 10
149.6832492812529
 20
110.5802103177403
 10
149.7080539683803
 20
110.5839999227181
 10
149.7319650838795
 20
110.5901687967303
 10
149.7548857344413
 20
110.5985554509284
 10
149.7766974949102
 20
110.6090845238497
 10
149.7972604082841
 20
110.621605292569
 10
149.8164560494075
 20
110.6359885660074
 10
149.8341552272015
 20
110.6521266849328
 10
149.8502395165108
 20
110.6698904582663
 10
149.8645904921796
 20
110.6891399290059
 10
149.8770681972059
 20
110.7097566719959
 10
149.8875649723575
 20
110.7316330280042
 10
149.8959408606323
 20
110.7546182741054
 10
149.9020774368748
 20
110.7786047510672
 10
149.9058562759294
 20
110.8034525018876
 10
149.907137420794
 20
110.8290538673343
 10
149.907137420794
 20
110.8290538673343
 10
149.9058562759294
 20
110.8545906372415
 10
149.902088202798
 20
110.879395324369
 10
149.8959408606323
 20
110.9033172057914
 10
149.8875649723575
 20
110.9262701541229
 10
149.8770681972059
 20
110.9481034464382
 10
149.8645904921796
 20
110.9686986575818
 10
149.850250282434
 20
110.9879265964749
 10
149.8341552272015
 20
111.0056580720387
 10
149.8164560494075
 20
111.0217746591176
 10
149.7972604082841
 20
111.0361579325561
 10
149.7766867289869
 20
111.0486679353522
 10
149.7548857344413
 20
111.0591862423502
 10
149.7319650838795
 20
111.0675836624715
 10
149.7080432024571
 20
111.0737417705604
 10
149.6832600471761
 20
111.077520609615
 10
149.6577232772688
 20
111.0788125204029
 10
149.6577232772688
 20
111.0788125204029
 10
149.632068082206
 20
111.077520609615
 10
149.6071772676926
 20
111.0737310046372
 10
149.5831477270379
 20
111.0675836624715
 10
149.5601517150135
 20
111.059175476427
 10
149.5382753590052
 20
111.0486679353522
 10
149.5176478500919
 20
111.0361579325561
 10
149.4984091452756
 20
111.0217746591176
 10
149.4806669037886
 20
111.0056580720387
 10
149.4645610826329
 20
110.9879265964749
 10
149.4501885751177
 20
110.9686878916586
 10
149.4376785723216
 20
110.9481034464382
 10
149.42718179717
 20
110.9262701541229
 10
149.418795142972
 20
110.9033279717146
 10
149.4126585667295
 20
110.8793845584458
 10
149.4088797276749
 20
110.8545906372415
 10
149.4075985828102
 20
110.8290538673343
 10
149.4075985828102
 20
110.8290538673343
 10
149.4088797276749
 20
110.8034632678108
 10
149.4126693326527
 20
110.7786047510672
 10
149.4188059088952
 20
110.7546182741054
 10
149.42718179717
 20
110.7316222620809
 10
149.4376893382448
 20
110.7097566719959
 10
149.4501778091944
 20
110.6891399290059
 10
149.4645610826329
 20
110.6698904582663
 10
149.4806669037886
 20
110.6521266849328
 10
149.4984091452756
 20
110.6359993319307
 10
149.5176586160152
 20
110.621605292569
 10
149.5382753590052
 20
110.6090845238497
 10
149.5601517150135
 20
110.5985662168516
 10
149.5831584929612
 20
110.5901580308071
 10
149.6071665017694
 20
110.5839999227181
 10
149.632068082206
 20
110.5802210836636
 97
        0
 75
     1
 76
     1
 98
        0
  0
LWPOLYLINE
  5
8A
330
1F
100
AcDbEntity
  8
ISS138金台
  6
Continuous
 62
   250
420
  2367521
370
    13
100
AcDbPolyline
 90
       68
 70
     0
 43
0.0
 10
149.6577232772688
 20
110.5789291728757
 10
149.6832492812529
 20
110.5802103177403
 10
149.7080539683803
 20
110.5839999227181
 10
149.7319650838795
 20
110.5901687967303
 10
149.7548857344413
 20
110.5985554509284
 10
149.7766974949102
 20
110.6090845238497
 10
149.7972604082841
 20
110.621605292569
 10
149.8164560494075
 20
110.6359885660074
 10
149.8341552272015
 20
110.6521266849328
 10
149.8502395165108
 20
110.6698904582663
 10
149.8645904921796
 20
110.6891399290059
 10
149.8770681972059
 20
110.7097566719959
 10
149.8875649723575
 20
110.7316330280042
 10
149.8959408606323
 20
110.7546182741054
 10
149.9020774368748
 20
110.7786047510672
 10
149.9058562759294
 20
110.8034525018876
 10
149.907137420794
 20
110.8290538673343
 10
149.907137420794
 20
110.8290538673343
 10
149.9058562759294
 20
110.8545906372415
 10
149.902088202798
 20
110.879395324369
 10
149.8959408606323
 20
110.9033172057914
 10
149.8875649723575
 20
110.9262701541229
 10
149.8770681972059
 20
110.9481034464382
 10
149.8645904921796
 20
110.9686986575818
 10
149.850250282434
 20
110.9879265964749
 10
149.8341552272015
 20
111.0056580720387
 10
149.8164560494075
 20
111.0217746591176
 10
149.7972604082841
 20
111.0361579325561
 10
149.7766867289869
 20
111.0486679353522
 10
149.7548857344413
 20
111.0591862423502
 10
149.7319650838795
 20
111.0675836624715
 10
149.7080432024571
 20
111.0737417705604
 10
149.6832600471761
 20
111.077520609615
 10
149.6577232772688
 20
111.0788125204029
 10
149.6577232772688
 20
111.0788125204029
 10
149.632068082206
 20
111.077520609615
 10
149.6071772676926
 20
111.0737310046372
 10
149.5831477270379
 20
111.0675836624715
 10
149.5601517150135
 20
111.059175476427
 10
149.5382753590052
 20
111.0486679353522
 10
149.5176478500919
 20
111.0361579325561
 10
149.4984091452756
 20
111.0217746591176
 10
149.4806669037886
 20
111.0056580720387
 10
149.4645610826329
 20
110.9879265964749
 10
149.4501885751177
 20
110.9686878916586
 10
149.4376785723216
 20
110.9481034464382
 10
149.42718179717
 20
110.9262701541229
 10
149.418795142972
 20
110.9033279717146
 10
149.4126585667295
 20
110.8793845584458
 10
149.4088797276749
 20
110.8545906372415
 10
149.4075985828102
 20
110.8290538673343
 10
149.4075985828102
 20
110.8290538673343
 10
149.4088797276749
 20
110.8034632678108
 10
149.4126693326527
 20
110.7786047510672
 10
149.4188059088952
 20
110.7546182741054
 10
149.42718179717
 20
110.7316222620809
 10
149.4376893382448
 20
110.7097566719959
 10
149.4501778091944
 20
110.6891399290059
 10
149.4645610826329
 20
110.6698904582663
 10
149.4806669037886
 20
110.6521266849328
 10
149.4984091452756
 20
110.6359993319307
 10
149.5176586160152
 20
110.621605292569
 10
149.5382753590052
 20
110.6090845238497
 10
149.5601517150135
 20
110.5985662168516
 10
149.5831584929612
 20
110.5901580308071
 10
149.6071665017694
 20
110.5839999227181
 10
149.632068082206
 20
110.5802210836636
 10
149.6577232772688
 20
110.5789291728757
  0
TEXT
  5
8B
330
1F
100
AcDbEntity
  8
ISS138金台
  6
Continuous
 62
   250
420
  2367521
100
AcDbText
 10
155.365877097791
 20
113.5392996622364
 30
0.0
 40
2.150533301035563
  1
8
 50
90.00000250447816
 41
0.8780059814453123
  7
MS Gothic
100
AcDbText
  0
TEXT
  5
8C
330
1F
100
AcDbEntity
  8
ISS138金台
  6
Continuous
 62
   250
420
  2367521
100
AcDbText
 10
150.4269882830767
 20
113.5392996622364
 30
0.0
 40
2.150533301035563
  1
0 .  8
 50
90.00000250447816
 41
0.432000478108724
  7
MS Gothic
100
AcDbText
  0
TEXT
  5
8D
330
1F
100
AcDbEntity
  8
ISS138金台
  6
Continuous
 62
   250
420
  2367521
100
AcDbText
 10
148.7505833128654
 20
107.0312560045521
 30
0.0
 40
2.150533301035563
  1
6
 50
90.00000250447816
 41
0.8919982910156248
  7
MS Gothic
100
AcDbText
  0
TEXT
  5
8E
330
1F
100
AcDbEntity
  8
ISS138金台
  6
Continuous
 62
   250
420
  2367521
100
AcDbText
 10
111.9662906361433
 20
117.9299478924983
 30
0.0
 40
2.150533301035563
  1
16
 41
1.000124931335449
  7
MS Gothic
100
AcDbText
  0
TEXT
  5
8F
330
1F
100
AcDbEntity
  8
ISS138金台
  6
Continuous
 62
   250
420
  2367521
100
AcDbText
 10
122.6455804843014
 20
94.25150552621616
 30
0.0
 40
2.150533301035563
  1
38 . 5
 41
0.6870002746582031
  7
MS Gothic
100
AcDbText
  0
LINE
  5
90
330
1F
100
AcDbEntity
  8
ISS138金台
  6
Continuous
 62
   250
420
  2367521
370
    13
100
AcDbLine
 10
149.6577232772688
 20
104.929327935974
 30
0.0
 11
149.6577232772688
 21
112.4815907857394
 31
0.0
  0
LINE
  5
91
330
1F
100
AcDbEntity
  8
ISS138金台
  6
Continuous
 62
   250
420
  2367521
370
    13
100
AcDbLine
 10
104.6596092612324
 20
106.6288042796724
 30
0.0
 11
99.65440235940656
 21
106.6288042796724
 31
0.0
  0
LINE
  5
92
330
1F
100
AcDbEntity
  8
ISS138金台
  6
Continuous
 62
   250
420
  2367521
370
    13
100
AcDbLine
 10
104.6596092612324
 20
103.6284706658787
 30
0.0
 11
99.65440235940656
 21
103.6284706658787
 31
0.0
  0
HATCH
  5
93
330
1F
100
AcDbEntity
  8
ISS138金台
  6
Continuous
 62
   250
420
  2367521
370
    13
100
AcDbHatch
 10
0.0
 20
0.0
 30
0.0
210
0.0
220
0.0
230
1.0
  2
SOLID
 70
     1
 71
     0
 91
        1
 92
        3
 72
     0
 73
     1
 93
       67
 10
100.1616818961944
 20
103.3783567373434
 10
100.1361451262872
 20
103.3796486481313
 10
100.1113296732365
 20
103.3834274871858
 10
100.0873862599676
 20
103.3895855952748
 10
100.0644117797896
 20
103.3979937813193
 10
100.0425569556278
 20
103.4085120883174
 10
100.0219294467146
 20
103.4210328570367
 10
100.0026692100518
 20
103.4354268963984
 10
99.98489467079506
 20
103.4515542494005
 10
99.96874578594644
 20
103.469318022734
 10
99.95433021473823
 20
103.4885674934736
 10
99.9417879141725
 20
103.5091842364636
 10
99.93123730940474
 20
103.5310498265487
 10
99.92281835743698
 20
103.5540458385731
 10
99.9166494834248
 20
103.5780215496116
 10
99.91284911252377
 20
103.6028800663553
 10
99.91155720173589
 20
103.628481431802
 10
99.91155720173589
 20
103.628481431802
 10
99.91283834660054
 20
103.6540289676325
 10
99.9166494834248
 20
103.6788121229135
 10
99.92281835743698
 20
103.7027447702591
 10
99.93124807532796
 20
103.7256869526674
 10
99.9417879141725
 20
103.7475310109059
 10
99.95433021473823
 20
103.7681154561263
 10
99.96873502002322
 20
103.7873541609426
 10
99.98489467079506
 20
103.8050856365064
 10
100.0026692100518
 20
103.8212129895085
 10
100.0219294467146
 20
103.8355854970238
 10
100.0425461897046
 20
103.8480954998199
 10
100.0644117797896
 20
103.8586138068179
 10
100.0873862599676
 20
103.8670112269392
 10
100.1113296732365
 20
103.8731693350282
 10
100.1361451262872
 20
103.8769481740827
 10
100.1616818961944
 20
103.8782400848706
 10
100.1616818961944
 20
103.8782400848706
 10
100.1872186661017
 20
103.8769481740827
 10
100.2120233532292
 20
103.8731693350282
 10
100.2359775324213
 20
103.8670112269392
 10
100.2589627785225
 20
103.8586138068179
 10
100.2808176026843
 20
103.8480954998199
 10
100.3014451115976
 20
103.8355854970238
 10
100.3206945823371
 20
103.8212022235853
 10
100.3384691215938
 20
103.8050856365064
 10
100.3546287723657
 20
103.7873541609426
 10
100.3690335776506
 20
103.7681154561263
 10
100.3815758782164
 20
103.7475310109059
 10
100.3921157170609
 20
103.7256977185906
 10
100.4005454349519
 20
103.7027555361823
 10
100.4067143089641
 20
103.6788121229135
 10
100.4105146798651
 20
103.6540182017092
 10
100.411806590653
 20
103.628481431802
 10
100.411806590653
 20
103.628481431802
 10
100.4105039139419
 20
103.6028800663553
 10
100.4067143089641
 20
103.5780323155349
 10
100.4005346690287
 20
103.5540458385731
 10
100.3921264829842
 20
103.5310498265487
 10
100.3815758782164
 20
103.5091842364636
 10
100.3690335776506
 20
103.4885674934736
 10
100.3546180064425
 20
103.469318022734
 10
100.3384691215938
 20
103.4515542494005
 10
100.3206945823371
 20
103.4354268963984
 10
100.3014451115976
 20
103.4210328570367
 10
100.2808176026843
 20
103.4085120883174
 10
100.2589520125993
 20
103.3979937813193
 10
100.2359882983445
 20
103.3895855952748
 10
100.2120341191524
 20
103.3834274871858
 10
100.1872186661017
 20
103.3796486481313
 97
        0
 75
     1
 76
     1
 98
        0
  0
LWPOLYLINE
  5
94
330
1F
100
AcDbEntity
  8
ISS138金台
  6
Continuous
 62
   250
420
  2367521
370
    13
100
AcDbPolyline
 90
       68
 70
     0
 43
0.0
 10
100.1616818961944
 20
103.3783567373434
 10
100.1361451262872
 20
103.3796486481313
 10
100.1113296732365
 20
103.3834274871858
 10
100.0873862599676
 20
103.3895855952748
 10
100.0644117797896
 20
103.3979937813193
 10
100.0425569556278
 20
103.4085120883174
 10
100.0219294467146
 20
103.4210328570367
 10
100.0026692100518
 20
103.4354268963984
 10
99.98489467079506
 20
103.4515542494005
 10
99.96874578594644
 20
103.469318022734
 10
99.95433021473823
 20
103.4885674934736
 10
99.9417879141725
 20
103.5091842364636
 10
99.93123730940474
 20
103.5310498265487
 10
99.92281835743698
 20
103.5540458385731
 10
99.9166494834248
 20
103.5780215496116
 10
99.91284911252377
 20
103.6028800663553
 10
99.91155720173589
 20
103.628481431802
 10
99.91155720173589
 20
103.628481431802
 10
99.91283834660054
 20
103.6540289676325
 10
99.9166494834248
 20
103.6788121229135
 10
99.92281835743698
 20
103.7027447702591
 10
99.93124807532796
 20
103.7256869526674
 10
99.9417879141725
 20
103.7475310109059
 10
99.95433021473823
 20
103.7681154561263
 10
99.96873502002322
 20
103.7873541609426
 10
99.98489467079506
 20
103.8050856365064
 10
100.0026692100518
 20
103.8212129895085
 10
100.0219294467146
 20
103.8355854970238
 10
100.0425461897046
 20
103.8480954998199
 10
100.0644117797896
 20
103.8586138068179
 10
100.0873862599676
 20
103.8670112269392
 10
100.1113296732365
 20
103.8731693350282
 10
100.1361451262872
 20
103.8769481740827
 10
100.1616818961944
 20
103.8782400848706
 10
100.1616818961944
 20
103.8782400848706
 10
100.1872186661017
 20
103.8769481740827
 10
100.2120233532292
 20
103.8731693350282
 10
100.2359775324213
 20
103.8670112269392
 10
100.2589627785225
 20
103.8586138068179
 10
100.2808176026843
 20
103.8480954998199
 10
100.3014451115976
 20
103.8355854970238
 10
100.3206945823371
 20
103.8212022235853
 10
100.3384691215938
 20
103.8050856365064
 10
100.3546287723657
 20
103.7873541609426
 10
100.3690335776506
 20
103.7681154561263
 10
100.3815758782164
 20
103.7475310109059
 10
100.3921157170609
 20
103.7256977185906
 10
100.4005454349519
 20
103.7027555361823
 10
100.4067143089641
 20
103.6788121229135
 10
100.4105146798651
 20
103.6540182017092
 10
100.411806590653
 20
103.628481431802
 10
100.411806590653
 20
103.628481431802
 10
100.4105039139419
 20
103.6028800663553
 10
100.4067143089641
 20
103.5780323155349
 10
100.4005346690287
 20
103.5540458385731
 10
100.3921264829842
 20
103.5310498265487
 10
100.3815758782164
 20
103.5091842364636
 10
100.3690335776506
 20
103.4885674934736
 10
100.3546180064425
 20
103.469318022734
 10
100.3384691215938
 20
103.4515542494005
 10
100.3206945823371
 20
103.4354268963984
 10
100.3014451115976
 20
103.4210328570367
 10
100.2808176026843
 20
103.4085120883174
 10
100.2589520125993
 20
103.3979937813193
 10
100.2359882983445
 20
103.3895855952748
 10
100.2120341191524
 20
103.3834274871858
 10
100.1872186661017
 20
103.3796486481313
 10
100.1616818961944
 20
103.3783567373434
  0
HATCH
  5
95
330
1F
100
AcDbEntity
  8
ISS138金台
  6
Continuous
 62
   250
420
  2367521
370
    13
100
AcDbHatch
 10
0.0
 20
0.0
 30
0.0
210
0.0
220
0.0
230
1.0
  2
SOLID
 70
     1
 71
     0
 91
        1
 92
        3
 72
     0
 73
     1
 93
       67
 10
100.1616818961944
 20
106.3786903511371
 10
100.1361558922104
 20
106.3799714960017
 10
100.1113619710062
 20
106.3837395691331
 10
100.087450855507
 20
106.3898869112988
 10
100.0645302049452
 20
106.39828433142
 10
100.0427184444763
 20
106.4087811065717
 10
100.0221447651792
 20
106.4212695775212
 10
100.0029491240558
 20
106.4356313191133
 10
99.98524994626172
 20
106.4517586721154
 10
99.9691656569525
 20
106.4695009136024
 10
99.9548146812837
 20
106.488750384342
 10
99.94233697625734
 20
106.509367127332
 10
99.93184020110574
 20
106.5312434833403
 10
99.92346431283093
 20
106.554250261288
 10
99.91732773658845
 20
106.5782582700962
 10
99.91354889753387
 20
106.6031598505328
 10
99.91226775266922
 20
106.6288150455956
 10
99.91226775266922
 20
106.6288150455956
 10
99.91354889753387
 20
106.6542979858867
 10
99.91732773658845
 20
106.679048843398
 10
99.92346431283093
 20
106.7029599588972
 10
99.93184020110574
 20
106.725880609459
 10
99.94233697625734
 20
106.7477031358511
 10
99.9548146812837
 20
106.7682983469947
 10
99.96915489102926
 20
106.787537051811
 10
99.98524994626172
 20
106.805279293298
 10
100.0029491240558
 20
106.8214281781467
 10
100.0221555311024
 20
106.8358222175084
 10
100.0427184444763
 20
106.8483537521509
 10
100.064519439022
 20
106.8588935909954
 10
100.087450855507
 20
106.8673125429632
 10
100.1113619710062
 20
106.8734814169754
 10
100.1361451262872
 20
106.8772817878764
 10
100.1616818961944
 20
106.8785736986643
 10
100.1616818961944
 20
106.8785736986643
 10
100.1873370912573
 20
106.8772817878764
 10
100.2122279057706
 20
106.8734814169754
 10
100.2362359145789
 20
106.8673125429632
 10
100.259264224373
 20
106.8589043569187
 10
100.281129814458
 20
106.8483537521509
 10
100.3017573233713
 20
106.8358114515852
 10
100.3209960281876
 20
106.8214174122234
 10
100.3387382696746
 20
106.805279293298
 10
100.3548548567536
 20
106.787537051811
 10
100.3692273642688
 20
106.7682983469947
 10
100.3817158352184
 20
106.7477031358511
 10
100.3922233762933
 20
106.725880609459
 10
100.4006100304913
 20
106.702949192974
 10
100.4067466067338
 20
106.679048843398
 10
100.4105254457884
 20
106.6542872199635
 10
100.411806590653
 20
106.6288150455956
 10
100.411806590653
 20
106.6288150455956
 10
100.4105146798651
 20
106.6031598505328
 10
100.4067466067338
 20
106.5782690360195
 10
100.4005992645681
 20
106.554250261288
 10
100.3922233762933
 20
106.5312434833403
 10
100.3817158352184
 20
106.509367127332
 10
100.3692273642688
 20
106.4887396184188
 10
100.3548440908303
 20
106.4695009136024
 10
100.3387382696746
 20
106.4517586721154
 10
100.3209960281876
 20
106.4356420850365
 10
100.3017573233713
 20
106.4212803434445
 10
100.281129814458
 20
106.4087811065717
 10
100.2592534584498
 20
106.39828433142
 10
100.2362466805021
 20
106.389897677222
 10
100.2122386716938
 20
106.3837503350563
 10
100.1873370912573
 20
106.3799714960017
 97
        0
 75
     1
 76
     1
 98
        0
  0
LWPOLYLINE
  5
96
330
1F
100
AcDbEntity
  8
ISS138金台
  6
Continuous
 62
   250
420
  2367521
370
    13
100
AcDbPolyline
 90
       68
 70
     0
 43
0.0
 10
100.1616818961944
 20
106.3786903511371
 10
100.1361558922104
 20
106.3799714960017
 10
100.1113619710062
 20
106.3837395691331
 10
100.087450855507
 20
106.3898869112988
 10
100.0645302049452
 20
106.39828433142
 10
100.0427184444763
 20
106.4087811065717
 10
100.0221447651792
 20
106.4212695775212
 10
100.0029491240558
 20
106.4356313191133
 10
99.98524994626172
 20
106.4517586721154
 10
99.9691656569525
 20
106.4695009136024
 10
99.9548146812837
 20
106.488750384342
 10
99.94233697625734
 20
106.509367127332
 10
99.93184020110574
 20
106.5312434833403
 10
99.92346431283093
 20
106.554250261288
 10
99.91732773658845
 20
106.5782582700962
 10
99.91354889753387
 20
106.6031598505328
 10
99.91226775266922
 20
106.6288150455956
 10
99.91226775266922
 20
106.6288150455956
 10
99.91354889753387
 20
106.6542979858867
 10
99.91732773658845
 20
106.679048843398
 10
99.92346431283093
 20
106.7029599588972
 10
99.93184020110574
 20
106.725880609459
 10
99.94233697625734
 20
106.7477031358511
 10
99.9548146812837
 20
106.7682983469947
 10
99.96915489102926
 20
106.787537051811
 10
99.98524994626172
 20
106.805279293298
 10
100.0029491240558
 20
106.8214281781467
 10
100.0221555311024
 20
106.8358222175084
 10
100.0427184444763
 20
106.8483537521509
 10
100.064519439022
 20
106.8588935909954
 10
100.087450855507
 20
106.8673125429632
 10
100.1113619710062
 20
106.8734814169754
 10
100.1361451262872
 20
106.8772817878764
 10
100.1616818961944
 20
106.8785736986643
 10
100.1616818961944
 20
106.8785736986643
 10
100.1873370912573
 20
106.8772817878764
 10
100.2122279057706
 20
106.8734814169754
 10
100.2362359145789
 20
106.8673125429632
 10
100.259264224373
 20
106.8589043569187
 10
100.281129814458
 20
106.8483537521509
 10
100.3017573233713
 20
106.8358114515852
 10
100.3209960281876
 20
106.8214174122234
 10
100.3387382696746
 20
106.805279293298
 10
100.3548548567536
 20
106.787537051811
 10
100.3692273642688
 20
106.7682983469947
 10
100.3817158352184
 20
106.7477031358511
 10
100.3922233762933
 20
106.725880609459
 10
100.4006100304913
 20
106.702949192974
 10
100.4067466067338
 20
106.679048843398
 10
100.4105254457884
 20
106.6542872199635
 10
100.411806590653
 20
106.6288150455956
 10
100.411806590653
 20
106.6288150455956
 10
100.4105146798651
 20
106.6031598505328
 10
100.4067466067338
 20
106.5782690360195
 10
100.4005992645681
 20
106.554250261288
 10
100.3922233762933
 20
106.5312434833403
 10
100.3817158352184
 20
106.509367127332
 10
100.3692273642688
 20
106.4887396184188
 10
100.3548440908303
 20
106.4695009136024
 10
100.3387382696746
 20
106.4517586721154
 10
100.3209960281876
 20
106.4356420850365
 10
100.3017573233713
 20
106.4212803434445
 10
100.281129814458
 20
106.4087811065717
 10
100.2592534584498
 20
106.39828433142
 10
100.2362466805021
 20
106.389897677222
 10
100.2122386716938
 20
106.3837503350563
 10
100.1873370912573
 20
106.3799714960017
 10
100.1616818961944
 20
106.3786903511371
  0
LINE
  5
97
330
1F
100
AcDbEntity
  8
ISS138金台
  6
Continuous
 62
   250
420
  2367521
370
    13
100
AcDbLine
 10
100.1616818961944
 20
103.6284706658787
 30
0.0
 11
100.1616818961944
 21
106.628136792432
 31
0.0
  0
TEXT
  5
98
330
1F
100
AcDbEntity
  8
ISS138金台
  6
Continuous
 62
   250
420
  2367521
100
AcDbText
 10
99.07731330353906
 20
104.4032833775978
 30
0.0
 40
2.150533301035563
  1
3
 50
90.00000250447816
 41
0.8120040893554685
  7
MS Gothic
100
AcDbText
  0
LWPOLYLINE
  5
99
330
1F
100
AcDbEntity
  8
ISS138金台
  6
Continuous
 62
   250
420
  2367521
370
    25
100
AcDbPolyline
 90
      285
 70
     0
 43
0.0
 10
143.7155903742961
 20
104.1242306648079
 10
134.6597802177388
 20
104.8283758738237
 10
119.1597898601119
 20
104.8283758738237
 10
119.1597898601119
 20
108.5784053178294
 10
119.1713955253565
 20
108.8084192676898
 10
119.2055019701568
 20
109.0318121747623
 10
119.2609249429572
 20
109.2474213193378
 10
119.3365878514346
 20
109.4541485772465
 10
119.4313172099565
 20
109.6508204628561
 10
119.5440148943534
 20
109.8363280860738
 10
119.6735289508393
 20
110.0095517908833
 10
119.818739723398
 20
110.1693503894219
 10
119.978506024167
 20
110.3145719279039
 10
120.1517189630532
 20
110.4441075162362
 10
120.3372265862708
 20
110.5568267324795
 10
120.533920003727
 20
110.651577622848
 10
120.7406472616357
 20
110.7272512972486
 10
120.9562887039808
 20
110.7826958018955
 10
121.1797246747463
 20
110.8168022466958
 10
121.4098032201461
 20
110.8284186778635
 10
121.659572639138
 20
110.8284186778635
 10
121.659572639138
 20
111.6285205606497
 10
117.6597737761404
 20
111.6285205606497
 10
105.6596881680606
 20
106.6289550025976
 10
106.1595715155878
 20
103.6285783251111
 10
106.4096962100464
 20
103.6285783251111
 10
106.4109988867575
 20
103.6541150950183
 10
106.4147884917353
 20
103.6789197821458
 10
106.4209573657475
 20
103.7028847272611
 10
106.4293763177153
 20
103.7258484415159
 10
106.439926922483
 20
103.7477032656777
 10
106.4524584571255
 20
103.768330774591
 10
106.466884794257
 20
103.7875910112537
 10
106.4830336791056
 20
103.8053547845872
 10
106.500797452439
 20
103.821514435359
 10
106.5200576891018
 20
103.835919240644
 10
106.5406744320919
 20
103.8484615412098
 10
106.5625400221769
 20
103.8590121459775
 10
106.5855145023549
 20
103.8674310979453
 10
106.6094579156238
 20
103.8735999719574
 10
106.6342733686745
 20
103.8774003428585
 10
106.6598101385817
 20
103.8786922536464
 10
106.6598101385817
 20
103.8786922536464
 10
106.6854115040284
 20
103.8774003428585
 10
106.7102592548488
 20
103.8735999719574
 10
106.7342349658874
 20
103.8674310979453
 10
106.757241743835
 20
103.8590121459775
 10
106.7790965679968
 20
103.8484615412098
 10
106.7997133109869
 20
103.8359300065673
 10
106.8189735476497
 20
103.821514435359
 10
106.8367265550599
 20
103.8053547845872
 10
106.8528646739853
 20
103.7875910112537
 10
106.867258713347
 20
103.768330774591
 10
106.8797687161431
 20
103.7477032656777
 10
106.8902977890644
 20
103.7258484415159
 10
106.8987059751089
 20
103.7028739613379
 10
106.9048640831978
 20
103.678930548069
 10
106.9086429222524
 20
103.6541150950183
 10
106.9099348330403
 20
103.6285783251111
 10
107.4098181805675
 20
103.6285783251111
 10
107.4110993254322
 20
103.6541150950183
 10
107.41488893041
 20
103.6789197821458
 10
107.4210470384989
 20
103.7028847272611
 10
107.4294552245434
 20
103.7258484415159
 10
107.4399627656183
 20
103.7477032656777
 10
107.4524727684143
 20
103.768330774591
 10
107.4668560418528
 20
103.7875910112537
 10
107.4829726289317
 20
103.8053547845872
 10
107.5007148704187
 20
103.821514435359
 10
107.5199428093118
 20
103.835919240644
 10
107.5405272545322
 20
103.8484615412098
 10
107.5623605468475
 20
103.8590121459775
 10
107.585313495179
 20
103.8674310979453
 10
107.6092461425247
 20
103.8735999719574
 10
107.6340508296522
 20
103.8774003428585
 10
107.6595875995594
 20
103.8786922536464
 10
107.6595875995594
 20
103.8786922536464
 10
107.6851889650061
 20
103.8774003428585
 10
107.7100367158265
 20
103.8735999719574
 10
107.7340124268651
 20
103.8674310979453
 10
107.7570192048127
 20
103.8590121459775
 10
107.7788847948977
 20
103.8484615412098
 10
107.7995015378878
 20
103.8359300065673
 10
107.8187510086274
 20
103.821514435359
 10
107.8365040160376
 20
103.8053547845872
 10
107.852642134963
 20
103.7875910112537
 10
107.8670254084015
 20
103.768330774591
 10
107.8795461771208
 20
103.7477032656777
 10
107.8900644841188
 20
103.7258484415159
 10
107.8984726701634
 20
103.7028739613379
 10
107.9046200123291
 20
103.678930548069
 10
107.9084096173069
 20
103.6541150950183
 10
107.9097015280947
 20
103.6285783251111
 10
108.4095956415452
 20
103.6285783251111
 10
108.4108875523331
 20
103.6541150950183
 10
108.4146879232342
 20
103.6789197821458
 10
108.4208567972463
 20
103.7028847272611
 10
108.4292865151373
 20
103.7258484415159
 10
108.4398263539818
 20
103.7477032656777
 10
108.4523578886243
 20
103.768330774591
 10
108.4667734598325
 20
103.7875910112537
 10
108.4829223446811
 20
103.8053547845872
 10
108.5006968839379
 20
103.821514435359
 10
108.5199571206006
 20
103.835919240644
 10
108.5405738635907
 20
103.8484615412098
 10
108.5624394536757
 20
103.8590121459775
 10
108.5854139338537
 20
103.8674310979453
 10
108.6093573471226
 20
103.8735999719574
 10
108.6341728001733
 20
103.8774003428585
 10
108.6597095700806
 20
103.8786922536464
 10
108.6597095700806
 20
103.8786922536464
 10
108.685300169604
 20
103.8774003428585
 10
108.7101586863476
 20
103.8735999719574
 10
108.7341451633094
 20
103.8674310979453
 10
108.7571304094106
 20
103.8590121459775
 10
108.7790067654189
 20
103.8484615412098
 10
108.7996235084089
 20
103.8359300065673
 10
108.8188729791485
 20
103.821514435359
 10
108.8366259865587
 20
103.8053547845872
 10
108.8527641054841
 20
103.7875910112537
 10
108.8671581448458
 20
103.768330774591
 10
108.8796789135651
 20
103.7477032656777
 10
108.8901972205632
 20
103.7258484415159
 10
108.8986054066077
 20
103.7028739613379
 10
108.9047635146966
 20
103.678930548069
 10
108.9085423537512
 20
103.6541150950183
 10
108.9098342645391
 20
103.6285783251111
 10
109.4097176120663
 20
103.6285783251111
 10
109.4110095228542
 20
103.6541150950183
 10
109.4147883619088
 20
103.6789197821458
 10
109.4209464699977
 20
103.7028847272611
 10
109.4293546560423
 20
103.7258484415159
 10
109.4398729630403
 20
103.7477032656777
 10
109.4523721999131
 20
103.768330774591
 10
109.4667554733517
 20
103.7875910112537
 10
109.4828720604306
 20
103.8053547845872
 10
109.5006035359943
 20
103.821514435359
 10
109.5198314748874
 20
103.835919240644
 10
109.540426686031
 20
103.8484615412098
 10
109.5622599783463
 20
103.8590121459775
 10
109.5852129266778
 20
103.8674310979453
 10
109.6091455740235
 20
103.8735999719574
 10
109.6339394952277
 20
103.8774003428585
 10
109.659476265135
 20
103.8786922536464
 10
109.659476265135
 20
103.8786922536464
 10
109.6850776305817
 20
103.8774003428585
 10
109.7099361473253
 20
103.8735999719574
 10
109.7339118583639
 20
103.8674310979453
 10
109.7568971044651
 20
103.8590121459775
 10
109.7787734604733
 20
103.8484615412098
 10
109.7993902034634
 20
103.8359300065673
 10
109.8186396742029
 20
103.821514435359
 10
109.8363926816132
 20
103.8053547845872
 10
109.8525308005386
 20
103.7875910112537
 10
109.8669248399003
 20
103.768330774591
 10
109.8794456086196
 20
103.7477032656777
 10
109.8899639156177
 20
103.7258484415159
 10
109.8983721016622
 20
103.7028739613379
 10
109.9045302097511
 20
103.678930548069
 10
109.9083090488057
 20
103.6541150950183
 10
109.9096009595936
 20
103.6285783251111
 10
110.4098395825875
 20
103.6285783251111
 10
110.4111207274521
 20
103.6541150950183
 10
110.4148995665067
 20
103.6789197821458
 10
110.4210361427492
 20
103.7028847272611
 10
110.4294227969472
 20
103.7258484415159
 10
110.4399195720988
 20
103.7477032656777
 10
110.4524080430484
 20
103.768330774591
 10
110.4667697846404
 20
103.7875910112537
 10
110.4828756057961
 20
103.8053547845872
 10
110.5005855495134
 20
103.821514435359
 10
110.5198134884065
 20
103.835919240644
 10
110.5403979336269
 20
103.8484615412098
 10
110.5622419918654
 20
103.8590121459775
 10
110.5852057061202
 20
103.8674310979453
 10
110.6091706512355
 20
103.8735999719574
 10
110.6340184020559
 20
103.8774003428585
 10
110.6596090015794
 20
103.8786922536464
 10
110.6596090015794
 20
103.8786922536464
 10
110.6851457714866
 20
103.8774003428585
 10
110.7099612245373
 20
103.8735999719574
 10
110.7339046378062
 20
103.8674310979453
 10
110.7568791179842
 20
103.8590121459775
 10
110.778733942146
 20
103.8484615412098
 10
110.7993722169825
 20
103.8359300065673
 10
110.818621687722
 20
103.821514435359
 10
110.8363854610555
 20
103.8053547845872
 10
110.8525451118274
 20
103.7875910112537
 10
110.8669499171123
 20
103.768330774591
 10
110.8794922176781
 20
103.7477032656777
 10
110.8900428224458
 20
103.7258484415159
 10
110.8984617744136
 20
103.7028739613379
 10
110.9046306484258
 20
103.678930548069
 10
110.9084310193268
 20
103.6541150950183
 10
110.9097229301147
 20
103.6285783251111
 10
111.6597309721005
 20
103.6285783251111
 10
111.6597309721005
 20
104.8283758738237
 10
109.659476265135
 20
104.8283758738237
 10
109.659476265135
 20
106.88472104083
 10
116.4455175925266
 20
109.7358712563922
 10
116.4578445746277
 20
109.7415448979357
 10
116.4703222796541
 20
109.7468632640125
 10
116.4829937712986
 20
109.7518586523923
 10
116.4958052199452
 20
109.7565095312287
 10
116.508767391517
 20
109.7608266664449
 10
116.5218802860141
 20
109.7647992921177
 10
116.5351331375132
 20
109.7684166423238
 10
116.5485151800911
 20
109.7716679511399
 10
116.5620587115175
 20
109.7745639844895
 10
116.5757099021761
 20
109.7770939764491
 10
116.5894795179904
 20
109.7792363951723
 10
116.6033783248834
 20
109.7810127725057
 10
116.6173740250856
 20
109.7824015766027
 10
116.6314881504432
 20
109.78339204154
 10
116.64569916911
 20
109.783994933241
 10
116.6600070810859
 20
109.7841994857825
 10
116.6600070810859
 20
109.7841994857825
 10
116.710876068359
 20
109.7816264301299
 10
116.7602808900726
 20
109.7741118157137
 10
116.8079739299921
 20
109.761849429152
 10
116.8536968059602
 20
109.7451407162953
 10
116.8972126676656
 20
109.7242009956083
 10
116.938273898874
 20
109.6993101810949
 10
116.9766221174278
 20
109.6706943571432
 10
117.0120312389392
 20
109.6386334377571
 10
117.0442428812506
 20
109.6033535073245
 10
117.0730201940508
 20
109.5651021820797
 10
117.0980940292591
 20
109.5241486101036
 10
117.1192383024875
 20
109.4807296417073
 10
117.1362053975018
 20
109.4351036590484
 10
117.1487369321443
 20
109.3875290442843
 10
117.156596056104
 20
109.3382318818031
 10
117.1595351531465
 20
109.2874813196856
 10
117.1595351531465
 20
103.6285783251111
 10
129.9092842936686
 20
103.6285783251111
 10
129.9106407999959
 20
103.6541150950183
 10
129.9144842345898
 20
103.6789090162226
 10
129.9206961722949
 20
103.7028524294914
 10
129.9291581879556
 20
103.7257946118997
 10
129.939741090493
 20
103.747627904215
 10
129.952294156982
 20
103.7682231153586
 10
129.9667204941135
 20
103.7874510542517
 10
129.9828801448853
 20
103.8051825298155
 10
130.0006439182188
 20
103.8213098828176
 10
130.0198933889583
 20
103.8356931562561
 10
130.0404993660252
 20
103.8482031590522
 10
130.0623218924173
 20
103.8587214660503
 10
130.0852533089023
 20
103.8671188861715
 10
130.1091644244015
 20
103.8732769942605
 10
130.133926047836
 20
103.8770558333151
 10
130.1593982222039
 20
103.8783477441029
 10
130.1593982222039
 20
103.8783477441029
 10
130.1849349921112
 20
103.8770558333151
 10
130.2097396792386
 20
103.8732769942605
 10
130.2336830925075
 20
103.8671188861715
 10
130.2566145089925
 20
103.8587214660503
 10
130.2784585672311
 20
103.848192393129
 10
130.2990645442979
 20
103.8356931562561
 10
130.3183032491143
 20
103.8213098828176
 10
130.3360562565245
 20
103.8051825298155
 10
130.3521943754499
 20
103.7874510542517
 10
130.3665884148116
 20
103.7682231153586
 10
130.3791307153774
 20
103.747627904215
 10
130.3896920860684
 20
103.7257946118997
 10
130.3981218039593
 20
103.7028416635682
 10
130.4043337416644
 20
103.6789090162226
 10
130.4081664103352
 20
103.6541150950183
 10
130.4095229166625
 20
103.6285783251111
 10
144.1600938127158
 20
103.6285783251111
 10
144.1578114369905
 20
103.6757761325619
 10
144.1511365645864
 20
103.7217573906876
 10
144.1402629821217
 20
103.7663067810233
 10
144.1254167739842
 20
103.8092089851044
 10
144.1068132586386
 20
103.850280982236
 10
144.084646222703
 20
103.8893289858
 10
144.0591740483352
 20
103.9261484432548
 10
144.0305797562299
 20
103.9605455679824
 10
143.9990786648519
 20
103.9922942755948
 10
143.9649076245122
 20
104.0212223113202
 10
143.9282711877523
 20
104.0471358885407
 10
143.8893739071136
 20
104.0697981569449
 10
143.848441866984
 20
104.0890476276844
 10
143.8056903858281
 20
104.1046689822946
 10
143.7613347821106
 20
104.1164576682341
 10
143.7155903742961
 20
104.1242306648079
  0
LINE
  5
9A
330
1F
100
AcDbEntity
  8
ISS138金台
  6
UserDefined01
 62
   140
420
    44526
370
    13
100
AcDbLine
 10
130.0716344160133
 20
98.32163489285045
 30
0.0
 11
144.0719747310585
 21
98.32163489285045
 31
0.0
  0
TEXT
  5
9B
330
1F
100
AcDbEntity
  8
ISS138金台
  6
Continuous
 62
   140
420
    44526
100
AcDbText
 10
135.3429534082978
 20
99.11078800396406
 30
0.0
 40
1.881716638406118
  1
14
 41
1.125003269740513
  7
MS Gothic
100
AcDbText
  0
HATCH
  5
9C
330
1F
100
AcDbEntity
  8
ISS138金台
  6
Continuous
 62
   140
420
    44526
370
    13
100
AcDbHatch
 10
0.0
 20
0.0
 30
0.0
210
0.0
220
0.0
230
1.0
  2
SOLID
 70
     1
 71
     0
 91
        1
 92
        3
 72
     0
 73
     1
 93
        3
 10
129.2055697215821
 20
107.7746322552209
 10
130.9377098763677
 20
107.7739217042876
 10
130.0723449669466
 20
106.2756819976494
 97
        0
 75
     1
 76
     1
 98
        0
  0
LWPOLYLINE
  5
9D
330
1F
100
AcDbEntity
  8
ISS138金台
  6
Continuous
 62
   140
420
    44526
370
    13
100
AcDbPolyline
 90
        4
 70
     0
 43
0.0
 10
129.2055697215821
 20
107.7746322552209
 10
130.9377098763677
 20
107.7739217042876
 10
130.0723449669466
 20
106.2756819976494
 10
129.2055697215821
 20
107.7746322552209
  0
ENDSEC
  0
SECTION
  2
OBJECTS
  0
DICTIONARY
  5
C
330
0
100
AcDbDictionary
281
     1
  3
ACAD_DETAILVIEWSTYLE
350
A5
  3
ACAD_GROUP
350
D
  3
ACAD_LAYOUT
350
1A
  3
ACAD_MATERIAL
350
43
  3
ACAD_MLEADERSTYLE
350
5B
  3
ACAD_MLINESTYLE
350
17
  3
ACAD_PLOTSETTINGS
350
19
  3
ACAD_PLOTSTYLENAME
350
E
  3
ACAD_SCALELIST
350
47
  3
ACAD_SECTIONVIEWSTYLE
350
A6
  3
ACAD_TABLESTYLE
350
59
  3
ACAD_VISUALSTYLE
350
2A
  3
ACDB_RECOMPOSE_DATA
350
A2
  3
AcDbVariableDictionary
350
9E
  0
SUN
  5
5D
330
29
100
AcDbSun
 90
        1
290
     0
 63
     7
421
 16777215
 40
1.0
291
     1
 91
  2455826
 92
 54000000
292
     0
 70
     2
 71
   256
280
     1
  0
DICTIONARY
  5
A5
102
{ACAD_REACTORS
330
C
102
}
330
C
100
AcDbDictionary
281
     1
  0
DICTIONARY
  5
D
102
{ACAD_REACTORS
330
C
102
}
330
C
100
AcDbDictionary
281
     1
  0
DICTIONARY
  5
1A
102
{ACAD_REACTORS
330
C
102
}
330
C
100
AcDbDictionary
281
     1
  3
Layout1
350
1E
  3
Layout2
350
26
  3
Model
350
22
  0
DICTIONARY
  5
43
102
{ACAD_REACTORS
330
C
102
}
330
C
100
AcDbDictionary
281
     1
  3
ByBlock
350
45
  3
ByLayer
350
44
  3
Global
350
46
  0
DICTIONARY
  5
5B
102
{ACAD_REACTORS
330
C
102
}
330
C
100
AcDbDictionary
281
     1
  3
Standard
350
5C
  0
DICTIONARY
  5
17
102
{ACAD_REACTORS
330
C
102
}
330
C
100
AcDbDictionary
281
     1
  3
Standard
350
18
  0
DICTIONARY
  5
19
102
{ACAD_REACTORS
330
C
102
}
330
C
100
AcDbDictionary
281
     1
  0
ACDBDICTIONARYWDFLT
  5
E
102
{ACAD_REACTORS
330
C
102
}
330
C
100
AcDbDictionary
281
     1
  3
Normal
350
F
100
AcDbDictionaryWithDefault
340
F
  0
DICTIONARY
  5
47
102
{ACAD_REACTORS
330
C
102
}
330
C
100
AcDbDictionary
281
     1
  3
A0
350
48
  3
A1
350
49
  3
A2
350
4A
  3
A3
350
4B
  3
A4
350
4C
  3
A5
350
4D
  3
A6
350
4E
  3
A7
350
4F
  3
A8
350
50
  3
A9
350
51
  3
B0
350
52
  3
B1
350
53
  3
B2
350
54
  3
B3
350
55
  3
B4
350
56
  3
B5
350
57
  3
B6
350
58
  0
DICTIONARY
  5
A6
102
{ACAD_REACTORS
330
C
102
}
330
C
100
AcDbDictionary
281
     1
  0
DICTIONARY
  5
59
102
{ACAD_REACTORS
330
C
102
}
330
C
100
AcDbDictionary
281
     1
  3
Standard
350
5A
  0
DICTIONARY
  5
2A
102
{ACAD_REACTORS
330
C
102
}
330
C
100
AcDbDictionary
281
     1
  3
2dWireframe
350
2F
  3
Basic
350
32
  3
Brighten
350
36
  3
ColorChange
350
3A
  3
Conceptual
350
34
  3
Dim
350
35
  3
EdgeColorOff
350
3D
  3
Facepattern
350
39
  3
Flat
350
2B
  3
FlatWithEdges
350
2C
  3
Gouraud
350
2D
  3
GouraudWithEdges
350
2E
  3
Hidden
350
31
  3
JitterOff
350
3B
  3
Linepattern
350
38
  3
OverhangOff
350
3C
  3
Realistic
350
33
  3
Shaded
350
42
  3
Shaded with edges
350
41
  3
Shades of Gray
350
3E
  3
Sketchy
350
3F
  3
Thicken
350
37
  3
Wireframe
350
30
  3
X-Ray
350
40
  0
XRECORD
  5
A2
102
{ACAD_REACTORS
330
C
102
}
330
C
100
AcDbXrecord
280
     1
 90
        1
330
5A
  0
DICTIONARY
  5
9E
102
{ACAD_REACTORS
330
C
102
}
330
C
100
AcDbDictionary
281
     1
  3
CANNOSCALE
350
9F
  3
CENTEREXE
350
A7
  3
CENTERLTYPEFILE
350
A8
  3
CMLEADERSTYLE
350
A4
  3
CTABLESTYLE
350
A3
  0
LAYOUT
  5
1E
102
{ACAD_REACTORS
330
1A
102
}
330
1A
100
AcDbPlotSettings
  1

  2
none_device
  4

  6

 40
0.0
 41
0.0
 42
0.0
 43
0.0
 44
0.0
 45
0.0
 46
0.0
 47
0.0
 48
0.0
 49
0.0
140
0.0
141
0.0
142
1.0
143
1.0
 70
   688
 72
     1
 73
     0
 74
     5
  7

 75
    16
 76
     0
 77
     5
 78
   300
147
1.0
148
0.0
149
0.0
100
AcDbLayout
  1
Layout1
 70
     1
 71
     1
 10
0.0
 20
0.0
 11
420.0
 21
297.0
 12
0.0
 22
0.0
 32
0.0
 14
1.000000000000000E+20
 24
1.000000000000000E+20
 34
1.000000000000000E+20
 15
-1.000000000000000E+20
 25
-1.000000000000000E+20
 35
-1.000000000000000E+20
146
0.0
 13
0.0
 23
0.0
 33
0.0
 16
1.0
 26
0.0
 36
0.0
 17
0.0
 27
1.0
 37
0.0
 76
     0
330
1B
  0
LAYOUT
  5
26
102
{ACAD_REACTORS
330
1A
102
}
330
1A
100
AcDbPlotSettings
  1

  2
none_device
  4

  6

 40
0.0
 41
0.0
 42
0.0
 43
0.0
 44
0.0
 45
0.0
 46
0.0
 47
0.0
 48
0.0
 49
0.0
140
0.0
141
0.0
142
1.0
143
1.0
 70
   688
 72
     1
 73
     0
 74
     5
  7

 75
    16
 76
     0
 77
     5
 78
   300
147
1.0
148
0.0
149
0.0
100
AcDbLayout
  1
Layout2
 70
     1
 71
     2
 10
0.0
 20
0.0
 11
0.0
 21
0.0
 12
0.0
 22
0.0
 32
0.0
 14
0.0
 24
0.0
 34
0.0
 15
0.0
 25
0.0
 35
0.0
146
0.0
 13
0.0
 23
0.0
 33
0.0
 16
1.0
 26
0.0
 36
0.0
 17
0.0
 27
1.0
 37
0.0
 76
     0
330
23
  0
LAYOUT
  5
22
102
{ACAD_REACTORS
330
1A
102
}
330
1A
100
AcDbPlotSettings
  1

  2
none_device
  4
Letter_(8.50_x_11.00_Inches)
  6

 40
6.35
 41
6.35
 42
6.35000508
 43
6.35000508
 44
215.9
 45
279.4
 46
0.0
 47
0.0
 48
0.0
 49
0.0
140
0.0
141
0.0
142
1.0
143
1.0
 70
  1712
 72
     1
 73
     0
 74
     0
  7

 75
     0
 76
     0
 77
     5
 78
   300
147
1.0
148
0.0
149
0.0
100
AcDbLayout
  1
Model
 70
     1
 71
     0
 10
0.0
 20
0.0
 11
302.9997823349792
 21
216.0016055409748
 12
0.0
 22
0.0
 32
0.0
 14
0.0
 24
0.0
 34
0.0
 15
302.9997823349792
 25
216.0016055409748
 35
0.0
146
0.0
 13
0.0
 23
0.0
 33
0.0
 16
1.0
 26
0.0
 36
0.0
 17
0.0
 27
1.0
 37
0.0
 76
     0
330
1F
331
29
  0
MATERIAL
  5
45
102
{ACAD_REACTORS
330
43
102
}
330
43
100
AcDbMaterial
  1
ByBlock
 72
     1
 94
      127
  0
MATERIAL
  5
44
102
{ACAD_REACTORS
330
43
102
}
330
43
100
AcDbMaterial
  1
ByLayer
 72
     1
 94
      127
  0
MATERIAL
  5
46
102
{ACAD_REACTORS
330
43
102
}
330
43
100
AcDbMaterial
  1
Global
 72
     1
 94
      127
  0
MLEADERSTYLE
  5
5C
102
{ACAD_REACTORS
330
5B
102
}
330
5B
100
AcDbMLeaderStyle
179
     2
170
     2
171
     1
172
     0
 90
        2
 40
0.0
 41
0.0
173
     1
 91
-1056964608
340
14
 92
       -2
290
     1
 42
2.0
291
     1
 43
8.0
  3
Standard
341
0
 44
4.0
300

342
11
174
     1
178
     6
175
     1
176
     0
 93
-1056964608
 45
4.0
292
     0
297
     0
 46
4.0
343
0
 94
-1056964608
 47
1.0
 49
1.0
140
1.0
293
     1
141
0.0
294
     1
177
     0
142
1.0
295
     0
296
     0
143
3.75
271
     0
272
     9
273
     9
298
     0
  0
MLINESTYLE
  5
18
102
{ACAD_REACTORS
330
17
102
}
330
17
100
AcDbMlineStyle
  2
Standard
 70
     0
  3

 62
   256
 51
90.0
 52
90.0
 71
     2
 49
0.5
 62
   256
  6
BYLAYER
 49
-0.5
 62
   256
  6
BYLAYER
  0
ACDBPLACEHOLDER
  5
F
102
{ACAD_REACTORS
330
E
102
}
330
E
  0
SCALE
  5
48
102
{ACAD_REACTORS
330
47
102
}
330
47
100
AcDbScale
 70
     0
300
1:1
140
1.0
141
1.0
290
     1
  0
SCALE
  5
49
102
{ACAD_REACTORS
330
47
102
}
330
47
100
AcDbScale
 70
     0
300
1:2
140
1.0
141
2.0
290
     0
  0
SCALE
  5
4A
102
{ACAD_REACTORS
330
47
102
}
330
47
100
AcDbScale
 70
     0
300
1:4
140
1.0
141
4.0
290
     0
  0
SCALE
  5
4B
102
{ACAD_REACTORS
330
47
102
}
330
47
100
AcDbScale
 70
     0
300
1:5
140
1.0
141
5.0
290
     0
  0
SCALE
  5
4C
102
{ACAD_REACTORS
330
47
102
}
330
47
100
AcDbScale
 70
     0
300
1:8
140
1.0
141
8.0
290
     0
  0
SCALE
  5
4D
102
{ACAD_REACTORS
330
47
102
}
330
47
100
AcDbScale
 70
     0
300
1:10
140
1.0
141
10.0
290
     0
  0
SCALE
  5
4E
102
{ACAD_REACTORS
330
47
102
}
330
47
100
AcDbScale
 70
     0
300
1:16
140
1.0
141
16.0
290
     0
  0
SCALE
  5
4F
102
{ACAD_REACTORS
330
47
102
}
330
47
100
AcDbScale
 70
     0
300
1:20
140
1.0
141
20.0
290
     0
  0
SCALE
  5
50
102
{ACAD_REACTORS
330
47
102
}
330
47
100
AcDbScale
 70
     0
300
1:30
140
1.0
141
30.0
290
     0
  0
SCALE
  5
51
102
{ACAD_REACTORS
330
47
102
}
330
47
100
AcDbScale
 70
     0
300
1:40
140
1.0
141
40.0
290
     0
  0
SCALE
  5
52
102
{ACAD_REACTORS
330
47
102
}
330
47
100
AcDbScale
 70
     0
300
1:50
140
1.0
141
50.0
290
     0
  0
SCALE
  5
53
102
{ACAD_REACTORS
330
47
102
}
330
47
100
AcDbScale
 70
     0
300
1:100
140
1.0
141
100.0
290
     0
  0
SCALE
  5
54
102
{ACAD_REACTORS
330
47
102
}
330
47
100
AcDbScale
 70
     0
300
2:1
140
2.0
141
1.0
290
     0
  0
SCALE
  5
55
102
{ACAD_REACTORS
330
47
102
}
330
47
100
AcDbScale
 70
     0
300
4:1
140
4.0
141
1.0
290
     0
  0
SCALE
  5
56
102
{ACAD_REACTORS
330
47
102
}
330
47
100
AcDbScale
 70
     0
300
8:1
140
8.0
141
1.0
290
     0
  0
SCALE
  5
57
102
{ACAD_REACTORS
330
47
102
}
330
47
100
AcDbScale
 70
     0
300
10:1
140
10.0
141
1.0
290
     0
  0
SCALE
  5
58
102
{ACAD_REACTORS
330
47
102
}
330
47
100
AcDbScale
 70
     0
300
100:1
140
100.0
141
1.0
290
     0
  0
TABLESTYLE
  5
5A
102
{ACAD_REACTORS
330
59
102
}
102
{ACAD_XDICTIONARY
360
A0
102
}
330
59
100
AcDbTableStyle
  3
Standard
 70
     0
 71
     0
 40
0.06
 41
0.06
280
     0
281
     0
  7
Standard
140
4.5
170
     2
 62
     0
 63
   257
283
     0
 90
        4
 91
        0
  1

274
    -2
284
     1
 64
     0
275
    -2
285
     1
 65
     0
276
    -2
286
     1
 66
     0
277
    -2
287
     1
 67
     0
278
    -2
288
     1
 68
     0
279
    -2
289
     1
 69
     0
  7
Standard
140
6.0
170
     5
 62
     0
 63
   257
283
     0
 90
        4
 91
        0
  1

274
    -2
284
     1
 64
     0
275
    -2
285
     1
 65
     0
276
    -2
286
     1
 66
     0
277
    -2
287
     1
 67
     0
278
    -2
288
     1
 68
     0
279
    -2
289
     1
 69
     0
  7
Standard
140
4.5
170
     5
 62
     0
 63
   257
283
     0
 90
        4
 91
        0
  1

274
    -2
284
     1
 64
     0
275
    -2
285
     1
 65
     0
276
    -2
286
     1
 66
     0
277
    -2
287
     1
 67
     0
278
    -2
288
     1
 68
     0
279
    -2
289
     1
 69
     0
  0
VISUALSTYLE
  5
2F
102
{ACAD_REACTORS
330
2A
102
}
330
2A
100
AcDbVisualStyle
  2
2dWireframe
 70
     4
177
     3
291
     0
 70
    58
 90
        0
176
     1
 90
        2
176
     1
 90
        0
176
     1
 90
        0
176
     1
 40
0.6
176
     1
 40
30.0
176
     1
 62
     7
420
 16777215
176
     1
 90
        1
176
     1
 90
        4
176
     1
 62
     7
176
     1
 62
   257
176
     1
 90
        1
176
     1
 90
        1
176
     1
 40
1.0
176
     1
 90
        0
176
     1
 62
   257
176
     1
 40
1.0
176
     1
 90
        1
176
     1
 90
        6
176
     1
 90
        2
176
     1
 62
     7
176
     1
 90
        5
176
     1
 90
        0
176
     1
 90
        0
176
     1
290
     0
176
     1
 90
        1
176
     1
 40
0.0
176
     1
 90
        0
176
     1
290
     1
176
     1
290
     1
176
     1
290
     0
176
     1
290
     0
176
     1
290
     0
176
     1
290
     0
176
     1
290
     0
176
     1
290
     0
176
     1
290
     0
176
     1
 90
       50
176
     1
 40
0.0
176
     1
 40
1.0
176
     1
 90
        0
176
     1
 62
    18
420
        0
176
     1
 90
       50
176
     1
 90
        3
176
     1
 62
     5
420
      255
176
     1
290
     0
176
     1
 90
       50
176
     1
 90
       50
176
     1
 90
       50
176
     1
290
     0
176
     1
 90
       50
176
     1
 62
   256
176
     0
 40
1.0
176
     0
 90
        2
176
     1
  1
strokes_ogs.tif
176
     1
290
     0
176
     1
 40
1.0
176
     1
 40
1.0
176
     1
  0
VISUALSTYLE
  5
32
102
{ACAD_REACTORS
330
2A
102
}
330
2A
100
AcDbVisualStyle
  2
Basic
 70
     7
177
     3
291
     1
 70
    58
 90
        1
176
     1
 90
        0
176
     1
 90
        1
176
     1
 90
        0
176
     1
 40
0.6
176
     1
 40
30.0
176
     1
 62
     7
420
 16777215
176
     1
 90
        0
176
     1
 90
        4
176
     1
 62
     7
176
     1
 62
   257
176
     1
 90
        1
176
     1
 90
        1
176
     1
 40
1.0
176
     1
 90
        8
176
     1
 62
     7
176
     1
 40
1.0
176
     1
 90
        1
176
     1
 90
        6
176
     1
 90
        2
176
     1
 62
     7
176
     1
 90
        5
176
     1
 90
        0
176
     1
 90
        0
176
     1
290
     0
176
     1
 90
        1
176
     1
 40
0.0
176
     1
 90
        0
176
     1
290
     0
176
     1
290
     1
176
     1
290
     1
176
     1
290
     0
176
     1
290
     0
176
     1
290
     0
176
     1
290
     0
176
     1
290
     0
176
     1
290
     0
176
     1
 90
       50
176
     1
 40
0.0
176
     1
 40
1.0
176
     1
 90
        0
176
     1
 62
    18
420
        0
176
     1
 90
       50
176
     1
 90
        3
176
     1
 62
     5
420
      255
176
     1
290
     0
176
     1
 90
       50
176
     1
 90
       50
176
     1
 90
       50
176
     1
290
     0
176
     1
 90
       50
176
     1
 62
   256
176
     0
 40
1.0
176
     0
 90
        2
176
     1
  1
strokes_ogs.tif
176
     1
290
     0
176
     1
 40
1.0
176
     1
 40
1.0
176
     1
  0
VISUALSTYLE
  5
36
102
{ACAD_REACTORS
330
2A
102
}
330
2A
100
AcDbVisualStyle
  2
Brighten
 70
    12
177
     3
291
     1
 70
    58
 90
        2
176
     1
 90
        2
176
     1
 90
        0
176
     1
 90
        0
176
     1
 40
0.6
176
     1
 40
30.0
176
     1
 62
     7
420
 16777215
176
     1
 90
        1
176
     1
 90
        4
176
     1
 62
     7
176
     1
 62
   257
176
     1
 90
        1
176
     1
 90
        1
176
     1
 40
1.0
176
     1
 90
        8
176
     1
 62
     7
176
     1
 40
1.0
176
     1
 90
        1
176
     1
 90
        6
176
     1
 90
        2
176
     1
 62
     7
176
     1
 90
        5
176
     1
 90
        0
176
     1
 90
        0
176
     1
290
     0
176
     1
 90
        1
176
     1
 40
50.0
176
     1
 90
        0
176
     1
290
     0
176
     1
290
     1
176
     1
290
     1
176
     1
290
     0
176
     1
290
     0
176
     1
290
     0
176
     1
290
     0
176
     1
290
     0
176
     1
290
     0
176
     1
 90
       50
176
     1
 40
0.0
176
     1
 40
1.0
176
     1
 90
        0
176
     1
 62
    18
420
        0
176
     1
 90
       50
176
     1
 90
        3
176
     1
 62
     5
420
      255
176
     1
290
     0
176
     1
 90
       50
176
     1
 90
       50
176
     1
 90
       50
176
     1
290
     0
176
     1
 90
       50
176
     1
 62
   256
176
     0
 40
1.0
176
     0
 90
        2
176
     1
  1
strokes_ogs.tif
176
     1
290
     0
176
     1
 40
1.0
176
     1
 40
1.0
176
     1
  0
VISUALSTYLE
  5
3A
102
{ACAD_REACTORS
330
2A
102
}
330
2A
100
AcDbVisualStyle
  2
ColorChange
 70
    16
177
     3
291
     1
 70
    58
 90
        2
176
     1
 90
        2
176
     1
 90
        3
176
     1
 90
        0
176
     1
 40
0.6
176
     1
 40
30.0
176
     1
 62
     8
420
  8421504
176
     1
 90
        1
176
     1
 90
        4
176
     1
 62
     7
176
     1
 62
   257
176
     1
 90
        1
176
     1
 90
        1
176
     1
 40
1.0
176
     1
 90
        8
176
     1
 62
     8
420
  8421504
176
     1
 40
1.0
176
     1
 90
        1
176
     1
 90
        6
176
     1
 90
        2
176
     1
 62
     7
176
     1
 90
        5
176
     1
 90
        0
176
     1
 90
        0
176
     1
290
     0
176
     1
 90
        1
176
     1
 40
0.0
176
     1
 90
        0
176
     1
290
     0
176
     1
290
     1
176
     1
290
     1
176
     1
290
     0
176
     1
290
     0
176
     1
290
     0
176
     1
290
     0
176
     1
290
     0
176
     1
290
     0
176
     1
 90
       50
176
     1
 40
0.0
176
     1
 40
1.0
176
     1
 90
        0
176
     1
 62
    18
420
        0
176
     1
 90
       50
176
     1
 90
        3
176
     1
 62
     5
420
      255
176
     1
290
     0
176
     1
 90
       50
176
     1
 90
       50
176
     1
 90
       50
176
     1
290
     0
176
     1
 90
       50
176
     1
 62
   256
176
     0
 40
1.0
176
     0
 90
        2
176
     1
  1
strokes_ogs.tif
176
     1
290
     0
176
     1
 40
1.0
176
     1
 40
1.0
176
     1
  0
VISUALSTYLE
  5
34
102
{ACAD_REACTORS
330
2A
102
}
330
2A
100
AcDbVisualStyle
  2
Conceptual
 70
     9
177
     3
291
     0
 70
    58
 90
        3
176
     1
 90
        2
176
     1
 90
        0
176
     1
 90
        0
176
     1
 40
0.6
176
     1
 40
30.0
176
     1
 62
     7
420
 16777215
176
     1
 90
        2
176
     1
 90
        2
176
     1
 62
     7
176
     1
 62
   257
176
     1
 90
        1
176
     1
 90
        1
176
     1
 40
179.0
176
     1
 90
        8
176
     1
 62
     7
176
     1
 40
1.0
176
     1
 90
        1
176
     1
 90
        6
176
     1
 90
        2
176
     1
 62
     7
176
     1
 90
        3
176
     1
 90
        0
176
     1
 90
        0
176
     1
290
     0
176
     1
 90
        1
176
     1
 40
0.0
176
     1
 90
        0
176
     1
290
     0
176
     1
290
     1
176
     1
290
     1
176
     1
290
     0
176
     1
290
     0
176
     1
290
     0
176
     1
290
     0
176
     1
290
     0
176
     1
290
     0
176
     1
 90
       50
176
     1
 40
0.0
176
     1
 40
1.0
176
     1
 90
        0
176
     1
 62
    18
420
        0
176
     1
 90
       50
176
     1
 90
        3
176
     1
 62
     5
420
      255
176
     1
290
     0
176
     1
 90
       50
176
     1
 90
       50
176
     1
 90
       50
176
     1
290
     0
176
     1
 90
       50
176
     1
 62
   256
176
     0
 40
1.0
176
     0
 90
        2
176
     1
  1
strokes_ogs.tif
176
     1
290
     0
176
     1
 40
1.0
176
     1
 40
1.0
176
     1
  0
VISUALSTYLE
  5
35
102
{ACAD_REACTORS
330
2A
102
}
330
2A
100
AcDbVisualStyle
  2
Dim
 70
    11
177
     3
291
     1
 70
    58
 90
        2
176
     1
 90
        2
176
     1
 90
        0
176
     1
 90
        0
176
     1
 40
0.6
176
     1
 40
30.0
176
     1
 62
     7
420
 16777215
176
     1
 90
        1
176
     1
 90
        4
176
     1
 62
     7
176
     1
 62
   257
176
     1
 90
        1
176
     1
 90
        1
176
     1
 40
1.0
176
     1
 90
        8
176
     1
 62
     7
176
     1
 40
1.0
176
     1
 90
        1
176
     1
 90
        6
176
     1
 90
        2
176
     1
 62
     7
176
     1
 90
        5
176
     1
 90
        0
176
     1
 90
        0
176
     1
290
     0
176
     1
 90
        1
176
     1
 40
-50.0
176
     1
 90
        0
176
     1
290
     0
176
     1
290
     1
176
     1
290
     1
176
     1
290
     0
176
     1
290
     0
176
     1
290
     0
176
     1
290
     0
176
     1
290
     0
176
     1
290
     0
176
     1
 90
       50
176
     1
 40
0.0
176
     1
 40
1.0
176
     1
 90
        0
176
     1
 62
    18
420
        0
176
     1
 90
       50
176
     1
 90
        3
176
     1
 62
     5
420
      255
176
     1
290
     0
176
     1
 90
       50
176
     1
 90
       50
176
     1
 90
       50
176
     1
290
     0
176
     1
 90
       50
176
     1
 62
   256
176
     0
 40
1.0
176
     0
 90
        2
176
     1
  1
strokes_ogs.tif
176
     1
290
     0
176
     1
 40
1.0
176
     1
 40
1.0
176
     1
  0
VISUALSTYLE
  5
3D
102
{ACAD_REACTORS
330
2A
102
}
330
2A
100
AcDbVisualStyle
  2
EdgeColorOff
 70
    22
177
     3
291
     1
 70
    58
 90
        2
176
     0
 90
        2
176
     0
 90
        0
176
     0
 90
        0
176
     0
 40
0.6
176
     0
 40
30.0
176
     0
 62
     7
420
 16777215
176
     0
 90
        1
176
     0
 90
        4
176
     0
 62
     7
176
     0
 62
   257
176
     0
 90
        1
176
     0
 90
        1
176
     0
 40
1.0
176
     0
 90
        8
176
     2
 62
     7
176
     0
 40
1.0
176
     0
 90
        1
176
     0
 90
        6
176
     0
 90
        2
176
     0
 62
     7
176
     0
 90
        5
176
     0
 90
        0
176
     0
 90
        0
176
     0
290
     0
176
     0
 90
        1
176
     0
 40
0.0
176
     0
 90
        0
176
     0
290
     0
176
     0
290
     1
176
     0
290
     1
176
     0
290
     0
176
     0
290
     0
176
     0
290
     0
176
     0
290
     0
176
     0
290
     0
176
     0
290
     0
176
     0
 90
       50
176
     0
 40
0.0
176
     0
 40
1.0
176
     0
 90
        0
176
     0
 62
    18
420
        0
176
     0
 90
       50
176
     0
 90
        3
176
     0
 62
     5
420
      255
176
     0
290
     0
176
     0
 90
       50
176
     0
 90
       50
176
     0
 90
       50
176
     0
290
     0
176
     0
 90
       50
176
     0
 62
   256
176
     0
 40
1.0
176
     0
 90
        2
176
     0
  1
strokes_ogs.tif
176
     0
290
     0
176
     0
 40
1.0
176
     0
 40
1.0
176
     0
  0
VISUALSTYLE
  5
39
102
{ACAD_REACTORS
330
2A
102
}
330
2A
100
AcDbVisualStyle
  2
Facepattern
 70
    15
177
     3
291
     1
 70
    58
 90
        2
176
     1
 90
        2
176
     1
 90
        0
176
     1
 90
        0
176
     1
 40
0.6
176
     1
 40
30.0
176
     1
 62
     7
420
 16777215
176
     1
 90
        1
176
     1
 90
        4
176
     1
 62
     7
176
     1
 62
   257
176
     1
 90
        1
176
     1
 90
        1
176
     1
 40
1.0
176
     1
 90
        8
176
     1
 62
     7
176
     1
 40
1.0
176
     1
 90
        1
176
     1
 90
        6
176
     1
 90
        2
176
     1
 62
     7
176
     1
 90
        5
176
     1
 90
        0
176
     1
 90
        0
176
     1
290
     0
176
     1
 90
        1
176
     1
 40
0.0
176
     1
 90
        0
176
     1
290
     0
176
     1
290
     1
176
     1
290
     1
176
     1
290
     0
176
     1
290
     0
176
     1
290
     0
176
     1
290
     0
176
     1
290
     0
176
     1
290
     0
176
     1
 90
       50
176
     1
 40
0.0
176
     1
 40
1.0
176
     1
 90
        0
176
     1
 62
    18
420
        0
176
     1
 90
       50
176
     1
 90
        3
176
     1
 62
     5
420
      255
176
     1
290
     0
176
     1
 90
       50
176
     1
 90
       50
176
     1
 90
       50
176
     1
290
     0
176
     1
 90
       50
176
     1
 62
   256
176
     0
 40
1.0
176
     0
 90
        2
176
     1
  1
strokes_ogs.tif
176
     1
290
     0
176
     1
 40
1.0
176
     1
 40
1.0
176
     1
  0
VISUALSTYLE
  5
2B
102
{ACAD_REACTORS
330
2A
102
}
330
2A
100
AcDbVisualStyle
  2
Flat
 70
     0
177
     3
291
     1
 70
    58
 90
        2
176
     1
 90
        1
176
     1
 90
        1
176
     1
 90
        2
176
     1
 40
0.6
176
     1
 40
30.0
176
     1
 62
     7
420
 16777215
176
     1
 90
        0
176
     1
 90
        0
176
     1
 62
     7
176
     1
 62
   257
176
     1
 90
        1
176
     1
 90
        1
176
     1
 40
1.0
176
     1
 90
        8
176
     1
 62
     7
176
     1
 40
1.0
176
     1
 90
        1
176
     1
 90
        6
176
     1
 90
        2
176
     1
 62
     7
176
     1
 90
        5
176
     1
 90
        0
176
     1
 90
        0
176
     1
290
     0
176
     1
 90
       13
176
     1
 40
0.0
176
     1
 90
        0
176
     1
290
     0
176
     1
290
     1
176
     1
290
     1
176
     1
290
     0
176
     1
290
     0
176
     1
290
     0
176
     1
290
     0
176
     1
290
     0
176
     1
290
     0
176
     1
 90
       50
176
     1
 40
0.0
176
     1
 40
1.0
176
     1
 90
        0
176
     1
 62
    18
420
        0
176
     1
 90
       50
176
     1
 90
        3
176
     1
 62
     5
420
      255
176
     1
290
     0
176
     1
 90
       50
176
     1
 90
       50
176
     1
 90
       50
176
     1
290
     0
176
     1
 90
       50
176
     1
 62
   256
176
     0
 40
1.0
176
     0
 90
        2
176
     1
  1
strokes_ogs.tif
176
     1
290
     0
176
     1
 40
1.0
176
     1
 40
1.0
176
     1
  0
VISUALSTYLE
  5
2C
102
{ACAD_REACTORS
330
2A
102
}
330
2A
100
AcDbVisualStyle
  2
FlatWithEdges
 70
     1
177
     3
291
     1
 70
    58
 90
        2
176
     1
 90
        1
176
     1
 90
        1
176
     1
 90
        2
176
     1
 40
0.6
176
     1
 40
30.0
176
     1
 62
     7
420
 16777215
176
     1
 90
        1
176
     1
 90
        0
176
     1
 62
     7
176
     1
 62
   257
176
     1
 90
        1
176
     1
 90
        1
176
     1
 40
1.0
176
     1
 90
        0
176
     1
 62
   257
176
     1
 40
1.0
176
     1
 90
        1
176
     1
 90
        6
176
     1
 90
        2
176
     1
 62
     7
176
     1
 90
        5
176
     1
 90
        0
176
     1
 90
        0
176
     1
290
     0
176
     1
 90
       13
176
     1
 40
0.0
176
     1
 90
        0
176
     1
290
     0
176
     1
290
     1
176
     1
290
     1
176
     1
290
     0
176
     1
290
     0
176
     1
290
     0
176
     1
290
     0
176
     1
290
     0
176
     1
290
     0
176
     1
 90
       50
176
     1
 40
0.0
176
     1
 40
1.0
176
     1
 90
        0
176
     1
 62
    18
420
        0
176
     1
 90
       50
176
     1
 90
        3
176
     1
 62
     5
420
      255
176
     1
290
     0
176
     1
 90
       50
176
     1
 90
       50
176
     1
 90
       50
176
     1
290
     0
176
     1
 90
       50
176
     1
 62
   256
176
     0
 40
1.0
176
     0
 90
        2
176
     1
  1
strokes_ogs.tif
176
     1
290
     0
176
     1
 40
1.0
176
     1
 40
1.0
176
     1
  0
VISUALSTYLE
  5
2D
102
{ACAD_REACTORS
330
2A
102
}
330
2A
100
AcDbVisualStyle
  2
Gouraud
 70
     2
177
     3
291
     1
 70
    58
 90
        2
176
     1
 90
        2
176
     1
 90
        1
176
     1
 90
        2
176
     1
 40
0.6
176
     1
 40
30.0
176
     1
 62
     7
420
 16777215
176
     1
 90
        0
176
     1
 90
        0
176
     1
 62
     7
176
     1
 62
   257
176
     1
 90
        1
176
     1
 90
        1
176
     1
 40
1.0
176
     1
 90
        0
176
     1
 62
     7
176
     1
 40
1.0
176
     1
 90
        1
176
     1
 90
        6
176
     1
 90
        2
176
     1
 62
     7
176
     1
 90
        5
176
     1
 90
        0
176
     1
 90
        0
176
     1
290
     0
176
     1
 90
       13
176
     1
 40
0.0
176
     1
 90
        0
176
     1
290
     0
176
     1
290
     1
176
     1
290
     1
176
     1
290
     0
176
     1
290
     0
176
     1
290
     0
176
     1
290
     0
176
     1
290
     0
176
     1
290
     0
176
     1
 90
       50
176
     1
 40
0.0
176
     1
 40
1.0
176
     1
 90
        0
176
     1
 62
    18
420
        0
176
     1
 90
       50
176
     1
 90
        3
176
     1
 62
     5
420
      255
176
     1
290
     0
176
     1
 90
       50
176
     1
 90
       50
176
     1
 90
       50
176
     1
290
     0
176
     1
 90
       50
176
     1
 62
   256
176
     0
 40
1.0
176
     0
 90
        2
176
     1
  1
strokes_ogs.tif
176
     1
290
     0
176
     1
 40
1.0
176
     1
 40
1.0
176
     1
  0
VISUALSTYLE
  5
2E
102
{ACAD_REACTORS
330
2A
102
}
330
2A
100
AcDbVisualStyle
  2
GouraudWithEdges
 70
     3
177
     3
291
     1
 70
    58
 90
        2
176
     1
 90
        2
176
     1
 90
        1
176
     1
 90
        2
176
     1
 40
0.6
176
     1
 40
30.0
176
     1
 62
     7
420
 16777215
176
     1
 90
        1
176
     1
 90
        0
176
     1
 62
     7
176
     1
 62
   257
176
     1
 90
        1
176
     1
 90
        1
176
     1
 40
1.0
176
     1
 90
        0
176
     1
 62
   257
176
     1
 40
1.0
176
     1
 90
        1
176
     1
 90
        6
176
     1
 90
        2
176
     1
 62
     7
176
     1
 90
        5
176
     1
 90
        0
176
     1
 90
        0
176
     1
290
     0
176
     1
 90
       13
176
     1
 40
0.0
176
     1
 90
        0
176
     1
290
     0
176
     1
290
     1
176
     1
290
     1
176
     1
290
     0
176
     1
290
     0
176
     1
290
     0
176
     1
290
     0
176
     1
290
     0
176
     1
290
     0
176
     1
 90
       50
176
     1
 40
0.0
176
     1
 40
1.0
176
     1
 90
        0
176
     1
 62
    18
420
        0
176
     1
 90
       50
176
     1
 90
        3
176
     1
 62
     5
420
      255
176
     1
290
     0
176
     1
 90
       50
176
     1
 90
       50
176
     1
 90
       50
176
     1
290
     0
176
     1
 90
       50
176
     1
 62
   256
176
     0
 40
1.0
176
     0
 90
        2
176
     1
  1
strokes_ogs.tif
176
     1
290
     0
176
     1
 40
1.0
176
     1
 40
1.0
176
     1
  0
VISUALSTYLE
  5
31
102
{ACAD_REACTORS
330
2A
102
}
330
2A
100
AcDbVisualStyle
  2
Hidden
 70
     6
177
     3
291
     0
 70
    58
 90
        1
176
     1
 90
        2
176
     1
 90
        2
176
     1
 90
        0
176
     1
 40
0.6
176
     1
 40
30.0
176
     1
 62
     7
420
 16777215
176
     1
 90
        2
176
     1
 90
        2
176
     1
 62
     7
176
     1
 62
   257
176
     1
 90
        2
176
     1
 90
        1
176
     1
 40
40.0
176
     1
 90
        0
176
     1
 62
   257
176
     1
 40
1.0
176
     1
 90
        1
176
     1
 90
        6
176
     1
 90
        2
176
     1
 62
     7
176
     1
 90
        3
176
     1
 90
        0
176
     1
 90
        0
176
     1
290
     0
176
     1
 90
        1
176
     1
 40
0.0
176
     1
 90
        0
176
     1
290
     0
176
     1
290
     1
176
     1
290
     1
176
     1
290
     0
176
     1
290
     0
176
     1
290
     0
176
     1
290
     0
176
     1
290
     0
176
     1
290
     0
176
     1
 90
       50
176
     1
 40
0.0
176
     1
 40
1.0
176
     1
 90
        0
176
     1
 62
    18
420
        0
176
     1
 90
       50
176
     1
 90
        3
176
     1
 62
     5
420
      255
176
     1
290
     0
176
     1
 90
       50
176
     1
 90
       50
176
     1
 90
       50
176
     1
290
     0
176
     1
 90
       50
176
     1
 62
   256
176
     0
 40
1.0
176
     0
 90
        2
176
     1
  1
strokes_ogs.tif
176
     1
290
     0
176
     1
 40
1.0
176
     1
 40
1.0
176
     1
  0
VISUALSTYLE
  5
3B
102
{ACAD_REACTORS
330
2A
102
}
330
2A
100
AcDbVisualStyle
  2
JitterOff
 70
    20
177
     3
291
     1
 70
    58
 90
        2
176
     0
 90
        2
176
     0
 90
        0
176
     0
 90
        0
176
     0
 40
0.6
176
     0
 40
30.0
176
     0
 62
     7
420
 16777215
176
     0
 90
        1
176
     0
 90
        4
176
     0
 62
     7
176
     0
 62
   257
176
     0
 90
        1
176
     0
 90
        1
176
     0
 40
1.0
176
     0
 90
       10
176
     2
 62
     7
176
     0
 40
1.0
176
     0
 90
        1
176
     0
 90
        6
176
     0
 90
        2
176
     0
 62
     7
176
     0
 90
        5
176
     0
 90
        0
176
     0
 90
        0
176
     0
290
     0
176
     0
 90
        1
176
     0
 40
0.0
176
     0
 90
        0
176
     0
290
     0
176
     0
290
     1
176
     0
290
     1
176
     0
290
     0
176
     0
290
     0
176
     0
290
     0
176
     0
290
     0
176
     0
290
     0
176
     0
290
     0
176
     0
 90
       50
176
     0
 40
0.0
176
     0
 40
1.0
176
     0
 90
        0
176
     0
 62
    18
420
        0
176
     0
 90
       50
176
     0
 90
        3
176
     0
 62
     5
420
      255
176
     0
290
     0
176
     0
 90
       50
176
     0
 90
       50
176
     0
 90
       50
176
     0
290
     0
176
     0
 90
       50
176
     0
 62
   256
176
     0
 40
1.0
176
     0
 90
        2
176
     0
  1
strokes_ogs.tif
176
     0
290
     0
176
     0
 40
1.0
176
     0
 40
1.0
176
     0
  0
VISUALSTYLE
  5
38
102
{ACAD_REACTORS
330
2A
102
}
330
2A
100
AcDbVisualStyle
  2
Linepattern
 70
    14
177
     3
291
     1
 70
    58
 90
        2
176
     1
 90
        2
176
     1
 90
        0
176
     1
 90
        0
176
     1
 40
0.6
176
     1
 40
30.0
176
     1
 62
     7
420
 16777215
176
     1
 90
        1
176
     1
 90
        4
176
     1
 62
     7
176
     1
 62
   257
176
     1
 90
        7
176
     1
 90
        7
176
     1
 40
1.0
176
     1
 90
        8
176
     1
 62
     7
176
     1
 40
1.0
176
     1
 90
        1
176
     1
 90
        6
176
     1
 90
        2
176
     1
 62
     7
176
     1
 90
        5
176
     1
 90
        0
176
     1
 90
        0
176
     1
290
     0
176
     1
 90
        1
176
     1
 40
0.0
176
     1
 90
        0
176
     1
290
     0
176
     1
290
     1
176
     1
290
     1
176
     1
290
     0
176
     1
290
     0
176
     1
290
     0
176
     1
290
     0
176
     1
290
     0
176
     1
290
     0
176
     1
 90
       50
176
     1
 40
0.0
176
     1
 40
1.0
176
     1
 90
        0
176
     1
 62
    18
420
        0
176
     1
 90
       50
176
     1
 90
        3
176
     1
 62
     5
420
      255
176
     1
290
     0
176
     1
 90
       50
176
     1
 90
       50
176
     1
 90
       50
176
     1
290
     0
176
     1
 90
       50
176
     1
 62
   256
176
     0
 40
1.0
176
     0
 90
        2
176
     1
  1
strokes_ogs.tif
176
     1
290
     0
176
     1
 40
1.0
176
     1
 40
1.0
176
     1
  0
VISUALSTYLE
  5
3C
102
{ACAD_REACTORS
330
2A
102
}
330
2A
100
AcDbVisualStyle
  2
OverhangOff
 70
    21
177
     3
291
     1
 70
    58
 90
        2
176
     0
 90
        2
176
     0
 90
        0
176
     0
 90
        0
176
     0
 40
0.6
176
     0
 40
30.0
176
     0
 62
     7
420
 16777215
176
     0
 90
        1
176
     0
 90
        4
176
     0
 62
     7
176
     0
 62
   257
176
     0
 90
        1
176
     0
 90
        1
176
     0
 40
1.0
176
     0
 90
        9
176
     2
 62
     7
176
     0
 40
1.0
176
     0
 90
        1
176
     0
 90
        6
176
     0
 90
        2
176
     0
 62
     7
176
     0
 90
        5
176
     0
 90
        0
176
     0
 90
        0
176
     0
290
     0
176
     0
 90
        1
176
     0
 40
0.0
176
     0
 90
        0
176
     0
290
     0
176
     0
290
     1
176
     0
290
     1
176
     0
290
     0
176
     0
290
     0
176
     0
290
     0
176
     0
290
     0
176
     0
290
     0
176
     0
290
     0
176
     0
 90
       50
176
     0
 40
0.0
176
     0
 40
1.0
176
     0
 90
        0
176
     0
 62
    18
420
        0
176
     0
 90
       50
176
     0
 90
        3
176
     0
 62
     5
420
      255
176
     0
290
     0
176
     0
 90
       50
176
     0
 90
       50
176
     0
 90
       50
176
     0
290
     0
176
     0
 90
       50
176
     0
 62
   256
176
     0
 40
1.0
176
     0
 90
        2
176
     0
  1
strokes_ogs.tif
176
     0
290
     0
176
     0
 40
1.0
176
     0
 40
1.0
176
     0
  0
VISUALSTYLE
  5
33
102
{ACAD_REACTORS
330
2A
102
}
330
2A
100
AcDbVisualStyle
  2
Realistic
 70
     8
177
     3
291
     0
 70
    58
 90
        2
176
     1
 90
        3
176
     1
 90
        0
176
     1
 90
        2
176
     1
 40
0.6
176
     1
 40
30.0
176
     1
 62
     7
420
 16777215
176
     1
 90
        0
176
     1
 90
        0
176
     1
 62
     7
176
     1
 62
   257
176
     1
 90
        1
176
     1
 90
        1
176
     1
 40
1.0
176
     1
 90
        8
176
     1
 62
   257
176
     1
 40
1.0
176
     1
 90
        1
176
     1
 90
        6
176
     1
 90
        2
176
     1
 62
     7
176
     1
 90
        3
176
     1
 90
        0
176
     1
 90
        0
176
     1
290
     0
176
     1
 90
       13
176
     1
 40
0.0
176
     1
 90
        0
176
     1
290
     0
176
     1
290
     1
176
     1
290
     1
176
     1
290
     0
176
     1
290
     0
176
     1
290
     0
176
     1
290
     0
176
     1
290
     0
176
     1
290
     0
176
     1
 90
       50
176
     1
 40
0.0
176
     1
 40
1.0
176
     1
 90
        0
176
     1
 62
    18
420
        0
176
     1
 90
       50
176
     1
 90
        3
176
     1
 62
     5
420
      255
176
     1
290
     0
176
     1
 90
       50
176
     1
 90
       50
176
     1
 90
       50
176
     1
290
     0
176
     1
 90
       50
176
     1
 62
   256
176
     0
 40
1.0
176
     0
 90
        2
176
     1
  1
strokes_ogs.tif
176
     1
290
     0
176
     1
 40
1.0
176
     1
 40
1.0
176
     1
  0
VISUALSTYLE
  5
42
102
{ACAD_REACTORS
330
2A
102
}
330
2A
100
AcDbVisualStyle
  2
Shaded
 70
    27
177
     3
291
     0
 70
    58
 90
        2
176
     1
 90
        2
176
     1
 90
        1
176
     1
 90
        2
176
     1
 40
0.6
176
     1
 40
30.0
176
     1
 62
     7
420
 16777215
176
     1
 90
        0
176
     1
 90
        4
176
     1
 62
     7
176
     1
 62
   257
176
     1
 90
        1
176
     1
 90
        1
176
     1
 40
1.0
176
     1
 90
        8
176
     1
 62
   257
176
     1
 40
1.0
176
     1
 90
        1
176
     1
 90
        6
176
     1
 90
        2
176
     1
 62
     8
420
  7895160
176
     1
 90
        3
176
     1
 90
        0
176
     1
 90
        0
176
     1
290
     0
176
     1
 90
        5
176
     1
 40
0.0
176
     1
 90
        0
176
     1
290
     0
176
     1
290
     1
176
     1
290
     1
176
     1
290
     0
176
     1
290
     0
176
     1
290
     0
176
     1
290
     0
176
     1
290
     0
176
     1
290
     0
176
     1
 90
       50
176
     1
 40
0.0
176
     1
 40
1.0
176
     1
 90
        0
176
     1
 62
    18
420
        0
176
     1
 90
       50
176
     1
 90
        3
176
     1
 62
     5
420
      255
176
     1
290
     0
176
     1
 90
       50
176
     1
 90
       50
176
     1
 90
       50
176
     1
290
     0
176
     1
 90
       50
176
     1
 62
   256
176
     0
 40
1.0
176
     0
 90
        2
176
     1
  1
strokes_ogs.tif
176
     1
290
     0
176
     1
 40
1.0
176
     1
 40
1.0
176
     1
  0
VISUALSTYLE
  5
41
102
{ACAD_REACTORS
330
2A
102
}
330
2A
100
AcDbVisualStyle
  2
Shaded with edges
 70
    26
177
     3
291
     0
 70
    58
 90
        2
176
     1
 90
        2
176
     1
 90
        1
176
     1
 90
        2
176
     1
 40
0.6
176
     1
 40
30.0
176
     1
 62
     7
420
 16777215
176
     1
 90
        1
176
     1
 90
       10
176
     1
 62
     7
176
     1
 62
   257
176
     1
 90
        2
176
     1
 90
        1
176
     1
 40
1.0
176
     1
 90
        8
176
     1
 62
   257
176
     1
 40
1.0
176
     1
 90
        1
176
     1
 90
        6
176
     1
 90
        2
176
     1
 62
     7
176
     1
 90
        3
176
     1
 90
        0
176
     1
 90
        0
176
     1
290
     0
176
     1
 90
        5
176
     1
 40
0.0
176
     1
 90
        0
176
     1
290
     0
176
     1
290
     1
176
     1
290
     1
176
     1
290
     0
176
     1
290
     0
176
     1
290
     0
176
     1
290
     0
176
     1
290
     0
176
     1
290
     0
176
     1
 90
       50
176
     1
 40
0.0
176
     1
 40
1.0
176
     1
 90
        0
176
     1
 62
    18
420
        0
176
     1
 90
       50
176
     1
 90
        3
176
     1
 62
     5
420
      255
176
     1
290
     0
176
     1
 90
       50
176
     1
 90
       50
176
     1
 90
       50
176
     1
290
     0
176
     1
 90
       50
176
     1
 62
   256
176
     0
 40
1.0
176
     0
 90
        2
176
     1
  1
strokes_ogs.tif
176
     1
290
     0
176
     1
 40
1.0
176
     1
 40
1.0
176
     1
  0
VISUALSTYLE
  5
3E
102
{ACAD_REACTORS
330
2A
102
}
330
2A
100
AcDbVisualStyle
  2
Shades of Gray
 70
    23
177
     3
291
     0
 70
    58
 90
        2
176
     1
 90
        2
176
     1
 90
        3
176
     1
 90
        0
176
     1
 40
0.6
176
     1
 40
30.0
176
     1
 62
     7
420
 16777215
176
     1
 90
        2
176
     1
 90
        2
176
     1
 62
     7
176
     1
 62
     7
176
     1
 90
        1
176
     1
 90
        1
176
     1
 40
40.0
176
     1
 90
        8
176
     1
 62
     7
176
     1
 40
1.0
176
     1
 90
        1
176
     1
 90
        6
176
     1
 90
        2
176
     1
 62
     7
176
     1
 90
        3
176
     1
 90
        0
176
     1
 90
        0
176
     1
290
     0
176
     1
 90
        1
176
     1
 40
0.0
176
     1
 90
        0
176
     1
290
     0
176
     1
290
     1
176
     1
290
     1
176
     1
290
     0
176
     1
290
     0
176
     1
290
     0
176
     1
290
     0
176
     1
290
     0
176
     1
290
     0
176
     1
 90
       50
176
     1
 40
0.0
176
     1
 40
1.0
176
     1
 90
        0
176
     1
 62
    18
420
        0
176
     1
 90
       50
176
     1
 90
        3
176
     1
 62
     5
420
      255
176
     1
290
     0
176
     1
 90
       50
176
     1
 90
       50
176
     1
 90
       50
176
     1
290
     0
176
     1
 90
       50
176
     1
 62
   256
176
     0
 40
1.0
176
     0
 90
        2
176
     1
  1
strokes_ogs.tif
176
     1
290
     0
176
     1
 40
1.0
176
     1
 40
1.0
176
     1
  0
VISUALSTYLE
  5
3F
102
{ACAD_REACTORS
330
2A
102
}
330
2A
100
AcDbVisualStyle
  2
Sketchy
 70
    24
177
     3
291
     0
 70
    58
 90
        1
176
     1
 90
        2
176
     1
 90
        2
176
     1
 90
        0
176
     1
 40
0.6
176
     1
 40
30.0
176
     1
 62
     7
420
 16777215
176
     1
 90
        2
176
     1
 90
        2
176
     1
 62
     7
176
     1
 62
     7
176
     1
 90
        1
176
     1
 90
        1
176
     1
 40
40.0
176
     1
 90
       11
176
     1
 62
     7
176
     1
 40
1.0
176
     1
 90
        1
176
     1
 90
        6
176
     1
 90
        2
176
     1
 62
     7
176
     1
 90
        6
176
     1
 90
        0
176
     1
 90
        0
176
     1
290
     0
176
     1
 90
        1
176
     1
 40
0.0
176
     1
 90
        0
176
     1
290
     0
176
     1
290
     1
176
     1
290
     1
176
     1
290
     0
176
     1
290
     0
176
     1
290
     0
176
     1
290
     0
176
     1
290
     0
176
     1
290
     0
176
     1
 90
       50
176
     1
 40
0.0
176
     1
 40
1.0
176
     1
 90
        0
176
     1
 62
    18
420
        0
176
     1
 90
       50
176
     1
 90
        3
176
     1
 62
     5
420
      255
176
     1
290
     0
176
     1
 90
       50
176
     1
 90
       50
176
     1
 90
       50
176
     1
290
     0
176
     1
 90
       50
176
     1
 62
   256
176
     0
 40
1.0
176
     0
 90
        2
176
     1
  1
strokes_ogs.tif
176
     1
290
     0
176
     1
 40
1.0
176
     1
 40
1.0
176
     1
  0
VISUALSTYLE
  5
37
102
{ACAD_REACTORS
330
2A
102
}
330
2A
100
AcDbVisualStyle
  2
Thicken
 70
    13
177
     3
291
     1
 70
    58
 90
        2
176
     1
 90
        2
176
     1
 90
        0
176
     1
 90
        0
176
     1
 40
0.6
176
     1
 40
30.0
176
     1
 62
     7
420
 16777215
176
     1
 90
        1
176
     1
 90
        4
176
     1
 62
     7
176
     1
 62
   257
176
     1
 90
        1
176
     1
 90
        1
176
     1
 40
1.0
176
     1
 90
       12
176
     1
 62
     7
176
     1
 40
1.0
176
     1
 90
        1
176
     1
 90
        6
176
     1
 90
        2
176
     1
 62
     7
176
     1
 90
        5
176
     1
 90
        0
176
     1
 90
        0
176
     1
290
     0
176
     1
 90
        1
176
     1
 40
0.0
176
     1
 90
        0
176
     1
290
     0
176
     1
290
     1
176
     1
290
     1
176
     1
290
     0
176
     1
290
     0
176
     1
290
     0
176
     1
290
     0
176
     1
290
     0
176
     1
290
     0
176
     1
 90
       50
176
     1
 40
0.0
176
     1
 40
1.0
176
     1
 90
        0
176
     1
 62
    18
420
        0
176
     1
 90
       50
176
     1
 90
        3
176
     1
 62
     5
420
      255
176
     1
290
     0
176
     1
 90
       50
176
     1
 90
       50
176
     1
 90
       50
176
     1
290
     0
176
     1
 90
       50
176
     1
 62
   256
176
     0
 40
1.0
176
     0
 90
        2
176
     1
  1
strokes_ogs.tif
176
     1
290
     0
176
     1
 40
1.0
176
     1
 40
1.0
176
     1
  0
VISUALSTYLE
  5
30
102
{ACAD_REACTORS
330
2A
102
}
330
2A
100
AcDbVisualStyle
  2
Wireframe
 70
     5
177
     3
291
     0
 70
    58
 90
        0
176
     1
 90
        2
176
     1
 90
        0
176
     1
 90
        0
176
     1
 40
0.6
176
     1
 40
30.0
176
     1
 62
     7
420
 16777215
176
     1
 90
        1
176
     1
 90
        4
176
     1
 62
     7
176
     1
 62
   257
176
     1
 90
        1
176
     1
 90
        1
176
     1
 40
1.0
176
     1
 90
        0
176
     1
 62
   257
176
     1
 40
1.0
176
     1
 90
        1
176
     1
 90
        6
176
     1
 90
        2
176
     1
 62
     7
176
     1
 90
        3
176
     1
 90
        0
176
     1
 90
        0
176
     1
290
     0
176
     1
 90
        1
176
     1
 40
0.0
176
     1
 90
        0
176
     1
290
     0
176
     1
290
     1
176
     1
290
     1
176
     1
290
     0
176
     1
290
     0
176
     1
290
     0
176
     1
290
     0
176
     1
290
     0
176
     1
290
     0
176
     1
 90
       50
176
     1
 40
0.0
176
     1
 40
1.0
176
     1
 90
        0
176
     1
 62
    18
420
        0
176
     1
 90
       50
176
     1
 90
        3
176
     1
 62
     5
420
      255
176
     1
290
     0
176
     1
 90
       50
176
     1
 90
       50
176
     1
 90
       50
176
     1
290
     0
176
     1
 90
       50
176
     1
 62
   256
176
     0
 40
1.0
176
     0
 90
        2
176
     1
  1
strokes_ogs.tif
176
     1
290
     0
176
     1
 40
1.0
176
     1
 40
1.0
176
     1
  0
VISUALSTYLE
  5
40
102
{ACAD_REACTORS
330
2A
102
}
330
2A
100
AcDbVisualStyle
  2
X-Ray
 70
    25
177
     3
291
     0
 70
    58
 90
        2
176
     1
 90
        2
176
     1
 90
        1
176
     1
 90
        1
176
     1
 40
0.5
176
     1
 40
30.0
176
     1
 62
     7
420
 16777215
176
     1
 90
        1
176
     1
 90
        0
176
     1
 62
     7
176
     1
 62
   257
176
     1
 90
        1
176
     1
 90
        1
176
     1
 40
1.0
176
     1
 90
        8
176
     1
 62
     7
176
     1
 40
1.0
176
     1
 90
        1
176
     1
 90
        6
176
     1
 90
        2
176
     1
 62
     7
176
     1
 90
        3
176
     1
 90
        0
176
     1
 90
        0
176
     1
290
     0
176
     1
 90
       13
176
     1
 40
0.0
176
     1
 90
        0
176
     1
290
     0
176
     1
290
     1
176
     1
290
     1
176
     1
290
     0
176
     1
290
     0
176
     1
290
     0
176
     1
290
     0
176
     1
290
     0
176
     1
290
     0
176
     1
 90
       50
176
     1
 40
0.0
176
     1
 40
1.0
176
     1
 90
        0
176
     1
 62
    18
420
        0
176
     1
 90
       50
176
     1
 90
        3
176
     1
 62
     5
420
      255
176
     1
290
     0
176
     1
 90
       50
176
     1
 90
       50
176
     1
 90
       50
176
     1
290
     0
176
     1
 90
       50
176
     1
 62
   256
176
     0
 40
1.0
176
     0
 90
        2
176
     1
  1
strokes_ogs.tif
176
     1
290
     0
176
     1
 40
1.0
176
     1
 40
1.0
176
     1
  0
DICTIONARYVAR
  5
9F
102
{ACAD_REACTORS
330
9E
102
}
330
9E
100
DictionaryVariables
280
     0
  1
1:1
  0
DICTIONARYVAR
  5
A7
102
{ACAD_REACTORS
330
9E
102
}
330
9E
100
DictionaryVariables
280
     0
  1
3.500000
  0
DICTIONARYVAR
  5
A8
102
{ACAD_REACTORS
330
9E
102
}
330
9E
100
DictionaryVariables
280
     0
  1
acadiso.lin
  0
DICTIONARYVAR
  5
A4
102
{ACAD_REACTORS
330
9E
102
}
330
9E
100
DictionaryVariables
280
     0
  1
Standard
  0
DICTIONARYVAR
  5
A3
102
{ACAD_REACTORS
330
9E
102
}
330
9E
100
DictionaryVariables
280
     0
  1
Standard
  0
DICTIONARY
  5
A0
330
5A
100
AcDbDictionary
280
     1
281
     1
  3
ACAD_ROUNDTRIP_2008_TABLESTYLE_CELLSTYLEMAP
360
A1
  0
CELLSTYLEMAP
  5
A1
102
{ACAD_REACTORS
330
A0
102
}
330
A0
100
AcDbCellStyleMap
 90
        3
300
CELLSTYLE
  1
TABLEFORMAT_BEGIN
 90
        5
170
     1
 91
        0
 92
    32768
 62
   257
 93
        1
300
CONTENTFORMAT
  1
CONTENTFORMAT_BEGIN
 90
        0
 91
        0
 92
        4
 93
        0
300

 40
0.0
140
1.0
 94
        5
 62
     0
340
11
144
6.0
309
CONTENTFORMAT_END
171
     1
301
MARGIN
  1
CELLMARGIN_BEGIN
 40
1.5
 40
1.5
 40
1.5
 40
1.5
 40
1.5
 40
1.5
309
CELLMARGIN_END
 94
        6
 95
        1
302
GRIDFORMAT
  1
GRIDFORMAT_BEGIN
 90
        0
 91
        1
 62
     0
 92
       -2
340
14
 93
        0
 40
0.045
309
GRIDFORMAT_END
 95
        2
302
GRIDFORMAT
  1
GRIDFORMAT_BEGIN
 90
        0
 91
        1
 62
     0
 92
       -2
340
14
 93
        0
 40
0.045
309
GRIDFORMAT_END
 95
        4
302
GRIDFORMAT
  1
GRIDFORMAT_BEGIN
 90
        0
 91
        1
 62
     0
 92
       -2
340
14
 93
        0
 40
0.045
309
GRIDFORMAT_END
 95
        8
302
GRIDFORMAT
  1
GRIDFORMAT_BEGIN
 90
        0
 91
        1
 62
     0
 92
       -2
340
14
 93
        0
 40
0.045
309
GRIDFORMAT_END
 95
       16
302
GRIDFORMAT
  1
GRIDFORMAT_BEGIN
 90
        0
 91
        1
 62
     0
 92
       -2
340
14
 93
        0
 40
0.045
309
GRIDFORMAT_END
 95
       32
302
GRIDFORMAT
  1
GRIDFORMAT_BEGIN
 90
        0
 91
        1
 62
     0
 92
       -2
340
14
 93
        0
 40
0.045
309
GRIDFORMAT_END
309
TABLEFORMAT_END
  1
CELLSTYLE_BEGIN
 90
        1
 91
        1
300
_TITLE
309
CELLSTYLE_END
300
CELLSTYLE
  1
TABLEFORMAT_BEGIN
 90
        5
170
     1
 91
        0
 92
        0
 62
   257
 93
        1
300
CONTENTFORMAT
  1
CONTENTFORMAT_BEGIN
 90
        0
 91
        0
 92
        4
 93
        0
300

 40
0.0
140
1.0
 94
        5
 62
     0
340
11
144
4.5
309
CONTENTFORMAT_END
171
     1
301
MARGIN
  1
CELLMARGIN_BEGIN
 40
1.5
 40
1.5
 40
1.5
 40
1.5
 40
1.5
 40
1.5
309
CELLMARGIN_END
 94
        6
 95
        1
302
GRIDFORMAT
  1
GRIDFORMAT_BEGIN
 90
        0
 91
        1
 62
     0
 92
       -2
340
14
 93
        0
 40
0.045
309
GRIDFORMAT_END
 95
        2
302
GRIDFORMAT
  1
GRIDFORMAT_BEGIN
 90
        0
 91
        1
 62
     0
 92
       -2
340
14
 93
        0
 40
0.045
309
GRIDFORMAT_END
 95
        4
302
GRIDFORMAT
  1
GRIDFORMAT_BEGIN
 90
        0
 91
        1
 62
     0
 92
       -2
340
14
 93
        0
 40
0.045
309
GRIDFORMAT_END
 95
        8
302
GRIDFORMAT
  1
GRIDFORMAT_BEGIN
 90
        0
 91
        1
 62
     0
 92
       -2
340
14
 93
        0
 40
0.045
309
GRIDFORMAT_END
 95
       16
302
GRIDFORMAT
  1
GRIDFORMAT_BEGIN
 90
        0
 91
        1
 62
     0
 92
       -2
340
14
 93
        0
 40
0.045
309
GRIDFORMAT_END
 95
       32
302
GRIDFORMAT
  1
GRIDFORMAT_BEGIN
 90
        0
 91
        1
 62
     0
 92
       -2
340
14
 93
        0
 40
0.045
309
GRIDFORMAT_END
309
TABLEFORMAT_END
  1
CELLSTYLE_BEGIN
 90
        2
 91
        1
300
_HEADER
309
CELLSTYLE_END
300
CELLSTYLE
  1
TABLEFORMAT_BEGIN
 90
        5
170
     1
 91
        0
 92
        0
 62
   257
 93
        1
300
CONTENTFORMAT
  1
CONTENTFORMAT_BEGIN
 90
        0
 91
        0
 92
        4
 93
        0
300

 40
0.0
140
1.0
 94
        2
 62
     0
340
11
144
4.5
309
CONTENTFORMAT_END
171
     1
301
MARGIN
  1
CELLMARGIN_BEGIN
 40
1.5
 40
1.5
 40
1.5
 40
1.5
 40
1.5
 40
1.5
309
CELLMARGIN_END
 94
        6
 95
        1
302
GRIDFORMAT
  1
GRIDFORMAT_BEGIN
 90
        0
 91
        1
 62
     0
 92
       -2
340
14
 93
        0
 40
0.045
309
GRIDFORMAT_END
 95
        2
302
GRIDFORMAT
  1
GRIDFORMAT_BEGIN
 90
        0
 91
        1
 62
     0
 92
       -2
340
14
 93
        0
 40
0.045
309
GRIDFORMAT_END
 95
        4
302
GRIDFORMAT
  1
GRIDFORMAT_BEGIN
 90
        0
 91
        1
 62
     0
 92
       -2
340
14
 93
        0
 40
0.045
309
GRIDFORMAT_END
 95
        8
302
GRIDFORMAT
  1
GRIDFORMAT_BEGIN
 90
        0
 91
        1
 62
     0
 92
       -2
340
14
 93
        0
 40
0.045
309
GRIDFORMAT_END
 95
       16
302
GRIDFORMAT
  1
GRIDFORMAT_BEGIN
 90
        0
 91
        1
 62
     0
 92
       -2
340
14
 93
        0
 40
0.045
309
GRIDFORMAT_END
 95
       32
302
GRIDFORMAT
  1
GRIDFORMAT_BEGIN
 90
        0
 91
        1
 62
     0
 92
       -2
340
14
 93
        0
 40
0.045
309
GRIDFORMAT_END
309
TABLEFORMAT_END
  1
CELLSTYLE_BEGIN
 90
        3
 91
        2
300
_DATA
309
CELLSTYLE_END
  0
ENDSEC
  0
EOF
