  0
SECTION
  2
HEADER
  9
$ACADVER
  1
AC1027
  9
$ACADMAINTVER
 70
   105
  9
$DWGCODEPAGE
  3
ANSI_932
  9
$LASTSAVEDBY
  1
a.yasuda
  9
$REQUIREDVERSIONS
160
                 0
  9
$INSBASE
 10
0.0
 20
0.0
 30
0.0
  9
$EXTMIN
 10
0.0
 20
0.0
 30
0.0
  9
$EXTMAX
 10
302.9997823349792
 20
216.0016055409748
 30
0.0
  9
$LIMMIN
 10
0.0
 20
0.0
  9
$LIMMAX
 10
302.9997823349792
 20
216.0016055409748
  9
$ORTHOMODE
 70
     0
  9
$REGENMODE
 70
     1
  9
$FILLMODE
 70
     1
  9
$QTEXTMODE
 70
     0
  9
$MIRRTEXT
 70
     1
  9
$LTSCALE
 40
1.0
  9
$ATTMODE
 70
     1
  9
$TEXTSIZE
 40
2.5
  9
$TRACEWID
 40
1.0
  9
$TEXTSTYLE
  7
Standard
  9
$CLAYER
  8
0
  9
$CELTYPE
  6
ByLayer
  9
$CECOLOR
 62
   256
  9
$CELTSCALE
 40
1.0
  9
$DISPSILH
 70
     0
  9
$DIMSCALE
 40
1.0
  9
$DIMASZ
 40
2.5
  9
$DIMEXO
 40
0.625
  9
$DIMDLI
 40
3.75
  9
$DIMRND
 40
0.0
  9
$DIMDLE
 40
0.0
  9
$DIMEXE
 40
1.25
  9
$DIMTP
 40
0.0
  9
$DIMTM
 40
0.0
  9
$DIMTXT
 40
2.5
  9
$DIMCEN
 40
2.5
  9
$DIMTSZ
 40
0.0
  9
$DIMTOL
 70
     0
  9
$DIMLIM
 70
     0
  9
$DIMTIH
 70
     0
  9
$DIMTOH
 70
     0
  9
$DIMSE1
 70
     0
  9
$DIMSE2
 70
     0
  9
$DIMTAD
 70
     1
  9
$DIMZIN
 70
     8
  9
$DIMBLK
  1

  9
$DIMASO
 70
     1
  9
$DIMSHO
 70
     1
  9
$DIMPOST
  1

  9
$DIMAPOST
  1

  9
$DIMALT
 70
     0
  9
$DIMALTD
 70
     3
  9
$DIMALTF
 40
0.03937007874016
  9
$DIMLFAC
 40
1.0
  9
$DIMTOFL
 70
     1
  9
$DIMTVP
 40
0.0
  9
$DIMTIX
 70
     0
  9
$DIMSOXD
 70
     0
  9
$DIMSAH
 70
     0
  9
$DIMBLK1
  1

  9
$DIMBLK2
  1

  9
$DIMSTYLE
  2
ISO-25
  9
$DIMCLRD
 70
     0
  9
$DIMCLRE
 70
     0
  9
$DIMCLRT
 70
     0
  9
$DIMTFAC
 40
1.0
  9
$DIMGAP
 40
0.625
  9
$DIMJUST
 70
     0
  9
$DIMSD1
 70
     0
  9
$DIMSD2
 70
     0
  9
$DIMTOLJ
 70
     0
  9
$DIMTZIN
 70
     8
  9
$DIMALTZ
 70
     0
  9
$DIMALTTZ
 70
     0
  9
$DIMUPT
 70
     0
  9
$DIMDEC
 70
     2
  9
$DIMTDEC
 70
     2
  9
$DIMALTU
 70
     2
  9
$DIMALTTD
 70
     3
  9
$DIMTXSTY
  7
Standard
  9
$DIMAUNIT
 70
     0
  9
$DIMADEC
 70
     0
  9
$DIMALTRND
 40
0.0
  9
$DIMAZIN
 70
     0
  9
$DIMDSEP
 70
    44
  9
$DIMATFIT
 70
     3
  9
$DIMFRAC
 70
     0
  9
$DIMLDRBLK
  1

  9
$DIMLUNIT
 70
     2
  9
$DIMLWD
 70
    -2
  9
$DIMLWE
 70
    -2
  9
$DIMTMOVE
 70
     0
  9
$DIMFXL
 40
1.0
  9
$DIMFXLON
 70
     0
  9
$DIMJOGANG
 40
0.7853981633974483
  9
$DIMTFILL
 70
     0
  9
$DIMTFILLCLR
 70
     0
  9
$DIMARCSYM
 70
     0
  9
$DIMLTYPE
  6

  9
$DIMLTEX1
  6

  9
$DIMLTEX2
  6

  9
$DIMTXTDIRECTION
 70
     0
  9
$LUNITS
 70
     2
  9
$LUPREC
 70
     4
  9
$SKETCHINC
 40
1.0
  9
$FILLETRAD
 40
0.0
  9
$AUNITS
 70
     0
  9
$AUPREC
 70
     0
  9
$MENU
  1
.
  9
$ELEVATION
 40
0.0
  9
$PELEVATION
 40
0.0
  9
$THICKNESS
 40
0.0
  9
$LIMCHECK
 70
     0
  9
$CHAMFERA
 40
0.0
  9
$CHAMFERB
 40
0.0
  9
$CHAMFERC
 40
0.0
  9
$CHAMFERD
 40
0.0
  9
$SKPOLY
 70
     0
  9
$TDCREATE
 40
2459866.620527373
  9
$TDUCREATE
 40
2459866.245527373
  9
$TDUPDATE
 40
2459866.620527408
  9
$TDUUPDATE
 40
2459866.245527408
  9
$TDINDWG
 40
0.0000000116
  9
$TDUSRTIMER
 40
0.0000000116
  9
$USRTIMER
 70
     1
  9
$ANGBASE
 50
0.0
  9
$ANGDIR
 70
     0
  9
$PDMODE
 70
     0
  9
$PDSIZE
 40
0.0
  9
$PLINEWID
 40
0.0
  9
$SPLFRAME
 70
     0
  9
$SPLINETYPE
 70
     6
  9
$SPLINESEGS
 70
     8
  9
$HANDSEED
  5
A9
  9
$SURFTAB1
 70
     6
  9
$SURFTAB2
 70
     6
  9
$SURFTYPE
 70
     6
  9
$SURFU
 70
     6
  9
$SURFV
 70
     6
  9
$UCSBASE
  2

  9
$UCSNAME
  2

  9
$UCSORG
 10
0.0
 20
0.0
 30
0.0
  9
$UCSXDIR
 10
1.0
 20
0.0
 30
0.0
  9
$UCSYDIR
 10
0.0
 20
1.0
 30
0.0
  9
$UCSORTHOREF
  2

  9
$UCSORTHOVIEW
 70
     0
  9
$UCSORGTOP
 10
0.0
 20
0.0
 30
0.0
  9
$UCSORGBOTTOM
 10
0.0
 20
0.0
 30
0.0
  9
$UCSORGLEFT
 10
0.0
 20
0.0
 30
0.0
  9
$UCSORGRIGHT
 10
0.0
 20
0.0
 30
0.0
  9
$UCSORGFRONT
 10
0.0
 20
0.0
 30
0.0
  9
$UCSORGBACK
 10
0.0
 20
0.0
 30
0.0
  9
$PUCSBASE
  2

  9
$PUCSNAME
  2

  9
$PUCSORG
 10
0.0
 20
0.0
 30
0.0
  9
$PUCSXDIR
 10
1.0
 20
0.0
 30
0.0
  9
$PUCSYDIR
 10
0.0
 20
1.0
 30
0.0
  9
$PUCSORTHOREF
  2

  9
$PUCSORTHOVIEW
 70
     0
  9
$PUCSORGTOP
 10
0.0
 20
0.0
 30
0.0
  9
$PUCSORGBOTTOM
 10
0.0
 20
0.0
 30
0.0
  9
$PUCSORGLEFT
 10
0.0
 20
0.0
 30
0.0
  9
$PUCSORGRIGHT
 10
0.0
 20
0.0
 30
0.0
  9
$PUCSORGFRONT
 10
0.0
 20
0.0
 30
0.0
  9
$PUCSORGBACK
 10
0.0
 20
0.0
 30
0.0
  9
$USERI1
 70
     0
  9
$USERI2
 70
     0
  9
$USERI3
 70
     0
  9
$USERI4
 70
     0
  9
$USERI5
 70
     0
  9
$USERR1
 40
0.0
  9
$USERR2
 40
0.0
  9
$USERR3
 40
0.0
  9
$USERR4
 40
0.0
  9
$USERR5
 40
0.0
  9
$WORLDVIEW
 70
     1
  9
$SHADEDGE
 70
     3
  9
$SHADEDIF
 70
    70
  9
$TILEMODE
 70
     1
  9
$MAXACTVP
 70
    64
  9
$PINSBASE
 10
0.0
 20
0.0
 30
0.0
  9
$PLIMCHECK
 70
     0
  9
$PEXTMIN
 10
1.000000000000000E+20
 20
1.000000000000000E+20
 30
1.000000000000000E+20
  9
$PEXTMAX
 10
-1.000000000000000E+20
 20
-1.000000000000000E+20
 30
-1.000000000000000E+20
  9
$PLIMMIN
 10
0.0
 20
0.0
  9
$PLIMMAX
 10
420.0
 20
297.0
  9
$UNITMODE
 70
     0
  9
$VISRETAIN
 70
     1
  9
$PLINEGEN
 70
     0
  9
$PSLTSCALE
 70
     1
  9
$TREEDEPTH
 70
  3020
  9
$CMLSTYLE
  2
Standard
  9
$CMLJUST
 70
     0
  9
$CMLSCALE
 40
20.0
  9
$PROXYGRAPHICS
 70
     1
  9
$MEASUREMENT
 70
     1
  9
$CELWEIGHT
370
    -1
  9
$ENDCAPS
280
     0
  9
$JOINSTYLE
280
     0
  9
$LWDISPLAY
290
     0
  9
$INSUNITS
 70
     4
  9
$HYPERLINKBASE
  1

  9
$STYLESHEET
  1

  9
$XEDIT
290
     1
  9
$CEPSNTYPE
380
     0
  9
$PSTYLEMODE
290
     1
  9
$FINGERPRINTGUID
  2
{c9803f96-eda6-4c96-bba2-93d3ea49f898}
  9
$VERSIONGUID
  2
{FAEB1C32-E019-11D5-929B-00C0DF256EC4}
  9
$EXTNAMES
290
     1
  9
$PSVPSCALE
 40
0.0
  9
$OLESTARTUP
290
     0
  9
$SORTENTS
280
   127
  9
$INDEXCTL
280
     0
  9
$HIDETEXT
280
     1
  9
$XCLIPFRAME
280
     2
  9
$HALOGAP
280
     0
  9
$OBSCOLOR
 70
   257
  9
$OBSLTYPE
280
     0
  9
$INTERSECTIONDISPLAY
280
     0
  9
$INTERSECTIONCOLOR
 70
   257
  9
$DIMASSOC
280
     2
  9
$PROJECTNAME
  1

  9
$CAMERADISPLAY
290
     0
  9
$LENSLENGTH
 40
50.0
  9
$CAMERAHEIGHT
 40
0.0
  9
$STEPSPERSEC
 40
2.0
  9
$STEPSIZE
 40
6.0
  9
$3DDWFPREC
 40
2.0
  9
$PSOLWIDTH
 40
5.0
  9
$PSOLHEIGHT
 40
80.0
  9
$LOFTANG1
 40
1.570796326794897
  9
$LOFTANG2
 40
1.570796326794897
  9
$LOFTMAG1
 40
0.0
  9
$LOFTMAG2
 40
0.0
  9
$LOFTPARAM
 70
     7
  9
$LOFTNORMALS
280
     1
  9
$LATITUDE
 40
37.795
  9
$LONGITUDE
 40
-122.394
  9
$NORTHDIRECTION
 40
0.0
  9
$TIMEZONE
 70
 -8000
  9
$LIGHTGLYPHDISPLAY
280
     1
  9
$TILEMODELIGHTSYNCH
280
     1
  9
$CMATERIAL
347
44
  9
$SOLIDHIST
280
     0
  9
$SHOWHIST
280
     1
  9
$DWFFRAME
280
     2
  9
$DGNFRAME
280
     2
  9
$REALWORLDSCALE
290
     1
  9
$INTERFERECOLOR
 62
   256
  9
$CSHADOW
280
     0
  9
$SHADOWPLANELOCATION
 40
0.0
  0
ENDSEC
  0
SECTION
  2
CLASSES
  0
CLASS
  1
ACDBDICTIONARYWDFLT
  2
AcDbDictionaryWithDefault
  3
ObjectDBX Classes
 90
        0
 91
        3
280
     0
281
     0
  0
CLASS
  1
VISUALSTYLE
  2
AcDbVisualStyle
  3
ObjectDBX Classes
 90
     4095
 91
        3
280
     0
281
     0
  0
CLASS
  1
MATERIAL
  2
AcDbMaterial
  3
ObjectDBX Classes
 90
     1153
 91
        3
280
     0
281
     0
  0
CLASS
  1
SCALE
  2
AcDbScale
  3
ObjectDBX Classes
 90
     1153
 91
        3
280
     0
281
     0
  0
CLASS
  1
TABLESTYLE
  2
AcDbTableStyle
  3
ObjectDBX Classes
 90
     4095
 91
        3
280
     0
281
     0
  0
CLASS
  1
MLEADERSTYLE
  2
AcDbMLeaderStyle
  3
ACDB_MLEADERSTYLE_CLASS
 90
     4095
 91
        3
280
     0
281
     0
  0
CLASS
  1
SUN
  2
AcDbSun
  3
SCENEOE
 90
     1153
 91
        3
280
     0
281
     0
  0
CLASS
  1
DICTIONARYVAR
  2
AcDbDictionaryVar
  3
ObjectDBX Classes
 90
        0
 91
        3
280
     0
281
     0
  0
CLASS
  1
CELLSTYLEMAP
  2
AcDbCellStyleMap
  3
ObjectDBX Classes
 90
     1152
 91
        3
280
     0
281
     0
  0
ENDSEC
  0
SECTION
  2
TABLES
  0
TABLE
  2
VPORT
  5
8
330
0
100
AcDbSymbolTable
 70
     1
  0
VPORT
  5
29
330
8
100
AcDbSymbolTableRecord
100
AcDbViewportTableRecord
  2
*Active
 70
     0
 10
0.0
 20
0.0
 11
1.0
 21
1.0
 12
151.4998911674896
 22
108.0008027704874
 13
0.0
 23
0.0
 14
10.0
 24
10.0
 15
10.0
 25
10.0
 16
0.0
 26
0.0
 36
1.0
 17
0.0
 27
0.0
 37
0.0
 40
237.6017660950723
 41
1.402766343222857
 42
50.0
 43
0.0
 44
0.0
 50
0.0
 51
0.0
 71
     0
 72
 10000
 73
     1
 74
     3
 75
     0
 76
     0
 77
     0
 78
     0
281
     0
 65
     1
110
0.0
120
0.0
130
0.0
111
1.0
121
0.0
131
0.0
112
0.0
122
1.0
132
0.0
 79
     0
146
0.0
348
2F
 60
     3
 61
     5
292
     1
282
     1
141
0.0
142
0.0
 63
   250
361
5D
  0
ENDTAB
  0
TABLE
  2
LTYPE
  5
5
330
0
100
AcDbSymbolTable
 70
     2
  0
LTYPE
  5
14
330
5
100
AcDbSymbolTableRecord
100
AcDbLinetypeTableRecord
  2
ByBlock
 70
     0
  3

 72
    65
 73
     0
 40
0.0
  0
LTYPE
  5
15
330
5
100
AcDbSymbolTableRecord
100
AcDbLinetypeTableRecord
  2
ByLayer
 70
     0
  3

 72
    65
 73
     0
 40
0.0
  0
LTYPE
  5
16
330
5
100
AcDbSymbolTableRecord
100
AcDbLinetypeTableRecord
  2
Continuous
 70
     0
  3
Solid line
 72
    65
 73
     0
 40
0.0
  0
LTYPE
  5
5F
330
5
100
AcDbSymbolTableRecord
100
AcDbLinetypeTableRecord
  2
UserDefined01
 70
     0
  3
----------------                
 72
    65
 73
     2
 40
0.7055555449591743
 49
0.3527777724795871
 74
     0
 49
-0.3527777724795871
 74
     0
  0
ENDTAB
  0
TABLE
  2
LAYER
  5
2
330
0
100
AcDbSymbolTable
 70
     3
  0
LAYER
  5
10
330
2
100
AcDbSymbolTableRecord
100
AcDbLayerTableRecord
  2
0
 70
     0
 62
     7
  6
Continuous
370
    -3
390
F
347
46
348
0
  0
LAYER
  5
60
330
2
100
AcDbSymbolTableRecord
100
AcDbLayerTableRecord
  2
外枠
 70
     0
 62
     7
  6
Continuous
370
    -3
390
F
347
46
348
0
  0
LAYER
  5
61
330
2
100
AcDbSymbolTableRecord
100
AcDbLayerTableRecord
  2
ISS138金台
 70
     0
 62
     7
  6
Continuous
370
    -3
390
F
347
46
348
0
  0
ENDTAB
  0
TABLE
  2
STYLE
  5
3
330
0
100
AcDbSymbolTable
 70
     2
  0
STYLE
  5
11
330
3
100
AcDbSymbolTableRecord
100
AcDbTextStyleTableRecord
  2
Standard
 70
     0
 40
0.0
 41
1.0
 50
0.0
 71
     0
 42
2.5
  3

  4

  0
STYLE
  5
5E
330
3
100
AcDbSymbolTableRecord
100
AcDbTextStyleTableRecord
  2
MS Gothic
 70
     0
 40
1.0
 41
1.0
 50
0.0
 71
     0
 42
2.5
  3
msgothic.ttc
  4

1001
ACAD
1000
MS Gothic
1071
    32817
  0
ENDTAB
  0
TABLE
  2
VIEW
  5
6
330
0
100
AcDbSymbolTable
 70
     0
  0
ENDTAB
  0
TABLE
  2
UCS
  5
7
330
0
100
AcDbSymbolTable
 70
     0
  0
ENDTAB
  0
TABLE
  2
APPID
  5
9
330
0
100
AcDbSymbolTable
 70
     1
  0
APPID
  5
12
330
9
100
AcDbSymbolTableRecord
100
AcDbRegAppTableRecord
  2
ACAD
 70
     0
  0
ENDTAB
  0
TABLE
  2
DIMSTYLE
  5
A
330
0
100
AcDbSymbolTable
 70
     1
100
AcDbDimStyleTable
  0
DIMSTYLE
105
27
330
A
100
AcDbSymbolTableRecord
100
AcDbDimStyleTableRecord
  2
ISO-25
 70
     0
 41
2.5
 42
0.625
 43
3.75
 44
1.25
 73
     0
 74
     0
 77
     1
 78
     8
140
2.5
141
2.5
143
0.03937007874016
147
0.625
171
     3
172
     1
178
     0
271
     2
272
     2
274
     3
278
    44
283
     0
284
     8
340
11
  0
ENDTAB
  0
TABLE
  2
BLOCK_RECORD
  5
1
330
0
100
AcDbSymbolTable
 70
     1
  0
BLOCK_RECORD
  5
1F
330
1
100
AcDbSymbolTableRecord
100
AcDbBlockTableRecord
  2
*Model_Space
340
22
 70
     0
280
     1
281
     0
  0
BLOCK_RECORD
  5
1B
330
1
100
AcDbSymbolTableRecord
100
AcDbBlockTableRecord
  2
*Paper_Space
340
1E
 70
     0
280
     1
281
     0
  0
BLOCK_RECORD
  5
23
330
1
100
AcDbSymbolTableRecord
100
AcDbBlockTableRecord
  2
*Paper_Space0
340
26
 70
     0
280
     1
281
     0
  0
ENDTAB
  0
ENDSEC
  0
SECTION
  2
BLOCKS
  0
BLOCK
  5
20
330
1F
100
AcDbEntity
  8
0
100
AcDbBlockBegin
  2
*Model_Space
 70
     0
 10
0.0
 20
0.0
 30
0.0
  3
*Model_Space
  1

  0
ENDBLK
  5
21
330
1F
100
AcDbEntity
  8
0
100
AcDbBlockEnd
  0
BLOCK
  5
1C
330
1B
100
AcDbEntity
 67
     1
  8
0
100
AcDbBlockBegin
  2
*Paper_Space
 70
     0
 10
0.0
 20
0.0
 30
0.0
  3
*Paper_Space
  1

  0
ENDBLK
  5
1D
330
1B
100
AcDbEntity
 67
     1
  8
0
100
AcDbBlockEnd
  0
BLOCK
  5
24
330
23
100
AcDbEntity
  8
0
100
AcDbBlockBegin
  2
*Paper_Space0
 70
     0
 10
0.0
 20
0.0
 30
0.0
  3
*Paper_Space0
  1

  0
ENDBLK
  5
25
330
23
100
AcDbEntity
  8
0
100
AcDbBlockEnd
  0
ENDSEC
  0
SECTION
  2
ENTITIES
  0
LWPOLYLINE
  5
62
330
1F
100
AcDbEntity
  8
外枠
  6
Continuous
 62
   250
420
  2367521
370
   100
100
AcDbPolyline
 90
        5
 70
     0
 43
0.0
 10
281.9999662644599
 20
13.29407825637392
 10
20.99981607051935
 20
13.29407825637392
 10
20.99981607051935
 20
193.0018900389566
 10
281.9999662644599
 20
193.0018900389566
 10
281.9999662644599
 20
13.29407825637392
  0
LINE
  5
63
330
1F
100
AcDbEntity
  8
外枠
  6
Continuous
 62
   250
420
  2367521
370
    25
100
AcDbLine
 10
223.3097080177524
 20
174.0786160074276
 30
0.0
 11
281.9999232007669
 21
174.0786160074276
 31
0.0
  0
LINE
  5
64
330
1F
100
AcDbEntity
  8
外枠
  6
Continuous
 62
   250
420
  2367521
370
    25
100
AcDbLine
 10
223.3097080177524
 20
50.37109023844297
 30
0.0
 11
281.9999232007669
 21
50.37109023844297
 31
0.0
  0
LINE
  5
65
330
1F
100
AcDbEntity
  8
外枠
  6
Continuous
 62
   250
420
  2367521
370
    25
100
AcDbLine
 10
223.3097080177524
 20
36.25997933925949
 30
0.0
 11
281.9999232007669
 21
36.25997933925949
 31
0.0
  0
LINE
  5
66
330
1F
100
AcDbEntity
  8
外枠
  6
Continuous
 62
   250
420
  2367521
370
    50
100
AcDbLine
 10
223.0158413772006
 20
193.3637327187979
 30
0.0
 11
223.0158413772006
 21
13.29396655992039
 31
0.0
  0
TEXT
  5
67
330
1F
100
AcDbEntity
  8
外枠
  6
Continuous
 62
   250
420
  2367521
100
AcDbText
 10
224.7190965599536
 20
186.6888051931772
 30
0.0
 40
2.688166626294454
  1
品名：
 41
0.974166170756022
  7
MS Gothic
100
AcDbText
  0
TEXT
  5
68
330
1F
100
AcDbEntity
  8
外枠
  6
Continuous
 62
   250
420
  2367521
100
AcDbText
 10
224.7190965599536
 20
168.1080059455944
 30
0.0
 40
2.688166626294454
  1
仕様：
 41
0.9978878657023111
  7
MS Gothic
100
AcDbText
  0
TEXT
  5
69
330
1F
100
AcDbEntity
  8
外枠
  6
Continuous
 62
   250
420
  2367521
100
AcDbText
 10
224.7190965599536
 20
44.16660664327048
 30
0.0
 40
2.688166626294454
  1
縮尺：
 41
0.9939999262491861
  7
MS Gothic
100
AcDbText
  0
TEXT
  5
6A
330
1F
100
AcDbEntity
  8
外枠
  6
Continuous
 62
   250
420
  2367521
100
AcDbText
 10
250.2379519709696
 20
40.59738467878129
 30
0.0
 40
2.150533301035563
  1
1/1
 41
1.000003814697266
  7
MS Gothic
100
AcDbText
  0
TEXT
  5
6B
330
1F
100
AcDbEntity
  8
外枠
  6
Continuous
 62
   250
420
  2367521
100
AcDbText
 10
232.7757967427735
 20
181.9845273775436
 30
0.0
 40
2.688166626294454
  1
アドラインFA-6(S)
 41
1.018851515826057
  7
MS Gothic
100
AcDbText
  0
TEXT
  5
6C
330
1F
100
AcDbEntity
  8
外枠
  6
Continuous
 62
   250
420
  2367521
100
AcDbText
 10
226.1633020978884
 20
24.25683874973963
 30
0.0
 40
2.553758294979732
  1
ヤスダインテリアサプライ株式会社
 41
1.0194908945184
  7
MS Gothic
100
AcDbText
  0
TEXT
  5
6D
330
1F
100
AcDbEntity
  8
外枠
  6
Continuous
 62
   250
420
  2367521
100
AcDbText
 10
227.7635273953072
 20
161.7763665048245
 30
0.0
 40
2.150533301035563
  1
材質
 41
1.028502464294433
  7
MS Gothic
100
AcDbText
  0
TEXT
  5
6E
330
1F
100
AcDbEntity
  8
外枠
  6
Continuous
 62
   250
420
  2367521
100
AcDbText
 10
232.7757967427735
 20
156.199681315683
 30
0.0
 40
2.016124969720841
  1
アルミ押出形材（A6063S-T5）/
 41
1.030580357142857
  7
MS Gothic
100
AcDbText
  0
TEXT
  5
6F
330
1F
100
AcDbEntity
  8
外枠
  6
Continuous
 62
   250
420
  2367521
100
AcDbText
 10
232.7757967427735
 20
151.9663480459279
 30
0.0
 40
2.016124969720841
  1
シルバー仕上(アルマイト)
 41
1.052132924397786
  7
MS Gothic
100
AcDbText
  0
HATCH
  5
70
330
1F
100
AcDbEntity
  8
ISS138金台
  6
Continuous
 62
     7
420
 16777215
370
    50
100
AcDbHatch
 10
0.0
 20
0.0
 30
0.0
210
0.0
220
0.0
230
1.0
  2
SOLID
 70
     1
 71
     0
 91
        1
 92
        3
 72
     0
 73
     1
 93
       73
 10
131.868262450961
 20
104.4259994930124
 10
131.9501695949131
 20
104.4218330807214
 10
132.0299450860653
 20
104.4096029919294
 10
132.1071905852579
 20
104.3897183317192
 10
132.1814323918686
 20
104.3625882051735
 10
132.2522506348913
 20
104.3286432492217
 10
132.3192039114737
 20
104.2882818030234
 10
132.3818508187631
 20
104.2419129716614
 10
132.4397714857534
 20
104.1899458602186
 10
132.4925029777458
 20
104.1328111056242
 10
132.5396146578108
 20
104.0708962811146
 10
132.5806974208656
 20
104.0046320236191
 10
132.6152775662882
 20
103.9344274382206
 10
132.6429459889955
 20
103.8606808640786
 10
132.6632397542886
 20
103.7838229381224
 10
132.6757389911614
 20
103.7042519995117
 10
132.6800022967614
 20
103.6223771533292
 10
125.9006681395436
 20
103.6209560514625
 10
125.6801820317439
 20
103.8192212937105
 10
125.4815722799524
 20
103.6209560514625
 10
113.6857377674379
 20
103.6184906550423
 10
113.6906793262016
 20
106.4184919693273
 10
113.7162483938785
 20
106.8991043142685
 10
113.7913191765781
 20
107.3659578093187
 10
113.9134370438033
 20
107.8166624195203
 10
114.0801581309804
 20
108.2488281099156
 10
114.2890385735356
 20
108.6601186751634
 10
114.5376129750487
 20
109.0481117825362
 10
114.8234590027924
 20
109.4104496948461
 10
115.1441220262698
 20
109.7447423771357
 10
115.4971366490605
 20
110.0486213262937
 10
115.880069772514
 20
110.3197072732857
 10
116.2904667661335
 20
110.5556101831543
 10
116.725883765345
 20
110.753950786865
 10
117.1838553737285
 20
110.9123605813066
 10
117.6619592585565
 20
111.0284602974449
 10
118.157730023409
 20
111.0998599003223
 10
118.6687238037121
 20
111.1241908868275
 10
118.6687238037121
 20
111.1241908868275
 10
118.7198511731428
 20
111.1216824267144
 10
118.7695036110906
 20
111.1142754715305
 10
118.8174335013213
 20
111.1022499352799
 10
118.8633609298308
 20
111.0858211364272
 10
118.9070705781544
 20
111.0652043934372
 10
118.9482932982113
 20
111.040647322544
 10
118.9867599419207
 20
111.0123760081357
 10
119.0222551908179
 20
110.9806488323698
 10
119.0545098968222
 20
110.9456811137109
 10
119.0832764436992
 20
110.9077204683935
 10
119.1083179811378
 20
110.8669714489588
 10
119.1293545951339
 20
110.8237032034877
 10
119.1461602012997
 20
110.7781310504449
 10
119.1584656515544
 20
110.7304918401415
 10
119.1660340955867
 20
110.6810224228886
 10
119.1686179171625
 20
110.6299488830741
 10
119.1686179171625
 20
110.6299488830741
 10
119.1660340955867
 20
110.5788107477201
 10
119.1584764174776
 20
110.5291690756955
 10
119.1461494353765
 20
110.481249951388
 10
119.1293545951339
 20
110.4353117569553
 10
119.1083179811378
 20
110.391612874555
 10
119.0832764436992
 20
110.3504009204213
 10
119.0545206627454
 20
110.3119127448655
 10
119.0222551908179
 20
110.2764174959682
 10
118.9867599419207
 20
110.2441627899639
 10
118.948282532288
 20
110.2153962430869
 10
118.9070705781544
 20
110.1903762374948
 10
118.863371695754
 20
110.1693288575755
 10
118.8174335013213
 20
110.1525232514096
 10
118.7695143770139
 20
110.140217801155
 10
118.719861939066
 20
110.1326493571226
 10
118.6687238037121
 20
110.1300655355468
 10
118.6687238037121
 20
105.1177961880805
 97
        0
 75
     1
 76
     1
 98
        0
  0
LWPOLYLINE
  5
71
330
1F
100
AcDbEntity
  8
ISS138金台
  6
Continuous
 62
     7
420
 16777215
370
    50
100
AcDbPolyline
 90
       74
 70
     0
 43
0.0
 10
131.868262450961
 20
104.4259994930124
 10
131.9501695949131
 20
104.4218330807214
 10
132.0299450860653
 20
104.4096029919294
 10
132.1071905852579
 20
104.3897183317192
 10
132.1814323918686
 20
104.3625882051735
 10
132.2522506348913
 20
104.3286432492217
 10
132.3192039114737
 20
104.2882818030234
 10
132.3818508187631
 20
104.2419129716614
 10
132.4397714857534
 20
104.1899458602186
 10
132.4925029777458
 20
104.1328111056242
 10
132.5396146578108
 20
104.0708962811146
 10
132.5806974208656
 20
104.0046320236191
 10
132.6152775662882
 20
103.9344274382206
 10
132.6429459889955
 20
103.8606808640786
 10
132.6632397542886
 20
103.7838229381224
 10
132.6757389911614
 20
103.7042519995117
 10
132.6800022967614
 20
103.6223771533292
 10
125.9006681395436
 20
103.6209560514625
 10
125.6801820317439
 20
103.8192212937105
 10
125.4815722799524
 20
103.6209560514625
 10
113.6857377674379
 20
103.6184906550423
 10
113.6906793262016
 20
106.4184919693273
 10
113.7162483938785
 20
106.8991043142685
 10
113.7913191765781
 20
107.3659578093187
 10
113.9134370438033
 20
107.8166624195203
 10
114.0801581309804
 20
108.2488281099156
 10
114.2890385735356
 20
108.6601186751634
 10
114.5376129750487
 20
109.0481117825362
 10
114.8234590027924
 20
109.4104496948461
 10
115.1441220262698
 20
109.7447423771357
 10
115.4971366490605
 20
110.0486213262937
 10
115.880069772514
 20
110.3197072732857
 10
116.2904667661335
 20
110.5556101831543
 10
116.725883765345
 20
110.753950786865
 10
117.1838553737285
 20
110.9123605813066
 10
117.6619592585565
 20
111.0284602974449
 10
118.157730023409
 20
111.0998599003223
 10
118.6687238037121
 20
111.1241908868275
 10
118.6687238037121
 20
111.1241908868275
 10
118.7198511731428
 20
111.1216824267144
 10
118.7695036110906
 20
111.1142754715305
 10
118.8174335013213
 20
111.1022499352799
 10
118.8633609298308
 20
111.0858211364272
 10
118.9070705781544
 20
111.0652043934372
 10
118.9482932982113
 20
111.040647322544
 10
118.9867599419207
 20
111.0123760081357
 10
119.0222551908179
 20
110.9806488323698
 10
119.0545098968222
 20
110.9456811137109
 10
119.0832764436992
 20
110.9077204683935
 10
119.1083179811378
 20
110.8669714489588
 10
119.1293545951339
 20
110.8237032034877
 10
119.1461602012997
 20
110.7781310504449
 10
119.1584656515544
 20
110.7304918401415
 10
119.1660340955867
 20
110.6810224228886
 10
119.1686179171625
 20
110.6299488830741
 10
119.1686179171625
 20
110.6299488830741
 10
119.1660340955867
 20
110.5788107477201
 10
119.1584764174776
 20
110.5291690756955
 10
119.1461494353765
 20
110.481249951388
 10
119.1293545951339
 20
110.4353117569553
 10
119.1083179811378
 20
110.391612874555
 10
119.0832764436992
 20
110.3504009204213
 10
119.0545206627454
 20
110.3119127448655
 10
119.0222551908179
 20
110.2764174959682
 10
118.9867599419207
 20
110.2441627899639
 10
118.948282532288
 20
110.2153962430869
 10
118.9070705781544
 20
110.1903762374948
 10
118.863371695754
 20
110.1693288575755
 10
118.8174335013213
 20
110.1525232514096
 10
118.7695143770139
 20
110.140217801155
 10
118.719861939066
 20
110.1326493571226
 10
118.6687238037121
 20
110.1300655355468
 10
118.6687238037121
 20
105.1177961880805
 10
131.868262450961
 20
104.4259994930124
  0
LWPOLYLINE
  5
72
330
1F
100
AcDbEntity
  8
ISS138金台
  6
Continuous
 62
   250
420
  2367521
370
    25
100
AcDbPolyline
 90
       74
 70
     0
 43
0.0
 10
131.868262450961
 20
104.4259994930124
 10
131.9501695949131
 20
104.4218330807214
 10
132.0299450860653
 20
104.4096029919294
 10
132.1071905852579
 20
104.3897183317192
 10
132.1814323918686
 20
104.3625882051735
 10
132.2522506348913
 20
104.3286432492217
 10
132.3192039114737
 20
104.2882818030234
 10
132.3818508187631
 20
104.2419129716614
 10
132.4397714857534
 20
104.1899458602186
 10
132.4925029777458
 20
104.1328111056242
 10
132.5396146578108
 20
104.0708962811146
 10
132.5806974208656
 20
104.0046320236191
 10
132.6152775662882
 20
103.9344274382206
 10
132.6429459889955
 20
103.8606808640786
 10
132.6632397542886
 20
103.7838229381224
 10
132.6757389911614
 20
103.7042519995117
 10
132.6800022967614
 20
103.6223771533292
 10
125.9006681395436
 20
103.6209560514625
 10
125.6801820317439
 20
103.8192212937105
 10
125.4815722799524
 20
103.6209560514625
 10
113.6857377674379
 20
103.6184906550423
 10
113.6906793262016
 20
106.4184919693273
 10
113.7162483938785
 20
106.8991043142685
 10
113.7913191765781
 20
107.3659578093187
 10
113.9134370438033
 20
107.8166624195203
 10
114.0801581309804
 20
108.2488281099156
 10
114.2890385735356
 20
108.6601186751634
 10
114.5376129750487
 20
109.0481117825362
 10
114.8234590027924
 20
109.4104496948461
 10
115.1441220262698
 20
109.7447423771357
 10
115.4971366490605
 20
110.0486213262937
 10
115.880069772514
 20
110.3197072732857
 10
116.2904667661335
 20
110.5556101831543
 10
116.725883765345
 20
110.753950786865
 10
117.1838553737285
 20
110.9123605813066
 10
117.6619592585565
 20
111.0284602974449
 10
118.157730023409
 20
111.0998599003223
 10
118.6687238037121
 20
111.1241908868275
 10
118.6687238037121
 20
111.1241908868275
 10
118.7198511731428
 20
111.1216824267144
 10
118.7695036110906
 20
111.1142754715305
 10
118.8174335013213
 20
111.1022499352799
 10
118.8633609298308
 20
111.0858211364272
 10
118.9070705781544
 20
111.0652043934372
 10
118.9482932982113
 20
111.040647322544
 10
118.9867599419207
 20
111.0123760081357
 10
119.0222551908179
 20
110.9806488323698
 10
119.0545098968222
 20
110.9456811137109
 10
119.0832764436992
 20
110.9077204683935
 10
119.1083179811378
 20
110.8669714489588
 10
119.1293545951339
 20
110.8237032034877
 10
119.1461602012997
 20
110.7781310504449
 10
119.1584656515544
 20
110.7304918401415
 10
119.1660340955867
 20
110.6810224228886
 10
119.1686179171625
 20
110.6299488830741
 10
119.1686179171625
 20
110.6299488830741
 10
119.1660340955867
 20
110.5788107477201
 10
119.1584764174776
 20
110.5291690756955
 10
119.1461494353765
 20
110.481249951388
 10
119.1293545951339
 20
110.4353117569553
 10
119.1083179811378
 20
110.391612874555
 10
119.0832764436992
 20
110.3504009204213
 10
119.0545206627454
 20
110.3119127448655
 10
119.0222551908179
 20
110.2764174959682
 10
118.9867599419207
 20
110.2441627899639
 10
118.948282532288
 20
110.2153962430869
 10
118.9070705781544
 20
110.1903762374948
 10
118.863371695754
 20
110.1693288575755
 10
118.8174335013213
 20
110.1525232514096
 10
118.7695143770139
 20
110.140217801155
 10
118.719861939066
 20
110.1326493571226
 10
118.6687238037121
 20
110.1300655355468
 10
118.6687238037121
 20
105.1177961880805
 10
131.868262450961
 20
104.4259994930124
  0
LINE
  5
73
330
1F
100
AcDbEntity
  8
ISS138金台
  6
Continuous
 62
   250
420
  2367521
370
    13
100
AcDbLine
 10
113.6196027010212
 20
111.8205738651927
 30
0.0
 11
113.6196027010212
 21
116.8035599014668
 31
0.0
  0
LINE
  5
74
330
1F
100
AcDbEntity
  8
ISS138金台
  6
Continuous
 62
   250
420
  2367521
370
    13
100
AcDbLine
 10
119.2640470606946
 20
111.8205738651927
 30
0.0
 11
119.2640470606946
 21
116.8035599014668
 31
0.0
  0
LINE
  5
75
330
1F
100
AcDbEntity
  8
ISS138金台
  6
Continuous
 62
   250
420
  2367521
370
    13
100
AcDbLine
 10
113.6196027010212
 20
116.3184904643074
 30
0.0
 11
119.2640470606946
 21
116.3184904643074
 31
0.0
  0
LINE
  5
76
330
1F
100
AcDbEntity
  8
ISS138金台
  6
Continuous
 62
   250
420
  2367521
370
    13
100
AcDbLine
 10
112.6714909056358
 20
106.1099836731794
 30
0.0
 11
107.6885048693617
 21
106.1099836731794
 31
0.0
  0
LINE
  5
77
330
1F
100
AcDbEntity
  8
ISS138金台
  6
Continuous
 62
   250
420
  2367521
370
    13
100
AcDbLine
 10
112.6714909056358
 20
103.5523448227024
 30
0.0
 11
107.6885048693617
 21
103.5523448227024
 31
0.0
  0
LINE
  5
78
330
1F
100
AcDbEntity
  8
ISS138金台
  6
Continuous
 62
   250
420
  2367521
370
    13
100
AcDbLine
 10
108.1735850724443
 20
106.1099836731794
 30
0.0
 11
108.1735850724443
 21
103.5523448227024
 31
0.0
  0
LINE
  5
79
330
1F
100
AcDbEntity
  8
ISS138金台
  6
Continuous
 62
   250
420
  2367521
370
    13
100
AcDbLine
 10
136.704487421731
 20
103.6184906550423
 30
0.0
 11
146.6704594942793
 21
103.6184906550423
 31
0.0
  0
LINE
  5
7A
330
1F
100
AcDbEntity
  8
ISS138金台
  6
Continuous
 62
   250
420
  2367521
370
    13
100
AcDbLine
 10
136.704487421731
 20
111.2032127633534
 30
0.0
 11
146.6704594942793
 21
111.2032127633534
 31
0.0
  0
LINE
  5
7B
330
1F
100
AcDbEntity
  8
ISS138金台
  6
Continuous
 62
   250
420
  2367521
370
    13
100
AcDbLine
 10
146.1853792911966
 20
111.2032127633534
 30
0.0
 11
146.1853792911966
 21
103.6184906550423
 31
0.0
  0
LINE
  5
7C
330
1F
100
AcDbEntity
  8
ISS138金台
  6
Continuous
 62
   250
420
  2367521
370
    13
100
AcDbLine
 10
136.704487421731
 20
105.2280392419804
 30
0.0
 11
141.6874734580051
 21
105.2280392419804
 31
0.0
  0
LINE
  5
7D
330
1F
100
AcDbEntity
  8
ISS138金台
  6
Continuous
 62
   250
420
  2367521
370
    13
100
AcDbLine
 10
141.2024040208457
 20
105.2280392419804
 30
0.0
 11
141.2024040208457
 21
111.2033850181251
 31
0.0
  0
LINE
  5
7E
330
1F
100
AcDbEntity
  8
ISS138金台
  6
Continuous
 62
   250
420
  2367521
370
    13
100
AcDbLine
 10
132.6475430382157
 20
102.6042545591635
 30
0.0
 11
132.6475430382157
 21
92.59418526505519
 31
0.0
  0
LINE
  5
7F
330
1F
100
AcDbEntity
  8
ISS138金台
  6
Continuous
 62
   250
420
  2367521
370
    13
100
AcDbLine
 10
113.6196027010212
 20
102.6042545591635
 30
0.0
 11
113.6196027010212
 21
92.59418526505519
 31
0.0
  0
LINE
  5
80
330
1F
100
AcDbEntity
  8
ISS138金台
  6
Continuous
 62
   250
420
  2367521
370
    13
100
AcDbLine
 10
113.6196027010212
 20
93.12335192377455
 30
0.0
 11
132.6477260589106
 21
93.12335192377455
 31
0.0
  0
HATCH
  5
81
330
1F
100
AcDbEntity
  8
ISS138金台
  6
Continuous
 62
   250
420
  2367521
370
    13
100
AcDbHatch
 10
0.0
 20
0.0
 30
0.0
210
0.0
220
0.0
230
1.0
  2
SOLID
 70
     1
 71
     0
 91
        1
 92
        3
 72
     0
 73
     1
 93
       67
 10
119.2640470606946
 20
116.0685487905438
 10
119.2895838306019
 20
116.0698407013317
 10
119.3143992836526
 20
116.0736195403863
 10
119.3383534628447
 20
116.0797776484752
 10
119.3613279430226
 20
116.0881750685965
 10
119.3831720012612
 20
116.0986933755946
 10
119.4037995101745
 20
116.1112033783906
 10
119.4230597468373
 20
116.1255866518291
 10
119.440834286094
 20
116.141703238908
 10
119.4569939368658
 20
116.1594347144718
 10
119.4713987421508
 20
116.1786734192881
 10
119.4839410427166
 20
116.1992686304317
 10
119.4944808815611
 20
116.221101922747
 10
119.5029105994521
 20
116.2440441051553
 10
119.5090794734642
 20
116.2679767525009
 10
119.5128798443653
 20
116.2927814396284
 10
119.5141717551532
 20
116.3183182095357
 10
119.5141717551532
 20
116.3183182095357
 10
119.5128798443653
 20
116.3439088090591
 10
119.5090794734642
 20
116.368778091726
 10
119.5028998335288
 20
116.3927538027646
 10
119.4944916474843
 20
116.4157282829425
 10
119.4839302767933
 20
116.4376046389508
 10
119.4713987421508
 20
116.4582213819409
 10
119.4569939368658
 20
116.4774708526804
 10
119.440834286094
 20
116.4952346260139
 10
119.4230705127605
 20
116.5113727449393
 10
119.4038102760977
 20
116.5257560183778
 10
119.3831827671844
 20
116.538276787097
 10
119.3613171770994
 20
116.5487950940951
 10
119.3383534628447
 20
116.5572032801396
 10
119.3143992836526
 20
116.5633613882286
 10
119.2895838306019
 20
116.5671402272831
 10
119.2640470606946
 20
116.568432138071
 10
119.2640470606946
 20
116.568432138071
 10
119.2385102907873
 20
116.5671509932064
 10
119.2136948377366
 20
116.5633506223053
 10
119.1897406585445
 20
116.5572032801396
 10
119.1667769442898
 20
116.5487950940951
 10
119.1449113542048
 20
116.538276787097
 10
119.1242838452915
 20
116.5257560183778
 10
119.1050343745519
 20
116.511361979016
 10
119.0872598352952
 20
116.4952346260139
 10
119.0711109504466
 20
116.4774816186036
 10
119.0566953792384
 20
116.4582213819409
 10
119.0441530786726
 20
116.4376046389508
 10
119.0336024739049
 20
116.4157390488658
 10
119.0251835219371
 20
116.3927538027646
 10
119.019014647925
 20
116.3687673258028
 10
119.0152142770239
 20
116.3439195749824
 10
119.013922366236
 20
116.3183182095357
 10
119.013922366236
 20
116.3183182095357
 10
119.0152142770239
 20
116.2927814396284
 10
119.019014647925
 20
116.2679875184242
 10
119.0251835219371
 20
116.2440441051553
 10
119.0336132398281
 20
116.221101922747
 10
119.0441423127494
 20
116.1992578645085
 10
119.0566953792384
 20
116.1786734192881
 10
119.0711109504466
 20
116.1594347144718
 10
119.0872598352952
 20
116.141703238908
 10
119.1050343745519
 20
116.1255866518291
 10
119.1242946112147
 20
116.1112033783906
 10
119.1449113542048
 20
116.0986933755946
 10
119.1667769442898
 20
116.0881750685965
 10
119.1897514244677
 20
116.0797776484752
 10
119.2136948377366
 20
116.0736195403863
 10
119.2385102907873
 20
116.0698407013317
 97
        0
 75
     1
 76
     1
 98
        0
  0
LWPOLYLINE
  5
82
330
1F
100
AcDbEntity
  8
ISS138金台
  6
Continuous
 62
   250
420
  2367521
370
    13
100
AcDbPolyline
 90
       68
 70
     0
 43
0.0
 10
119.2640470606946
 20
116.0685487905438
 10
119.2895838306019
 20
116.0698407013317
 10
119.3143992836526
 20
116.0736195403863
 10
119.3383534628447
 20
116.0797776484752
 10
119.3613279430226
 20
116.0881750685965
 10
119.3831720012612
 20
116.0986933755946
 10
119.4037995101745
 20
116.1112033783906
 10
119.4230597468373
 20
116.1255866518291
 10
119.440834286094
 20
116.141703238908
 10
119.4569939368658
 20
116.1594347144718
 10
119.4713987421508
 20
116.1786734192881
 10
119.4839410427166
 20
116.1992686304317
 10
119.4944808815611
 20
116.221101922747
 10
119.5029105994521
 20
116.2440441051553
 10
119.5090794734642
 20
116.2679767525009
 10
119.5128798443653
 20
116.2927814396284
 10
119.5141717551532
 20
116.3183182095357
 10
119.5141717551532
 20
116.3183182095357
 10
119.5128798443653
 20
116.3439088090591
 10
119.5090794734642
 20
116.368778091726
 10
119.5028998335288
 20
116.3927538027646
 10
119.4944916474843
 20
116.4157282829425
 10
119.4839302767933
 20
116.4376046389508
 10
119.4713987421508
 20
116.4582213819409
 10
119.4569939368658
 20
116.4774708526804
 10
119.440834286094
 20
116.4952346260139
 10
119.4230705127605
 20
116.5113727449393
 10
119.4038102760977
 20
116.5257560183778
 10
119.3831827671844
 20
116.538276787097
 10
119.3613171770994
 20
116.5487950940951
 10
119.3383534628447
 20
116.5572032801396
 10
119.3143992836526
 20
116.5633613882286
 10
119.2895838306019
 20
116.5671402272831
 10
119.2640470606946
 20
116.568432138071
 10
119.2640470606946
 20
116.568432138071
 10
119.2385102907873
 20
116.5671509932064
 10
119.2136948377366
 20
116.5633506223053
 10
119.1897406585445
 20
116.5572032801396
 10
119.1667769442898
 20
116.5487950940951
 10
119.1449113542048
 20
116.538276787097
 10
119.1242838452915
 20
116.5257560183778
 10
119.1050343745519
 20
116.511361979016
 10
119.0872598352952
 20
116.4952346260139
 10
119.0711109504466
 20
116.4774816186036
 10
119.0566953792384
 20
116.4582213819409
 10
119.0441530786726
 20
116.4376046389508
 10
119.0336024739049
 20
116.4157390488658
 10
119.0251835219371
 20
116.3927538027646
 10
119.019014647925
 20
116.3687673258028
 10
119.0152142770239
 20
116.3439195749824
 10
119.013922366236
 20
116.3183182095357
 10
119.013922366236
 20
116.3183182095357
 10
119.0152142770239
 20
116.2927814396284
 10
119.019014647925
 20
116.2679875184242
 10
119.0251835219371
 20
116.2440441051553
 10
119.0336132398281
 20
116.221101922747
 10
119.0441423127494
 20
116.1992578645085
 10
119.0566953792384
 20
116.1786734192881
 10
119.0711109504466
 20
116.1594347144718
 10
119.0872598352952
 20
116.141703238908
 10
119.1050343745519
 20
116.1255866518291
 10
119.1242946112147
 20
116.1112033783906
 10
119.1449113542048
 20
116.0986933755946
 10
119.1667769442898
 20
116.0881750685965
 10
119.1897514244677
 20
116.0797776484752
 10
119.2136948377366
 20
116.0736195403863
 10
119.2385102907873
 20
116.0698407013317
 10
119.2640470606946
 20
116.0685487905438
  0
HATCH
  5
83
330
1F
100
AcDbEntity
  8
ISS138金台
  6
Continuous
 62
   250
420
  2367521
370
    13
100
AcDbHatch
 10
0.0
 20
0.0
 30
0.0
210
0.0
220
0.0
230
1.0
  2
SOLID
 70
     1
 71
     0
 91
        1
 92
        3
 72
     0
 73
     1
 93
       67
 10
113.6196027010212
 20
116.0685487905438
 10
113.6451394709285
 20
116.0698407013317
 10
113.6699549239792
 20
116.0736195403863
 10
113.6939091031713
 20
116.0797776484752
 10
113.7168835833493
 20
116.0881750685965
 10
113.738738407511
 20
116.0986933755946
 10
113.7593551505011
 20
116.1112033783906
 10
113.7786153871639
 20
116.1255866518291
 10
113.7963899264206
 20
116.141703238908
 10
113.8125495771924
 20
116.1594347144718
 10
113.8269543824774
 20
116.1786734192881
 10
113.8394966830432
 20
116.1992686304317
 10
113.8500365218877
 20
116.221101922747
 10
113.8584662397787
 20
116.2440441051553
 10
113.8646351137908
 20
116.2679767525009
 10
113.8684354846919
 20
116.2927814396284
 10
113.8697273954798
 20
116.3183182095357
 10
113.8697273954798
 20
116.3183182095357
 10
113.8684354846919
 20
116.3439088090591
 10
113.8646351137908
 20
116.368778091726
 10
113.8584554738554
 20
116.3927538027646
 10
113.8500472878109
 20
116.4157282829425
 10
113.8394966830432
 20
116.4376046389508
 10
113.8269543824774
 20
116.4582213819409
 10
113.8125495771924
 20
116.4774708526804
 10
113.7963899264206
 20
116.4952346260139
 10
113.7786261530871
 20
116.5113727449393
 10
113.7593659164243
 20
116.5257560183778
 10
113.738738407511
 20
116.538276787097
 10
113.716872817426
 20
116.5487950940951
 10
113.6939091031713
 20
116.5572032801396
 10
113.6699549239792
 20
116.5633613882286
 10
113.6451394709285
 20
116.5671402272831
 10
113.6196027010212
 20
116.568432138071
 10
113.6196027010212
 20
116.568432138071
 10
113.5940659311139
 20
116.5671509932064
 10
113.5692504780632
 20
116.5633506223053
 10
113.5452962988711
 20
116.5572032801396
 10
113.5223325846164
 20
116.5487950940951
 10
113.5004669945314
 20
116.538276787097
 10
113.4798394856181
 20
116.5257560183778
 10
113.4605900148785
 20
116.511361979016
 10
113.4428154756218
 20
116.4952346260139
 10
113.4266665907732
 20
116.4774816186036
 10
113.412251019565
 20
116.4582213819409
 10
113.3997087189992
 20
116.4376046389508
 10
113.3891581142315
 20
116.4157390488658
 10
113.3807391622637
 20
116.3927538027646
 10
113.3745702882516
 20
116.3687673258028
 10
113.3707699173505
 20
116.3439195749824
 10
113.3694780065626
 20
116.3183182095357
 10
113.3694780065626
 20
116.3183182095357
 10
113.3707699173505
 20
116.2927814396284
 10
113.3745702882516
 20
116.2679875184242
 10
113.3807391622637
 20
116.2440441051553
 10
113.3891688801547
 20
116.221101922747
 10
113.3997087189992
 20
116.1992578645085
 10
113.412251019565
 20
116.1786734192881
 10
113.4266665907732
 20
116.1594347144718
 10
113.4428154756218
 20
116.141703238908
 10
113.4605900148785
 20
116.1255866518291
 10
113.4798502515413
 20
116.1112033783906
 10
113.5004669945314
 20
116.0986933755946
 10
113.5223325846164
 20
116.0881750685965
 10
113.5453070647943
 20
116.0797776484752
 10
113.5692504780632
 20
116.0736195403863
 10
113.5940659311139
 20
116.0698407013317
 97
        0
 75
     1
 76
     1
 98
        0
  0
LWPOLYLINE
  5
84
330
1F
100
AcDbEntity
  8
ISS138金台
  6
Continuous
 62
   250
420
  2367521
370
    13
100
AcDbPolyline
 90
       68
 70
     0
 43
0.0
 10
113.6196027010212
 20
116.0685487905438
 10
113.6451394709285
 20
116.0698407013317
 10
113.6699549239792
 20
116.0736195403863
 10
113.6939091031713
 20
116.0797776484752
 10
113.7168835833493
 20
116.0881750685965
 10
113.738738407511
 20
116.0986933755946
 10
113.7593551505011
 20
116.1112033783906
 10
113.7786153871639
 20
116.1255866518291
 10
113.7963899264206
 20
116.141703238908
 10
113.8125495771924
 20
116.1594347144718
 10
113.8269543824774
 20
116.1786734192881
 10
113.8394966830432
 20
116.1992686304317
 10
113.8500365218877
 20
116.221101922747
 10
113.8584662397787
 20
116.2440441051553
 10
113.8646351137908
 20
116.2679767525009
 10
113.8684354846919
 20
116.2927814396284
 10
113.8697273954798
 20
116.3183182095357
 10
113.8697273954798
 20
116.3183182095357
 10
113.8684354846919
 20
116.3439088090591
 10
113.8646351137908
 20
116.368778091726
 10
113.8584554738554
 20
116.3927538027646
 10
113.8500472878109
 20
116.4157282829425
 10
113.8394966830432
 20
116.4376046389508
 10
113.8269543824774
 20
116.4582213819409
 10
113.8125495771924
 20
116.4774708526804
 10
113.7963899264206
 20
116.4952346260139
 10
113.7786261530871
 20
116.5113727449393
 10
113.7593659164243
 20
116.5257560183778
 10
113.738738407511
 20
116.538276787097
 10
113.716872817426
 20
116.5487950940951
 10
113.6939091031713
 20
116.5572032801396
 10
113.6699549239792
 20
116.5633613882286
 10
113.6451394709285
 20
116.5671402272831
 10
113.6196027010212
 20
116.568432138071
 10
113.6196027010212
 20
116.568432138071
 10
113.5940659311139
 20
116.5671509932064
 10
113.5692504780632
 20
116.5633506223053
 10
113.5452962988711
 20
116.5572032801396
 10
113.5223325846164
 20
116.5487950940951
 10
113.5004669945314
 20
116.538276787097
 10
113.4798394856181
 20
116.5257560183778
 10
113.4605900148785
 20
116.511361979016
 10
113.4428154756218
 20
116.4952346260139
 10
113.4266665907732
 20
116.4774816186036
 10
113.412251019565
 20
116.4582213819409
 10
113.3997087189992
 20
116.4376046389508
 10
113.3891581142315
 20
116.4157390488658
 10
113.3807391622637
 20
116.3927538027646
 10
113.3745702882516
 20
116.3687673258028
 10
113.3707699173505
 20
116.3439195749824
 10
113.3694780065626
 20
116.3183182095357
 10
113.3694780065626
 20
116.3183182095357
 10
113.3707699173505
 20
116.2927814396284
 10
113.3745702882516
 20
116.2679875184242
 10
113.3807391622637
 20
116.2440441051553
 10
113.3891688801547
 20
116.221101922747
 10
113.3997087189992
 20
116.1992578645085
 10
113.412251019565
 20
116.1786734192881
 10
113.4266665907732
 20
116.1594347144718
 10
113.4428154756218
 20
116.141703238908
 10
113.4605900148785
 20
116.1255866518291
 10
113.4798502515413
 20
116.1112033783906
 10
113.5004669945314
 20
116.0986933755946
 10
113.5223325846164
 20
116.0881750685965
 10
113.5453070647943
 20
116.0797776484752
 10
113.5692504780632
 20
116.0736195403863
 10
113.5940659311139
 20
116.0698407013317
 10
113.6196027010212
 20
116.0685487905438
  0
HATCH
  5
85
330
1F
100
AcDbEntity
  8
ISS138金台
  6
Continuous
 62
   250
420
  2367521
370
    13
100
AcDbHatch
 10
0.0
 20
0.0
 30
0.0
210
0.0
220
0.0
230
1.0
  2
SOLID
 70
     1
 71
     0
 91
        1
 92
        3
 72
     0
 73
     1
 93
       67
 10
108.1735850724443
 20
105.859869744644
 10
108.1991218423516
 20
105.8611616554319
 10
108.2239372954023
 20
105.8649512604097
 10
108.2478914745944
 20
105.8711201344219
 10
108.2708659547724
 20
105.8795606182361
 10
108.2927207789342
 20
105.8901004570806
 10
108.3133375219243
 20
105.9026319917232
 10
108.3326085245102
 20
105.9170475629314
 10
108.3503722978437
 20
105.93319644778
 10
108.3665319486156
 20
105.9509709870367
 10
108.3809367539005
 20
105.9702312236995
 10
108.3934790544663
 20
105.9908587326128
 10
108.4040188933108
 20
106.0127135567745
 10
108.4124486112018
 20
106.0356880369525
 10
108.418617485214
 20
106.0596422161446
 10
108.422417856115
 20
106.0844469032721
 10
108.4237097669029
 20
106.1099944391026
 10
108.4237097669029
 20
106.1099944391026
 10
108.422417856115
 20
106.1355419749331
 10
108.418617485214
 20
106.1603466620606
 10
108.4124486112018
 20
106.1843008412527
 10
108.4040188933108
 20
106.2072645555074
 10
108.3934898203895
 20
106.2291193796692
 10
108.3809367539005
 20
106.2497468885825
 10
108.3665211826923
 20
106.2690071252453
 10
108.3503722978437
 20
106.2867708985788
 10
108.332597758587
 20
106.3029305493506
 10
108.3133375219243
 20
106.3173353546356
 10
108.2927207789342
 20
106.3298776552013
 10
108.2708551888492
 20
106.3404282599691
 10
108.2478807086712
 20
106.3488472119368
 10
108.2239372954023
 20
106.355016085949
 10
108.1991218423516
 20
106.35881645685
 10
108.1735850724443
 20
106.3601083676379
 10
108.1735850724443
 20
106.3601083676379
 10
108.1480483025371
 20
106.3588056909268
 10
108.1232328494864
 20
106.3550268518722
 10
108.0992894362175
 20
106.3488472119368
 10
108.0763041901163
 20
106.3404282599691
 10
108.0544601318777
 20
106.3298776552013
 10
108.0338326229644
 20
106.3173353546356
 10
108.0145723863017
 20
106.3029305493506
 10
107.9967978470449
 20
106.2867708985788
 10
107.9806489621963
 20
106.2690071252453
 10
107.9662333909881
 20
106.2497468885825
 10
107.9536910904224
 20
106.2291301455924
 10
107.9431512515778
 20
106.2072645555074
 10
107.9347215336869
 20
106.1842900753294
 10
107.9285526596747
 20
106.1603466620606
 10
107.9247522887737
 20
106.1355312090099
 10
107.9234603779858
 20
106.1099944391026
 10
107.9234603779858
 20
106.1099944391026
 10
107.9247522887737
 20
106.0844576691953
 10
107.9285526596747
 20
106.0596422161446
 10
107.9347322996101
 20
106.0356880369525
 10
107.9431512515778
 20
106.0127243226978
 10
107.9536910904224
 20
105.9908479666895
 10
107.9662333909881
 20
105.9702312236995
 10
107.9806381962731
 20
105.9509709870367
 10
107.9967978470449
 20
105.93319644778
 10
108.0145616203784
 20
105.9170475629314
 10
108.0338326229644
 20
105.9026427576464
 10
108.0544493659545
 20
105.8901004570806
 10
108.0763149560395
 20
105.8795498523129
 10
108.0992786702943
 20
105.8711309003451
 10
108.1232328494864
 20
105.8649620263329
 10
108.1480483025371
 20
105.8611616554319
 97
        0
 75
     1
 76
     1
 98
        0
  0
LWPOLYLINE
  5
86
330
1F
100
AcDbEntity
  8
ISS138金台
  6
Continuous
 62
   250
420
  2367521
370
    13
100
AcDbPolyline
 90
       68
 70
     0
 43
0.0
 10
108.1735850724443
 20
105.859869744644
 10
108.1991218423516
 20
105.8611616554319
 10
108.2239372954023
 20
105.8649512604097
 10
108.2478914745944
 20
105.8711201344219
 10
108.2708659547724
 20
105.8795606182361
 10
108.2927207789342
 20
105.8901004570806
 10
108.3133375219243
 20
105.9026319917232
 10
108.3326085245102
 20
105.9170475629314
 10
108.3503722978437
 20
105.93319644778
 10
108.3665319486156
 20
105.9509709870367
 10
108.3809367539005
 20
105.9702312236995
 10
108.3934790544663
 20
105.9908587326128
 10
108.4040188933108
 20
106.0127135567745
 10
108.4124486112018
 20
106.0356880369525
 10
108.418617485214
 20
106.0596422161446
 10
108.422417856115
 20
106.0844469032721
 10
108.4237097669029
 20
106.1099944391026
 10
108.4237097669029
 20
106.1099944391026
 10
108.422417856115
 20
106.1355419749331
 10
108.418617485214
 20
106.1603466620606
 10
108.4124486112018
 20
106.1843008412527
 10
108.4040188933108
 20
106.2072645555074
 10
108.3934898203895
 20
106.2291193796692
 10
108.3809367539005
 20
106.2497468885825
 10
108.3665211826923
 20
106.2690071252453
 10
108.3503722978437
 20
106.2867708985788
 10
108.332597758587
 20
106.3029305493506
 10
108.3133375219243
 20
106.3173353546356
 10
108.2927207789342
 20
106.3298776552013
 10
108.2708551888492
 20
106.3404282599691
 10
108.2478807086712
 20
106.3488472119368
 10
108.2239372954023
 20
106.355016085949
 10
108.1991218423516
 20
106.35881645685
 10
108.1735850724443
 20
106.3601083676379
 10
108.1735850724443
 20
106.3601083676379
 10
108.1480483025371
 20
106.3588056909268
 10
108.1232328494864
 20
106.3550268518722
 10
108.0992894362175
 20
106.3488472119368
 10
108.0763041901163
 20
106.3404282599691
 10
108.0544601318777
 20
106.3298776552013
 10
108.0338326229644
 20
106.3173353546356
 10
108.0145723863017
 20
106.3029305493506
 10
107.9967978470449
 20
106.2867708985788
 10
107.9806489621963
 20
106.2690071252453
 10
107.9662333909881
 20
106.2497468885825
 10
107.9536910904224
 20
106.2291301455924
 10
107.9431512515778
 20
106.2072645555074
 10
107.9347215336869
 20
106.1842900753294
 10
107.9285526596747
 20
106.1603466620606
 10
107.9247522887737
 20
106.1355312090099
 10
107.9234603779858
 20
106.1099944391026
 10
107.9234603779858
 20
106.1099944391026
 10
107.9247522887737
 20
106.0844576691953
 10
107.9285526596747
 20
106.0596422161446
 10
107.9347322996101
 20
106.0356880369525
 10
107.9431512515778
 20
106.0127243226978
 10
107.9536910904224
 20
105.9908479666895
 10
107.9662333909881
 20
105.9702312236995
 10
107.9806381962731
 20
105.9509709870367
 10
107.9967978470449
 20
105.93319644778
 10
108.0145616203784
 20
105.9170475629314
 10
108.0338326229644
 20
105.9026427576464
 10
108.0544493659545
 20
105.8901004570806
 10
108.0763149560395
 20
105.8795498523129
 10
108.0992786702943
 20
105.8711309003451
 10
108.1232328494864
 20
105.8649620263329
 10
108.1480483025371
 20
105.8611616554319
 10
108.1735850724443
 20
105.859869744644
  0
HATCH
  5
87
330
1F
100
AcDbEntity
  8
ISS138金台
  6
Continuous
 62
   250
420
  2367521
370
    13
100
AcDbHatch
 10
0.0
 20
0.0
 30
0.0
210
0.0
220
0.0
230
1.0
  2
SOLID
 70
     1
 71
     0
 91
        1
 92
        3
 72
     0
 73
     1
 93
       67
 10
108.1735850724443
 20
103.3022201282438
 10
108.1991218423516
 20
103.3035228049549
 10
108.2239372954023
 20
103.3073016440095
 10
108.2478914745944
 20
103.3134705180216
 10
108.2708659547724
 20
103.3219110018359
 10
108.2927207789342
 20
103.3324508406804
 10
108.3133375219243
 20
103.3449931412461
 10
108.3326085245102
 20
103.3594087124544
 10
108.3503722978437
 20
103.375557597303
 10
108.3665319486156
 20
103.3933321365597
 10
108.3809367539005
 20
103.4125816072992
 10
108.3934790544663
 20
103.4332091162125
 10
108.4040188933108
 20
103.4550639403743
 10
108.4124486112018
 20
103.4780384205523
 10
108.418617485214
 20
103.5019925997444
 10
108.422417856115
 20
103.5268080527951
 10
108.4237097669029
 20
103.5523448227024
 10
108.4237097669029
 20
103.5523448227024
 10
108.422417856115
 20
103.5778923585328
 10
108.418617485214
 20
103.6026970456603
 10
108.4124486112018
 20
103.6266512248524
 10
108.4040188933108
 20
103.6496257050304
 10
108.3934898203895
 20
103.671469763269
 10
108.3809367539005
 20
103.6920972721823
 10
108.3665211826923
 20
103.7113467429218
 10
108.3503722978437
 20
103.7291212821785
 10
108.332597758587
 20
103.7452809329504
 10
108.3133375219243
 20
103.7596965041586
 10
108.2927207789342
 20
103.7722280388011
 10
108.2708551888492
 20
103.7827786435688
 10
108.2478807086712
 20
103.7911975955366
 10
108.2239372954023
 20
103.7973664695488
 10
108.1991218423516
 20
103.8011668404498
 10
108.1735850724443
 20
103.8024587512377
 10
108.1735850724443
 20
103.8024587512377
 10
108.1480483025371
 20
103.8011668404498
 10
108.1232328494864
 20
103.7973557036255
 10
108.0992894362175
 20
103.7911975955366
 10
108.0763041901163
 20
103.7827786435688
 10
108.0544601318777
 20
103.7722280388011
 10
108.0338326229644
 20
103.7596857382353
 10
108.0145723863017
 20
103.7452809329504
 10
107.9967978470449
 20
103.7291212821785
 10
107.9806489621963
 20
103.711357508845
 10
107.9662333909881
 20
103.6920972721823
 10
107.9536910904224
 20
103.671469763269
 10
107.9431512515778
 20
103.6496149391072
 10
107.9347215336869
 20
103.6266512248524
 10
107.9285526596747
 20
103.6026970456603
 10
107.9247522887737
 20
103.5778815926096
 10
107.9234603779858
 20
103.5523448227024
 10
107.9234603779858
 20
103.5523448227024
 10
107.9247522887737
 20
103.5268080527951
 10
107.9285526596747
 20
103.5019925997444
 10
107.9347322996101
 20
103.4780384205523
 10
107.9431512515778
 20
103.4550747062975
 10
107.9536910904224
 20
103.4332091162125
 10
107.9662333909881
 20
103.4125816072992
 10
107.9806381962731
 20
103.3933213706364
 10
107.9967978470449
 20
103.375557597303
 10
108.0145616203784
 20
103.3594087124544
 10
108.0338326229644
 20
103.3449931412461
 10
108.0544493659545
 20
103.3324508406804
 10
108.0763149560395
 20
103.3219002359126
 10
108.0992786702943
 20
103.3134812839449
 10
108.1232328494864
 20
103.3073124099327
 10
108.1480483025371
 20
103.3035120390317
 97
        0
 75
     1
 76
     1
 98
        0
  0
LWPOLYLINE
  5
88
330
1F
100
AcDbEntity
  8
ISS138金台
  6
Continuous
 62
   250
420
  2367521
370
    13
100
AcDbPolyline
 90
       68
 70
     0
 43
0.0
 10
108.1735850724443
 20
103.3022201282438
 10
108.1991218423516
 20
103.3035228049549
 10
108.2239372954023
 20
103.3073016440095
 10
108.2478914745944
 20
103.3134705180216
 10
108.2708659547724
 20
103.3219110018359
 10
108.2927207789342
 20
103.3324508406804
 10
108.3133375219243
 20
103.3449931412461
 10
108.3326085245102
 20
103.3594087124544
 10
108.3503722978437
 20
103.375557597303
 10
108.3665319486156
 20
103.3933321365597
 10
108.3809367539005
 20
103.4125816072992
 10
108.3934790544663
 20
103.4332091162125
 10
108.4040188933108
 20
103.4550639403743
 10
108.4124486112018
 20
103.4780384205523
 10
108.418617485214
 20
103.5019925997444
 10
108.422417856115
 20
103.5268080527951
 10
108.4237097669029
 20
103.5523448227024
 10
108.4237097669029
 20
103.5523448227024
 10
108.422417856115
 20
103.5778923585328
 10
108.418617485214
 20
103.6026970456603
 10
108.4124486112018
 20
103.6266512248524
 10
108.4040188933108
 20
103.6496257050304
 10
108.3934898203895
 20
103.671469763269
 10
108.3809367539005
 20
103.6920972721823
 10
108.3665211826923
 20
103.7113467429218
 10
108.3503722978437
 20
103.7291212821785
 10
108.332597758587
 20
103.7452809329504
 10
108.3133375219243
 20
103.7596965041586
 10
108.2927207789342
 20
103.7722280388011
 10
108.2708551888492
 20
103.7827786435688
 10
108.2478807086712
 20
103.7911975955366
 10
108.2239372954023
 20
103.7973664695488
 10
108.1991218423516
 20
103.8011668404498
 10
108.1735850724443
 20
103.8024587512377
 10
108.1735850724443
 20
103.8024587512377
 10
108.1480483025371
 20
103.8011668404498
 10
108.1232328494864
 20
103.7973557036255
 10
108.0992894362175
 20
103.7911975955366
 10
108.0763041901163
 20
103.7827786435688
 10
108.0544601318777
 20
103.7722280388011
 10
108.0338326229644
 20
103.7596857382353
 10
108.0145723863017
 20
103.7452809329504
 10
107.9967978470449
 20
103.7291212821785
 10
107.9806489621963
 20
103.711357508845
 10
107.9662333909881
 20
103.6920972721823
 10
107.9536910904224
 20
103.671469763269
 10
107.9431512515778
 20
103.6496149391072
 10
107.9347215336869
 20
103.6266512248524
 10
107.9285526596747
 20
103.6026970456603
 10
107.9247522887737
 20
103.5778815926096
 10
107.9234603779858
 20
103.5523448227024
 10
107.9234603779858
 20
103.5523448227024
 10
107.9247522887737
 20
103.5268080527951
 10
107.9285526596747
 20
103.5019925997444
 10
107.9347322996101
 20
103.4780384205523
 10
107.9431512515778
 20
103.4550747062975
 10
107.9536910904224
 20
103.4332091162125
 10
107.9662333909881
 20
103.4125816072992
 10
107.9806381962731
 20
103.3933213706364
 10
107.9967978470449
 20
103.375557597303
 10
108.0145616203784
 20
103.3594087124544
 10
108.0338326229644
 20
103.3449931412461
 10
108.0544493659545
 20
103.3324508406804
 10
108.0763149560395
 20
103.3219002359126
 10
108.0992786702943
 20
103.3134812839449
 10
108.1232328494864
 20
103.3073124099327
 10
108.1480483025371
 20
103.3035120390317
 10
108.1735850724443
 20
103.3022201282438
  0
HATCH
  5
89
330
1F
100
AcDbEntity
  8
ISS138金台
  6
Continuous
 62
   250
420
  2367521
370
    13
100
AcDbHatch
 10
0.0
 20
0.0
 30
0.0
210
0.0
220
0.0
230
1.0
  2
SOLID
 70
     1
 71
     0
 91
        1
 92
        3
 72
     0
 73
     1
 93
       67
 10
113.6196027010212
 20
92.87323799523924
 10
113.6451394709285
 20
92.8745299060271
 10
113.6699549239792
 20
92.87831951100492
 10
113.6939091031713
 20
92.88449915094033
 10
113.7168835833493
 20
92.8929288688313
 10
113.738738407511
 20
92.90346870767584
 10
113.7593551505011
 20
92.91601100824158
 10
113.7786153871639
 20
92.93041581352655
 10
113.7963899264206
 20
92.9465754642984
 10
113.8125495771924
 20
92.96433923763188
 10
113.8269543824774
 20
92.98359947429466
 10
113.8394966830432
 20
93.00422698320796
 10
113.8500365218877
 20
93.02608180736974
 10
113.8584662397787
 20
93.0490562875477
 10
113.8646351137908
 20
93.07301046673982
 10
113.8684354846919
 20
93.09781515386729
 10
113.8697273954798
 20
93.12336268969779
 10
113.8697273954798
 20
93.12336268969779
 10
113.8684354846919
 20
93.14889945960508
 10
113.8646351137908
 20
93.17371491265577
 10
113.8584554738554
 20
93.19765832592465
 10
113.8500472878109
 20
93.2206328061026
 10
113.8394966830432
 20
93.24249839618764
 10
113.8269543824774
 20
93.2631151391777
 10
113.8125495771924
 20
93.28237537584047
 10
113.7963899264206
 20
93.30013914917396
 10
113.7786261530871
 20
93.3162987999458
 10
113.7593659164243
 20
93.33070360523075
 10
113.738738407511
 20
93.34324590579652
 10
113.716872817426
 20
93.35379651056428
 10
113.6939091031713
 20
93.36221546253202
 10
113.6699549239792
 20
93.3683843365442
 10
113.6451394709285
 20
93.37218470744523
 10
113.6196027010212
 20
93.37347661823313
 10
113.6196027010212
 20
93.37347661823313
 10
113.5940659311139
 20
93.37218470744523
 10
113.5692504780632
 20
93.36839510246742
 10
113.5452962988711
 20
93.36221546253202
 10
113.5223325846164
 20
93.35379651056428
 10
113.5004669945314
 20
93.34325667171976
 10
113.4798394856181
 20
93.33070360523075
 10
113.4605900148785
 20
93.3162987999458
 10
113.4428154756218
 20
93.30013914917396
 10
113.4266665907732
 20
93.28237537584047
 10
113.412251019565
 20
93.2631151391777
 10
113.3997087189992
 20
93.24249839618764
 10
113.3891581142315
 20
93.2206328061026
 10
113.3807391622637
 20
93.19766909184787
 10
113.3745702882516
 20
93.17371491265577
 10
113.3707699173505
 20
93.14889945960508
 10
113.3694780065626
 20
93.12336268969779
 10
113.3694780065626
 20
93.12336268969779
 10
113.3707699173505
 20
93.09782591979052
 10
113.3745702882516
 20
93.07301046673982
 10
113.3807391622637
 20
93.0490562875477
 10
113.3891688801547
 20
93.02609257329297
 10
113.3997087189992
 20
93.00422698320796
 10
113.412251019565
 20
92.98359947429466
 10
113.4266665907732
 20
92.96433923763188
 10
113.4428154756218
 20
92.9465754642984
 10
113.4605900148785
 20
92.93041581352655
 10
113.4798502515413
 20
92.91601100824158
 10
113.5004669945314
 20
92.90346870767584
 10
113.5223325846164
 20
92.89291810290807
 10
113.5453070647943
 20
92.88449915094033
 10
113.5692504780632
 20
92.87833027692815
 10
113.5940659311139
 20
92.8745299060271
 97
        0
 75
     1
 76
     1
 98
        0
  0
LWPOLYLINE
  5
8A
330
1F
100
AcDbEntity
  8
ISS138金台
  6
Continuous
 62
   250
420
  2367521
370
    13
100
AcDbPolyline
 90
       68
 70
     0
 43
0.0
 10
113.6196027010212
 20
92.87323799523924
 10
113.6451394709285
 20
92.8745299060271
 10
113.6699549239792
 20
92.87831951100492
 10
113.6939091031713
 20
92.88449915094033
 10
113.7168835833493
 20
92.8929288688313
 10
113.738738407511
 20
92.90346870767584
 10
113.7593551505011
 20
92.91601100824158
 10
113.7786153871639
 20
92.93041581352655
 10
113.7963899264206
 20
92.9465754642984
 10
113.8125495771924
 20
92.96433923763188
 10
113.8269543824774
 20
92.98359947429466
 10
113.8394966830432
 20
93.00422698320796
 10
113.8500365218877
 20
93.02608180736974
 10
113.8584662397787
 20
93.0490562875477
 10
113.8646351137908
 20
93.07301046673982
 10
113.8684354846919
 20
93.09781515386729
 10
113.8697273954798
 20
93.12336268969779
 10
113.8697273954798
 20
93.12336268969779
 10
113.8684354846919
 20
93.14889945960508
 10
113.8646351137908
 20
93.17371491265577
 10
113.8584554738554
 20
93.19765832592465
 10
113.8500472878109
 20
93.2206328061026
 10
113.8394966830432
 20
93.24249839618764
 10
113.8269543824774
 20
93.2631151391777
 10
113.8125495771924
 20
93.28237537584047
 10
113.7963899264206
 20
93.30013914917396
 10
113.7786261530871
 20
93.3162987999458
 10
113.7593659164243
 20
93.33070360523075
 10
113.738738407511
 20
93.34324590579652
 10
113.716872817426
 20
93.35379651056428
 10
113.6939091031713
 20
93.36221546253202
 10
113.6699549239792
 20
93.3683843365442
 10
113.6451394709285
 20
93.37218470744523
 10
113.6196027010212
 20
93.37347661823313
 10
113.6196027010212
 20
93.37347661823313
 10
113.5940659311139
 20
93.37218470744523
 10
113.5692504780632
 20
93.36839510246742
 10
113.5452962988711
 20
93.36221546253202
 10
113.5223325846164
 20
93.35379651056428
 10
113.5004669945314
 20
93.34325667171976
 10
113.4798394856181
 20
93.33070360523075
 10
113.4605900148785
 20
93.3162987999458
 10
113.4428154756218
 20
93.30013914917396
 10
113.4266665907732
 20
93.28237537584047
 10
113.412251019565
 20
93.2631151391777
 10
113.3997087189992
 20
93.24249839618764
 10
113.3891581142315
 20
93.2206328061026
 10
113.3807391622637
 20
93.19766909184787
 10
113.3745702882516
 20
93.17371491265577
 10
113.3707699173505
 20
93.14889945960508
 10
113.3694780065626
 20
93.12336268969779
 10
113.3694780065626
 20
93.12336268969779
 10
113.3707699173505
 20
93.09782591979052
 10
113.3745702882516
 20
93.07301046673982
 10
113.3807391622637
 20
93.0490562875477
 10
113.3891688801547
 20
93.02609257329297
 10
113.3997087189992
 20
93.00422698320796
 10
113.412251019565
 20
92.98359947429466
 10
113.4266665907732
 20
92.96433923763188
 10
113.4428154756218
 20
92.9465754642984
 10
113.4605900148785
 20
92.93041581352655
 10
113.4798502515413
 20
92.91601100824158
 10
113.5004669945314
 20
92.90346870767584
 10
113.5223325846164
 20
92.89291810290807
 10
113.5453070647943
 20
92.88449915094033
 10
113.5692504780632
 20
92.87833027692815
 10
113.5940659311139
 20
92.8745299060271
 10
113.6196027010212
 20
92.87323799523924
  0
HATCH
  5
8B
330
1F
100
AcDbEntity
  8
ISS138金台
  6
Continuous
 62
   250
420
  2367521
370
    13
100
AcDbHatch
 10
0.0
 20
0.0
 30
0.0
210
0.0
220
0.0
230
1.0
  2
SOLID
 70
     1
 71
     0
 91
        1
 92
        3
 72
     0
 73
     1
 93
       67
 10
132.6475430382157
 20
92.87323799523924
 10
132.673079808123
 20
92.8745299060271
 10
132.6978952611737
 20
92.87831951100492
 10
132.7218494403658
 20
92.88449915094033
 10
132.7448239205438
 20
92.8929288688313
 10
132.7666787447055
 20
92.90346870767584
 10
132.7872954876956
 20
92.91601100824158
 10
132.8065664902816
 20
92.93041581352655
 10
132.8243302636151
 20
92.9465754642984
 10
132.8404791484637
 20
92.96433923763188
 10
132.8548947196719
 20
92.98359947429466
 10
132.8674370202377
 20
93.00422698320796
 10
132.8779768590822
 20
93.02608180736974
 10
132.8864065769732
 20
93.0490562875477
 10
132.8925754509853
 20
93.07301046673982
 10
132.8963758218864
 20
93.09781515386729
 10
132.8976677326743
 20
93.12336268969779
 10
132.8976677326743
 20
93.12336268969779
 10
132.8963758218864
 20
93.14889945960508
 10
132.8925754509853
 20
93.17371491265577
 10
132.8864065769732
 20
93.19765832592465
 10
132.8779768590822
 20
93.2206328061026
 10
132.8674477861609
 20
93.24249839618764
 10
132.8548947196719
 20
93.2631151391777
 10
132.8404791484637
 20
93.28237537584047
 10
132.8243302636151
 20
93.30013914917396
 10
132.8065557243584
 20
93.3162987999458
 10
132.7872954876956
 20
93.33070360523075
 10
132.7666787447055
 20
93.34324590579652
 10
132.7448131546205
 20
93.35379651056428
 10
132.7218386744426
 20
93.36221546253202
 10
132.6978952611737
 20
93.3683843365442
 10
132.673079808123
 20
93.37218470744523
 10
132.6475430382157
 20
93.37347661823313
 10
132.6475430382157
 20
93.37347661823313
 10
132.6219955023852
 20
93.37218470744523
 10
132.5971908152577
 20
93.36839510246742
 10
132.5732474019889
 20
93.36221546253202
 10
132.5502621558877
 20
93.35379651056428
 10
132.5284180976491
 20
93.34325667171976
 10
132.5077905887358
 20
93.33070360523075
 10
132.488530352073
 20
93.3162987999458
 10
132.4707558128163
 20
93.30013914917396
 10
132.4545961620445
 20
93.28237537584047
 10
132.4401913567595
 20
93.2631151391777
 10
132.4276490561937
 20
93.24249839618764
 10
132.4171092173492
 20
93.2206328061026
 10
132.4086794994582
 20
93.19766909184787
 10
132.402510625446
 20
93.17371491265577
 10
132.398710254545
 20
93.14889945960508
 10
132.3974183437571
 20
93.12336268969779
 10
132.3974183437571
 20
93.12336268969779
 10
132.398710254545
 20
93.09782591979052
 10
132.402510625446
 20
93.07301046673982
 10
132.4086902653815
 20
93.0490562875477
 10
132.4171092173492
 20
93.02609257329297
 10
132.4276490561937
 20
93.00422698320796
 10
132.4401913567595
 20
92.98359947429466
 10
132.4545961620445
 20
92.96433923763188
 10
132.4707558128163
 20
92.9465754642984
 10
132.4885195861498
 20
92.93041581352655
 10
132.5077798228126
 20
92.91601100824158
 10
132.5284073317259
 20
92.90346870767584
 10
132.5502729218109
 20
92.89291810290807
 10
132.5732366360656
 20
92.88449915094033
 10
132.5971908152577
 20
92.87833027692815
 10
132.6220062683084
 20
92.8745299060271
 97
        0
 75
     1
 76
     1
 98
        0
  0
LWPOLYLINE
  5
8C
330
1F
100
AcDbEntity
  8
ISS138金台
  6
Continuous
 62
   250
420
  2367521
370
    13
100
AcDbPolyline
 90
       68
 70
     0
 43
0.0
 10
132.6475430382157
 20
92.87323799523924
 10
132.673079808123
 20
92.8745299060271
 10
132.6978952611737
 20
92.87831951100492
 10
132.7218494403658
 20
92.88449915094033
 10
132.7448239205438
 20
92.8929288688313
 10
132.7666787447055
 20
92.90346870767584
 10
132.7872954876956
 20
92.91601100824158
 10
132.8065664902816
 20
92.93041581352655
 10
132.8243302636151
 20
92.9465754642984
 10
132.8404791484637
 20
92.96433923763188
 10
132.8548947196719
 20
92.98359947429466
 10
132.8674370202377
 20
93.00422698320796
 10
132.8779768590822
 20
93.02608180736974
 10
132.8864065769732
 20
93.0490562875477
 10
132.8925754509853
 20
93.07301046673982
 10
132.8963758218864
 20
93.09781515386729
 10
132.8976677326743
 20
93.12336268969779
 10
132.8976677326743
 20
93.12336268969779
 10
132.8963758218864
 20
93.14889945960508
 10
132.8925754509853
 20
93.17371491265577
 10
132.8864065769732
 20
93.19765832592465
 10
132.8779768590822
 20
93.2206328061026
 10
132.8674477861609
 20
93.24249839618764
 10
132.8548947196719
 20
93.2631151391777
 10
132.8404791484637
 20
93.28237537584047
 10
132.8243302636151
 20
93.30013914917396
 10
132.8065557243584
 20
93.3162987999458
 10
132.7872954876956
 20
93.33070360523075
 10
132.7666787447055
 20
93.34324590579652
 10
132.7448131546205
 20
93.35379651056428
 10
132.7218386744426
 20
93.36221546253202
 10
132.6978952611737
 20
93.3683843365442
 10
132.673079808123
 20
93.37218470744523
 10
132.6475430382157
 20
93.37347661823313
 10
132.6475430382157
 20
93.37347661823313
 10
132.6219955023852
 20
93.37218470744523
 10
132.5971908152577
 20
93.36839510246742
 10
132.5732474019889
 20
93.36221546253202
 10
132.5502621558877
 20
93.35379651056428
 10
132.5284180976491
 20
93.34325667171976
 10
132.5077905887358
 20
93.33070360523075
 10
132.488530352073
 20
93.3162987999458
 10
132.4707558128163
 20
93.30013914917396
 10
132.4545961620445
 20
93.28237537584047
 10
132.4401913567595
 20
93.2631151391777
 10
132.4276490561937
 20
93.24249839618764
 10
132.4171092173492
 20
93.2206328061026
 10
132.4086794994582
 20
93.19766909184787
 10
132.402510625446
 20
93.17371491265577
 10
132.398710254545
 20
93.14889945960508
 10
132.3974183437571
 20
93.12336268969779
 10
132.3974183437571
 20
93.12336268969779
 10
132.398710254545
 20
93.09782591979052
 10
132.402510625446
 20
93.07301046673982
 10
132.4086902653815
 20
93.0490562875477
 10
132.4171092173492
 20
93.02609257329297
 10
132.4276490561937
 20
93.00422698320796
 10
132.4401913567595
 20
92.98359947429466
 10
132.4545961620445
 20
92.96433923763188
 10
132.4707558128163
 20
92.9465754642984
 10
132.4885195861498
 20
92.93041581352655
 10
132.5077798228126
 20
92.91601100824158
 10
132.5284073317259
 20
92.90346870767584
 10
132.5502729218109
 20
92.89291810290807
 10
132.5732366360656
 20
92.88449915094033
 10
132.5971908152577
 20
92.87833027692815
 10
132.6220062683084
 20
92.8745299060271
 10
132.6475430382157
 20
92.87323799523924
  0
HATCH
  5
8D
330
1F
100
AcDbEntity
  8
ISS138金台
  6
Continuous
 62
   250
420
  2367521
370
    13
100
AcDbHatch
 10
0.0
 20
0.0
 30
0.0
210
0.0
220
0.0
230
1.0
  2
SOLID
 70
     1
 71
     0
 91
        1
 92
        3
 72
     0
 73
     1
 93
       67
 10
141.2024040208457
 20
110.9532710895898
 10
141.2279407907529
 20
110.9545630003777
 10
141.2527562438037
 20
110.9583418394323
 10
141.2767104229958
 20
110.9644999475212
 10
141.2996849031737
 20
110.9728973676425
 10
141.3215397273355
 20
110.9834156746405
 10
141.3421564703256
 20
110.9959256774366
 10
141.3614274729116
 20
111.0103089508751
 10
141.3791912462451
 20
111.026425537954
 10
141.3953401310937
 20
111.0441570135178
 10
141.4097557023019
 20
111.0633957183341
 10
141.4222980028676
 20
111.0839909294777
 10
141.4328378417122
 20
111.105824221793
 10
141.4412675596031
 20
111.1287664042013
 10
141.4474364336153
 20
111.1526990515469
 10
141.4512368045164
 20
111.1775037386744
 10
141.4525287153043
 20
111.2030405085817
 10
141.4525287153043
 20
111.2030405085817
 10
141.4512368045164
 20
111.2286311081051
 10
141.4474364336153
 20
111.253500390772
 10
141.4412675596031
 20
111.2774761018106
 10
141.4328378417122
 20
111.3004505819885
 10
141.4223087687909
 20
111.3223269379968
 10
141.4097557023019
 20
111.3429436809868
 10
141.3953401310937
 20
111.3621931517264
 10
141.3791912462451
 20
111.3799569250599
 10
141.3614167069884
 20
111.3960950439853
 10
141.3421564703256
 20
111.4104783174237
 10
141.3215397273355
 20
111.422999086143
 10
141.2996741372505
 20
111.4335173931411
 10
141.2766996570725
 20
111.4419255791856
 10
141.2527562438037
 20
111.4480836872745
 10
141.2279407907529
 20
111.4518625263291
 10
141.2024040208457
 20
111.453154437117
 10
141.2024040208457
 20
111.453154437117
 10
141.1768564850152
 20
111.4518732922524
 10
141.1520517978877
 20
111.4480729213513
 10
141.1281083846188
 20
111.4419255791856
 10
141.1051231385176
 20
111.4335173931411
 10
141.0832790802791
 20
111.422999086143
 10
141.0626515713658
 20
111.4104783174237
 10
141.043391334703
 20
111.396084278062
 10
141.0256167954463
 20
111.3799569250599
 10
141.0094571446745
 20
111.3622039176496
 10
140.9950523393895
 20
111.3429436809868
 10
140.9825100388237
 20
111.3223269379968
 10
140.9719701999792
 20
111.3004613479118
 10
140.9635404820882
 20
111.2774761018106
 10
140.957371608076
 20
111.2534896248487
 10
140.953571237175
 20
111.2286418740284
 10
140.9522793263871
 20
111.2030405085817
 10
140.9522793263871
 20
111.2030405085817
 10
140.953571237175
 20
111.1775037386744
 10
140.957371608076
 20
111.1527098174702
 10
140.9635512480115
 20
111.1287664042013
 10
140.9719701999792
 20
111.105824221793
 10
140.9825100388237
 20
111.0839801635545
 10
140.9950523393895
 20
111.0633957183341
 10
141.0094571446745
 20
111.0441570135178
 10
141.0256167954463
 20
111.026425537954
 10
141.0433805687798
 20
111.0103089508751
 10
141.0626408054425
 20
110.9959256774366
 10
141.0832790802791
 20
110.9834156746405
 10
141.1051339044409
 20
110.9728973676425
 10
141.1280976186956
 20
110.9644999475212
 10
141.1520517978877
 20
110.9583418394323
 10
141.1768672509384
 20
110.9545630003777
 97
        0
 75
     1
 76
     1
 98
        0
  0
LWPOLYLINE
  5
8E
330
1F
100
AcDbEntity
  8
ISS138金台
  6
Continuous
 62
   250
420
  2367521
370
    13
100
AcDbPolyline
 90
       68
 70
     0
 43
0.0
 10
141.2024040208457
 20
110.9532710895898
 10
141.2279407907529
 20
110.9545630003777
 10
141.2527562438037
 20
110.9583418394323
 10
141.2767104229958
 20
110.9644999475212
 10
141.2996849031737
 20
110.9728973676425
 10
141.3215397273355
 20
110.9834156746405
 10
141.3421564703256
 20
110.9959256774366
 10
141.3614274729116
 20
111.0103089508751
 10
141.3791912462451
 20
111.026425537954
 10
141.3953401310937
 20
111.0441570135178
 10
141.4097557023019
 20
111.0633957183341
 10
141.4222980028676
 20
111.0839909294777
 10
141.4328378417122
 20
111.105824221793
 10
141.4412675596031
 20
111.1287664042013
 10
141.4474364336153
 20
111.1526990515469
 10
141.4512368045164
 20
111.1775037386744
 10
141.4525287153043
 20
111.2030405085817
 10
141.4525287153043
 20
111.2030405085817
 10
141.4512368045164
 20
111.2286311081051
 10
141.4474364336153
 20
111.253500390772
 10
141.4412675596031
 20
111.2774761018106
 10
141.4328378417122
 20
111.3004505819885
 10
141.4223087687909
 20
111.3223269379968
 10
141.4097557023019
 20
111.3429436809868
 10
141.3953401310937
 20
111.3621931517264
 10
141.3791912462451
 20
111.3799569250599
 10
141.3614167069884
 20
111.3960950439853
 10
141.3421564703256
 20
111.4104783174237
 10
141.3215397273355
 20
111.422999086143
 10
141.2996741372505
 20
111.4335173931411
 10
141.2766996570725
 20
111.4419255791856
 10
141.2527562438037
 20
111.4480836872745
 10
141.2279407907529
 20
111.4518625263291
 10
141.2024040208457
 20
111.453154437117
 10
141.2024040208457
 20
111.453154437117
 10
141.1768564850152
 20
111.4518732922524
 10
141.1520517978877
 20
111.4480729213513
 10
141.1281083846188
 20
111.4419255791856
 10
141.1051231385176
 20
111.4335173931411
 10
141.0832790802791
 20
111.422999086143
 10
141.0626515713658
 20
111.4104783174237
 10
141.043391334703
 20
111.396084278062
 10
141.0256167954463
 20
111.3799569250599
 10
141.0094571446745
 20
111.3622039176496
 10
140.9950523393895
 20
111.3429436809868
 10
140.9825100388237
 20
111.3223269379968
 10
140.9719701999792
 20
111.3004613479118
 10
140.9635404820882
 20
111.2774761018106
 10
140.957371608076
 20
111.2534896248487
 10
140.953571237175
 20
111.2286418740284
 10
140.9522793263871
 20
111.2030405085817
 10
140.9522793263871
 20
111.2030405085817
 10
140.953571237175
 20
111.1775037386744
 10
140.957371608076
 20
111.1527098174702
 10
140.9635512480115
 20
111.1287664042013
 10
140.9719701999792
 20
111.105824221793
 10
140.9825100388237
 20
111.0839801635545
 10
140.9950523393895
 20
111.0633957183341
 10
141.0094571446745
 20
111.0441570135178
 10
141.0256167954463
 20
111.026425537954
 10
141.0433805687798
 20
111.0103089508751
 10
141.0626408054425
 20
110.9959256774366
 10
141.0832790802791
 20
110.9834156746405
 10
141.1051339044409
 20
110.9728973676425
 10
141.1280976186956
 20
110.9644999475212
 10
141.1520517978877
 20
110.9583418394323
 10
141.1768672509384
 20
110.9545630003777
 10
141.2024040208457
 20
110.9532710895898
  0
HATCH
  5
8F
330
1F
100
AcDbEntity
  8
ISS138金台
  6
Continuous
 62
   250
420
  2367521
370
    13
100
AcDbHatch
 10
0.0
 20
0.0
 30
0.0
210
0.0
220
0.0
230
1.0
  2
SOLID
 70
     1
 71
     0
 91
        1
 92
        3
 72
     0
 73
     1
 93
       67
 10
146.1853792911966
 20
110.9532710895898
 10
146.2109160611039
 20
110.9545630003777
 10
146.2357315141546
 20
110.9583418394323
 10
146.2596856933467
 20
110.9644999475212
 10
146.2826494076014
 20
110.9728973676425
 10
146.3045149976865
 20
110.9834156746405
 10
146.3251317406765
 20
110.9959256774366
 10
146.3444027432625
 20
111.0103089508751
 10
146.362166516596
 20
111.026425537954
 10
146.3783154014446
 20
111.0441570135178
 10
146.3927309726528
 20
111.0633957183341
 10
146.4052732732186
 20
111.0839909294777
 10
146.4158238779863
 20
111.105824221793
 10
146.4242428299541
 20
111.1287664042013
 10
146.4304117039663
 20
111.1526990515469
 10
146.4342120748673
 20
111.1775037386744
 10
146.4355039856552
 20
111.2030405085817
 10
146.4355039856552
 20
111.2030405085817
 10
146.4342120748673
 20
111.2286311081051
 10
146.4304224698895
 20
111.253500390772
 10
146.4242320640308
 20
111.2774761018106
 10
146.4158131120631
 20
111.3004505819885
 10
146.4052732732186
 20
111.3223269379968
 10
146.3927309726528
 20
111.3429436809868
 10
146.3783154014446
 20
111.3621931517264
 10
146.362166516596
 20
111.3799569250599
 10
146.3443919773393
 20
111.3960950439853
 10
146.3251317406765
 20
111.4104783174237
 10
146.3045042317632
 20
111.422999086143
 10
146.2826494076014
 20
111.4335173931411
 10
146.2596749274235
 20
111.4419255791856
 10
146.2357315141546
 20
111.4480836872745
 10
146.2109160611039
 20
111.4518625263291
 10
146.1853792911966
 20
111.453154437117
 10
146.1853792911966
 20
111.453154437117
 10
146.1598317553661
 20
111.4518732922524
 10
146.1350270682386
 20
111.4480729213513
 10
146.1110836549698
 20
111.4419255791856
 10
146.0880984088686
 20
111.4335173931411
 10
146.0662435847068
 20
111.422999086143
 10
146.0456268417167
 20
111.4104783174237
 10
146.0263558391307
 20
111.396084278062
 10
146.0085920657972
 20
111.3799569250599
 10
145.9924324150254
 20
111.3622039176496
 10
145.9780276097404
 20
111.3429436809868
 10
145.9654853091747
 20
111.3223269379968
 10
145.9549454703301
 20
111.3004613479118
 10
145.9465157524392
 20
111.2774761018106
 10
145.940346878427
 20
111.2534896248487
 10
145.9365465075259
 20
111.2286418740284
 10
145.935254596738
 20
111.2030405085817
 10
145.935254596738
 20
111.2030405085817
 10
145.9365465075259
 20
111.1775037386744
 10
145.940346878427
 20
111.1527098174702
 10
145.9465265183624
 20
111.1287664042013
 10
145.9549347044069
 20
111.105824221793
 10
145.9654853091747
 20
111.0839801635545
 10
145.9780276097404
 20
111.0633957183341
 10
145.9924324150254
 20
111.0441570135178
 10
146.0085920657972
 20
111.026425537954
 10
146.0263666050539
 20
111.0103089508751
 10
146.0456160757935
 20
110.9959256774366
 10
146.0662435847068
 20
110.9834156746405
 10
146.0881091747918
 20
110.9728973676425
 10
146.1110728890465
 20
110.9644999475212
 10
146.1350270682386
 20
110.9583418394323
 10
146.1598425212894
 20
110.9545630003777
 97
        0
 75
     1
 76
     1
 98
        0
  0
LWPOLYLINE
  5
90
330
1F
100
AcDbEntity
  8
ISS138金台
  6
Continuous
 62
   250
420
  2367521
370
    13
100
AcDbPolyline
 90
       68
 70
     0
 43
0.0
 10
146.1853792911966
 20
110.9532710895898
 10
146.2109160611039
 20
110.9545630003777
 10
146.2357315141546
 20
110.9583418394323
 10
146.2596856933467
 20
110.9644999475212
 10
146.2826494076014
 20
110.9728973676425
 10
146.3045149976865
 20
110.9834156746405
 10
146.3251317406765
 20
110.9959256774366
 10
146.3444027432625
 20
111.0103089508751
 10
146.362166516596
 20
111.026425537954
 10
146.3783154014446
 20
111.0441570135178
 10
146.3927309726528
 20
111.0633957183341
 10
146.4052732732186
 20
111.0839909294777
 10
146.4158238779863
 20
111.105824221793
 10
146.4242428299541
 20
111.1287664042013
 10
146.4304117039663
 20
111.1526990515469
 10
146.4342120748673
 20
111.1775037386744
 10
146.4355039856552
 20
111.2030405085817
 10
146.4355039856552
 20
111.2030405085817
 10
146.4342120748673
 20
111.2286311081051
 10
146.4304224698895
 20
111.253500390772
 10
146.4242320640308
 20
111.2774761018106
 10
146.4158131120631
 20
111.3004505819885
 10
146.4052732732186
 20
111.3223269379968
 10
146.3927309726528
 20
111.3429436809868
 10
146.3783154014446
 20
111.3621931517264
 10
146.362166516596
 20
111.3799569250599
 10
146.3443919773393
 20
111.3960950439853
 10
146.3251317406765
 20
111.4104783174237
 10
146.3045042317632
 20
111.422999086143
 10
146.2826494076014
 20
111.4335173931411
 10
146.2596749274235
 20
111.4419255791856
 10
146.2357315141546
 20
111.4480836872745
 10
146.2109160611039
 20
111.4518625263291
 10
146.1853792911966
 20
111.453154437117
 10
146.1853792911966
 20
111.453154437117
 10
146.1598317553661
 20
111.4518732922524
 10
146.1350270682386
 20
111.4480729213513
 10
146.1110836549698
 20
111.4419255791856
 10
146.0880984088686
 20
111.4335173931411
 10
146.0662435847068
 20
111.422999086143
 10
146.0456268417167
 20
111.4104783174237
 10
146.0263558391307
 20
111.396084278062
 10
146.0085920657972
 20
111.3799569250599
 10
145.9924324150254
 20
111.3622039176496
 10
145.9780276097404
 20
111.3429436809868
 10
145.9654853091747
 20
111.3223269379968
 10
145.9549454703301
 20
111.3004613479118
 10
145.9465157524392
 20
111.2774761018106
 10
145.940346878427
 20
111.2534896248487
 10
145.9365465075259
 20
111.2286418740284
 10
145.935254596738
 20
111.2030405085817
 10
145.935254596738
 20
111.2030405085817
 10
145.9365465075259
 20
111.1775037386744
 10
145.940346878427
 20
111.1527098174702
 10
145.9465265183624
 20
111.1287664042013
 10
145.9549347044069
 20
111.105824221793
 10
145.9654853091747
 20
111.0839801635545
 10
145.9780276097404
 20
111.0633957183341
 10
145.9924324150254
 20
111.0441570135178
 10
146.0085920657972
 20
111.026425537954
 10
146.0263666050539
 20
111.0103089508751
 10
146.0456160757935
 20
110.9959256774366
 10
146.0662435847068
 20
110.9834156746405
 10
146.0881091747918
 20
110.9728973676425
 10
146.1110728890465
 20
110.9644999475212
 10
146.1350270682386
 20
110.9583418394323
 10
146.1598425212894
 20
110.9545630003777
 10
146.1853792911966
 20
110.9532710895898
  0
HATCH
  5
91
330
1F
100
AcDbEntity
  8
ISS138金台
  6
Continuous
 62
   250
420
  2367521
370
    13
100
AcDbHatch
 10
0.0
 20
0.0
 30
0.0
210
0.0
220
0.0
230
1.0
  2
SOLID
 70
     1
 71
     0
 91
        1
 92
        3
 72
     0
 73
     1
 93
       67
 10
141.2024040208457
 20
104.9779253134451
 10
141.2279407907529
 20
104.979217224233
 10
141.2527562438037
 20
104.9830068292108
 10
141.2767104229958
 20
104.9891757032229
 10
141.2996849031737
 20
104.9976161870371
 10
141.3215397273355
 20
105.0081560258817
 10
141.3421564703256
 20
105.0206875605242
 10
141.3614274729116
 20
105.0351031317324
 10
141.3791912462451
 20
105.051252016581
 10
141.3953401310937
 20
105.0690265558377
 10
141.4097557023019
 20
105.0882867925005
 10
141.4222980028676
 20
105.1089143014138
 10
141.4328378417122
 20
105.1307691255756
 10
141.4412675596031
 20
105.1537436057535
 10
141.4474364336153
 20
105.1776977849456
 10
141.4512368045164
 20
105.2025024720731
 10
141.4525287153043
 20
105.2280500079036
 10
141.4525287153043
 20
105.2280500079036
 10
141.4512368045164
 20
105.2535975437341
 10
141.4474364336153
 20
105.2784022308616
 10
141.4412675596031
 20
105.3023564100537
 10
141.4328378417122
 20
105.3253201243084
 10
141.4223087687909
 20
105.3471749484702
 10
141.4097557023019
 20
105.3678024573835
 10
141.3953401310937
 20
105.3870626940463
 10
141.3791912462451
 20
105.4048264673798
 10
141.3614167069884
 20
105.4209861181516
 10
141.3421564703256
 20
105.4353909234366
 10
141.3215397273355
 20
105.4479332240023
 10
141.2996741372505
 20
105.4584838287701
 10
141.2766996570725
 20
105.4669027807379
 10
141.2527562438037
 20
105.47307165475
 10
141.2279407907529
 20
105.4768720256511
 10
141.2024040208457
 20
105.4781639364389
 10
141.2024040208457
 20
105.4781639364389
 10
141.1768564850152
 20
105.4768612597278
 10
141.1520517978877
 20
105.4730824206733
 10
141.1281083846188
 20
105.4669027807379
 10
141.1051231385176
 20
105.4584838287701
 10
141.0832790802791
 20
105.4479332240023
 10
141.0626515713658
 20
105.4353909234366
 10
141.043391334703
 20
105.4209861181516
 10
141.0256167954463
 20
105.4048264673798
 10
141.0094571446745
 20
105.3870626940463
 10
140.9950523393895
 20
105.3678024573835
 10
140.9825100388237
 20
105.3471857143935
 10
140.9719701999792
 20
105.3253201243084
 10
140.9635404820882
 20
105.3023456441305
 10
140.957371608076
 20
105.2784022308616
 10
140.953571237175
 20
105.2535867778109
 10
140.9522793263871
 20
105.2280500079036
 10
140.9522793263871
 20
105.2280500079036
 10
140.953571237175
 20
105.2025132379964
 10
140.957371608076
 20
105.1776977849456
 10
140.9635512480115
 20
105.1537436057535
 10
140.9719701999792
 20
105.1307798914988
 10
140.9825100388237
 20
105.1089035354905
 10
140.9950523393895
 20
105.0882867925005
 10
141.0094571446745
 20
105.0690265558377
 10
141.0256167954463
 20
105.051252016581
 10
141.0433805687798
 20
105.0351031317324
 10
141.0626408054425
 20
105.0206983264474
 10
141.0832790802791
 20
105.0081560258817
 10
141.1051339044409
 20
104.9976054211139
 10
141.1280976186956
 20
104.9891864691462
 10
141.1520517978877
 20
104.983017595134
 10
141.1768672509384
 20
104.979217224233
 97
        0
 75
     1
 76
     1
 98
        0
  0
LWPOLYLINE
  5
92
330
1F
100
AcDbEntity
  8
ISS138金台
  6
Continuous
 62
   250
420
  2367521
370
    13
100
AcDbPolyline
 90
       68
 70
     0
 43
0.0
 10
141.2024040208457
 20
104.9779253134451
 10
141.2279407907529
 20
104.979217224233
 10
141.2527562438037
 20
104.9830068292108
 10
141.2767104229958
 20
104.9891757032229
 10
141.2996849031737
 20
104.9976161870371
 10
141.3215397273355
 20
105.0081560258817
 10
141.3421564703256
 20
105.0206875605242
 10
141.3614274729116
 20
105.0351031317324
 10
141.3791912462451
 20
105.051252016581
 10
141.3953401310937
 20
105.0690265558377
 10
141.4097557023019
 20
105.0882867925005
 10
141.4222980028676
 20
105.1089143014138
 10
141.4328378417122
 20
105.1307691255756
 10
141.4412675596031
 20
105.1537436057535
 10
141.4474364336153
 20
105.1776977849456
 10
141.4512368045164
 20
105.2025024720731
 10
141.4525287153043
 20
105.2280500079036
 10
141.4525287153043
 20
105.2280500079036
 10
141.4512368045164
 20
105.2535975437341
 10
141.4474364336153
 20
105.2784022308616
 10
141.4412675596031
 20
105.3023564100537
 10
141.4328378417122
 20
105.3253201243084
 10
141.4223087687909
 20
105.3471749484702
 10
141.4097557023019
 20
105.3678024573835
 10
141.3953401310937
 20
105.3870626940463
 10
141.3791912462451
 20
105.4048264673798
 10
141.3614167069884
 20
105.4209861181516
 10
141.3421564703256
 20
105.4353909234366
 10
141.3215397273355
 20
105.4479332240023
 10
141.2996741372505
 20
105.4584838287701
 10
141.2766996570725
 20
105.4669027807379
 10
141.2527562438037
 20
105.47307165475
 10
141.2279407907529
 20
105.4768720256511
 10
141.2024040208457
 20
105.4781639364389
 10
141.2024040208457
 20
105.4781639364389
 10
141.1768564850152
 20
105.4768612597278
 10
141.1520517978877
 20
105.4730824206733
 10
141.1281083846188
 20
105.4669027807379
 10
141.1051231385176
 20
105.4584838287701
 10
141.0832790802791
 20
105.4479332240023
 10
141.0626515713658
 20
105.4353909234366
 10
141.043391334703
 20
105.4209861181516
 10
141.0256167954463
 20
105.4048264673798
 10
141.0094571446745
 20
105.3870626940463
 10
140.9950523393895
 20
105.3678024573835
 10
140.9825100388237
 20
105.3471857143935
 10
140.9719701999792
 20
105.3253201243084
 10
140.9635404820882
 20
105.3023456441305
 10
140.957371608076
 20
105.2784022308616
 10
140.953571237175
 20
105.2535867778109
 10
140.9522793263871
 20
105.2280500079036
 10
140.9522793263871
 20
105.2280500079036
 10
140.953571237175
 20
105.2025132379964
 10
140.957371608076
 20
105.1776977849456
 10
140.9635512480115
 20
105.1537436057535
 10
140.9719701999792
 20
105.1307798914988
 10
140.9825100388237
 20
105.1089035354905
 10
140.9950523393895
 20
105.0882867925005
 10
141.0094571446745
 20
105.0690265558377
 10
141.0256167954463
 20
105.051252016581
 10
141.0433805687798
 20
105.0351031317324
 10
141.0626408054425
 20
105.0206983264474
 10
141.0832790802791
 20
105.0081560258817
 10
141.1051339044409
 20
104.9976054211139
 10
141.1280976186956
 20
104.9891864691462
 10
141.1520517978877
 20
104.983017595134
 10
141.1768672509384
 20
104.979217224233
 10
141.2024040208457
 20
104.9779253134451
  0
HATCH
  5
93
330
1F
100
AcDbEntity
  8
ISS138金台
  6
Continuous
 62
   250
420
  2367521
370
    13
100
AcDbHatch
 10
0.0
 20
0.0
 30
0.0
210
0.0
220
0.0
230
1.0
  2
SOLID
 70
     1
 71
     0
 91
        1
 92
        3
 72
     0
 73
     1
 93
       67
 10
146.1853792911966
 20
103.3683767265069
 10
146.2109160611039
 20
103.3696686372948
 10
146.2357315141546
 20
103.3734582422726
 10
146.2596856933467
 20
103.379637882208
 10
146.2826494076014
 20
103.388067600099
 10
146.3045149976865
 20
103.3986074389435
 10
146.3251317406765
 20
103.4111389735861
 10
146.3444027432625
 20
103.4255545447943
 10
146.362166516596
 20
103.4417034296429
 10
146.3783154014446
 20
103.4594779688996
 10
146.3927309726528
 20
103.4787382055624
 10
146.4052732732186
 20
103.4993657144757
 10
146.4158238779863
 20
103.5212205386375
 10
146.4242428299541
 20
103.5441950188154
 10
146.4304117039663
 20
103.5681491980075
 10
146.4342120748673
 20
103.592953885135
 10
146.4355039856552
 20
103.6185014209655
 10
146.4355039856552
 20
103.6185014209655
 10
146.4342120748673
 20
103.6440381908728
 10
146.4304224698895
 20
103.6688536439235
 10
146.4242320640308
 20
103.6927970571924
 10
146.4158131120631
 20
103.7157715373703
 10
146.4052732732186
 20
103.7376371274553
 10
146.3927309726528
 20
103.7582538704454
 10
146.3783154014446
 20
103.7775141071082
 10
146.362166516596
 20
103.7952778804417
 10
146.3443919773393
 20
103.8114375312135
 10
146.3251317406765
 20
103.8258423364985
 10
146.3045042317632
 20
103.8383846370642
 10
146.2826494076014
 20
103.848935241832
 10
146.2596749274235
 20
103.8573541937997
 10
146.2357315141546
 20
103.8635230678119
 10
146.2109160611039
 20
103.867323438713
 10
146.1853792911966
 20
103.8686153495008
 10
146.1853792911966
 20
103.8686153495008
 10
146.1598317553661
 20
103.867323438713
 10
146.1350270682386
 20
103.8635338337351
 10
146.1110836549698
 20
103.857364959723
 10
146.0880984088686
 20
103.848935241832
 10
146.0662435847068
 20
103.8383954029875
 10
146.0456268417167
 20
103.8258423364985
 10
146.0263558391307
 20
103.8114375312135
 10
146.0085920657972
 20
103.7952778804417
 10
145.9924324150254
 20
103.7775141071082
 10
145.9780276097404
 20
103.7582538704454
 10
145.9654853091747
 20
103.7376371274553
 10
145.9549454703301
 20
103.7157715373703
 10
145.9465157524392
 20
103.6927970571924
 10
145.940346878427
 20
103.6688536439235
 10
145.9365465075259
 20
103.6440381908728
 10
145.935254596738
 20
103.6185014209655
 10
145.935254596738
 20
103.6185014209655
 10
145.9365465075259
 20
103.5929646510582
 10
145.940346878427
 20
103.5681491980075
 10
145.9465265183624
 20
103.5442057847387
 10
145.9549347044069
 20
103.5212313045607
 10
145.9654853091747
 20
103.4993657144757
 10
145.9780276097404
 20
103.4787382055624
 10
145.9924324150254
 20
103.4594779688996
 10
146.0085920657972
 20
103.4417034296429
 10
146.0263666050539
 20
103.4255545447943
 10
146.0456160757935
 20
103.4111497395093
 10
146.0662435847068
 20
103.3986074389435
 10
146.0881091747918
 20
103.3880568341758
 10
146.1110728890465
 20
103.379637882208
 10
146.1350270682386
 20
103.3734690081959
 10
146.1598425212894
 20
103.3696686372948
 97
        0
 75
     1
 76
     1
 98
        0
  0
LWPOLYLINE
  5
94
330
1F
100
AcDbEntity
  8
ISS138金台
  6
Continuous
 62
   250
420
  2367521
370
    13
100
AcDbPolyline
 90
       68
 70
     0
 43
0.0
 10
146.1853792911966
 20
103.3683767265069
 10
146.2109160611039
 20
103.3696686372948
 10
146.2357315141546
 20
103.3734582422726
 10
146.2596856933467
 20
103.379637882208
 10
146.2826494076014
 20
103.388067600099
 10
146.3045149976865
 20
103.3986074389435
 10
146.3251317406765
 20
103.4111389735861
 10
146.3444027432625
 20
103.4255545447943
 10
146.362166516596
 20
103.4417034296429
 10
146.3783154014446
 20
103.4594779688996
 10
146.3927309726528
 20
103.4787382055624
 10
146.4052732732186
 20
103.4993657144757
 10
146.4158238779863
 20
103.5212205386375
 10
146.4242428299541
 20
103.5441950188154
 10
146.4304117039663
 20
103.5681491980075
 10
146.4342120748673
 20
103.592953885135
 10
146.4355039856552
 20
103.6185014209655
 10
146.4355039856552
 20
103.6185014209655
 10
146.4342120748673
 20
103.6440381908728
 10
146.4304224698895
 20
103.6688536439235
 10
146.4242320640308
 20
103.6927970571924
 10
146.4158131120631
 20
103.7157715373703
 10
146.4052732732186
 20
103.7376371274553
 10
146.3927309726528
 20
103.7582538704454
 10
146.3783154014446
 20
103.7775141071082
 10
146.362166516596
 20
103.7952778804417
 10
146.3443919773393
 20
103.8114375312135
 10
146.3251317406765
 20
103.8258423364985
 10
146.3045042317632
 20
103.8383846370642
 10
146.2826494076014
 20
103.848935241832
 10
146.2596749274235
 20
103.8573541937997
 10
146.2357315141546
 20
103.8635230678119
 10
146.2109160611039
 20
103.867323438713
 10
146.1853792911966
 20
103.8686153495008
 10
146.1853792911966
 20
103.8686153495008
 10
146.1598317553661
 20
103.867323438713
 10
146.1350270682386
 20
103.8635338337351
 10
146.1110836549698
 20
103.857364959723
 10
146.0880984088686
 20
103.848935241832
 10
146.0662435847068
 20
103.8383954029875
 10
146.0456268417167
 20
103.8258423364985
 10
146.0263558391307
 20
103.8114375312135
 10
146.0085920657972
 20
103.7952778804417
 10
145.9924324150254
 20
103.7775141071082
 10
145.9780276097404
 20
103.7582538704454
 10
145.9654853091747
 20
103.7376371274553
 10
145.9549454703301
 20
103.7157715373703
 10
145.9465157524392
 20
103.6927970571924
 10
145.940346878427
 20
103.6688536439235
 10
145.9365465075259
 20
103.6440381908728
 10
145.935254596738
 20
103.6185014209655
 10
145.935254596738
 20
103.6185014209655
 10
145.9365465075259
 20
103.5929646510582
 10
145.940346878427
 20
103.5681491980075
 10
145.9465265183624
 20
103.5442057847387
 10
145.9549347044069
 20
103.5212313045607
 10
145.9654853091747
 20
103.4993657144757
 10
145.9780276097404
 20
103.4787382055624
 10
145.9924324150254
 20
103.4594779688996
 10
146.0085920657972
 20
103.4417034296429
 10
146.0263666050539
 20
103.4255545447943
 10
146.0456160757935
 20
103.4111497395093
 10
146.0662435847068
 20
103.3986074389435
 10
146.0881091747918
 20
103.3880568341758
 10
146.1110728890465
 20
103.379637882208
 10
146.1350270682386
 20
103.3734690081959
 10
146.1598425212894
 20
103.3696686372948
 10
146.1853792911966
 20
103.3683767265069
  0
TEXT
  5
95
330
1F
100
AcDbEntity
  8
ISS138金台
  6
Continuous
 62
   250
420
  2367521
100
AcDbText
 10
114.4182081204781
 20
117.5101737797435
 30
0.0
 40
2.150533301035563
  1
5  .  5
 41
0.3920004708426338
  7
MS Gothic
100
AcDbText
  0
TEXT
  5
96
330
1F
100
AcDbEntity
  8
ISS138金台
  6
Continuous
 62
   250
420
  2367521
100
AcDbText
 10
121.1746108612109
 20
94.22684079609071
 30
0.0
 40
2.150533301035563
  1
19
 41
0.9753756523132322
  7
MS Gothic
100
AcDbText
  0
TEXT
  5
97
330
1F
100
AcDbEntity
  8
ISS138金台
  6
Continuous
 62
   250
420
  2367521
100
AcDbText
 10
140.0107207054096
 20
107.1279232292559
 30
0.0
 40
2.150533301035563
  1
6
 50
90.00000250447816
 41
0.8919982910156248
  7
MS Gothic
100
AcDbText
  0
TEXT
  5
98
330
1F
100
AcDbEntity
  8
ISS138金台
  6
Continuous
 62
   250
420
  2367521
100
AcDbText
 10
145.1245880704202
 20
105.5672304019465
 30
0.0
 40
2.150533301035563
  1
7 .  5
 50
90.00000250447816
 41
0.4149996439615884
  7
MS Gothic
100
AcDbText
  0
TEXT
  5
99
330
1F
100
AcDbEntity
  8
ISS138金台
  6
Continuous
 62
   250
420
  2367521
100
AcDbText
 10
109.0537606193925
 20
106.9077923969228
 30
0.0
 40
2.150533301035563
  1
2  .  5
 50
90.00000250447816
 41
0.3911437988281249
  7
MS Gothic
100
AcDbText
  0
LINE
  5
9A
330
1F
100
AcDbEntity
  8
ISS138金台
  6
UserDefined01
 62
   140
420
    44526
370
    13
100
AcDbLine
 10
125.5037931455041
 20
98.67960184032805
 30
0.0
 11
132.6475430382157
 21
98.67960184032805
 31
0.0
  0
TEXT
  5
9B
330
1F
100
AcDbEntity
  8
ISS138金台
  6
Continuous
 62
   140
420
    44526
100
AcDbText
 10
128.3981577769211
 20
99.46876571736489
 30
0.0
 40
1.881716638406118
  1
7
 41
1.025009155273438
  7
MS Gothic
100
AcDbText
  0
HATCH
  5
9C
330
1F
100
AcDbEntity
  8
ISS138金台
  6
Continuous
 62
   140
420
    44526
370
    50
100
AcDbHatch
 10
0.0
 20
0.0
 30
0.0
210
0.0
220
0.0
230
1.0
  2
SOLID
 70
     1
 71
     0
 91
        1
 92
        3
 72
     0
 73
     1
 93
        3
 10
124.63768538738
 20
107.8514686493306
 10
126.3698255421655
 20
107.8507580983973
 10
125.5044606327445
 20
106.3525183917591
 97
        0
 75
     1
 76
     1
 98
        0
  0
LWPOLYLINE
  5
9D
330
1F
100
AcDbEntity
  8
ISS138金台
  6
Continuous
 62
   140
420
    44526
370
    50
100
AcDbPolyline
 90
        4
 70
     0
 43
0.0
 10
124.63768538738
 20
107.8514686493306
 10
126.3698255421655
 20
107.8507580983973
 10
125.5044606327445
 20
106.3525183917591
 10
124.63768538738
 20
107.8514686493306
  0
ENDSEC
  0
SECTION
  2
OBJECTS
  0
DICTIONARY
  5
C
330
0
100
AcDbDictionary
281
     1
  3
ACAD_DETAILVIEWSTYLE
350
A5
  3
ACAD_GROUP
350
D
  3
ACAD_LAYOUT
350
1A
  3
ACAD_MATERIAL
350
43
  3
ACAD_MLEADERSTYLE
350
5B
  3
ACAD_MLINESTYLE
350
17
  3
ACAD_PLOTSETTINGS
350
19
  3
ACAD_PLOTSTYLENAME
350
E
  3
ACAD_SCALELIST
350
47
  3
ACAD_SECTIONVIEWSTYLE
350
A6
  3
ACAD_TABLESTYLE
350
59
  3
ACAD_VISUALSTYLE
350
2A
  3
ACDB_RECOMPOSE_DATA
350
A2
  3
AcDbVariableDictionary
350
9E
  0
SUN
  5
5D
330
29
100
AcDbSun
 90
        1
290
     0
 63
     7
421
 16777215
 40
1.0
291
     1
 91
  2455826
 92
 54000000
292
     0
 70
     2
 71
   256
280
     1
  0
DICTIONARY
  5
A5
102
{ACAD_REACTORS
330
C
102
}
330
C
100
AcDbDictionary
281
     1
  0
DICTIONARY
  5
D
102
{ACAD_REACTORS
330
C
102
}
330
C
100
AcDbDictionary
281
     1
  0
DICTIONARY
  5
1A
102
{ACAD_REACTORS
330
C
102
}
330
C
100
AcDbDictionary
281
     1
  3
Layout1
350
1E
  3
Layout2
350
26
  3
Model
350
22
  0
DICTIONARY
  5
43
102
{ACAD_REACTORS
330
C
102
}
330
C
100
AcDbDictionary
281
     1
  3
ByBlock
350
45
  3
ByLayer
350
44
  3
Global
350
46
  0
DICTIONARY
  5
5B
102
{ACAD_REACTORS
330
C
102
}
330
C
100
AcDbDictionary
281
     1
  3
Standard
350
5C
  0
DICTIONARY
  5
17
102
{ACAD_REACTORS
330
C
102
}
330
C
100
AcDbDictionary
281
     1
  3
Standard
350
18
  0
DICTIONARY
  5
19
102
{ACAD_REACTORS
330
C
102
}
330
C
100
AcDbDictionary
281
     1
  0
ACDBDICTIONARYWDFLT
  5
E
102
{ACAD_REACTORS
330
C
102
}
330
C
100
AcDbDictionary
281
     1
  3
Normal
350
F
100
AcDbDictionaryWithDefault
340
F
  0
DICTIONARY
  5
47
102
{ACAD_REACTORS
330
C
102
}
330
C
100
AcDbDictionary
281
     1
  3
A0
350
48
  3
A1
350
49
  3
A2
350
4A
  3
A3
350
4B
  3
A4
350
4C
  3
A5
350
4D
  3
A6
350
4E
  3
A7
350
4F
  3
A8
350
50
  3
A9
350
51
  3
B0
350
52
  3
B1
350
53
  3
B2
350
54
  3
B3
350
55
  3
B4
350
56
  3
B5
350
57
  3
B6
350
58
  0
DICTIONARY
  5
A6
102
{ACAD_REACTORS
330
C
102
}
330
C
100
AcDbDictionary
281
     1
  0
DICTIONARY
  5
59
102
{ACAD_REACTORS
330
C
102
}
330
C
100
AcDbDictionary
281
     1
  3
Standard
350
5A
  0
DICTIONARY
  5
2A
102
{ACAD_REACTORS
330
C
102
}
330
C
100
AcDbDictionary
281
     1
  3
2dWireframe
350
2F
  3
Basic
350
32
  3
Brighten
350
36
  3
ColorChange
350
3A
  3
Conceptual
350
34
  3
Dim
350
35
  3
EdgeColorOff
350
3D
  3
Facepattern
350
39
  3
Flat
350
2B
  3
FlatWithEdges
350
2C
  3
Gouraud
350
2D
  3
GouraudWithEdges
350
2E
  3
Hidden
350
31
  3
JitterOff
350
3B
  3
Linepattern
350
38
  3
OverhangOff
350
3C
  3
Realistic
350
33
  3
Shaded
350
42
  3
Shaded with edges
350
41
  3
Shades of Gray
350
3E
  3
Sketchy
350
3F
  3
Thicken
350
37
  3
Wireframe
350
30
  3
X-Ray
350
40
  0
XRECORD
  5
A2
102
{ACAD_REACTORS
330
C
102
}
330
C
100
AcDbXrecord
280
     1
 90
        1
330
5A
  0
DICTIONARY
  5
9E
102
{ACAD_REACTORS
330
C
102
}
330
C
100
AcDbDictionary
281
     1
  3
CANNOSCALE
350
9F
  3
CENTEREXE
350
A7
  3
CENTERLTYPEFILE
350
A8
  3
CMLEADERSTYLE
350
A4
  3
CTABLESTYLE
350
A3
  0
LAYOUT
  5
1E
102
{ACAD_REACTORS
330
1A
102
}
330
1A
100
AcDbPlotSettings
  1

  2
none_device
  4

  6

 40
0.0
 41
0.0
 42
0.0
 43
0.0
 44
0.0
 45
0.0
 46
0.0
 47
0.0
 48
0.0
 49
0.0
140
0.0
141
0.0
142
1.0
143
1.0
 70
   688
 72
     1
 73
     0
 74
     5
  7

 75
    16
 76
     0
 77
     5
 78
   300
147
1.0
148
0.0
149
0.0
100
AcDbLayout
  1
Layout1
 70
     1
 71
     1
 10
0.0
 20
0.0
 11
420.0
 21
297.0
 12
0.0
 22
0.0
 32
0.0
 14
1.000000000000000E+20
 24
1.000000000000000E+20
 34
1.000000000000000E+20
 15
-1.000000000000000E+20
 25
-1.000000000000000E+20
 35
-1.000000000000000E+20
146
0.0
 13
0.0
 23
0.0
 33
0.0
 16
1.0
 26
0.0
 36
0.0
 17
0.0
 27
1.0
 37
0.0
 76
     0
330
1B
  0
LAYOUT
  5
26
102
{ACAD_REACTORS
330
1A
102
}
330
1A
100
AcDbPlotSettings
  1

  2
none_device
  4

  6

 40
0.0
 41
0.0
 42
0.0
 43
0.0
 44
0.0
 45
0.0
 46
0.0
 47
0.0
 48
0.0
 49
0.0
140
0.0
141
0.0
142
1.0
143
1.0
 70
   688
 72
     1
 73
     0
 74
     5
  7

 75
    16
 76
     0
 77
     5
 78
   300
147
1.0
148
0.0
149
0.0
100
AcDbLayout
  1
Layout2
 70
     1
 71
     2
 10
0.0
 20
0.0
 11
0.0
 21
0.0
 12
0.0
 22
0.0
 32
0.0
 14
0.0
 24
0.0
 34
0.0
 15
0.0
 25
0.0
 35
0.0
146
0.0
 13
0.0
 23
0.0
 33
0.0
 16
1.0
 26
0.0
 36
0.0
 17
0.0
 27
1.0
 37
0.0
 76
     0
330
23
  0
LAYOUT
  5
22
102
{ACAD_REACTORS
330
1A
102
}
330
1A
100
AcDbPlotSettings
  1

  2
none_device
  4
Letter_(8.50_x_11.00_Inches)
  6

 40
6.35
 41
6.35
 42
6.35000508
 43
6.35000508
 44
215.9
 45
279.4
 46
0.0
 47
0.0
 48
0.0
 49
0.0
140
0.0
141
0.0
142
1.0
143
1.0
 70
  1712
 72
     1
 73
     0
 74
     0
  7

 75
     0
 76
     0
 77
     5
 78
   300
147
1.0
148
0.0
149
0.0
100
AcDbLayout
  1
Model
 70
     1
 71
     0
 10
0.0
 20
0.0
 11
302.9997823349792
 21
216.0016055409748
 12
0.0
 22
0.0
 32
0.0
 14
0.0
 24
0.0
 34
0.0
 15
302.9997823349792
 25
216.0016055409748
 35
0.0
146
0.0
 13
0.0
 23
0.0
 33
0.0
 16
1.0
 26
0.0
 36
0.0
 17
0.0
 27
1.0
 37
0.0
 76
     0
330
1F
331
29
  0
MATERIAL
  5
45
102
{ACAD_REACTORS
330
43
102
}
330
43
100
AcDbMaterial
  1
ByBlock
 72
     1
 94
      127
  0
MATERIAL
  5
44
102
{ACAD_REACTORS
330
43
102
}
330
43
100
AcDbMaterial
  1
ByLayer
 72
     1
 94
      127
  0
MATERIAL
  5
46
102
{ACAD_REACTORS
330
43
102
}
330
43
100
AcDbMaterial
  1
Global
 72
     1
 94
      127
  0
MLEADERSTYLE
  5
5C
102
{ACAD_REACTORS
330
5B
102
}
330
5B
100
AcDbMLeaderStyle
179
     2
170
     2
171
     1
172
     0
 90
        2
 40
0.0
 41
0.0
173
     1
 91
-1056964608
340
14
 92
       -2
290
     1
 42
2.0
291
     1
 43
8.0
  3
Standard
341
0
 44
4.0
300

342
11
174
     1
178
     6
175
     1
176
     0
 93
-1056964608
 45
4.0
292
     0
297
     0
 46
4.0
343
0
 94
-1056964608
 47
1.0
 49
1.0
140
1.0
293
     1
141
0.0
294
     1
177
     0
142
1.0
295
     0
296
     0
143
3.75
271
     0
272
     9
273
     9
298
     0
  0
MLINESTYLE
  5
18
102
{ACAD_REACTORS
330
17
102
}
330
17
100
AcDbMlineStyle
  2
Standard
 70
     0
  3

 62
   256
 51
90.0
 52
90.0
 71
     2
 49
0.5
 62
   256
  6
BYLAYER
 49
-0.5
 62
   256
  6
BYLAYER
  0
ACDBPLACEHOLDER
  5
F
102
{ACAD_REACTORS
330
E
102
}
330
E
  0
SCALE
  5
48
102
{ACAD_REACTORS
330
47
102
}
330
47
100
AcDbScale
 70
     0
300
1:1
140
1.0
141
1.0
290
     1
  0
SCALE
  5
49
102
{ACAD_REACTORS
330
47
102
}
330
47
100
AcDbScale
 70
     0
300
1:2
140
1.0
141
2.0
290
     0
  0
SCALE
  5
4A
102
{ACAD_REACTORS
330
47
102
}
330
47
100
AcDbScale
 70
     0
300
1:4
140
1.0
141
4.0
290
     0
  0
SCALE
  5
4B
102
{ACAD_REACTORS
330
47
102
}
330
47
100
AcDbScale
 70
     0
300
1:5
140
1.0
141
5.0
290
     0
  0
SCALE
  5
4C
102
{ACAD_REACTORS
330
47
102
}
330
47
100
AcDbScale
 70
     0
300
1:8
140
1.0
141
8.0
290
     0
  0
SCALE
  5
4D
102
{ACAD_REACTORS
330
47
102
}
330
47
100
AcDbScale
 70
     0
300
1:10
140
1.0
141
10.0
290
     0
  0
SCALE
  5
4E
102
{ACAD_REACTORS
330
47
102
}
330
47
100
AcDbScale
 70
     0
300
1:16
140
1.0
141
16.0
290
     0
  0
SCALE
  5
4F
102
{ACAD_REACTORS
330
47
102
}
330
47
100
AcDbScale
 70
     0
300
1:20
140
1.0
141
20.0
290
     0
  0
SCALE
  5
50
102
{ACAD_REACTORS
330
47
102
}
330
47
100
AcDbScale
 70
     0
300
1:30
140
1.0
141
30.0
290
     0
  0
SCALE
  5
51
102
{ACAD_REACTORS
330
47
102
}
330
47
100
AcDbScale
 70
     0
300
1:40
140
1.0
141
40.0
290
     0
  0
SCALE
  5
52
102
{ACAD_REACTORS
330
47
102
}
330
47
100
AcDbScale
 70
     0
300
1:50
140
1.0
141
50.0
290
     0
  0
SCALE
  5
53
102
{ACAD_REACTORS
330
47
102
}
330
47
100
AcDbScale
 70
     0
300
1:100
140
1.0
141
100.0
290
     0
  0
SCALE
  5
54
102
{ACAD_REACTORS
330
47
102
}
330
47
100
AcDbScale
 70
     0
300
2:1
140
2.0
141
1.0
290
     0
  0
SCALE
  5
55
102
{ACAD_REACTORS
330
47
102
}
330
47
100
AcDbScale
 70
     0
300
4:1
140
4.0
141
1.0
290
     0
  0
SCALE
  5
56
102
{ACAD_REACTORS
330
47
102
}
330
47
100
AcDbScale
 70
     0
300
8:1
140
8.0
141
1.0
290
     0
  0
SCALE
  5
57
102
{ACAD_REACTORS
330
47
102
}
330
47
100
AcDbScale
 70
     0
300
10:1
140
10.0
141
1.0
290
     0
  0
SCALE
  5
58
102
{ACAD_REACTORS
330
47
102
}
330
47
100
AcDbScale
 70
     0
300
100:1
140
100.0
141
1.0
290
     0
  0
TABLESTYLE
  5
5A
102
{ACAD_REACTORS
330
59
102
}
102
{ACAD_XDICTIONARY
360
A0
102
}
330
59
100
AcDbTableStyle
  3
Standard
 70
     0
 71
     0
 40
0.06
 41
0.06
280
     0
281
     0
  7
Standard
140
4.5
170
     2
 62
     0
 63
   257
283
     0
 90
        4
 91
        0
  1

274
    -2
284
     1
 64
     0
275
    -2
285
     1
 65
     0
276
    -2
286
     1
 66
     0
277
    -2
287
     1
 67
     0
278
    -2
288
     1
 68
     0
279
    -2
289
     1
 69
     0
  7
Standard
140
6.0
170
     5
 62
     0
 63
   257
283
     0
 90
        4
 91
        0
  1

274
    -2
284
     1
 64
     0
275
    -2
285
     1
 65
     0
276
    -2
286
     1
 66
     0
277
    -2
287
     1
 67
     0
278
    -2
288
     1
 68
     0
279
    -2
289
     1
 69
     0
  7
Standard
140
4.5
170
     5
 62
     0
 63
   257
283
     0
 90
        4
 91
        0
  1

274
    -2
284
     1
 64
     0
275
    -2
285
     1
 65
     0
276
    -2
286
     1
 66
     0
277
    -2
287
     1
 67
     0
278
    -2
288
     1
 68
     0
279
    -2
289
     1
 69
     0
  0
VISUALSTYLE
  5
2F
102
{ACAD_REACTORS
330
2A
102
}
330
2A
100
AcDbVisualStyle
  2
2dWireframe
 70
     4
177
     3
291
     0
 70
    58
 90
        0
176
     1
 90
        2
176
     1
 90
        0
176
     1
 90
        0
176
     1
 40
0.6
176
     1
 40
30.0
176
     1
 62
     7
420
 16777215
176
     1
 90
        1
176
     1
 90
        4
176
     1
 62
     7
176
     1
 62
   257
176
     1
 90
        1
176
     1
 90
        1
176
     1
 40
1.0
176
     1
 90
        0
176
     1
 62
   257
176
     1
 40
1.0
176
     1
 90
        1
176
     1
 90
        6
176
     1
 90
        2
176
     1
 62
     7
176
     1
 90
        5
176
     1
 90
        0
176
     1
 90
        0
176
     1
290
     0
176
     1
 90
        1
176
     1
 40
0.0
176
     1
 90
        0
176
     1
290
     1
176
     1
290
     1
176
     1
290
     0
176
     1
290
     0
176
     1
290
     0
176
     1
290
     0
176
     1
290
     0
176
     1
290
     0
176
     1
290
     0
176
     1
 90
       50
176
     1
 40
0.0
176
     1
 40
1.0
176
     1
 90
        0
176
     1
 62
    18
420
        0
176
     1
 90
       50
176
     1
 90
        3
176
     1
 62
     5
420
      255
176
     1
290
     0
176
     1
 90
       50
176
     1
 90
       50
176
     1
 90
       50
176
     1
290
     0
176
     1
 90
       50
176
     1
 62
   256
176
     0
 40
1.0
176
     0
 90
        2
176
     1
  1
strokes_ogs.tif
176
     1
290
     0
176
     1
 40
1.0
176
     1
 40
1.0
176
     1
  0
VISUALSTYLE
  5
32
102
{ACAD_REACTORS
330
2A
102
}
330
2A
100
AcDbVisualStyle
  2
Basic
 70
     7
177
     3
291
     1
 70
    58
 90
        1
176
     1
 90
        0
176
     1
 90
        1
176
     1
 90
        0
176
     1
 40
0.6
176
     1
 40
30.0
176
     1
 62
     7
420
 16777215
176
     1
 90
        0
176
     1
 90
        4
176
     1
 62
     7
176
     1
 62
   257
176
     1
 90
        1
176
     1
 90
        1
176
     1
 40
1.0
176
     1
 90
        8
176
     1
 62
     7
176
     1
 40
1.0
176
     1
 90
        1
176
     1
 90
        6
176
     1
 90
        2
176
     1
 62
     7
176
     1
 90
        5
176
     1
 90
        0
176
     1
 90
        0
176
     1
290
     0
176
     1
 90
        1
176
     1
 40
0.0
176
     1
 90
        0
176
     1
290
     0
176
     1
290
     1
176
     1
290
     1
176
     1
290
     0
176
     1
290
     0
176
     1
290
     0
176
     1
290
     0
176
     1
290
     0
176
     1
290
     0
176
     1
 90
       50
176
     1
 40
0.0
176
     1
 40
1.0
176
     1
 90
        0
176
     1
 62
    18
420
        0
176
     1
 90
       50
176
     1
 90
        3
176
     1
 62
     5
420
      255
176
     1
290
     0
176
     1
 90
       50
176
     1
 90
       50
176
     1
 90
       50
176
     1
290
     0
176
     1
 90
       50
176
     1
 62
   256
176
     0
 40
1.0
176
     0
 90
        2
176
     1
  1
strokes_ogs.tif
176
     1
290
     0
176
     1
 40
1.0
176
     1
 40
1.0
176
     1
  0
VISUALSTYLE
  5
36
102
{ACAD_REACTORS
330
2A
102
}
330
2A
100
AcDbVisualStyle
  2
Brighten
 70
    12
177
     3
291
     1
 70
    58
 90
        2
176
     1
 90
        2
176
     1
 90
        0
176
     1
 90
        0
176
     1
 40
0.6
176
     1
 40
30.0
176
     1
 62
     7
420
 16777215
176
     1
 90
        1
176
     1
 90
        4
176
     1
 62
     7
176
     1
 62
   257
176
     1
 90
        1
176
     1
 90
        1
176
     1
 40
1.0
176
     1
 90
        8
176
     1
 62
     7
176
     1
 40
1.0
176
     1
 90
        1
176
     1
 90
        6
176
     1
 90
        2
176
     1
 62
     7
176
     1
 90
        5
176
     1
 90
        0
176
     1
 90
        0
176
     1
290
     0
176
     1
 90
        1
176
     1
 40
50.0
176
     1
 90
        0
176
     1
290
     0
176
     1
290
     1
176
     1
290
     1
176
     1
290
     0
176
     1
290
     0
176
     1
290
     0
176
     1
290
     0
176
     1
290
     0
176
     1
290
     0
176
     1
 90
       50
176
     1
 40
0.0
176
     1
 40
1.0
176
     1
 90
        0
176
     1
 62
    18
420
        0
176
     1
 90
       50
176
     1
 90
        3
176
     1
 62
     5
420
      255
176
     1
290
     0
176
     1
 90
       50
176
     1
 90
       50
176
     1
 90
       50
176
     1
290
     0
176
     1
 90
       50
176
     1
 62
   256
176
     0
 40
1.0
176
     0
 90
        2
176
     1
  1
strokes_ogs.tif
176
     1
290
     0
176
     1
 40
1.0
176
     1
 40
1.0
176
     1
  0
VISUALSTYLE
  5
3A
102
{ACAD_REACTORS
330
2A
102
}
330
2A
100
AcDbVisualStyle
  2
ColorChange
 70
    16
177
     3
291
     1
 70
    58
 90
        2
176
     1
 90
        2
176
     1
 90
        3
176
     1
 90
        0
176
     1
 40
0.6
176
     1
 40
30.0
176
     1
 62
     8
420
  8421504
176
     1
 90
        1
176
     1
 90
        4
176
     1
 62
     7
176
     1
 62
   257
176
     1
 90
        1
176
     1
 90
        1
176
     1
 40
1.0
176
     1
 90
        8
176
     1
 62
     8
420
  8421504
176
     1
 40
1.0
176
     1
 90
        1
176
     1
 90
        6
176
     1
 90
        2
176
     1
 62
     7
176
     1
 90
        5
176
     1
 90
        0
176
     1
 90
        0
176
     1
290
     0
176
     1
 90
        1
176
     1
 40
0.0
176
     1
 90
        0
176
     1
290
     0
176
     1
290
     1
176
     1
290
     1
176
     1
290
     0
176
     1
290
     0
176
     1
290
     0
176
     1
290
     0
176
     1
290
     0
176
     1
290
     0
176
     1
 90
       50
176
     1
 40
0.0
176
     1
 40
1.0
176
     1
 90
        0
176
     1
 62
    18
420
        0
176
     1
 90
       50
176
     1
 90
        3
176
     1
 62
     5
420
      255
176
     1
290
     0
176
     1
 90
       50
176
     1
 90
       50
176
     1
 90
       50
176
     1
290
     0
176
     1
 90
       50
176
     1
 62
   256
176
     0
 40
1.0
176
     0
 90
        2
176
     1
  1
strokes_ogs.tif
176
     1
290
     0
176
     1
 40
1.0
176
     1
 40
1.0
176
     1
  0
VISUALSTYLE
  5
34
102
{ACAD_REACTORS
330
2A
102
}
330
2A
100
AcDbVisualStyle
  2
Conceptual
 70
     9
177
     3
291
     0
 70
    58
 90
        3
176
     1
 90
        2
176
     1
 90
        0
176
     1
 90
        0
176
     1
 40
0.6
176
     1
 40
30.0
176
     1
 62
     7
420
 16777215
176
     1
 90
        2
176
     1
 90
        2
176
     1
 62
     7
176
     1
 62
   257
176
     1
 90
        1
176
     1
 90
        1
176
     1
 40
179.0
176
     1
 90
        8
176
     1
 62
     7
176
     1
 40
1.0
176
     1
 90
        1
176
     1
 90
        6
176
     1
 90
        2
176
     1
 62
     7
176
     1
 90
        3
176
     1
 90
        0
176
     1
 90
        0
176
     1
290
     0
176
     1
 90
        1
176
     1
 40
0.0
176
     1
 90
        0
176
     1
290
     0
176
     1
290
     1
176
     1
290
     1
176
     1
290
     0
176
     1
290
     0
176
     1
290
     0
176
     1
290
     0
176
     1
290
     0
176
     1
290
     0
176
     1
 90
       50
176
     1
 40
0.0
176
     1
 40
1.0
176
     1
 90
        0
176
     1
 62
    18
420
        0
176
     1
 90
       50
176
     1
 90
        3
176
     1
 62
     5
420
      255
176
     1
290
     0
176
     1
 90
       50
176
     1
 90
       50
176
     1
 90
       50
176
     1
290
     0
176
     1
 90
       50
176
     1
 62
   256
176
     0
 40
1.0
176
     0
 90
        2
176
     1
  1
strokes_ogs.tif
176
     1
290
     0
176
     1
 40
1.0
176
     1
 40
1.0
176
     1
  0
VISUALSTYLE
  5
35
102
{ACAD_REACTORS
330
2A
102
}
330
2A
100
AcDbVisualStyle
  2
Dim
 70
    11
177
     3
291
     1
 70
    58
 90
        2
176
     1
 90
        2
176
     1
 90
        0
176
     1
 90
        0
176
     1
 40
0.6
176
     1
 40
30.0
176
     1
 62
     7
420
 16777215
176
     1
 90
        1
176
     1
 90
        4
176
     1
 62
     7
176
     1
 62
   257
176
     1
 90
        1
176
     1
 90
        1
176
     1
 40
1.0
176
     1
 90
        8
176
     1
 62
     7
176
     1
 40
1.0
176
     1
 90
        1
176
     1
 90
        6
176
     1
 90
        2
176
     1
 62
     7
176
     1
 90
        5
176
     1
 90
        0
176
     1
 90
        0
176
     1
290
     0
176
     1
 90
        1
176
     1
 40
-50.0
176
     1
 90
        0
176
     1
290
     0
176
     1
290
     1
176
     1
290
     1
176
     1
290
     0
176
     1
290
     0
176
     1
290
     0
176
     1
290
     0
176
     1
290
     0
176
     1
290
     0
176
     1
 90
       50
176
     1
 40
0.0
176
     1
 40
1.0
176
     1
 90
        0
176
     1
 62
    18
420
        0
176
     1
 90
       50
176
     1
 90
        3
176
     1
 62
     5
420
      255
176
     1
290
     0
176
     1
 90
       50
176
     1
 90
       50
176
     1
 90
       50
176
     1
290
     0
176
     1
 90
       50
176
     1
 62
   256
176
     0
 40
1.0
176
     0
 90
        2
176
     1
  1
strokes_ogs.tif
176
     1
290
     0
176
     1
 40
1.0
176
     1
 40
1.0
176
     1
  0
VISUALSTYLE
  5
3D
102
{ACAD_REACTORS
330
2A
102
}
330
2A
100
AcDbVisualStyle
  2
EdgeColorOff
 70
    22
177
     3
291
     1
 70
    58
 90
        2
176
     0
 90
        2
176
     0
 90
        0
176
     0
 90
        0
176
     0
 40
0.6
176
     0
 40
30.0
176
     0
 62
     7
420
 16777215
176
     0
 90
        1
176
     0
 90
        4
176
     0
 62
     7
176
     0
 62
   257
176
     0
 90
        1
176
     0
 90
        1
176
     0
 40
1.0
176
     0
 90
        8
176
     2
 62
     7
176
     0
 40
1.0
176
     0
 90
        1
176
     0
 90
        6
176
     0
 90
        2
176
     0
 62
     7
176
     0
 90
        5
176
     0
 90
        0
176
     0
 90
        0
176
     0
290
     0
176
     0
 90
        1
176
     0
 40
0.0
176
     0
 90
        0
176
     0
290
     0
176
     0
290
     1
176
     0
290
     1
176
     0
290
     0
176
     0
290
     0
176
     0
290
     0
176
     0
290
     0
176
     0
290
     0
176
     0
290
     0
176
     0
 90
       50
176
     0
 40
0.0
176
     0
 40
1.0
176
     0
 90
        0
176
     0
 62
    18
420
        0
176
     0
 90
       50
176
     0
 90
        3
176
     0
 62
     5
420
      255
176
     0
290
     0
176
     0
 90
       50
176
     0
 90
       50
176
     0
 90
       50
176
     0
290
     0
176
     0
 90
       50
176
     0
 62
   256
176
     0
 40
1.0
176
     0
 90
        2
176
     0
  1
strokes_ogs.tif
176
     0
290
     0
176
     0
 40
1.0
176
     0
 40
1.0
176
     0
  0
VISUALSTYLE
  5
39
102
{ACAD_REACTORS
330
2A
102
}
330
2A
100
AcDbVisualStyle
  2
Facepattern
 70
    15
177
     3
291
     1
 70
    58
 90
        2
176
     1
 90
        2
176
     1
 90
        0
176
     1
 90
        0
176
     1
 40
0.6
176
     1
 40
30.0
176
     1
 62
     7
420
 16777215
176
     1
 90
        1
176
     1
 90
        4
176
     1
 62
     7
176
     1
 62
   257
176
     1
 90
        1
176
     1
 90
        1
176
     1
 40
1.0
176
     1
 90
        8
176
     1
 62
     7
176
     1
 40
1.0
176
     1
 90
        1
176
     1
 90
        6
176
     1
 90
        2
176
     1
 62
     7
176
     1
 90
        5
176
     1
 90
        0
176
     1
 90
        0
176
     1
290
     0
176
     1
 90
        1
176
     1
 40
0.0
176
     1
 90
        0
176
     1
290
     0
176
     1
290
     1
176
     1
290
     1
176
     1
290
     0
176
     1
290
     0
176
     1
290
     0
176
     1
290
     0
176
     1
290
     0
176
     1
290
     0
176
     1
 90
       50
176
     1
 40
0.0
176
     1
 40
1.0
176
     1
 90
        0
176
     1
 62
    18
420
        0
176
     1
 90
       50
176
     1
 90
        3
176
     1
 62
     5
420
      255
176
     1
290
     0
176
     1
 90
       50
176
     1
 90
       50
176
     1
 90
       50
176
     1
290
     0
176
     1
 90
       50
176
     1
 62
   256
176
     0
 40
1.0
176
     0
 90
        2
176
     1
  1
strokes_ogs.tif
176
     1
290
     0
176
     1
 40
1.0
176
     1
 40
1.0
176
     1
  0
VISUALSTYLE
  5
2B
102
{ACAD_REACTORS
330
2A
102
}
330
2A
100
AcDbVisualStyle
  2
Flat
 70
     0
177
     3
291
     1
 70
    58
 90
        2
176
     1
 90
        1
176
     1
 90
        1
176
     1
 90
        2
176
     1
 40
0.6
176
     1
 40
30.0
176
     1
 62
     7
420
 16777215
176
     1
 90
        0
176
     1
 90
        0
176
     1
 62
     7
176
     1
 62
   257
176
     1
 90
        1
176
     1
 90
        1
176
     1
 40
1.0
176
     1
 90
        8
176
     1
 62
     7
176
     1
 40
1.0
176
     1
 90
        1
176
     1
 90
        6
176
     1
 90
        2
176
     1
 62
     7
176
     1
 90
        5
176
     1
 90
        0
176
     1
 90
        0
176
     1
290
     0
176
     1
 90
       13
176
     1
 40
0.0
176
     1
 90
        0
176
     1
290
     0
176
     1
290
     1
176
     1
290
     1
176
     1
290
     0
176
     1
290
     0
176
     1
290
     0
176
     1
290
     0
176
     1
290
     0
176
     1
290
     0
176
     1
 90
       50
176
     1
 40
0.0
176
     1
 40
1.0
176
     1
 90
        0
176
     1
 62
    18
420
        0
176
     1
 90
       50
176
     1
 90
        3
176
     1
 62
     5
420
      255
176
     1
290
     0
176
     1
 90
       50
176
     1
 90
       50
176
     1
 90
       50
176
     1
290
     0
176
     1
 90
       50
176
     1
 62
   256
176
     0
 40
1.0
176
     0
 90
        2
176
     1
  1
strokes_ogs.tif
176
     1
290
     0
176
     1
 40
1.0
176
     1
 40
1.0
176
     1
  0
VISUALSTYLE
  5
2C
102
{ACAD_REACTORS
330
2A
102
}
330
2A
100
AcDbVisualStyle
  2
FlatWithEdges
 70
     1
177
     3
291
     1
 70
    58
 90
        2
176
     1
 90
        1
176
     1
 90
        1
176
     1
 90
        2
176
     1
 40
0.6
176
     1
 40
30.0
176
     1
 62
     7
420
 16777215
176
     1
 90
        1
176
     1
 90
        0
176
     1
 62
     7
176
     1
 62
   257
176
     1
 90
        1
176
     1
 90
        1
176
     1
 40
1.0
176
     1
 90
        0
176
     1
 62
   257
176
     1
 40
1.0
176
     1
 90
        1
176
     1
 90
        6
176
     1
 90
        2
176
     1
 62
     7
176
     1
 90
        5
176
     1
 90
        0
176
     1
 90
        0
176
     1
290
     0
176
     1
 90
       13
176
     1
 40
0.0
176
     1
 90
        0
176
     1
290
     0
176
     1
290
     1
176
     1
290
     1
176
     1
290
     0
176
     1
290
     0
176
     1
290
     0
176
     1
290
     0
176
     1
290
     0
176
     1
290
     0
176
     1
 90
       50
176
     1
 40
0.0
176
     1
 40
1.0
176
     1
 90
        0
176
     1
 62
    18
420
        0
176
     1
 90
       50
176
     1
 90
        3
176
     1
 62
     5
420
      255
176
     1
290
     0
176
     1
 90
       50
176
     1
 90
       50
176
     1
 90
       50
176
     1
290
     0
176
     1
 90
       50
176
     1
 62
   256
176
     0
 40
1.0
176
     0
 90
        2
176
     1
  1
strokes_ogs.tif
176
     1
290
     0
176
     1
 40
1.0
176
     1
 40
1.0
176
     1
  0
VISUALSTYLE
  5
2D
102
{ACAD_REACTORS
330
2A
102
}
330
2A
100
AcDbVisualStyle
  2
Gouraud
 70
     2
177
     3
291
     1
 70
    58
 90
        2
176
     1
 90
        2
176
     1
 90
        1
176
     1
 90
        2
176
     1
 40
0.6
176
     1
 40
30.0
176
     1
 62
     7
420
 16777215
176
     1
 90
        0
176
     1
 90
        0
176
     1
 62
     7
176
     1
 62
   257
176
     1
 90
        1
176
     1
 90
        1
176
     1
 40
1.0
176
     1
 90
        0
176
     1
 62
     7
176
     1
 40
1.0
176
     1
 90
        1
176
     1
 90
        6
176
     1
 90
        2
176
     1
 62
     7
176
     1
 90
        5
176
     1
 90
        0
176
     1
 90
        0
176
     1
290
     0
176
     1
 90
       13
176
     1
 40
0.0
176
     1
 90
        0
176
     1
290
     0
176
     1
290
     1
176
     1
290
     1
176
     1
290
     0
176
     1
290
     0
176
     1
290
     0
176
     1
290
     0
176
     1
290
     0
176
     1
290
     0
176
     1
 90
       50
176
     1
 40
0.0
176
     1
 40
1.0
176
     1
 90
        0
176
     1
 62
    18
420
        0
176
     1
 90
       50
176
     1
 90
        3
176
     1
 62
     5
420
      255
176
     1
290
     0
176
     1
 90
       50
176
     1
 90
       50
176
     1
 90
       50
176
     1
290
     0
176
     1
 90
       50
176
     1
 62
   256
176
     0
 40
1.0
176
     0
 90
        2
176
     1
  1
strokes_ogs.tif
176
     1
290
     0
176
     1
 40
1.0
176
     1
 40
1.0
176
     1
  0
VISUALSTYLE
  5
2E
102
{ACAD_REACTORS
330
2A
102
}
330
2A
100
AcDbVisualStyle
  2
GouraudWithEdges
 70
     3
177
     3
291
     1
 70
    58
 90
        2
176
     1
 90
        2
176
     1
 90
        1
176
     1
 90
        2
176
     1
 40
0.6
176
     1
 40
30.0
176
     1
 62
     7
420
 16777215
176
     1
 90
        1
176
     1
 90
        0
176
     1
 62
     7
176
     1
 62
   257
176
     1
 90
        1
176
     1
 90
        1
176
     1
 40
1.0
176
     1
 90
        0
176
     1
 62
   257
176
     1
 40
1.0
176
     1
 90
        1
176
     1
 90
        6
176
     1
 90
        2
176
     1
 62
     7
176
     1
 90
        5
176
     1
 90
        0
176
     1
 90
        0
176
     1
290
     0
176
     1
 90
       13
176
     1
 40
0.0
176
     1
 90
        0
176
     1
290
     0
176
     1
290
     1
176
     1
290
     1
176
     1
290
     0
176
     1
290
     0
176
     1
290
     0
176
     1
290
     0
176
     1
290
     0
176
     1
290
     0
176
     1
 90
       50
176
     1
 40
0.0
176
     1
 40
1.0
176
     1
 90
        0
176
     1
 62
    18
420
        0
176
     1
 90
       50
176
     1
 90
        3
176
     1
 62
     5
420
      255
176
     1
290
     0
176
     1
 90
       50
176
     1
 90
       50
176
     1
 90
       50
176
     1
290
     0
176
     1
 90
       50
176
     1
 62
   256
176
     0
 40
1.0
176
     0
 90
        2
176
     1
  1
strokes_ogs.tif
176
     1
290
     0
176
     1
 40
1.0
176
     1
 40
1.0
176
     1
  0
VISUALSTYLE
  5
31
102
{ACAD_REACTORS
330
2A
102
}
330
2A
100
AcDbVisualStyle
  2
Hidden
 70
     6
177
     3
291
     0
 70
    58
 90
        1
176
     1
 90
        2
176
     1
 90
        2
176
     1
 90
        0
176
     1
 40
0.6
176
     1
 40
30.0
176
     1
 62
     7
420
 16777215
176
     1
 90
        2
176
     1
 90
        2
176
     1
 62
     7
176
     1
 62
   257
176
     1
 90
        2
176
     1
 90
        1
176
     1
 40
40.0
176
     1
 90
        0
176
     1
 62
   257
176
     1
 40
1.0
176
     1
 90
        1
176
     1
 90
        6
176
     1
 90
        2
176
     1
 62
     7
176
     1
 90
        3
176
     1
 90
        0
176
     1
 90
        0
176
     1
290
     0
176
     1
 90
        1
176
     1
 40
0.0
176
     1
 90
        0
176
     1
290
     0
176
     1
290
     1
176
     1
290
     1
176
     1
290
     0
176
     1
290
     0
176
     1
290
     0
176
     1
290
     0
176
     1
290
     0
176
     1
290
     0
176
     1
 90
       50
176
     1
 40
0.0
176
     1
 40
1.0
176
     1
 90
        0
176
     1
 62
    18
420
        0
176
     1
 90
       50
176
     1
 90
        3
176
     1
 62
     5
420
      255
176
     1
290
     0
176
     1
 90
       50
176
     1
 90
       50
176
     1
 90
       50
176
     1
290
     0
176
     1
 90
       50
176
     1
 62
   256
176
     0
 40
1.0
176
     0
 90
        2
176
     1
  1
strokes_ogs.tif
176
     1
290
     0
176
     1
 40
1.0
176
     1
 40
1.0
176
     1
  0
VISUALSTYLE
  5
3B
102
{ACAD_REACTORS
330
2A
102
}
330
2A
100
AcDbVisualStyle
  2
JitterOff
 70
    20
177
     3
291
     1
 70
    58
 90
        2
176
     0
 90
        2
176
     0
 90
        0
176
     0
 90
        0
176
     0
 40
0.6
176
     0
 40
30.0
176
     0
 62
     7
420
 16777215
176
     0
 90
        1
176
     0
 90
        4
176
     0
 62
     7
176
     0
 62
   257
176
     0
 90
        1
176
     0
 90
        1
176
     0
 40
1.0
176
     0
 90
       10
176
     2
 62
     7
176
     0
 40
1.0
176
     0
 90
        1
176
     0
 90
        6
176
     0
 90
        2
176
     0
 62
     7
176
     0
 90
        5
176
     0
 90
        0
176
     0
 90
        0
176
     0
290
     0
176
     0
 90
        1
176
     0
 40
0.0
176
     0
 90
        0
176
     0
290
     0
176
     0
290
     1
176
     0
290
     1
176
     0
290
     0
176
     0
290
     0
176
     0
290
     0
176
     0
290
     0
176
     0
290
     0
176
     0
290
     0
176
     0
 90
       50
176
     0
 40
0.0
176
     0
 40
1.0
176
     0
 90
        0
176
     0
 62
    18
420
        0
176
     0
 90
       50
176
     0
 90
        3
176
     0
 62
     5
420
      255
176
     0
290
     0
176
     0
 90
       50
176
     0
 90
       50
176
     0
 90
       50
176
     0
290
     0
176
     0
 90
       50
176
     0
 62
   256
176
     0
 40
1.0
176
     0
 90
        2
176
     0
  1
strokes_ogs.tif
176
     0
290
     0
176
     0
 40
1.0
176
     0
 40
1.0
176
     0
  0
VISUALSTYLE
  5
38
102
{ACAD_REACTORS
330
2A
102
}
330
2A
100
AcDbVisualStyle
  2
Linepattern
 70
    14
177
     3
291
     1
 70
    58
 90
        2
176
     1
 90
        2
176
     1
 90
        0
176
     1
 90
        0
176
     1
 40
0.6
176
     1
 40
30.0
176
     1
 62
     7
420
 16777215
176
     1
 90
        1
176
     1
 90
        4
176
     1
 62
     7
176
     1
 62
   257
176
     1
 90
        7
176
     1
 90
        7
176
     1
 40
1.0
176
     1
 90
        8
176
     1
 62
     7
176
     1
 40
1.0
176
     1
 90
        1
176
     1
 90
        6
176
     1
 90
        2
176
     1
 62
     7
176
     1
 90
        5
176
     1
 90
        0
176
     1
 90
        0
176
     1
290
     0
176
     1
 90
        1
176
     1
 40
0.0
176
     1
 90
        0
176
     1
290
     0
176
     1
290
     1
176
     1
290
     1
176
     1
290
     0
176
     1
290
     0
176
     1
290
     0
176
     1
290
     0
176
     1
290
     0
176
     1
290
     0
176
     1
 90
       50
176
     1
 40
0.0
176
     1
 40
1.0
176
     1
 90
        0
176
     1
 62
    18
420
        0
176
     1
 90
       50
176
     1
 90
        3
176
     1
 62
     5
420
      255
176
     1
290
     0
176
     1
 90
       50
176
     1
 90
       50
176
     1
 90
       50
176
     1
290
     0
176
     1
 90
       50
176
     1
 62
   256
176
     0
 40
1.0
176
     0
 90
        2
176
     1
  1
strokes_ogs.tif
176
     1
290
     0
176
     1
 40
1.0
176
     1
 40
1.0
176
     1
  0
VISUALSTYLE
  5
3C
102
{ACAD_REACTORS
330
2A
102
}
330
2A
100
AcDbVisualStyle
  2
OverhangOff
 70
    21
177
     3
291
     1
 70
    58
 90
        2
176
     0
 90
        2
176
     0
 90
        0
176
     0
 90
        0
176
     0
 40
0.6
176
     0
 40
30.0
176
     0
 62
     7
420
 16777215
176
     0
 90
        1
176
     0
 90
        4
176
     0
 62
     7
176
     0
 62
   257
176
     0
 90
        1
176
     0
 90
        1
176
     0
 40
1.0
176
     0
 90
        9
176
     2
 62
     7
176
     0
 40
1.0
176
     0
 90
        1
176
     0
 90
        6
176
     0
 90
        2
176
     0
 62
     7
176
     0
 90
        5
176
     0
 90
        0
176
     0
 90
        0
176
     0
290
     0
176
     0
 90
        1
176
     0
 40
0.0
176
     0
 90
        0
176
     0
290
     0
176
     0
290
     1
176
     0
290
     1
176
     0
290
     0
176
     0
290
     0
176
     0
290
     0
176
     0
290
     0
176
     0
290
     0
176
     0
290
     0
176
     0
 90
       50
176
     0
 40
0.0
176
     0
 40
1.0
176
     0
 90
        0
176
     0
 62
    18
420
        0
176
     0
 90
       50
176
     0
 90
        3
176
     0
 62
     5
420
      255
176
     0
290
     0
176
     0
 90
       50
176
     0
 90
       50
176
     0
 90
       50
176
     0
290
     0
176
     0
 90
       50
176
     0
 62
   256
176
     0
 40
1.0
176
     0
 90
        2
176
     0
  1
strokes_ogs.tif
176
     0
290
     0
176
     0
 40
1.0
176
     0
 40
1.0
176
     0
  0
VISUALSTYLE
  5
33
102
{ACAD_REACTORS
330
2A
102
}
330
2A
100
AcDbVisualStyle
  2
Realistic
 70
     8
177
     3
291
     0
 70
    58
 90
        2
176
     1
 90
        3
176
     1
 90
        0
176
     1
 90
        2
176
     1
 40
0.6
176
     1
 40
30.0
176
     1
 62
     7
420
 16777215
176
     1
 90
        0
176
     1
 90
        0
176
     1
 62
     7
176
     1
 62
   257
176
     1
 90
        1
176
     1
 90
        1
176
     1
 40
1.0
176
     1
 90
        8
176
     1
 62
   257
176
     1
 40
1.0
176
     1
 90
        1
176
     1
 90
        6
176
     1
 90
        2
176
     1
 62
     7
176
     1
 90
        3
176
     1
 90
        0
176
     1
 90
        0
176
     1
290
     0
176
     1
 90
       13
176
     1
 40
0.0
176
     1
 90
        0
176
     1
290
     0
176
     1
290
     1
176
     1
290
     1
176
     1
290
     0
176
     1
290
     0
176
     1
290
     0
176
     1
290
     0
176
     1
290
     0
176
     1
290
     0
176
     1
 90
       50
176
     1
 40
0.0
176
     1
 40
1.0
176
     1
 90
        0
176
     1
 62
    18
420
        0
176
     1
 90
       50
176
     1
 90
        3
176
     1
 62
     5
420
      255
176
     1
290
     0
176
     1
 90
       50
176
     1
 90
       50
176
     1
 90
       50
176
     1
290
     0
176
     1
 90
       50
176
     1
 62
   256
176
     0
 40
1.0
176
     0
 90
        2
176
     1
  1
strokes_ogs.tif
176
     1
290
     0
176
     1
 40
1.0
176
     1
 40
1.0
176
     1
  0
VISUALSTYLE
  5
42
102
{ACAD_REACTORS
330
2A
102
}
330
2A
100
AcDbVisualStyle
  2
Shaded
 70
    27
177
     3
291
     0
 70
    58
 90
        2
176
     1
 90
        2
176
     1
 90
        1
176
     1
 90
        2
176
     1
 40
0.6
176
     1
 40
30.0
176
     1
 62
     7
420
 16777215
176
     1
 90
        0
176
     1
 90
        4
176
     1
 62
     7
176
     1
 62
   257
176
     1
 90
        1
176
     1
 90
        1
176
     1
 40
1.0
176
     1
 90
        8
176
     1
 62
   257
176
     1
 40
1.0
176
     1
 90
        1
176
     1
 90
        6
176
     1
 90
        2
176
     1
 62
     8
420
  7895160
176
     1
 90
        3
176
     1
 90
        0
176
     1
 90
        0
176
     1
290
     0
176
     1
 90
        5
176
     1
 40
0.0
176
     1
 90
        0
176
     1
290
     0
176
     1
290
     1
176
     1
290
     1
176
     1
290
     0
176
     1
290
     0
176
     1
290
     0
176
     1
290
     0
176
     1
290
     0
176
     1
290
     0
176
     1
 90
       50
176
     1
 40
0.0
176
     1
 40
1.0
176
     1
 90
        0
176
     1
 62
    18
420
        0
176
     1
 90
       50
176
     1
 90
        3
176
     1
 62
     5
420
      255
176
     1
290
     0
176
     1
 90
       50
176
     1
 90
       50
176
     1
 90
       50
176
     1
290
     0
176
     1
 90
       50
176
     1
 62
   256
176
     0
 40
1.0
176
     0
 90
        2
176
     1
  1
strokes_ogs.tif
176
     1
290
     0
176
     1
 40
1.0
176
     1
 40
1.0
176
     1
  0
VISUALSTYLE
  5
41
102
{ACAD_REACTORS
330
2A
102
}
330
2A
100
AcDbVisualStyle
  2
Shaded with edges
 70
    26
177
     3
291
     0
 70
    58
 90
        2
176
     1
 90
        2
176
     1
 90
        1
176
     1
 90
        2
176
     1
 40
0.6
176
     1
 40
30.0
176
     1
 62
     7
420
 16777215
176
     1
 90
        1
176
     1
 90
       10
176
     1
 62
     7
176
     1
 62
   257
176
     1
 90
        2
176
     1
 90
        1
176
     1
 40
1.0
176
     1
 90
        8
176
     1
 62
   257
176
     1
 40
1.0
176
     1
 90
        1
176
     1
 90
        6
176
     1
 90
        2
176
     1
 62
     7
176
     1
 90
        3
176
     1
 90
        0
176
     1
 90
        0
176
     1
290
     0
176
     1
 90
        5
176
     1
 40
0.0
176
     1
 90
        0
176
     1
290
     0
176
     1
290
     1
176
     1
290
     1
176
     1
290
     0
176
     1
290
     0
176
     1
290
     0
176
     1
290
     0
176
     1
290
     0
176
     1
290
     0
176
     1
 90
       50
176
     1
 40
0.0
176
     1
 40
1.0
176
     1
 90
        0
176
     1
 62
    18
420
        0
176
     1
 90
       50
176
     1
 90
        3
176
     1
 62
     5
420
      255
176
     1
290
     0
176
     1
 90
       50
176
     1
 90
       50
176
     1
 90
       50
176
     1
290
     0
176
     1
 90
       50
176
     1
 62
   256
176
     0
 40
1.0
176
     0
 90
        2
176
     1
  1
strokes_ogs.tif
176
     1
290
     0
176
     1
 40
1.0
176
     1
 40
1.0
176
     1
  0
VISUALSTYLE
  5
3E
102
{ACAD_REACTORS
330
2A
102
}
330
2A
100
AcDbVisualStyle
  2
Shades of Gray
 70
    23
177
     3
291
     0
 70
    58
 90
        2
176
     1
 90
        2
176
     1
 90
        3
176
     1
 90
        0
176
     1
 40
0.6
176
     1
 40
30.0
176
     1
 62
     7
420
 16777215
176
     1
 90
        2
176
     1
 90
        2
176
     1
 62
     7
176
     1
 62
     7
176
     1
 90
        1
176
     1
 90
        1
176
     1
 40
40.0
176
     1
 90
        8
176
     1
 62
     7
176
     1
 40
1.0
176
     1
 90
        1
176
     1
 90
        6
176
     1
 90
        2
176
     1
 62
     7
176
     1
 90
        3
176
     1
 90
        0
176
     1
 90
        0
176
     1
290
     0
176
     1
 90
        1
176
     1
 40
0.0
176
     1
 90
        0
176
     1
290
     0
176
     1
290
     1
176
     1
290
     1
176
     1
290
     0
176
     1
290
     0
176
     1
290
     0
176
     1
290
     0
176
     1
290
     0
176
     1
290
     0
176
     1
 90
       50
176
     1
 40
0.0
176
     1
 40
1.0
176
     1
 90
        0
176
     1
 62
    18
420
        0
176
     1
 90
       50
176
     1
 90
        3
176
     1
 62
     5
420
      255
176
     1
290
     0
176
     1
 90
       50
176
     1
 90
       50
176
     1
 90
       50
176
     1
290
     0
176
     1
 90
       50
176
     1
 62
   256
176
     0
 40
1.0
176
     0
 90
        2
176
     1
  1
strokes_ogs.tif
176
     1
290
     0
176
     1
 40
1.0
176
     1
 40
1.0
176
     1
  0
VISUALSTYLE
  5
3F
102
{ACAD_REACTORS
330
2A
102
}
330
2A
100
AcDbVisualStyle
  2
Sketchy
 70
    24
177
     3
291
     0
 70
    58
 90
        1
176
     1
 90
        2
176
     1
 90
        2
176
     1
 90
        0
176
     1
 40
0.6
176
     1
 40
30.0
176
     1
 62
     7
420
 16777215
176
     1
 90
        2
176
     1
 90
        2
176
     1
 62
     7
176
     1
 62
     7
176
     1
 90
        1
176
     1
 90
        1
176
     1
 40
40.0
176
     1
 90
       11
176
     1
 62
     7
176
     1
 40
1.0
176
     1
 90
        1
176
     1
 90
        6
176
     1
 90
        2
176
     1
 62
     7
176
     1
 90
        6
176
     1
 90
        0
176
     1
 90
        0
176
     1
290
     0
176
     1
 90
        1
176
     1
 40
0.0
176
     1
 90
        0
176
     1
290
     0
176
     1
290
     1
176
     1
290
     1
176
     1
290
     0
176
     1
290
     0
176
     1
290
     0
176
     1
290
     0
176
     1
290
     0
176
     1
290
     0
176
     1
 90
       50
176
     1
 40
0.0
176
     1
 40
1.0
176
     1
 90
        0
176
     1
 62
    18
420
        0
176
     1
 90
       50
176
     1
 90
        3
176
     1
 62
     5
420
      255
176
     1
290
     0
176
     1
 90
       50
176
     1
 90
       50
176
     1
 90
       50
176
     1
290
     0
176
     1
 90
       50
176
     1
 62
   256
176
     0
 40
1.0
176
     0
 90
        2
176
     1
  1
strokes_ogs.tif
176
     1
290
     0
176
     1
 40
1.0
176
     1
 40
1.0
176
     1
  0
VISUALSTYLE
  5
37
102
{ACAD_REACTORS
330
2A
102
}
330
2A
100
AcDbVisualStyle
  2
Thicken
 70
    13
177
     3
291
     1
 70
    58
 90
        2
176
     1
 90
        2
176
     1
 90
        0
176
     1
 90
        0
176
     1
 40
0.6
176
     1
 40
30.0
176
     1
 62
     7
420
 16777215
176
     1
 90
        1
176
     1
 90
        4
176
     1
 62
     7
176
     1
 62
   257
176
     1
 90
        1
176
     1
 90
        1
176
     1
 40
1.0
176
     1
 90
       12
176
     1
 62
     7
176
     1
 40
1.0
176
     1
 90
        1
176
     1
 90
        6
176
     1
 90
        2
176
     1
 62
     7
176
     1
 90
        5
176
     1
 90
        0
176
     1
 90
        0
176
     1
290
     0
176
     1
 90
        1
176
     1
 40
0.0
176
     1
 90
        0
176
     1
290
     0
176
     1
290
     1
176
     1
290
     1
176
     1
290
     0
176
     1
290
     0
176
     1
290
     0
176
     1
290
     0
176
     1
290
     0
176
     1
290
     0
176
     1
 90
       50
176
     1
 40
0.0
176
     1
 40
1.0
176
     1
 90
        0
176
     1
 62
    18
420
        0
176
     1
 90
       50
176
     1
 90
        3
176
     1
 62
     5
420
      255
176
     1
290
     0
176
     1
 90
       50
176
     1
 90
       50
176
     1
 90
       50
176
     1
290
     0
176
     1
 90
       50
176
     1
 62
   256
176
     0
 40
1.0
176
     0
 90
        2
176
     1
  1
strokes_ogs.tif
176
     1
290
     0
176
     1
 40
1.0
176
     1
 40
1.0
176
     1
  0
VISUALSTYLE
  5
30
102
{ACAD_REACTORS
330
2A
102
}
330
2A
100
AcDbVisualStyle
  2
Wireframe
 70
     5
177
     3
291
     0
 70
    58
 90
        0
176
     1
 90
        2
176
     1
 90
        0
176
     1
 90
        0
176
     1
 40
0.6
176
     1
 40
30.0
176
     1
 62
     7
420
 16777215
176
     1
 90
        1
176
     1
 90
        4
176
     1
 62
     7
176
     1
 62
   257
176
     1
 90
        1
176
     1
 90
        1
176
     1
 40
1.0
176
     1
 90
        0
176
     1
 62
   257
176
     1
 40
1.0
176
     1
 90
        1
176
     1
 90
        6
176
     1
 90
        2
176
     1
 62
     7
176
     1
 90
        3
176
     1
 90
        0
176
     1
 90
        0
176
     1
290
     0
176
     1
 90
        1
176
     1
 40
0.0
176
     1
 90
        0
176
     1
290
     0
176
     1
290
     1
176
     1
290
     1
176
     1
290
     0
176
     1
290
     0
176
     1
290
     0
176
     1
290
     0
176
     1
290
     0
176
     1
290
     0
176
     1
 90
       50
176
     1
 40
0.0
176
     1
 40
1.0
176
     1
 90
        0
176
     1
 62
    18
420
        0
176
     1
 90
       50
176
     1
 90
        3
176
     1
 62
     5
420
      255
176
     1
290
     0
176
     1
 90
       50
176
     1
 90
       50
176
     1
 90
       50
176
     1
290
     0
176
     1
 90
       50
176
     1
 62
   256
176
     0
 40
1.0
176
     0
 90
        2
176
     1
  1
strokes_ogs.tif
176
     1
290
     0
176
     1
 40
1.0
176
     1
 40
1.0
176
     1
  0
VISUALSTYLE
  5
40
102
{ACAD_REACTORS
330
2A
102
}
330
2A
100
AcDbVisualStyle
  2
X-Ray
 70
    25
177
     3
291
     0
 70
    58
 90
        2
176
     1
 90
        2
176
     1
 90
        1
176
     1
 90
        1
176
     1
 40
0.5
176
     1
 40
30.0
176
     1
 62
     7
420
 16777215
176
     1
 90
        1
176
     1
 90
        0
176
     1
 62
     7
176
     1
 62
   257
176
     1
 90
        1
176
     1
 90
        1
176
     1
 40
1.0
176
     1
 90
        8
176
     1
 62
     7
176
     1
 40
1.0
176
     1
 90
        1
176
     1
 90
        6
176
     1
 90
        2
176
     1
 62
     7
176
     1
 90
        3
176
     1
 90
        0
176
     1
 90
        0
176
     1
290
     0
176
     1
 90
       13
176
     1
 40
0.0
176
     1
 90
        0
176
     1
290
     0
176
     1
290
     1
176
     1
290
     1
176
     1
290
     0
176
     1
290
     0
176
     1
290
     0
176
     1
290
     0
176
     1
290
     0
176
     1
290
     0
176
     1
 90
       50
176
     1
 40
0.0
176
     1
 40
1.0
176
     1
 90
        0
176
     1
 62
    18
420
        0
176
     1
 90
       50
176
     1
 90
        3
176
     1
 62
     5
420
      255
176
     1
290
     0
176
     1
 90
       50
176
     1
 90
       50
176
     1
 90
       50
176
     1
290
     0
176
     1
 90
       50
176
     1
 62
   256
176
     0
 40
1.0
176
     0
 90
        2
176
     1
  1
strokes_ogs.tif
176
     1
290
     0
176
     1
 40
1.0
176
     1
 40
1.0
176
     1
  0
DICTIONARYVAR
  5
9F
102
{ACAD_REACTORS
330
9E
102
}
330
9E
100
DictionaryVariables
280
     0
  1
1:1
  0
DICTIONARYVAR
  5
A7
102
{ACAD_REACTORS
330
9E
102
}
330
9E
100
DictionaryVariables
280
     0
  1
3.500000
  0
DICTIONARYVAR
  5
A8
102
{ACAD_REACTORS
330
9E
102
}
330
9E
100
DictionaryVariables
280
     0
  1
acadiso.lin
  0
DICTIONARYVAR
  5
A4
102
{ACAD_REACTORS
330
9E
102
}
330
9E
100
DictionaryVariables
280
     0
  1
Standard
  0
DICTIONARYVAR
  5
A3
102
{ACAD_REACTORS
330
9E
102
}
330
9E
100
DictionaryVariables
280
     0
  1
Standard
  0
DICTIONARY
  5
A0
330
5A
100
AcDbDictionary
280
     1
281
     1
  3
ACAD_ROUNDTRIP_2008_TABLESTYLE_CELLSTYLEMAP
360
A1
  0
CELLSTYLEMAP
  5
A1
102
{ACAD_REACTORS
330
A0
102
}
330
A0
100
AcDbCellStyleMap
 90
        3
300
CELLSTYLE
  1
TABLEFORMAT_BEGIN
 90
        5
170
     1
 91
        0
 92
    32768
 62
   257
 93
        1
300
CONTENTFORMAT
  1
CONTENTFORMAT_BEGIN
 90
        0
 91
        0
 92
        4
 93
        0
300

 40
0.0
140
1.0
 94
        5
 62
     0
340
11
144
6.0
309
CONTENTFORMAT_END
171
     1
301
MARGIN
  1
CELLMARGIN_BEGIN
 40
1.5
 40
1.5
 40
1.5
 40
1.5
 40
1.5
 40
1.5
309
CELLMARGIN_END
 94
        6
 95
        1
302
GRIDFORMAT
  1
GRIDFORMAT_BEGIN
 90
        0
 91
        1
 62
     0
 92
       -2
340
14
 93
        0
 40
0.045
309
GRIDFORMAT_END
 95
        2
302
GRIDFORMAT
  1
GRIDFORMAT_BEGIN
 90
        0
 91
        1
 62
     0
 92
       -2
340
14
 93
        0
 40
0.045
309
GRIDFORMAT_END
 95
        4
302
GRIDFORMAT
  1
GRIDFORMAT_BEGIN
 90
        0
 91
        1
 62
     0
 92
       -2
340
14
 93
        0
 40
0.045
309
GRIDFORMAT_END
 95
        8
302
GRIDFORMAT
  1
GRIDFORMAT_BEGIN
 90
        0
 91
        1
 62
     0
 92
       -2
340
14
 93
        0
 40
0.045
309
GRIDFORMAT_END
 95
       16
302
GRIDFORMAT
  1
GRIDFORMAT_BEGIN
 90
        0
 91
        1
 62
     0
 92
       -2
340
14
 93
        0
 40
0.045
309
GRIDFORMAT_END
 95
       32
302
GRIDFORMAT
  1
GRIDFORMAT_BEGIN
 90
        0
 91
        1
 62
     0
 92
       -2
340
14
 93
        0
 40
0.045
309
GRIDFORMAT_END
309
TABLEFORMAT_END
  1
CELLSTYLE_BEGIN
 90
        1
 91
        1
300
_TITLE
309
CELLSTYLE_END
300
CELLSTYLE
  1
TABLEFORMAT_BEGIN
 90
        5
170
     1
 91
        0
 92
        0
 62
   257
 93
        1
300
CONTENTFORMAT
  1
CONTENTFORMAT_BEGIN
 90
        0
 91
        0
 92
        4
 93
        0
300

 40
0.0
140
1.0
 94
        5
 62
     0
340
11
144
4.5
309
CONTENTFORMAT_END
171
     1
301
MARGIN
  1
CELLMARGIN_BEGIN
 40
1.5
 40
1.5
 40
1.5
 40
1.5
 40
1.5
 40
1.5
309
CELLMARGIN_END
 94
        6
 95
        1
302
GRIDFORMAT
  1
GRIDFORMAT_BEGIN
 90
        0
 91
        1
 62
     0
 92
       -2
340
14
 93
        0
 40
0.045
309
GRIDFORMAT_END
 95
        2
302
GRIDFORMAT
  1
GRIDFORMAT_BEGIN
 90
        0
 91
        1
 62
     0
 92
       -2
340
14
 93
        0
 40
0.045
309
GRIDFORMAT_END
 95
        4
302
GRIDFORMAT
  1
GRIDFORMAT_BEGIN
 90
        0
 91
        1
 62
     0
 92
       -2
340
14
 93
        0
 40
0.045
309
GRIDFORMAT_END
 95
        8
302
GRIDFORMAT
  1
GRIDFORMAT_BEGIN
 90
        0
 91
        1
 62
     0
 92
       -2
340
14
 93
        0
 40
0.045
309
GRIDFORMAT_END
 95
       16
302
GRIDFORMAT
  1
GRIDFORMAT_BEGIN
 90
        0
 91
        1
 62
     0
 92
       -2
340
14
 93
        0
 40
0.045
309
GRIDFORMAT_END
 95
       32
302
GRIDFORMAT
  1
GRIDFORMAT_BEGIN
 90
        0
 91
        1
 62
     0
 92
       -2
340
14
 93
        0
 40
0.045
309
GRIDFORMAT_END
309
TABLEFORMAT_END
  1
CELLSTYLE_BEGIN
 90
        2
 91
        1
300
_HEADER
309
CELLSTYLE_END
300
CELLSTYLE
  1
TABLEFORMAT_BEGIN
 90
        5
170
     1
 91
        0
 92
        0
 62
   257
 93
        1
300
CONTENTFORMAT
  1
CONTENTFORMAT_BEGIN
 90
        0
 91
        0
 92
        4
 93
        0
300

 40
0.0
140
1.0
 94
        2
 62
     0
340
11
144
4.5
309
CONTENTFORMAT_END
171
     1
301
MARGIN
  1
CELLMARGIN_BEGIN
 40
1.5
 40
1.5
 40
1.5
 40
1.5
 40
1.5
 40
1.5
309
CELLMARGIN_END
 94
        6
 95
        1
302
GRIDFORMAT
  1
GRIDFORMAT_BEGIN
 90
        0
 91
        1
 62
     0
 92
       -2
340
14
 93
        0
 40
0.045
309
GRIDFORMAT_END
 95
        2
302
GRIDFORMAT
  1
GRIDFORMAT_BEGIN
 90
        0
 91
        1
 62
     0
 92
       -2
340
14
 93
        0
 40
0.045
309
GRIDFORMAT_END
 95
        4
302
GRIDFORMAT
  1
GRIDFORMAT_BEGIN
 90
        0
 91
        1
 62
     0
 92
       -2
340
14
 93
        0
 40
0.045
309
GRIDFORMAT_END
 95
        8
302
GRIDFORMAT
  1
GRIDFORMAT_BEGIN
 90
        0
 91
        1
 62
     0
 92
       -2
340
14
 93
        0
 40
0.045
309
GRIDFORMAT_END
 95
       16
302
GRIDFORMAT
  1
GRIDFORMAT_BEGIN
 90
        0
 91
        1
 62
     0
 92
       -2
340
14
 93
        0
 40
0.045
309
GRIDFORMAT_END
 95
       32
302
GRIDFORMAT
  1
GRIDFORMAT_BEGIN
 90
        0
 91
        1
 62
     0
 92
       -2
340
14
 93
        0
 40
0.045
309
GRIDFORMAT_END
309
TABLEFORMAT_END
  1
CELLSTYLE_BEGIN
 90
        3
 91
        2
300
_DATA
309
CELLSTYLE_END
  0
ENDSEC
  0
EOF
