  0
SECTION
  2
HEADER
  9
$ACADVER
  1
AC1027
  9
$ACADMAINTVER
 70
   105
  9
$DWGCODEPAGE
  3
ANSI_932
  9
$LASTSAVEDBY
  1
a.yasuda
  9
$REQUIREDVERSIONS
160
                 0
  9
$INSBASE
 10
0.0
 20
0.0
 30
0.0
  9
$EXTMIN
 10
0.0
 20
0.0
 30
0.0
  9
$EXTMAX
 10
302.9997823349792
 20
216.0016055409748
 30
0.0
  9
$LIMMIN
 10
0.0
 20
0.0
  9
$LIMMAX
 10
302.9997823349792
 20
216.0016055409748
  9
$ORTHOMODE
 70
     0
  9
$REGENMODE
 70
     1
  9
$FILLMODE
 70
     1
  9
$QTEXTMODE
 70
     0
  9
$MIRRTEXT
 70
     1
  9
$LTSCALE
 40
1.0
  9
$ATTMODE
 70
     1
  9
$TEXTSIZE
 40
2.5
  9
$TRACEWID
 40
1.0
  9
$TEXTSTYLE
  7
Standard
  9
$CLAYER
  8
0
  9
$CELTYPE
  6
ByLayer
  9
$CECOLOR
 62
   256
  9
$CELTSCALE
 40
1.0
  9
$DISPSILH
 70
     0
  9
$DIMSCALE
 40
1.0
  9
$DIMASZ
 40
2.5
  9
$DIMEXO
 40
0.625
  9
$DIMDLI
 40
3.75
  9
$DIMRND
 40
0.0
  9
$DIMDLE
 40
0.0
  9
$DIMEXE
 40
1.25
  9
$DIMTP
 40
0.0
  9
$DIMTM
 40
0.0
  9
$DIMTXT
 40
2.5
  9
$DIMCEN
 40
2.5
  9
$DIMTSZ
 40
0.0
  9
$DIMTOL
 70
     0
  9
$DIMLIM
 70
     0
  9
$DIMTIH
 70
     0
  9
$DIMTOH
 70
     0
  9
$DIMSE1
 70
     0
  9
$DIMSE2
 70
     0
  9
$DIMTAD
 70
     1
  9
$DIMZIN
 70
     8
  9
$DIMBLK
  1

  9
$DIMASO
 70
     1
  9
$DIMSHO
 70
     1
  9
$DIMPOST
  1

  9
$DIMAPOST
  1

  9
$DIMALT
 70
     0
  9
$DIMALTD
 70
     3
  9
$DIMALTF
 40
0.03937007874016
  9
$DIMLFAC
 40
1.0
  9
$DIMTOFL
 70
     1
  9
$DIMTVP
 40
0.0
  9
$DIMTIX
 70
     0
  9
$DIMSOXD
 70
     0
  9
$DIMSAH
 70
     0
  9
$DIMBLK1
  1

  9
$DIMBLK2
  1

  9
$DIMSTYLE
  2
ISO-25
  9
$DIMCLRD
 70
     0
  9
$DIMCLRE
 70
     0
  9
$DIMCLRT
 70
     0
  9
$DIMTFAC
 40
1.0
  9
$DIMGAP
 40
0.625
  9
$DIMJUST
 70
     0
  9
$DIMSD1
 70
     0
  9
$DIMSD2
 70
     0
  9
$DIMTOLJ
 70
     0
  9
$DIMTZIN
 70
     8
  9
$DIMALTZ
 70
     0
  9
$DIMALTTZ
 70
     0
  9
$DIMUPT
 70
     0
  9
$DIMDEC
 70
     2
  9
$DIMTDEC
 70
     2
  9
$DIMALTU
 70
     2
  9
$DIMALTTD
 70
     3
  9
$DIMTXSTY
  7
Standard
  9
$DIMAUNIT
 70
     0
  9
$DIMADEC
 70
     0
  9
$DIMALTRND
 40
0.0
  9
$DIMAZIN
 70
     0
  9
$DIMDSEP
 70
    44
  9
$DIMATFIT
 70
     3
  9
$DIMFRAC
 70
     0
  9
$DIMLDRBLK
  1

  9
$DIMLUNIT
 70
     2
  9
$DIMLWD
 70
    -2
  9
$DIMLWE
 70
    -2
  9
$DIMTMOVE
 70
     0
  9
$DIMFXL
 40
1.0
  9
$DIMFXLON
 70
     0
  9
$DIMJOGANG
 40
0.7853981633974483
  9
$DIMTFILL
 70
     0
  9
$DIMTFILLCLR
 70
     0
  9
$DIMARCSYM
 70
     0
  9
$DIMLTYPE
  6

  9
$DIMLTEX1
  6

  9
$DIMLTEX2
  6

  9
$DIMTXTDIRECTION
 70
     0
  9
$LUNITS
 70
     2
  9
$LUPREC
 70
     4
  9
$SKETCHINC
 40
1.0
  9
$FILLETRAD
 40
0.0
  9
$AUNITS
 70
     0
  9
$AUPREC
 70
     0
  9
$MENU
  1
.
  9
$ELEVATION
 40
0.0
  9
$PELEVATION
 40
0.0
  9
$THICKNESS
 40
0.0
  9
$LIMCHECK
 70
     0
  9
$CHAMFERA
 40
0.0
  9
$CHAMFERB
 40
0.0
  9
$CHAMFERC
 40
0.0
  9
$CHAMFERD
 40
0.0
  9
$SKPOLY
 70
     0
  9
$TDCREATE
 40
2459873.457573831
  9
$TDUCREATE
 40
2459873.082573831
  9
$TDUPDATE
 40
2459873.457573877
  9
$TDUUPDATE
 40
2459873.082573877
  9
$TDINDWG
 40
0.0000000116
  9
$TDUSRTIMER
 40
0.0000000116
  9
$USRTIMER
 70
     1
  9
$ANGBASE
 50
0.0
  9
$ANGDIR
 70
     0
  9
$PDMODE
 70
     0
  9
$PDSIZE
 40
0.0
  9
$PLINEWID
 40
0.0
  9
$SPLFRAME
 70
     0
  9
$SPLINETYPE
 70
     6
  9
$SPLINESEGS
 70
     8
  9
$HANDSEED
  5
9B
  9
$SURFTAB1
 70
     6
  9
$SURFTAB2
 70
     6
  9
$SURFTYPE
 70
     6
  9
$SURFU
 70
     6
  9
$SURFV
 70
     6
  9
$UCSBASE
  2

  9
$UCSNAME
  2

  9
$UCSORG
 10
0.0
 20
0.0
 30
0.0
  9
$UCSXDIR
 10
1.0
 20
0.0
 30
0.0
  9
$UCSYDIR
 10
0.0
 20
1.0
 30
0.0
  9
$UCSORTHOREF
  2

  9
$UCSORTHOVIEW
 70
     0
  9
$UCSORGTOP
 10
0.0
 20
0.0
 30
0.0
  9
$UCSORGBOTTOM
 10
0.0
 20
0.0
 30
0.0
  9
$UCSORGLEFT
 10
0.0
 20
0.0
 30
0.0
  9
$UCSORGRIGHT
 10
0.0
 20
0.0
 30
0.0
  9
$UCSORGFRONT
 10
0.0
 20
0.0
 30
0.0
  9
$UCSORGBACK
 10
0.0
 20
0.0
 30
0.0
  9
$PUCSBASE
  2

  9
$PUCSNAME
  2

  9
$PUCSORG
 10
0.0
 20
0.0
 30
0.0
  9
$PUCSXDIR
 10
1.0
 20
0.0
 30
0.0
  9
$PUCSYDIR
 10
0.0
 20
1.0
 30
0.0
  9
$PUCSORTHOREF
  2

  9
$PUCSORTHOVIEW
 70
     0
  9
$PUCSORGTOP
 10
0.0
 20
0.0
 30
0.0
  9
$PUCSORGBOTTOM
 10
0.0
 20
0.0
 30
0.0
  9
$PUCSORGLEFT
 10
0.0
 20
0.0
 30
0.0
  9
$PUCSORGRIGHT
 10
0.0
 20
0.0
 30
0.0
  9
$PUCSORGFRONT
 10
0.0
 20
0.0
 30
0.0
  9
$PUCSORGBACK
 10
0.0
 20
0.0
 30
0.0
  9
$USERI1
 70
     0
  9
$USERI2
 70
     0
  9
$USERI3
 70
     0
  9
$USERI4
 70
     0
  9
$USERI5
 70
     0
  9
$USERR1
 40
0.0
  9
$USERR2
 40
0.0
  9
$USERR3
 40
0.0
  9
$USERR4
 40
0.0
  9
$USERR5
 40
0.0
  9
$WORLDVIEW
 70
     1
  9
$SHADEDGE
 70
     3
  9
$SHADEDIF
 70
    70
  9
$TILEMODE
 70
     1
  9
$MAXACTVP
 70
    64
  9
$PINSBASE
 10
0.0
 20
0.0
 30
0.0
  9
$PLIMCHECK
 70
     0
  9
$PEXTMIN
 10
1.000000000000000E+20
 20
1.000000000000000E+20
 30
1.000000000000000E+20
  9
$PEXTMAX
 10
-1.000000000000000E+20
 20
-1.000000000000000E+20
 30
-1.000000000000000E+20
  9
$PLIMMIN
 10
0.0
 20
0.0
  9
$PLIMMAX
 10
420.0
 20
297.0
  9
$UNITMODE
 70
     0
  9
$VISRETAIN
 70
     1
  9
$PLINEGEN
 70
     0
  9
$PSLTSCALE
 70
     1
  9
$TREEDEPTH
 70
  3020
  9
$CMLSTYLE
  2
Standard
  9
$CMLJUST
 70
     0
  9
$CMLSCALE
 40
20.0
  9
$PROXYGRAPHICS
 70
     1
  9
$MEASUREMENT
 70
     1
  9
$CELWEIGHT
370
    -1
  9
$ENDCAPS
280
     0
  9
$JOINSTYLE
280
     0
  9
$LWDISPLAY
290
     0
  9
$INSUNITS
 70
     4
  9
$HYPERLINKBASE
  1

  9
$STYLESHEET
  1

  9
$XEDIT
290
     1
  9
$CEPSNTYPE
380
     0
  9
$PSTYLEMODE
290
     1
  9
$FINGERPRINTGUID
  2
{e78fcd6c-e79b-461d-be06-767490ec7d7a}
  9
$VERSIONGUID
  2
{FAEB1C32-E019-11D5-929B-00C0DF256EC4}
  9
$EXTNAMES
290
     1
  9
$PSVPSCALE
 40
0.0
  9
$OLESTARTUP
290
     0
  9
$SORTENTS
280
   127
  9
$INDEXCTL
280
     0
  9
$HIDETEXT
280
     1
  9
$XCLIPFRAME
280
     2
  9
$HALOGAP
280
     0
  9
$OBSCOLOR
 70
   257
  9
$OBSLTYPE
280
     0
  9
$INTERSECTIONDISPLAY
280
     0
  9
$INTERSECTIONCOLOR
 70
   257
  9
$DIMASSOC
280
     2
  9
$PROJECTNAME
  1

  9
$CAMERADISPLAY
290
     0
  9
$LENSLENGTH
 40
50.0
  9
$CAMERAHEIGHT
 40
0.0
  9
$STEPSPERSEC
 40
2.0
  9
$STEPSIZE
 40
6.0
  9
$3DDWFPREC
 40
2.0
  9
$PSOLWIDTH
 40
5.0
  9
$PSOLHEIGHT
 40
80.0
  9
$LOFTANG1
 40
1.570796326794897
  9
$LOFTANG2
 40
1.570796326794897
  9
$LOFTMAG1
 40
0.0
  9
$LOFTMAG2
 40
0.0
  9
$LOFTPARAM
 70
     7
  9
$LOFTNORMALS
280
     1
  9
$LATITUDE
 40
37.795
  9
$LONGITUDE
 40
-122.394
  9
$NORTHDIRECTION
 40
0.0
  9
$TIMEZONE
 70
 -8000
  9
$LIGHTGLYPHDISPLAY
280
     1
  9
$TILEMODELIGHTSYNCH
280
     1
  9
$CMATERIAL
347
44
  9
$SOLIDHIST
280
     0
  9
$SHOWHIST
280
     1
  9
$DWFFRAME
280
     2
  9
$DGNFRAME
280
     2
  9
$REALWORLDSCALE
290
     1
  9
$INTERFERECOLOR
 62
   256
  9
$CSHADOW
280
     0
  9
$SHADOWPLANELOCATION
 40
0.0
  0
ENDSEC
  0
SECTION
  2
CLASSES
  0
CLASS
  1
ACDBDICTIONARYWDFLT
  2
AcDbDictionaryWithDefault
  3
ObjectDBX Classes
 90
        0
 91
        3
280
     0
281
     0
  0
CLASS
  1
VISUALSTYLE
  2
AcDbVisualStyle
  3
ObjectDBX Classes
 90
     4095
 91
        3
280
     0
281
     0
  0
CLASS
  1
MATERIAL
  2
AcDbMaterial
  3
ObjectDBX Classes
 90
     1153
 91
        3
280
     0
281
     0
  0
CLASS
  1
SCALE
  2
AcDbScale
  3
ObjectDBX Classes
 90
     1153
 91
        3
280
     0
281
     0
  0
CLASS
  1
TABLESTYLE
  2
AcDbTableStyle
  3
ObjectDBX Classes
 90
     4095
 91
        3
280
     0
281
     0
  0
CLASS
  1
MLEADERSTYLE
  2
AcDbMLeaderStyle
  3
ACDB_MLEADERSTYLE_CLASS
 90
     4095
 91
        3
280
     0
281
     0
  0
CLASS
  1
SUN
  2
AcDbSun
  3
SCENEOE
 90
     1153
 91
        3
280
     0
281
     0
  0
CLASS
  1
DICTIONARYVAR
  2
AcDbDictionaryVar
  3
ObjectDBX Classes
 90
        0
 91
        3
280
     0
281
     0
  0
CLASS
  1
CELLSTYLEMAP
  2
AcDbCellStyleMap
  3
ObjectDBX Classes
 90
     1152
 91
        3
280
     0
281
     0
  0
ENDSEC
  0
SECTION
  2
TABLES
  0
TABLE
  2
VPORT
  5
8
330
0
100
AcDbSymbolTable
 70
     1
  0
VPORT
  5
29
330
8
100
AcDbSymbolTableRecord
100
AcDbViewportTableRecord
  2
*Active
 70
     0
 10
0.0
 20
0.0
 11
1.0
 21
1.0
 12
151.4998911674896
 22
108.0008027704874
 13
0.0
 23
0.0
 14
10.0
 24
10.0
 15
10.0
 25
10.0
 16
0.0
 26
0.0
 36
1.0
 17
0.0
 27
0.0
 37
0.0
 40
237.6017660950723
 41
1.402766343222857
 42
50.0
 43
0.0
 44
0.0
 50
0.0
 51
0.0
 71
     0
 72
 10000
 73
     1
 74
     3
 75
     0
 76
     0
 77
     0
 78
     0
281
     0
 65
     1
110
0.0
120
0.0
130
0.0
111
1.0
121
0.0
131
0.0
112
0.0
122
1.0
132
0.0
 79
     0
146
0.0
348
2F
 60
     3
 61
     5
292
     1
282
     1
141
0.0
142
0.0
 63
   250
361
5D
  0
ENDTAB
  0
TABLE
  2
LTYPE
  5
5
330
0
100
AcDbSymbolTable
 70
     1
  0
LTYPE
  5
14
330
5
100
AcDbSymbolTableRecord
100
AcDbLinetypeTableRecord
  2
ByBlock
 70
     0
  3

 72
    65
 73
     0
 40
0.0
  0
LTYPE
  5
15
330
5
100
AcDbSymbolTableRecord
100
AcDbLinetypeTableRecord
  2
ByLayer
 70
     0
  3

 72
    65
 73
     0
 40
0.0
  0
LTYPE
  5
16
330
5
100
AcDbSymbolTableRecord
100
AcDbLinetypeTableRecord
  2
Continuous
 70
     0
  3
Solid line
 72
    65
 73
     0
 40
0.0
  0
ENDTAB
  0
TABLE
  2
LAYER
  5
2
330
0
100
AcDbSymbolTable
 70
     3
  0
LAYER
  5
10
330
2
100
AcDbSymbolTableRecord
100
AcDbLayerTableRecord
  2
0
 70
     0
 62
     7
  6
Continuous
370
    -3
390
F
347
46
348
0
  0
LAYER
  5
5F
330
2
100
AcDbSymbolTableRecord
100
AcDbLayerTableRecord
  2
外枠
 70
     0
 62
     7
  6
Continuous
370
    -3
390
F
347
46
348
0
  0
LAYER
  5
60
330
2
100
AcDbSymbolTableRecord
100
AcDbLayerTableRecord
  2
ISS138金台
 70
     0
 62
     7
  6
Continuous
370
    -3
390
F
347
46
348
0
  0
ENDTAB
  0
TABLE
  2
STYLE
  5
3
330
0
100
AcDbSymbolTable
 70
     2
  0
STYLE
  5
11
330
3
100
AcDbSymbolTableRecord
100
AcDbTextStyleTableRecord
  2
Standard
 70
     0
 40
0.0
 41
1.0
 50
0.0
 71
     0
 42
2.5
  3

  4

  0
STYLE
  5
5E
330
3
100
AcDbSymbolTableRecord
100
AcDbTextStyleTableRecord
  2
MS Gothic
 70
     0
 40
1.0
 41
1.0
 50
0.0
 71
     0
 42
2.5
  3
msgothic.ttc
  4

1001
ACAD
1000
MS Gothic
1071
    32817
  0
ENDTAB
  0
TABLE
  2
VIEW
  5
6
330
0
100
AcDbSymbolTable
 70
     0
  0
ENDTAB
  0
TABLE
  2
UCS
  5
7
330
0
100
AcDbSymbolTable
 70
     0
  0
ENDTAB
  0
TABLE
  2
APPID
  5
9
330
0
100
AcDbSymbolTable
 70
     1
  0
APPID
  5
12
330
9
100
AcDbSymbolTableRecord
100
AcDbRegAppTableRecord
  2
ACAD
 70
     0
  0
ENDTAB
  0
TABLE
  2
DIMSTYLE
  5
A
330
0
100
AcDbSymbolTable
 70
     1
100
AcDbDimStyleTable
  0
DIMSTYLE
105
27
330
A
100
AcDbSymbolTableRecord
100
AcDbDimStyleTableRecord
  2
ISO-25
 70
     0
 41
2.5
 42
0.625
 43
3.75
 44
1.25
 73
     0
 74
     0
 77
     1
 78
     8
140
2.5
141
2.5
143
0.03937007874016
147
0.625
171
     3
172
     1
178
     0
271
     2
272
     2
274
     3
278
    44
283
     0
284
     8
340
11
  0
ENDTAB
  0
TABLE
  2
BLOCK_RECORD
  5
1
330
0
100
AcDbSymbolTable
 70
     1
  0
BLOCK_RECORD
  5
1F
330
1
100
AcDbSymbolTableRecord
100
AcDbBlockTableRecord
  2
*Model_Space
340
22
 70
     0
280
     1
281
     0
  0
BLOCK_RECORD
  5
1B
330
1
100
AcDbSymbolTableRecord
100
AcDbBlockTableRecord
  2
*Paper_Space
340
1E
 70
     0
280
     1
281
     0
  0
BLOCK_RECORD
  5
23
330
1
100
AcDbSymbolTableRecord
100
AcDbBlockTableRecord
  2
*Paper_Space0
340
26
 70
     0
280
     1
281
     0
  0
ENDTAB
  0
ENDSEC
  0
SECTION
  2
BLOCKS
  0
BLOCK
  5
20
330
1F
100
AcDbEntity
  8
0
100
AcDbBlockBegin
  2
*Model_Space
 70
     0
 10
0.0
 20
0.0
 30
0.0
  3
*Model_Space
  1

  0
ENDBLK
  5
21
330
1F
100
AcDbEntity
  8
0
100
AcDbBlockEnd
  0
BLOCK
  5
1C
330
1B
100
AcDbEntity
 67
     1
  8
0
100
AcDbBlockBegin
  2
*Paper_Space
 70
     0
 10
0.0
 20
0.0
 30
0.0
  3
*Paper_Space
  1

  0
ENDBLK
  5
1D
330
1B
100
AcDbEntity
 67
     1
  8
0
100
AcDbBlockEnd
  0
BLOCK
  5
24
330
23
100
AcDbEntity
  8
0
100
AcDbBlockBegin
  2
*Paper_Space0
 70
     0
 10
0.0
 20
0.0
 30
0.0
  3
*Paper_Space0
  1

  0
ENDBLK
  5
25
330
23
100
AcDbEntity
  8
0
100
AcDbBlockEnd
  0
ENDSEC
  0
SECTION
  2
ENTITIES
  0
LWPOLYLINE
  5
61
330
1F
100
AcDbEntity
  8
外枠
  6
Continuous
 62
   250
420
  2367521
370
   100
100
AcDbPolyline
 90
        5
 70
     0
 43
0.0
 10
281.9999662644599
 20
13.29407825637392
 10
20.99981607051935
 20
13.29407825637392
 10
20.99981607051935
 20
193.0018900389566
 10
281.9999662644599
 20
193.0018900389566
 10
281.9999662644599
 20
13.29407825637392
  0
LINE
  5
62
330
1F
100
AcDbEntity
  8
外枠
  6
Continuous
 62
   250
420
  2367521
370
    25
100
AcDbLine
 10
223.3097080177524
 20
174.0786160074276
 30
0.0
 11
281.9999232007669
 21
174.0786160074276
 31
0.0
  0
LINE
  5
63
330
1F
100
AcDbEntity
  8
外枠
  6
Continuous
 62
   250
420
  2367521
370
    25
100
AcDbLine
 10
223.3097080177524
 20
50.37109023844297
 30
0.0
 11
281.9999232007669
 21
50.37109023844297
 31
0.0
  0
LINE
  5
64
330
1F
100
AcDbEntity
  8
外枠
  6
Continuous
 62
   250
420
  2367521
370
    25
100
AcDbLine
 10
223.3097080177524
 20
36.25997933925949
 30
0.0
 11
281.9999232007669
 21
36.25997933925949
 31
0.0
  0
LINE
  5
65
330
1F
100
AcDbEntity
  8
外枠
  6
Continuous
 62
   250
420
  2367521
370
    50
100
AcDbLine
 10
223.0158413772006
 20
193.3637327187979
 30
0.0
 11
223.0158413772006
 21
13.29396655992039
 31
0.0
  0
TEXT
  5
66
330
1F
100
AcDbEntity
  8
外枠
  6
Continuous
 62
   250
420
  2367521
100
AcDbText
 10
224.7190965599536
 20
186.6888051931772
 30
0.0
 40
2.688166626294454
  1
品名：
 41
0.974166170756022
  7
MS Gothic
100
AcDbText
  0
TEXT
  5
67
330
1F
100
AcDbEntity
  8
外枠
  6
Continuous
 62
   250
420
  2367521
100
AcDbText
 10
224.7190965599536
 20
168.1080059455944
 30
0.0
 40
2.688166626294454
  1
仕様：
 41
0.9978878657023111
  7
MS Gothic
100
AcDbText
  0
TEXT
  5
68
330
1F
100
AcDbEntity
  8
外枠
  6
Continuous
 62
   250
420
  2367521
100
AcDbText
 10
224.7190965599536
 20
44.16660664327048
 30
0.0
 40
2.688166626294454
  1
縮尺：
 41
0.9939999262491861
  7
MS Gothic
100
AcDbText
  0
TEXT
  5
69
330
1F
100
AcDbEntity
  8
外枠
  6
Continuous
 62
   250
420
  2367521
100
AcDbText
 10
250.2379519709696
 20
40.59738467878129
 30
0.0
 40
2.150533301035563
  1
1/1
 41
1.000003814697266
  7
MS Gothic
100
AcDbText
  0
TEXT
  5
6A
330
1F
100
AcDbEntity
  8
外枠
  6
Continuous
 62
   250
420
  2367521
100
AcDbText
 10
232.7757967427735
 20
181.9845273775436
 30
0.0
 40
2.688166626294454
  1
アドロック R-4510
 41
0.9970379100126376
  7
MS Gothic
100
AcDbText
  0
TEXT
  5
6B
330
1F
100
AcDbEntity
  8
外枠
  6
Continuous
 62
   250
420
  2367521
100
AcDbText
 10
226.1633020978884
 20
24.25683874973963
 30
0.0
 40
2.553758294979732
  1
ヤスダインテリアサプライ株式会社
 41
1.0194908945184
  7
MS Gothic
100
AcDbText
  0
TEXT
  5
6C
330
1F
100
AcDbEntity
  8
外枠
  6
Continuous
 62
   250
420
  2367521
100
AcDbText
 10
227.7635273953072
 20
161.7763665048245
 30
0.0
 40
2.150533301035563
  1
材質
 41
1.028502464294433
  7
MS Gothic
100
AcDbText
  0
TEXT
  5
6D
330
1F
100
AcDbEntity
  8
外枠
  6
Continuous
 62
   250
420
  2367521
100
AcDbText
 10
232.7757967427735
 20
156.199681315683
 30
0.0
 40
2.016124969720841
  1
軟質塩ビ
 41
1.052407201131185
  7
MS Gothic
100
AcDbText
  0
HATCH
  5
6E
330
1F
100
AcDbEntity
  8
ISS138金台
  6
Continuous
 62
   254
420
 13816532
370
    50
100
AcDbHatch
 10
0.0
 20
0.0
 30
0.0
210
0.0
220
0.0
230
1.0
  2
SOLID
 70
     1
 71
     0
 91
        1
 92
        3
 72
     0
 73
     1
 93
      164
 10
98.50011236819734
 20
103.4565711696268
 10
99.65017135157622
 20
104.0827495625935
 10
99.62137250692953
 20
104.1540092084688
 10
99.60007751077582
 20
104.226280851128
 10
99.58613564018984
 20
104.299101555872
 10
99.5794069381696
 20
104.3719976220786
 10
99.57974068178979
 20
104.4444522854327
 10
99.58697538220198
 20
104.5159918453121
 10
99.60093878463441
 20
104.5861318351712
 10
99.6215016980083
 20
104.6543770225415
 10
99.64851339939842
 20
104.720275238647
 10
99.68180163403304
 20
104.7833097191728
 10
99.72123721083335
 20
104.8430067634965
 10
99.76664787502764
 20
104.8988819050727
 10
99.81788290369069
 20
104.9504399114327
 10
99.87480233982043
 20
104.9972070819543
 10
99.93724469456842
 20
105.0386881841688
 10
100.0050592450094
 20
105.0744095174539
 10
100.0050592450094
 20
105.0744095174539
 10
100.0762973590382
 20
105.1030361073289
 10
100.1486766609297
 20
105.1239542961695
 10
100.2216803863687
 20
105.1373363387473
 10
100.2948025369632
 20
105.1433760216807
 10
100.367569412091
 20
105.1422348338181
 10
100.4394534815138
 20
105.1341173277008
 10
100.5099918105326
 20
105.1192172899472
 10
100.5786353370624
 20
105.0976854434824
 10
100.6449211264044
 20
105.0697371067711
 10
100.7083324142433
 20
105.0355230027384
 10
100.7683847340336
 20
104.995247683926
 10
100.8245613214604
 20
104.9490941710287
 10
100.8763777099779
 20
104.8972347188182
 10
100.9233171352712
 20
104.8398631139126
 10
100.9648951307948
 20
104.7771516110839
 10
101.0006056981567
 20
104.7092832310267
 10
104.0637692399347
 20
106.6047639730944
 10
104.0350242249042
 20
106.6758836619677
 10
104.0139983768313
 20
106.7481660705501
 10
104.0005302068676
 20
106.8210836686032
 10
103.9944259283948
 20
106.8941519895816
 10
103.9954917547948
 20
106.9668865669397
 10
104.0035554312959
 20
107.0387598704393
 10
104.0184447031263
 20
107.1092766676116
 10
104.0399657836679
 20
107.1779417259879
 10
104.0679248863024
 20
107.2442490471763
 10
104.1021497562583
 20
107.3076926327849
 10
104.1424681387636
 20
107.367777250345
 10
104.1886862472004
 20
107.4240184333111
 10
104.2406210608735
 20
107.4758778855216
 10
104.2980895590881
 20
107.5228819063543
 10
104.3609087211492
 20
107.5645244974173
 10
104.4288955263619
 20
107.6002996603186
 10
104.4288955263619
 20
107.6002996603186
 10
104.5000798107746
 20
107.6290446753491
 10
104.5724160489731
 20
107.6500597574987
 10
104.6453874766424
 20
107.663549459309
 10
104.7184988613137
 20
107.6696537377817
 10
104.7912549705183
 20
107.6685879113817
 10
104.8631605717876
 20
107.6605134689574
 10
104.9336989008063
 20
107.6456349630502
 10
105.0023747251059
 20
107.6241031165854
 10
105.0687035781407
 20
107.5961440139508
 10
105.1321579296725
 20
107.5619083780718
 10
105.1922533131559
 20
107.5216007614896
 10
105.248494496122
 20
107.4753826530529
 10
105.3003647142557
 20
107.4234478393798
 10
105.3473687350884
 20
107.3659793411652
 10
105.3890113261514
 20
107.3031601791041
 10
105.4247864890527
 20
107.2351733738914
 10
108.6488252216926
 20
109.1821582927029
 10
108.6200156111227
 20
109.2542684465136
 10
108.5989574652801
 20
109.3293069314435
 10
108.5854462316234
 20
109.4065631965592
 10
108.5793204213041
 20
109.4852297976185
 10
108.5803862477042
 20
109.5645746518413
 10
108.5884606901285
 20
109.6438333786783
 10
108.6033499619589
 20
109.7222523635032
 10
108.6248818084237
 20
109.7990779916897
 10
108.6528624429047
 20
109.873535116765
 10
108.6871196106303
 20
109.9448916559494
 10
108.7274595249821
 20
110.0123724627701
 10
108.7736883993421
 20
110.075223922601
 10
108.8256447448617
 20
110.1326816548923
 10
108.8831240089995
 20
110.1840028109412
 10
108.9459539369839
 20
110.2284230101981
 10
109.0139515081197
 20
110.2651778721136
 10
109.0139515081197
 20
110.2651778721136
 10
109.0850819629163
 20
110.2929324222067
 10
109.1573428396522
 20
110.3111914280089
 10
109.2302819695518
 20
110.3203532286797
 10
109.3033502905301
 20
110.3208592270716
 10
109.3760741019651
 20
110.3131723578837
 10
109.4479474054646
 20
110.2977124921219
 10
109.5184642026369
 20
110.2749317985621
 10
109.5871292610132
 20
110.2452501482104
 10
109.6534258162784
 20
110.2091197098424
 10
109.7168801678102
 20
110.166992652234
 10
109.7769755512935
 20
110.1192888463912
 10
109.8331952024132
 20
110.0664496951665
 10
109.8850654205469
 20
110.0089166014125
 10
109.9320694413796
 20
109.947141733905
 10
109.9737120324426
 20
109.8815341977267
 10
110.0094871953439
 20
109.8125676934999
 10
113.3538243541827
 20
111.8537436746717
 10
113.3250793391522
 20
111.9249817887006
 10
113.3040750229257
 20
111.9973503246688
 10
113.2906283848085
 20
112.0703540501078
 10
113.2845671700286
 20
112.1434869666256
 10
113.2856868260448
 20
112.2162646076766
 10
113.2938150980853
 20
112.2881594430227
 10
113.3087474336086
 20
112.3586870061182
 10
113.3303223437664
 20
112.4273520644945
 10
113.3583245100939
 20
112.4936593856829
 10
113.3926032096658
 20
112.5570922053682
 10
113.4329431240177
 20
112.6171768229283
 10
113.4791827643009
 20
112.6733857081247
 10
113.531117577974
 20
112.725234394412
 10
113.5885753102654
 20
112.7722276493215
 10
113.6513621745568
 20
112.8138594744612
 10
113.7192951501533
 20
112.8496346373625
 10
113.7192951501533
 20
112.8496346373625
 10
113.7904148390266
 20
112.8783904183163
 10
113.8626864816858
 20
112.8993947345427
 10
113.9356256115853
 20
112.91284137266
 10
114.0086939325637
 20
112.9189456511328
 10
114.0814177439986
 20
112.9178475269631
 10
114.1532910474982
 20
112.9097515526923
 10
114.2238078446705
 20
112.8948515149386
 10
114.2924729030468
 20
112.8733089025506
 10
114.3587802242352
 20
112.8453390339928
 10
114.4222238098438
 20
112.8110926321905
 10
114.4823191933271
 20
112.7707742496851
 10
114.53854961037
 20
112.7245669071716
 10
114.5904198285037
 20
112.6726536253449
 10
114.6374238493364
 20
112.6152174249
 10
114.6790664403994
 20
112.5524413265318
 10
114.7148416033007
 20
112.4845083509354
 10
116.9235784136617
 20
113.7206408905574
 10
118.3805523365502
 20
114.4932250735615
 10
116.3079829232326
 20
104.493383406524
 10
143.3177033834727
 20
103.6996334184449
 10
143.3177033834727
 20
102.9940778734858
 10
112.515621869077
 20
102.9940778734858
 10
112.3170013513623
 20
102.795823397161
 10
112.1187468750375
 20
102.9940778734858
 10
110.5090152674044
 20
102.9940778734858
 10
110.3107607910796
 20
102.795823397161
 10
110.1121402733649
 20
102.9940778734858
 10
108.5246402972067
 20
102.9940778734858
 10
108.3263858208819
 20
102.795823397161
 10
108.1058997130822
 20
102.9940778734858
 10
106.518399736924
 20
102.9940778734858
 10
106.3197792192093
 20
102.795823397161
 10
106.1215247428845
 20
102.9940778734858
 10
104.5117931352514
 20
102.9940778734858
 10
104.3135386589266
 20
102.795823397161
 10
104.1149181412119
 20
102.9940778734858
 10
102.5055525749687
 20
102.9940778734858
 10
102.306932057254
 20
102.795823397161
 10
102.1086775809292
 20
102.9940778734858
 10
100.5211776047711
 20
102.9940778734858
 10
100.3225570870563
 20
102.795823397161
 10
100.1243026107315
 20
102.9940778734858
 10
98.31631652677365
 20
102.9940778734858
 97
        0
 75
     1
 76
     1
 98
        0
  0
LWPOLYLINE
  5
6F
330
1F
100
AcDbEntity
  8
ISS138金台
  6
Continuous
 62
   254
420
 13816532
370
    50
100
AcDbPolyline
 90
      165
 70
     0
 43
0.0
 10
98.50011236819734
 20
103.4565711696268
 10
99.65017135157622
 20
104.0827495625935
 10
99.62137250692953
 20
104.1540092084688
 10
99.60007751077582
 20
104.226280851128
 10
99.58613564018984
 20
104.299101555872
 10
99.5794069381696
 20
104.3719976220786
 10
99.57974068178979
 20
104.4444522854327
 10
99.58697538220198
 20
104.5159918453121
 10
99.60093878463441
 20
104.5861318351712
 10
99.6215016980083
 20
104.6543770225415
 10
99.64851339939842
 20
104.720275238647
 10
99.68180163403304
 20
104.7833097191728
 10
99.72123721083335
 20
104.8430067634965
 10
99.76664787502764
 20
104.8988819050727
 10
99.81788290369069
 20
104.9504399114327
 10
99.87480233982043
 20
104.9972070819543
 10
99.93724469456842
 20
105.0386881841688
 10
100.0050592450094
 20
105.0744095174539
 10
100.0050592450094
 20
105.0744095174539
 10
100.0762973590382
 20
105.1030361073289
 10
100.1486766609297
 20
105.1239542961695
 10
100.2216803863687
 20
105.1373363387473
 10
100.2948025369632
 20
105.1433760216807
 10
100.367569412091
 20
105.1422348338181
 10
100.4394534815138
 20
105.1341173277008
 10
100.5099918105326
 20
105.1192172899472
 10
100.5786353370624
 20
105.0976854434824
 10
100.6449211264044
 20
105.0697371067711
 10
100.7083324142433
 20
105.0355230027384
 10
100.7683847340336
 20
104.995247683926
 10
100.8245613214604
 20
104.9490941710287
 10
100.8763777099779
 20
104.8972347188182
 10
100.9233171352712
 20
104.8398631139126
 10
100.9648951307948
 20
104.7771516110839
 10
101.0006056981567
 20
104.7092832310267
 10
104.0637692399347
 20
106.6047639730944
 10
104.0350242249042
 20
106.6758836619677
 10
104.0139983768313
 20
106.7481660705501
 10
104.0005302068676
 20
106.8210836686032
 10
103.9944259283948
 20
106.8941519895816
 10
103.9954917547948
 20
106.9668865669397
 10
104.0035554312959
 20
107.0387598704393
 10
104.0184447031263
 20
107.1092766676116
 10
104.0399657836679
 20
107.1779417259879
 10
104.0679248863024
 20
107.2442490471763
 10
104.1021497562583
 20
107.3076926327849
 10
104.1424681387636
 20
107.367777250345
 10
104.1886862472004
 20
107.4240184333111
 10
104.2406210608735
 20
107.4758778855216
 10
104.2980895590881
 20
107.5228819063543
 10
104.3609087211492
 20
107.5645244974173
 10
104.4288955263619
 20
107.6002996603186
 10
104.4288955263619
 20
107.6002996603186
 10
104.5000798107746
 20
107.6290446753491
 10
104.5724160489731
 20
107.6500597574987
 10
104.6453874766424
 20
107.663549459309
 10
104.7184988613137
 20
107.6696537377817
 10
104.7912549705183
 20
107.6685879113817
 10
104.8631605717876
 20
107.6605134689574
 10
104.9336989008063
 20
107.6456349630502
 10
105.0023747251059
 20
107.6241031165854
 10
105.0687035781407
 20
107.5961440139508
 10
105.1321579296725
 20
107.5619083780718
 10
105.1922533131559
 20
107.5216007614896
 10
105.248494496122
 20
107.4753826530529
 10
105.3003647142557
 20
107.4234478393798
 10
105.3473687350884
 20
107.3659793411652
 10
105.3890113261514
 20
107.3031601791041
 10
105.4247864890527
 20
107.2351733738914
 10
108.6488252216926
 20
109.1821582927029
 10
108.6200156111227
 20
109.2542684465136
 10
108.5989574652801
 20
109.3293069314435
 10
108.5854462316234
 20
109.4065631965592
 10
108.5793204213041
 20
109.4852297976185
 10
108.5803862477042
 20
109.5645746518413
 10
108.5884606901285
 20
109.6438333786783
 10
108.6033499619589
 20
109.7222523635032
 10
108.6248818084237
 20
109.7990779916897
 10
108.6528624429047
 20
109.873535116765
 10
108.6871196106303
 20
109.9448916559494
 10
108.7274595249821
 20
110.0123724627701
 10
108.7736883993421
 20
110.075223922601
 10
108.8256447448617
 20
110.1326816548923
 10
108.8831240089995
 20
110.1840028109412
 10
108.9459539369839
 20
110.2284230101981
 10
109.0139515081197
 20
110.2651778721136
 10
109.0139515081197
 20
110.2651778721136
 10
109.0850819629163
 20
110.2929324222067
 10
109.1573428396522
 20
110.3111914280089
 10
109.2302819695518
 20
110.3203532286797
 10
109.3033502905301
 20
110.3208592270716
 10
109.3760741019651
 20
110.3131723578837
 10
109.4479474054646
 20
110.2977124921219
 10
109.5184642026369
 20
110.2749317985621
 10
109.5871292610132
 20
110.2452501482104
 10
109.6534258162784
 20
110.2091197098424
 10
109.7168801678102
 20
110.166992652234
 10
109.7769755512935
 20
110.1192888463912
 10
109.8331952024132
 20
110.0664496951665
 10
109.8850654205469
 20
110.0089166014125
 10
109.9320694413796
 20
109.947141733905
 10
109.9737120324426
 20
109.8815341977267
 10
110.0094871953439
 20
109.8125676934999
 10
113.3538243541827
 20
111.8537436746717
 10
113.3250793391522
 20
111.9249817887006
 10
113.3040750229257
 20
111.9973503246688
 10
113.2906283848085
 20
112.0703540501078
 10
113.2845671700286
 20
112.1434869666256
 10
113.2856868260448
 20
112.2162646076766
 10
113.2938150980853
 20
112.2881594430227
 10
113.3087474336086
 20
112.3586870061182
 10
113.3303223437664
 20
112.4273520644945
 10
113.3583245100939
 20
112.4936593856829
 10
113.3926032096658
 20
112.5570922053682
 10
113.4329431240177
 20
112.6171768229283
 10
113.4791827643009
 20
112.6733857081247
 10
113.531117577974
 20
112.725234394412
 10
113.5885753102654
 20
112.7722276493215
 10
113.6513621745568
 20
112.8138594744612
 10
113.7192951501533
 20
112.8496346373625
 10
113.7192951501533
 20
112.8496346373625
 10
113.7904148390266
 20
112.8783904183163
 10
113.8626864816858
 20
112.8993947345427
 10
113.9356256115853
 20
112.91284137266
 10
114.0086939325637
 20
112.9189456511328
 10
114.0814177439986
 20
112.9178475269631
 10
114.1532910474982
 20
112.9097515526923
 10
114.2238078446705
 20
112.8948515149386
 10
114.2924729030468
 20
112.8733089025506
 10
114.3587802242352
 20
112.8453390339928
 10
114.4222238098438
 20
112.8110926321905
 10
114.4823191933271
 20
112.7707742496851
 10
114.53854961037
 20
112.7245669071716
 10
114.5904198285037
 20
112.6726536253449
 10
114.6374238493364
 20
112.6152174249
 10
114.6790664403994
 20
112.5524413265318
 10
114.7148416033007
 20
112.4845083509354
 10
116.9235784136617
 20
113.7206408905574
 10
118.3805523365502
 20
114.4932250735615
 10
116.3079829232326
 20
104.493383406524
 10
143.3177033834727
 20
103.6996334184449
 10
143.3177033834727
 20
102.9940778734858
 10
112.515621869077
 20
102.9940778734858
 10
112.3170013513623
 20
102.795823397161
 10
112.1187468750375
 20
102.9940778734858
 10
110.5090152674044
 20
102.9940778734858
 10
110.3107607910796
 20
102.795823397161
 10
110.1121402733649
 20
102.9940778734858
 10
108.5246402972067
 20
102.9940778734858
 10
108.3263858208819
 20
102.795823397161
 10
108.1058997130822
 20
102.9940778734858
 10
106.518399736924
 20
102.9940778734858
 10
106.3197792192093
 20
102.795823397161
 10
106.1215247428845
 20
102.9940778734858
 10
104.5117931352514
 20
102.9940778734858
 10
104.3135386589266
 20
102.795823397161
 10
104.1149181412119
 20
102.9940778734858
 10
102.5055525749687
 20
102.9940778734858
 10
102.306932057254
 20
102.795823397161
 10
102.1086775809292
 20
102.9940778734858
 10
100.5211776047711
 20
102.9940778734858
 10
100.3225570870563
 20
102.795823397161
 10
100.1243026107315
 20
102.9940778734858
 10
98.31631652677365
 20
102.9940778734858
 10
98.50011236819734
 20
103.4565711696268
  0
LWPOLYLINE
  5
70
330
1F
100
AcDbEntity
  8
ISS138金台
  6
Continuous
 62
   250
420
  2367521
370
    25
100
AcDbPolyline
 90
      165
 70
     0
 43
0.0
 10
98.50011236819734
 20
103.4565711696268
 10
99.65017135157622
 20
104.0827495625935
 10
99.62137250692953
 20
104.1540092084688
 10
99.60007751077582
 20
104.226280851128
 10
99.58613564018984
 20
104.299101555872
 10
99.5794069381696
 20
104.3719976220786
 10
99.57974068178979
 20
104.4444522854327
 10
99.58697538220198
 20
104.5159918453121
 10
99.60093878463441
 20
104.5861318351712
 10
99.6215016980083
 20
104.6543770225415
 10
99.64851339939842
 20
104.720275238647
 10
99.68180163403304
 20
104.7833097191728
 10
99.72123721083335
 20
104.8430067634965
 10
99.76664787502764
 20
104.8988819050727
 10
99.81788290369069
 20
104.9504399114327
 10
99.87480233982043
 20
104.9972070819543
 10
99.93724469456842
 20
105.0386881841688
 10
100.0050592450094
 20
105.0744095174539
 10
100.0050592450094
 20
105.0744095174539
 10
100.0762973590382
 20
105.1030361073289
 10
100.1486766609297
 20
105.1239542961695
 10
100.2216803863687
 20
105.1373363387473
 10
100.2948025369632
 20
105.1433760216807
 10
100.367569412091
 20
105.1422348338181
 10
100.4394534815138
 20
105.1341173277008
 10
100.5099918105326
 20
105.1192172899472
 10
100.5786353370624
 20
105.0976854434824
 10
100.6449211264044
 20
105.0697371067711
 10
100.7083324142433
 20
105.0355230027384
 10
100.7683847340336
 20
104.995247683926
 10
100.8245613214604
 20
104.9490941710287
 10
100.8763777099779
 20
104.8972347188182
 10
100.9233171352712
 20
104.8398631139126
 10
100.9648951307948
 20
104.7771516110839
 10
101.0006056981567
 20
104.7092832310267
 10
104.0637692399347
 20
106.6047639730944
 10
104.0350242249042
 20
106.6758836619677
 10
104.0139983768313
 20
106.7481660705501
 10
104.0005302068676
 20
106.8210836686032
 10
103.9944259283948
 20
106.8941519895816
 10
103.9954917547948
 20
106.9668865669397
 10
104.0035554312959
 20
107.0387598704393
 10
104.0184447031263
 20
107.1092766676116
 10
104.0399657836679
 20
107.1779417259879
 10
104.0679248863024
 20
107.2442490471763
 10
104.1021497562583
 20
107.3076926327849
 10
104.1424681387636
 20
107.367777250345
 10
104.1886862472004
 20
107.4240184333111
 10
104.2406210608735
 20
107.4758778855216
 10
104.2980895590881
 20
107.5228819063543
 10
104.3609087211492
 20
107.5645244974173
 10
104.4288955263619
 20
107.6002996603186
 10
104.4288955263619
 20
107.6002996603186
 10
104.5000798107746
 20
107.6290446753491
 10
104.5724160489731
 20
107.6500597574987
 10
104.6453874766424
 20
107.663549459309
 10
104.7184988613137
 20
107.6696537377817
 10
104.7912549705183
 20
107.6685879113817
 10
104.8631605717876
 20
107.6605134689574
 10
104.9336989008063
 20
107.6456349630502
 10
105.0023747251059
 20
107.6241031165854
 10
105.0687035781407
 20
107.5961440139508
 10
105.1321579296725
 20
107.5619083780718
 10
105.1922533131559
 20
107.5216007614896
 10
105.248494496122
 20
107.4753826530529
 10
105.3003647142557
 20
107.4234478393798
 10
105.3473687350884
 20
107.3659793411652
 10
105.3890113261514
 20
107.3031601791041
 10
105.4247864890527
 20
107.2351733738914
 10
108.6488252216926
 20
109.1821582927029
 10
108.6200156111227
 20
109.2542684465136
 10
108.5989574652801
 20
109.3293069314435
 10
108.5854462316234
 20
109.4065631965592
 10
108.5793204213041
 20
109.4852297976185
 10
108.5803862477042
 20
109.5645746518413
 10
108.5884606901285
 20
109.6438333786783
 10
108.6033499619589
 20
109.7222523635032
 10
108.6248818084237
 20
109.7990779916897
 10
108.6528624429047
 20
109.873535116765
 10
108.6871196106303
 20
109.9448916559494
 10
108.7274595249821
 20
110.0123724627701
 10
108.7736883993421
 20
110.075223922601
 10
108.8256447448617
 20
110.1326816548923
 10
108.8831240089995
 20
110.1840028109412
 10
108.9459539369839
 20
110.2284230101981
 10
109.0139515081197
 20
110.2651778721136
 10
109.0139515081197
 20
110.2651778721136
 10
109.0850819629163
 20
110.2929324222067
 10
109.1573428396522
 20
110.3111914280089
 10
109.2302819695518
 20
110.3203532286797
 10
109.3033502905301
 20
110.3208592270716
 10
109.3760741019651
 20
110.3131723578837
 10
109.4479474054646
 20
110.2977124921219
 10
109.5184642026369
 20
110.2749317985621
 10
109.5871292610132
 20
110.2452501482104
 10
109.6534258162784
 20
110.2091197098424
 10
109.7168801678102
 20
110.166992652234
 10
109.7769755512935
 20
110.1192888463912
 10
109.8331952024132
 20
110.0664496951665
 10
109.8850654205469
 20
110.0089166014125
 10
109.9320694413796
 20
109.947141733905
 10
109.9737120324426
 20
109.8815341977267
 10
110.0094871953439
 20
109.8125676934999
 10
113.3538243541827
 20
111.8537436746717
 10
113.3250793391522
 20
111.9249817887006
 10
113.3040750229257
 20
111.9973503246688
 10
113.2906283848085
 20
112.0703540501078
 10
113.2845671700286
 20
112.1434869666256
 10
113.2856868260448
 20
112.2162646076766
 10
113.2938150980853
 20
112.2881594430227
 10
113.3087474336086
 20
112.3586870061182
 10
113.3303223437664
 20
112.4273520644945
 10
113.3583245100939
 20
112.4936593856829
 10
113.3926032096658
 20
112.5570922053682
 10
113.4329431240177
 20
112.6171768229283
 10
113.4791827643009
 20
112.6733857081247
 10
113.531117577974
 20
112.725234394412
 10
113.5885753102654
 20
112.7722276493215
 10
113.6513621745568
 20
112.8138594744612
 10
113.7192951501533
 20
112.8496346373625
 10
113.7192951501533
 20
112.8496346373625
 10
113.7904148390266
 20
112.8783904183163
 10
113.8626864816858
 20
112.8993947345427
 10
113.9356256115853
 20
112.91284137266
 10
114.0086939325637
 20
112.9189456511328
 10
114.0814177439986
 20
112.9178475269631
 10
114.1532910474982
 20
112.9097515526923
 10
114.2238078446705
 20
112.8948515149386
 10
114.2924729030468
 20
112.8733089025506
 10
114.3587802242352
 20
112.8453390339928
 10
114.4222238098438
 20
112.8110926321905
 10
114.4823191933271
 20
112.7707742496851
 10
114.53854961037
 20
112.7245669071716
 10
114.5904198285037
 20
112.6726536253449
 10
114.6374238493364
 20
112.6152174249
 10
114.6790664403994
 20
112.5524413265318
 10
114.7148416033007
 20
112.4845083509354
 10
116.9235784136617
 20
113.7206408905574
 10
118.3805523365502
 20
114.4932250735615
 10
116.3079829232326
 20
104.493383406524
 10
143.3177033834727
 20
103.6996334184449
 10
143.3177033834727
 20
102.9940778734858
 10
112.515621869077
 20
102.9940778734858
 10
112.3170013513623
 20
102.795823397161
 10
112.1187468750375
 20
102.9940778734858
 10
110.5090152674044
 20
102.9940778734858
 10
110.3107607910796
 20
102.795823397161
 10
110.1121402733649
 20
102.9940778734858
 10
108.5246402972067
 20
102.9940778734858
 10
108.3263858208819
 20
102.795823397161
 10
108.1058997130822
 20
102.9940778734858
 10
106.518399736924
 20
102.9940778734858
 10
106.3197792192093
 20
102.795823397161
 10
106.1215247428845
 20
102.9940778734858
 10
104.5117931352514
 20
102.9940778734858
 10
104.3135386589266
 20
102.795823397161
 10
104.1149181412119
 20
102.9940778734858
 10
102.5055525749687
 20
102.9940778734858
 10
102.306932057254
 20
102.795823397161
 10
102.1086775809292
 20
102.9940778734858
 10
100.5211776047711
 20
102.9940778734858
 10
100.3225570870563
 20
102.795823397161
 10
100.1243026107315
 20
102.9940778734858
 10
98.31631652677365
 20
102.9940778734858
 10
98.50011236819734
 20
103.4565711696268
  0
LINE
  5
71
330
1F
100
AcDbEntity
  8
ISS138金台
  6
Continuous
 62
   250
420
  2367521
370
    13
100
AcDbLine
 10
98.24997690781552
 20
115.0767165809116
 30
0.0
 11
98.24997690781552
 21
118.4944235065793
 31
0.0
  0
LINE
  5
72
330
1F
100
AcDbEntity
  8
ISS138金台
  6
Continuous
 62
   250
420
  2367521
370
    13
100
AcDbLine
 10
98.24997690781552
 20
117.987122437945
 30
0.0
 11
118.3805308047037
 21
117.987122437945
 31
0.0
  0
LINE
  5
73
330
1F
100
AcDbEntity
  8
ISS138金台
  6
Continuous
 62
   250
420
  2367521
370
    13
100
AcDbLine
 10
118.3807138253986
 20
118.4942404858844
 30
0.0
 11
118.3807138253986
 21
115.2236391352643
 31
0.0
  0
LINE
  5
74
330
1F
100
AcDbEntity
  8
ISS138金台
  6
Continuous
 62
   250
420
  2367521
370
    13
100
AcDbLine
 10
98.24997690781552
 20
101.9799709686857
 30
0.0
 11
98.24997690781552
 21
96.99698493241158
 31
0.0
  0
LINE
  5
75
330
1F
100
AcDbEntity
  8
ISS138金台
  6
Continuous
 62
   250
420
  2367521
370
    13
100
AcDbLine
 10
143.3838492158126
 20
101.9799709686857
 30
0.0
 11
143.3838492158126
 21
96.99698493241158
 31
0.0
  0
LINE
  5
76
330
1F
100
AcDbEntity
  8
ISS138金台
  6
Continuous
 62
   250
420
  2367521
370
    13
100
AcDbLine
 10
98.24997690781552
 20
97.50410298035098
 30
0.0
 11
143.3836661951177
 21
97.50410298035098
 31
0.0
  0
LINE
  5
77
330
1F
100
AcDbEntity
  8
ISS138金台
  6
Continuous
 62
   250
420
  2367521
370
    13
100
AcDbLine
 10
144.3098801026483
 20
102.9280719981479
 30
0.0
 11
154.3199493967566
 21
102.9280719981479
 31
0.0
  0
LINE
  5
78
330
1F
100
AcDbEntity
  8
ISS138金台
  6
Continuous
 62
   250
420
  2367521
370
    13
100
AcDbLine
 10
144.3098801026483
 20
104.493523363526
 30
0.0
 11
149.3150870044742
 21
104.493523363526
 31
0.0
  0
LINE
  5
79
330
1F
100
AcDbEntity
  8
ISS138金台
  6
Continuous
 62
   250
420
  2367521
370
    13
100
AcDbLine
 10
153.8128313488172
 20
102.9280719981479
 30
0.0
 11
153.8128313488172
 21
114.4931820098686
 31
0.0
  0
LINE
  5
7A
330
1F
100
AcDbEntity
  8
ISS138金台
  6
Continuous
 62
   250
420
  2367521
370
    13
100
AcDbLine
 10
148.807796701763
 20
114.493106648406
 30
0.0
 11
148.807796701763
 21
104.4936202568351
 31
0.0
  0
LINE
  5
7B
330
1F
100
AcDbEntity
  8
ISS138金台
  6
Continuous
 62
   250
420
  2367521
370
    13
100
AcDbLine
 10
143.3176926175495
 20
114.493106648406
 30
0.0
 11
154.3201216515283
 21
114.493106648406
 31
0.0
  0
HATCH
  5
7C
330
1F
100
AcDbEntity
  8
ISS138金台
  6
Continuous
 62
   250
420
  2367521
370
    13
100
AcDbHatch
 10
0.0
 20
0.0
 30
0.0
210
0.0
220
0.0
230
1.0
  2
SOLID
 70
     1
 71
     0
 91
        1
 92
        3
 72
     0
 73
     1
 93
       67
 10
118.3807138253986
 20
117.7370192753329
 10
118.4062505953059
 20
117.738321952044
 10
118.4310552824334
 20
117.7421115570218
 10
118.4550202275487
 20
117.7482911969572
 10
118.4779947077267
 20
117.7566993830017
 10
118.4998387659653
 20
117.7672499877695
 10
118.5204770408018
 20
117.7797922883353
 10
118.5397265115413
 20
117.7942078595434
 10
118.557501050798
 20
117.8103459784688
 10
118.5736607015699
 20
117.8281205177255
 10
118.5880655068548
 20
117.8473915203115
 10
118.6006078074206
 20
117.8680082633016
 10
118.6111476462651
 20
117.8898738533866
 10
118.6195773641561
 20
117.9128375676414
 10
118.6257462381683
 20
117.9367917468335
 10
118.6295466090693
 20
117.9616071998842
 10
118.6308385198572
 20
117.9871439697915
 10
118.6308385198572
 20
117.9871439697915
 10
118.6295573749925
 20
118.0126807396987
 10
118.6257462381683
 20
118.0374961927494
 10
118.6195773641561
 20
118.0614396060183
 10
118.6111476462651
 20
118.0844140861963
 10
118.6005970414974
 20
118.1062796762813
 10
118.5880655068548
 20
118.1268964192714
 10
118.5736499356466
 20
118.1461566559341
 10
118.557501050798
 20
118.1639204292676
 10
118.5397372774646
 20
118.1800693141162
 10
118.5204770408018
 20
118.1944848853244
 10
118.4998495318885
 20
118.2070271858902
 10
118.4779839418035
 20
118.217577790658
 10
118.4550202275487
 20
118.2259967426257
 10
118.4310660483566
 20
118.2321656166379
 10
118.4062505953059
 20
118.2359659875389
 10
118.3807138253986
 20
118.2372578983268
 10
118.3807138253986
 20
118.2372578983268
 10
118.3551770554914
 20
118.2359659875389
 10
118.3303616024407
 20
118.2321763825611
 10
118.3064074232486
 20
118.2259967426257
 10
118.2834329430706
 20
118.2175670247347
 10
118.2615781189088
 20
118.2070271858902
 10
118.2409506099955
 20
118.1944956512477
 10
118.2216903733327
 20
118.1800800800395
 10
118.2039265999992
 20
118.1639204292676
 10
118.1877777151506
 20
118.1461674218574
 10
118.1733621439424
 20
118.1268964192714
 10
118.1608198433767
 20
118.1062689103581
 10
118.1502800045321
 20
118.0844140861963
 10
118.1418502866412
 20
118.0614396060183
 10
118.135681412629
 20
118.0374961927494
 10
118.131881041728
 20
118.0126807396987
 10
118.1305891309401
 20
117.9871439697915
 10
118.1305891309401
 20
117.9871439697915
 10
118.1318918076512
 20
117.9615964339609
 10
118.135681412629
 20
117.9367917468335
 10
118.1418502866412
 20
117.9128375676414
 10
118.1502800045321
 20
117.8898738533866
 10
118.1608198433767
 20
117.8680082633016
 10
118.1733621439424
 20
117.8473807543883
 10
118.1877669492274
 20
117.8281205177255
 10
118.2039265999992
 20
117.8103459784688
 10
118.221701139256
 20
117.7942078595434
 10
118.2409613759187
 20
117.779781522412
 10
118.2615781189088
 20
117.7672499877695
 10
118.2834437089938
 20
117.7566993830017
 10
118.3064074232486
 20
117.748280431034
 10
118.3303616024407
 20
117.7421115570218
 10
118.3551770554914
 20
117.7383111861208
 97
        0
 75
     1
 76
     1
 98
        0
  0
LWPOLYLINE
  5
7D
330
1F
100
AcDbEntity
  8
ISS138金台
  6
Continuous
 62
   250
420
  2367521
370
    13
100
AcDbPolyline
 90
       68
 70
     0
 43
0.0
 10
118.3807138253986
 20
117.7370192753329
 10
118.4062505953059
 20
117.738321952044
 10
118.4310552824334
 20
117.7421115570218
 10
118.4550202275487
 20
117.7482911969572
 10
118.4779947077267
 20
117.7566993830017
 10
118.4998387659653
 20
117.7672499877695
 10
118.5204770408018
 20
117.7797922883353
 10
118.5397265115413
 20
117.7942078595434
 10
118.557501050798
 20
117.8103459784688
 10
118.5736607015699
 20
117.8281205177255
 10
118.5880655068548
 20
117.8473915203115
 10
118.6006078074206
 20
117.8680082633016
 10
118.6111476462651
 20
117.8898738533866
 10
118.6195773641561
 20
117.9128375676414
 10
118.6257462381683
 20
117.9367917468335
 10
118.6295466090693
 20
117.9616071998842
 10
118.6308385198572
 20
117.9871439697915
 10
118.6308385198572
 20
117.9871439697915
 10
118.6295573749925
 20
118.0126807396987
 10
118.6257462381683
 20
118.0374961927494
 10
118.6195773641561
 20
118.0614396060183
 10
118.6111476462651
 20
118.0844140861963
 10
118.6005970414974
 20
118.1062796762813
 10
118.5880655068548
 20
118.1268964192714
 10
118.5736499356466
 20
118.1461566559341
 10
118.557501050798
 20
118.1639204292676
 10
118.5397372774646
 20
118.1800693141162
 10
118.5204770408018
 20
118.1944848853244
 10
118.4998495318885
 20
118.2070271858902
 10
118.4779839418035
 20
118.217577790658
 10
118.4550202275487
 20
118.2259967426257
 10
118.4310660483566
 20
118.2321656166379
 10
118.4062505953059
 20
118.2359659875389
 10
118.3807138253986
 20
118.2372578983268
 10
118.3807138253986
 20
118.2372578983268
 10
118.3551770554914
 20
118.2359659875389
 10
118.3303616024407
 20
118.2321763825611
 10
118.3064074232486
 20
118.2259967426257
 10
118.2834329430706
 20
118.2175670247347
 10
118.2615781189088
 20
118.2070271858902
 10
118.2409506099955
 20
118.1944956512477
 10
118.2216903733327
 20
118.1800800800395
 10
118.2039265999992
 20
118.1639204292676
 10
118.1877777151506
 20
118.1461674218574
 10
118.1733621439424
 20
118.1268964192714
 10
118.1608198433767
 20
118.1062689103581
 10
118.1502800045321
 20
118.0844140861963
 10
118.1418502866412
 20
118.0614396060183
 10
118.135681412629
 20
118.0374961927494
 10
118.131881041728
 20
118.0126807396987
 10
118.1305891309401
 20
117.9871439697915
 10
118.1305891309401
 20
117.9871439697915
 10
118.1318918076512
 20
117.9615964339609
 10
118.135681412629
 20
117.9367917468335
 10
118.1418502866412
 20
117.9128375676414
 10
118.1502800045321
 20
117.8898738533866
 10
118.1608198433767
 20
117.8680082633016
 10
118.1733621439424
 20
117.8473807543883
 10
118.1877669492274
 20
117.8281205177255
 10
118.2039265999992
 20
117.8103459784688
 10
118.221701139256
 20
117.7942078595434
 10
118.2409613759187
 20
117.779781522412
 10
118.2615781189088
 20
117.7672499877695
 10
118.2834437089938
 20
117.7566993830017
 10
118.3064074232486
 20
117.748280431034
 10
118.3303616024407
 20
117.7421115570218
 10
118.3551770554914
 20
117.7383111861208
 10
118.3807138253986
 20
117.7370192753329
  0
HATCH
  5
7E
330
1F
100
AcDbEntity
  8
ISS138金台
  6
Continuous
 62
   250
420
  2367521
370
    13
100
AcDbHatch
 10
0.0
 20
0.0
 30
0.0
210
0.0
220
0.0
230
1.0
  2
SOLID
 70
     1
 71
     0
 91
        1
 92
        3
 72
     0
 73
     1
 93
       67
 10
98.24997690781552
 20
117.7370192753329
 10
98.2755782732622
 20
117.738321952044
 10
98.30042602408261
 20
117.7421115570218
 10
98.3244125010444
 20
117.7482911969572
 10
98.3473977471456
 20
117.7566993830017
 10
98.36927410315386
 20
117.7672499877695
 10
98.38989084614391
 20
117.7797922883353
 10
98.40914031688348
 20
117.7942078595434
 10
98.42689332429372
 20
117.8103459784688
 10
98.4430314432191
 20
117.8281205177255
 10
98.45742548258082
 20
117.8473915203115
 10
98.46994625130012
 20
117.8680082633016
 10
98.48046455829818
 20
117.8898738533866
 10
98.4888727443427
 20
117.9128375676414
 10
98.49503085243163
 20
117.9367917468335
 10
98.4988096914862
 20
117.9616071998842
 10
98.5001016022741
 20
117.9871439697915
 10
98.5001016022741
 20
117.9871439697915
 10
98.49882045740944
 20
118.0126807396987
 10
98.49502008650839
 20
118.0374961927494
 10
98.4888727443427
 20
118.0614396060183
 10
98.48046455829818
 20
118.0844140861963
 10
98.46994625130012
 20
118.1062796762813
 10
98.45742548258082
 20
118.1268964192714
 10
98.4430314432191
 20
118.1461566559341
 10
98.42689332429372
 20
118.1639204292676
 10
98.40914031688348
 20
118.1800693141162
 10
98.38989084614391
 20
118.1944848853244
 10
98.36926333723062
 20
118.2070271858902
 10
98.3473977471456
 20
118.217577790658
 10
98.3244125010444
 20
118.2259967426257
 10
98.30042602408261
 20
118.2321656166379
 10
98.2755782732622
 20
118.2359659875389
 10
98.24997690781552
 20
118.2372578983268
 10
98.24997690781552
 20
118.2372578983268
 10
98.22444013790826
 20
118.2359659875389
 10
98.19964621670402
 20
118.2321763825611
 10
98.17570280343514
 20
118.2259967426257
 10
98.15274985510365
 20
118.2175670247347
 10
98.13092732871155
 20
118.2070271858902
 10
98.11033211756795
 20
118.1944956512477
 10
98.09110417867487
 20
118.1800800800395
 10
98.07336193718785
 20
118.1639204292676
 10
98.05724535010894
 20
118.1461674218574
 10
98.04286207667045
 20
118.1268964192714
 10
98.03035207387438
 20
118.1062689103581
 10
98.01983376687632
 20
118.0844140861963
 10
98.01143634675503
 20
118.0614396060183
 10
98.00527823866611
 20
118.0374961927494
 10
98.00149939961153
 20
118.0126807396987
 10
98.00020748882363
 20
117.9871439697915
 10
98.00020748882363
 20
117.9871439697915
 10
98.00149939961153
 20
117.9615964339609
 10
98.00528900458934
 20
117.9367917468335
 10
98.01143634675503
 20
117.9128375676414
 10
98.01983376687632
 20
117.8898738533866
 10
98.03036283979762
 20
117.8680082633016
 10
98.04287284259368
 20
117.8473807543883
 10
98.05724535010894
 20
117.8281205177255
 10
98.07336193718785
 20
117.8103459784688
 10
98.09110417867487
 20
117.7942078595434
 10
98.11033211756795
 20
117.779781522412
 10
98.13092732871155
 20
117.7672499877695
 10
98.15276062102689
 20
117.7566993830017
 10
98.17571356935838
 20
117.748280431034
 10
98.19964621670402
 20
117.7421115570218
 10
98.22444013790826
 20
117.7383111861208
 97
        0
 75
     1
 76
     1
 98
        0
  0
LWPOLYLINE
  5
7F
330
1F
100
AcDbEntity
  8
ISS138金台
  6
Continuous
 62
   250
420
  2367521
370
    13
100
AcDbPolyline
 90
       68
 70
     0
 43
0.0
 10
98.24997690781552
 20
117.7370192753329
 10
98.2755782732622
 20
117.738321952044
 10
98.30042602408261
 20
117.7421115570218
 10
98.3244125010444
 20
117.7482911969572
 10
98.3473977471456
 20
117.7566993830017
 10
98.36927410315386
 20
117.7672499877695
 10
98.38989084614391
 20
117.7797922883353
 10
98.40914031688348
 20
117.7942078595434
 10
98.42689332429372
 20
117.8103459784688
 10
98.4430314432191
 20
117.8281205177255
 10
98.45742548258082
 20
117.8473915203115
 10
98.46994625130012
 20
117.8680082633016
 10
98.48046455829818
 20
117.8898738533866
 10
98.4888727443427
 20
117.9128375676414
 10
98.49503085243163
 20
117.9367917468335
 10
98.4988096914862
 20
117.9616071998842
 10
98.5001016022741
 20
117.9871439697915
 10
98.5001016022741
 20
117.9871439697915
 10
98.49882045740944
 20
118.0126807396987
 10
98.49502008650839
 20
118.0374961927494
 10
98.4888727443427
 20
118.0614396060183
 10
98.48046455829818
 20
118.0844140861963
 10
98.46994625130012
 20
118.1062796762813
 10
98.45742548258082
 20
118.1268964192714
 10
98.4430314432191
 20
118.1461566559341
 10
98.42689332429372
 20
118.1639204292676
 10
98.40914031688348
 20
118.1800693141162
 10
98.38989084614391
 20
118.1944848853244
 10
98.36926333723062
 20
118.2070271858902
 10
98.3473977471456
 20
118.217577790658
 10
98.3244125010444
 20
118.2259967426257
 10
98.30042602408261
 20
118.2321656166379
 10
98.2755782732622
 20
118.2359659875389
 10
98.24997690781552
 20
118.2372578983268
 10
98.24997690781552
 20
118.2372578983268
 10
98.22444013790826
 20
118.2359659875389
 10
98.19964621670402
 20
118.2321763825611
 10
98.17570280343514
 20
118.2259967426257
 10
98.15274985510365
 20
118.2175670247347
 10
98.13092732871155
 20
118.2070271858902
 10
98.11033211756795
 20
118.1944956512477
 10
98.09110417867487
 20
118.1800800800395
 10
98.07336193718785
 20
118.1639204292676
 10
98.05724535010894
 20
118.1461674218574
 10
98.04286207667045
 20
118.1268964192714
 10
98.03035207387438
 20
118.1062689103581
 10
98.01983376687632
 20
118.0844140861963
 10
98.01143634675503
 20
118.0614396060183
 10
98.00527823866611
 20
118.0374961927494
 10
98.00149939961153
 20
118.0126807396987
 10
98.00020748882363
 20
117.9871439697915
 10
98.00020748882363
 20
117.9871439697915
 10
98.00149939961153
 20
117.9615964339609
 10
98.00528900458934
 20
117.9367917468335
 10
98.01143634675503
 20
117.9128375676414
 10
98.01983376687632
 20
117.8898738533866
 10
98.03036283979762
 20
117.8680082633016
 10
98.04287284259368
 20
117.8473807543883
 10
98.05724535010894
 20
117.8281205177255
 10
98.07336193718785
 20
117.8103459784688
 10
98.09110417867487
 20
117.7942078595434
 10
98.11033211756795
 20
117.779781522412
 10
98.13092732871155
 20
117.7672499877695
 10
98.15276062102689
 20
117.7566993830017
 10
98.17571356935838
 20
117.748280431034
 10
98.19964621670402
 20
117.7421115570218
 10
98.22444013790826
 20
117.7383111861208
 10
98.24997690781552
 20
117.7370192753329
  0
HATCH
  5
80
330
1F
100
AcDbEntity
  8
ISS138金台
  6
Continuous
 62
   250
420
  2367521
370
    13
100
AcDbHatch
 10
0.0
 20
0.0
 30
0.0
210
0.0
220
0.0
230
1.0
  2
SOLID
 70
     1
 71
     0
 91
        1
 92
        3
 72
     0
 73
     1
 93
       67
 10
98.24997690781552
 20
97.25402134958534
 10
98.2755782732622
 20
97.25532402629648
 10
98.30042602408261
 20
97.25910286535105
 10
98.3244125010444
 20
97.26528250528645
 10
98.3473977471456
 20
97.27371222317743
 10
98.36927410315386
 20
97.28425206202195
 10
98.38989084614391
 20
97.29678359666448
 10
98.40914031688348
 20
97.31119916787267
 10
98.42689332429372
 20
97.32735881864451
 10
98.4430314432191
 20
97.345122591978
 10
98.45742548258082
 20
97.36438282864077
 10
98.46994625130012
 20
97.38501033755406
 10
98.48046455829818
 20
97.40686516171587
 10
98.4888727443427
 20
97.42983964189384
 10
98.49503085243163
 20
97.45379382108594
 10
98.4988096914862
 20
97.47860927413663
 10
98.5001016022741
 20
97.50414604404392
 10
98.5001016022741
 20
97.50414604404392
 10
98.49882045740944
 20
97.52969357987442
 10
98.49502008650839
 20
97.55449826700189
 10
98.4888727443427
 20
97.57844168027077
 10
98.48046455829818
 20
97.60141616044874
 10
98.46994625130012
 20
97.62328175053375
 10
98.45742548258082
 20
97.64390925944704
 10
98.4430314432191
 20
97.66315873018661
 10
98.42689332429372
 20
97.68092250352007
 10
98.40914031688348
 20
97.69708215429192
 10
98.38989084614391
 20
97.71149772550012
 10
98.36926333723062
 20
97.72402926014264
 10
98.3473977471456
 20
97.7345798649104
 10
98.3244125010444
 20
97.74299881687816
 10
98.30042602408261
 20
97.74916769089032
 10
98.2755782732622
 20
97.75296806179136
 10
98.24997690781552
 20
97.75425997257925
 10
98.24997690781552
 20
97.75425997257925
 10
98.22444013790826
 20
97.75295729586813
 10
98.19964621670402
 20
97.74916769089032
 10
98.17570280343514
 20
97.74299881687816
 10
98.15274985510365
 20
97.7345798649104
 10
98.13092732871155
 20
97.72404002606586
 10
98.11033211756795
 20
97.71148695957689
 10
98.09110417867487
 20
97.69708215429192
 10
98.07336193718785
 20
97.68092250352007
 10
98.05724535010894
 20
97.66315873018661
 10
98.04286207667045
 20
97.64389849352382
 10
98.03035207387438
 20
97.62328175053375
 10
98.01983376687632
 20
97.60141616044874
 10
98.01143634675503
 20
97.578452446194
 10
98.00527823866611
 20
97.55449826700189
 10
98.00149939961153
 20
97.52968281395118
 10
98.00020748882363
 20
97.50414604404392
 10
98.00020748882363
 20
97.50414604404392
 10
98.00149939961153
 20
97.47859850821341
 10
98.00528900458934
 20
97.45380458700916
 10
98.01143634675503
 20
97.42983964189384
 10
98.01983376687632
 20
97.4068759276391
 10
98.03036283979762
 20
97.38501033755406
 10
98.04287284259368
 20
97.36438282864077
 10
98.05724535010894
 20
97.345122591978
 10
98.07336193718785
 20
97.32735881864451
 10
98.09110417867487
 20
97.31119916787267
 10
98.11033211756795
 20
97.29679436258772
 10
98.13092732871155
 20
97.28425206202195
 10
98.15276062102689
 20
97.27370145725419
 10
98.17571356935838
 20
97.26528250528645
 10
98.19964621670402
 20
97.25911363127429
 10
98.22444013790826
 20
97.25531326037324
 97
        0
 75
     1
 76
     1
 98
        0
  0
LWPOLYLINE
  5
81
330
1F
100
AcDbEntity
  8
ISS138金台
  6
Continuous
 62
   250
420
  2367521
370
    13
100
AcDbPolyline
 90
       68
 70
     0
 43
0.0
 10
98.24997690781552
 20
97.25402134958534
 10
98.2755782732622
 20
97.25532402629648
 10
98.30042602408261
 20
97.25910286535105
 10
98.3244125010444
 20
97.26528250528645
 10
98.3473977471456
 20
97.27371222317743
 10
98.36927410315386
 20
97.28425206202195
 10
98.38989084614391
 20
97.29678359666448
 10
98.40914031688348
 20
97.31119916787267
 10
98.42689332429372
 20
97.32735881864451
 10
98.4430314432191
 20
97.345122591978
 10
98.45742548258082
 20
97.36438282864077
 10
98.46994625130012
 20
97.38501033755406
 10
98.48046455829818
 20
97.40686516171587
 10
98.4888727443427
 20
97.42983964189384
 10
98.49503085243163
 20
97.45379382108594
 10
98.4988096914862
 20
97.47860927413663
 10
98.5001016022741
 20
97.50414604404392
 10
98.5001016022741
 20
97.50414604404392
 10
98.49882045740944
 20
97.52969357987442
 10
98.49502008650839
 20
97.55449826700189
 10
98.4888727443427
 20
97.57844168027077
 10
98.48046455829818
 20
97.60141616044874
 10
98.46994625130012
 20
97.62328175053375
 10
98.45742548258082
 20
97.64390925944704
 10
98.4430314432191
 20
97.66315873018661
 10
98.42689332429372
 20
97.68092250352007
 10
98.40914031688348
 20
97.69708215429192
 10
98.38989084614391
 20
97.71149772550012
 10
98.36926333723062
 20
97.72402926014264
 10
98.3473977471456
 20
97.7345798649104
 10
98.3244125010444
 20
97.74299881687816
 10
98.30042602408261
 20
97.74916769089032
 10
98.2755782732622
 20
97.75296806179136
 10
98.24997690781552
 20
97.75425997257925
 10
98.24997690781552
 20
97.75425997257925
 10
98.22444013790826
 20
97.75295729586813
 10
98.19964621670402
 20
97.74916769089032
 10
98.17570280343514
 20
97.74299881687816
 10
98.15274985510365
 20
97.7345798649104
 10
98.13092732871155
 20
97.72404002606586
 10
98.11033211756795
 20
97.71148695957689
 10
98.09110417867487
 20
97.69708215429192
 10
98.07336193718785
 20
97.68092250352007
 10
98.05724535010894
 20
97.66315873018661
 10
98.04286207667045
 20
97.64389849352382
 10
98.03035207387438
 20
97.62328175053375
 10
98.01983376687632
 20
97.60141616044874
 10
98.01143634675503
 20
97.578452446194
 10
98.00527823866611
 20
97.55449826700189
 10
98.00149939961153
 20
97.52968281395118
 10
98.00020748882363
 20
97.50414604404392
 10
98.00020748882363
 20
97.50414604404392
 10
98.00149939961153
 20
97.47859850821341
 10
98.00528900458934
 20
97.45380458700916
 10
98.01143634675503
 20
97.42983964189384
 10
98.01983376687632
 20
97.4068759276391
 10
98.03036283979762
 20
97.38501033755406
 10
98.04287284259368
 20
97.36438282864077
 10
98.05724535010894
 20
97.345122591978
 10
98.07336193718785
 20
97.32735881864451
 10
98.09110417867487
 20
97.31119916787267
 10
98.11033211756795
 20
97.29679436258772
 10
98.13092732871155
 20
97.28425206202195
 10
98.15276062102689
 20
97.27370145725419
 10
98.17571356935838
 20
97.26528250528645
 10
98.19964621670402
 20
97.25911363127429
 10
98.22444013790826
 20
97.25531326037324
 10
98.24997690781552
 20
97.25402134958534
  0
HATCH
  5
82
330
1F
100
AcDbEntity
  8
ISS138金台
  6
Continuous
 62
   250
420
  2367521
370
    13
100
AcDbHatch
 10
0.0
 20
0.0
 30
0.0
210
0.0
220
0.0
230
1.0
  2
SOLID
 70
     1
 71
     0
 91
        1
 92
        3
 72
     0
 73
     1
 93
       67
 10
143.3838492158126
 20
97.25402134958534
 10
143.4093859857199
 20
97.25532402629648
 10
143.4342122046938
 20
97.25910286535105
 10
143.4581556179627
 20
97.26528250528645
 10
143.4811300981407
 20
97.27371222317743
 10
143.5029741563792
 20
97.28425206202195
 10
143.5236016652925
 20
97.29678359666448
 10
143.5428726678785
 20
97.31119916787267
 10
143.560636441212
 20
97.32735881864451
 10
143.5767960919839
 20
97.345122591978
 10
143.5912008972688
 20
97.36438282864077
 10
143.6037431978346
 20
97.38501033755406
 10
143.6142830366791
 20
97.40686516171587
 10
143.6227127545701
 20
97.42983964189384
 10
143.6288816285822
 20
97.45379382108594
 10
143.6326819994833
 20
97.47860927413663
 10
143.6339739102712
 20
97.50414604404392
 10
143.6339739102712
 20
97.50414604404392
 10
143.6326927654065
 20
97.52969357987442
 10
143.6288816285822
 20
97.55449826700189
 10
143.6227127545701
 20
97.57844168027077
 10
143.6142938026023
 20
97.60141616044874
 10
143.6037324319113
 20
97.62328175053375
 10
143.5912008972688
 20
97.64390925944704
 10
143.5767960919839
 20
97.66315873018661
 10
143.560636441212
 20
97.68092250352007
 10
143.5428619019553
 20
97.69708215429192
 10
143.5236016652925
 20
97.71149772550012
 10
143.5029849223025
 20
97.72402926014264
 10
143.4811193322174
 20
97.7345798649104
 10
143.4581448520395
 20
97.74299881687816
 10
143.4342014387706
 20
97.74916769089032
 10
143.4093859857199
 20
97.75296806179136
 10
143.3838492158126
 20
97.75425997257925
 10
143.3838492158126
 20
97.75425997257925
 10
143.3583124459053
 20
97.75295729586813
 10
143.3335077587779
 20
97.74916769089032
 10
143.3095428136625
 20
97.74299881687816
 10
143.2865790994078
 20
97.7345798649104
 10
143.2647135093228
 20
97.72404002606586
 10
143.2440967663327
 20
97.71148695957689
 10
143.2248257637467
 20
97.69708215429192
 10
143.2070619904132
 20
97.68092250352007
 10
143.1909131055646
 20
97.66315873018661
 10
143.1764975343564
 20
97.64389849352382
 10
143.1639552337907
 20
97.62328175053375
 10
143.1534046290229
 20
97.60141616044874
 10
143.1449856770552
 20
97.578452446194
 10
143.138816803043
 20
97.55449826700189
 10
143.1350164321419
 20
97.52968281395118
 10
143.1337245213541
 20
97.50414604404392
 10
143.1337245213541
 20
97.50414604404392
 10
143.1350271980652
 20
97.47859850821341
 10
143.138816803043
 20
97.45380458700916
 10
143.1449856770552
 20
97.42983964189384
 10
143.1534153949461
 20
97.4068759276391
 10
143.1639444678674
 20
97.38501033755406
 10
143.1764867684332
 20
97.36438282864077
 10
143.1909131055646
 20
97.345122591978
 10
143.2070619904132
 20
97.32735881864451
 10
143.2248365296699
 20
97.31119916787267
 10
143.2440860004095
 20
97.29679436258772
 10
143.2647135093228
 20
97.28425206202195
 10
143.2865790994078
 20
97.27370145725419
 10
143.3095428136625
 20
97.26528250528645
 10
143.3334969928546
 20
97.25911363127429
 10
143.3583124459053
 20
97.25531326037324
 97
        0
 75
     1
 76
     1
 98
        0
  0
LWPOLYLINE
  5
83
330
1F
100
AcDbEntity
  8
ISS138金台
  6
Continuous
 62
   250
420
  2367521
370
    13
100
AcDbPolyline
 90
       68
 70
     0
 43
0.0
 10
143.3838492158126
 20
97.25402134958534
 10
143.4093859857199
 20
97.25532402629648
 10
143.4342122046938
 20
97.25910286535105
 10
143.4581556179627
 20
97.26528250528645
 10
143.4811300981407
 20
97.27371222317743
 10
143.5029741563792
 20
97.28425206202195
 10
143.5236016652925
 20
97.29678359666448
 10
143.5428726678785
 20
97.31119916787267
 10
143.560636441212
 20
97.32735881864451
 10
143.5767960919839
 20
97.345122591978
 10
143.5912008972688
 20
97.36438282864077
 10
143.6037431978346
 20
97.38501033755406
 10
143.6142830366791
 20
97.40686516171587
 10
143.6227127545701
 20
97.42983964189384
 10
143.6288816285822
 20
97.45379382108594
 10
143.6326819994833
 20
97.47860927413663
 10
143.6339739102712
 20
97.50414604404392
 10
143.6339739102712
 20
97.50414604404392
 10
143.6326927654065
 20
97.52969357987442
 10
143.6288816285822
 20
97.55449826700189
 10
143.6227127545701
 20
97.57844168027077
 10
143.6142938026023
 20
97.60141616044874
 10
143.6037324319113
 20
97.62328175053375
 10
143.5912008972688
 20
97.64390925944704
 10
143.5767960919839
 20
97.66315873018661
 10
143.560636441212
 20
97.68092250352007
 10
143.5428619019553
 20
97.69708215429192
 10
143.5236016652925
 20
97.71149772550012
 10
143.5029849223025
 20
97.72402926014264
 10
143.4811193322174
 20
97.7345798649104
 10
143.4581448520395
 20
97.74299881687816
 10
143.4342014387706
 20
97.74916769089032
 10
143.4093859857199
 20
97.75296806179136
 10
143.3838492158126
 20
97.75425997257925
 10
143.3838492158126
 20
97.75425997257925
 10
143.3583124459053
 20
97.75295729586813
 10
143.3335077587779
 20
97.74916769089032
 10
143.3095428136625
 20
97.74299881687816
 10
143.2865790994078
 20
97.7345798649104
 10
143.2647135093228
 20
97.72404002606586
 10
143.2440967663327
 20
97.71148695957689
 10
143.2248257637467
 20
97.69708215429192
 10
143.2070619904132
 20
97.68092250352007
 10
143.1909131055646
 20
97.66315873018661
 10
143.1764975343564
 20
97.64389849352382
 10
143.1639552337907
 20
97.62328175053375
 10
143.1534046290229
 20
97.60141616044874
 10
143.1449856770552
 20
97.578452446194
 10
143.138816803043
 20
97.55449826700189
 10
143.1350164321419
 20
97.52968281395118
 10
143.1337245213541
 20
97.50414604404392
 10
143.1337245213541
 20
97.50414604404392
 10
143.1350271980652
 20
97.47859850821341
 10
143.138816803043
 20
97.45380458700916
 10
143.1449856770552
 20
97.42983964189384
 10
143.1534153949461
 20
97.4068759276391
 10
143.1639444678674
 20
97.38501033755406
 10
143.1764867684332
 20
97.36438282864077
 10
143.1909131055646
 20
97.345122591978
 10
143.2070619904132
 20
97.32735881864451
 10
143.2248365296699
 20
97.31119916787267
 10
143.2440860004095
 20
97.29679436258772
 10
143.2647135093228
 20
97.28425206202195
 10
143.2865790994078
 20
97.27370145725419
 10
143.3095428136625
 20
97.26528250528645
 10
143.3334969928546
 20
97.25911363127429
 10
143.3583124459053
 20
97.25531326037324
 10
143.3838492158126
 20
97.25402134958534
  0
HATCH
  5
84
330
1F
100
AcDbEntity
  8
ISS138金台
  6
Continuous
 62
   250
420
  2367521
370
    13
100
AcDbHatch
 10
0.0
 20
0.0
 30
0.0
210
0.0
220
0.0
230
1.0
  2
SOLID
 70
     1
 71
     0
 91
        1
 92
        3
 72
     0
 73
     1
 93
       67
 10
148.807796701763
 20
104.2434309668372
 10
148.8333334716703
 20
104.2447336435483
 10
148.8581381587978
 20
104.2485124826029
 10
148.8821031039131
 20
104.2547028884615
 10
148.9050775840911
 20
104.2631218404292
 10
148.9269216423297
 20
104.2736509133505
 10
148.9475599171662
 20
104.2861932139163
 10
148.9668093879057
 20
104.3006087851245
 10
148.9845839271624
 20
104.3167576699731
 10
149.0007435779343
 20
104.3345322092298
 10
149.0151483832192
 20
104.3537924458926
 10
149.027690683785
 20
104.3744199548059
 10
149.0382305226295
 20
104.3962747789677
 10
149.0466602405205
 20
104.4192492591456
 10
149.0528291145327
 20
104.4432034383378
 10
149.0566294854337
 20
104.4680188913885
 10
149.0579213962216
 20
104.4935556612957
 10
149.0579213962216
 20
104.4935556612957
 10
149.056640251357
 20
104.519092431203
 10
149.0528183486094
 20
104.5439078842537
 10
149.0466602405205
 20
104.5678620634458
 10
149.0382305226295
 20
104.5908257777006
 10
149.0276799178617
 20
104.6126806018623
 10
149.015137617296
 20
104.6333188766989
 10
149.0007328120111
 20
104.6525683474384
 10
148.9845839271624
 20
104.6703321207719
 10
148.966820153829
 20
104.6864917715437
 10
148.9475491512429
 20
104.7009073427519
 10
148.9269216423297
 20
104.7134388773945
 10
148.9050775840911
 20
104.7239894821622
 10
148.8821031039131
 20
104.73240843413
 10
148.858148924721
 20
104.7385773081421
 10
148.8333334716703
 20
104.7423776790432
 10
148.807796701763
 20
104.7436695898311
 10
148.807796701763
 20
104.7436695898311
 10
148.7822599318558
 20
104.7423776790432
 10
148.757444478805
 20
104.7385773081421
 10
148.7334902996129
 20
104.73240843413
 10
148.710515819435
 20
104.7239894821622
 10
148.6886609952732
 20
104.7134388773945
 10
148.6680334863599
 20
104.7008965768287
 10
148.6487732496971
 20
104.6864917715437
 10
148.6310094763637
 20
104.6703321207719
 10
148.614860591515
 20
104.6525683474384
 10
148.6004450203068
 20
104.6333081107756
 10
148.5879027197411
 20
104.6126913677856
 10
148.5773628808965
 20
104.5908257777006
 10
148.5689331630056
 20
104.5678620634458
 10
148.5627642889934
 20
104.5439078842537
 10
148.5589639180924
 20
104.519092431203
 10
148.5576720073045
 20
104.4935556612957
 10
148.5576720073045
 20
104.4935556612957
 10
148.5589746840156
 20
104.4680188913885
 10
148.5627642889934
 20
104.443214204261
 10
148.5689331630056
 20
104.4192600250689
 10
148.5773628808965
 20
104.3962855448909
 10
148.5879027197411
 20
104.3744199548059
 10
148.6004342543836
 20
104.3537924458926
 10
148.6148498255918
 20
104.3345322092298
 10
148.6310094763637
 20
104.3167576699731
 10
148.6487840156204
 20
104.3006087851245
 10
148.6680442522831
 20
104.2862039798395
 10
148.6886609952732
 20
104.2736616792738
 10
148.710515819435
 20
104.263111074506
 10
148.7334902996129
 20
104.2546921225383
 10
148.757444478805
 20
104.2485232485261
 10
148.7822599318558
 20
104.2447228776251
 97
        0
 75
     1
 76
     1
 98
        0
  0
LWPOLYLINE
  5
85
330
1F
100
AcDbEntity
  8
ISS138金台
  6
Continuous
 62
   250
420
  2367521
370
    13
100
AcDbPolyline
 90
       68
 70
     0
 43
0.0
 10
148.807796701763
 20
104.2434309668372
 10
148.8333334716703
 20
104.2447336435483
 10
148.8581381587978
 20
104.2485124826029
 10
148.8821031039131
 20
104.2547028884615
 10
148.9050775840911
 20
104.2631218404292
 10
148.9269216423297
 20
104.2736509133505
 10
148.9475599171662
 20
104.2861932139163
 10
148.9668093879057
 20
104.3006087851245
 10
148.9845839271624
 20
104.3167576699731
 10
149.0007435779343
 20
104.3345322092298
 10
149.0151483832192
 20
104.3537924458926
 10
149.027690683785
 20
104.3744199548059
 10
149.0382305226295
 20
104.3962747789677
 10
149.0466602405205
 20
104.4192492591456
 10
149.0528291145327
 20
104.4432034383378
 10
149.0566294854337
 20
104.4680188913885
 10
149.0579213962216
 20
104.4935556612957
 10
149.0579213962216
 20
104.4935556612957
 10
149.056640251357
 20
104.519092431203
 10
149.0528183486094
 20
104.5439078842537
 10
149.0466602405205
 20
104.5678620634458
 10
149.0382305226295
 20
104.5908257777006
 10
149.0276799178617
 20
104.6126806018623
 10
149.015137617296
 20
104.6333188766989
 10
149.0007328120111
 20
104.6525683474384
 10
148.9845839271624
 20
104.6703321207719
 10
148.966820153829
 20
104.6864917715437
 10
148.9475491512429
 20
104.7009073427519
 10
148.9269216423297
 20
104.7134388773945
 10
148.9050775840911
 20
104.7239894821622
 10
148.8821031039131
 20
104.73240843413
 10
148.858148924721
 20
104.7385773081421
 10
148.8333334716703
 20
104.7423776790432
 10
148.807796701763
 20
104.7436695898311
 10
148.807796701763
 20
104.7436695898311
 10
148.7822599318558
 20
104.7423776790432
 10
148.757444478805
 20
104.7385773081421
 10
148.7334902996129
 20
104.73240843413
 10
148.710515819435
 20
104.7239894821622
 10
148.6886609952732
 20
104.7134388773945
 10
148.6680334863599
 20
104.7008965768287
 10
148.6487732496971
 20
104.6864917715437
 10
148.6310094763637
 20
104.6703321207719
 10
148.614860591515
 20
104.6525683474384
 10
148.6004450203068
 20
104.6333081107756
 10
148.5879027197411
 20
104.6126913677856
 10
148.5773628808965
 20
104.5908257777006
 10
148.5689331630056
 20
104.5678620634458
 10
148.5627642889934
 20
104.5439078842537
 10
148.5589639180924
 20
104.519092431203
 10
148.5576720073045
 20
104.4935556612957
 10
148.5576720073045
 20
104.4935556612957
 10
148.5589746840156
 20
104.4680188913885
 10
148.5627642889934
 20
104.443214204261
 10
148.5689331630056
 20
104.4192600250689
 10
148.5773628808965
 20
104.3962855448909
 10
148.5879027197411
 20
104.3744199548059
 10
148.6004342543836
 20
104.3537924458926
 10
148.6148498255918
 20
104.3345322092298
 10
148.6310094763637
 20
104.3167576699731
 10
148.6487840156204
 20
104.3006087851245
 10
148.6680442522831
 20
104.2862039798395
 10
148.6886609952732
 20
104.2736616792738
 10
148.710515819435
 20
104.263111074506
 10
148.7334902996129
 20
104.2546921225383
 10
148.757444478805
 20
104.2485232485261
 10
148.7822599318558
 20
104.2447228776251
 10
148.807796701763
 20
104.2434309668372
  0
HATCH
  5
86
330
1F
100
AcDbEntity
  8
ISS138金台
  6
Continuous
 62
   250
420
  2367521
370
    13
100
AcDbHatch
 10
0.0
 20
0.0
 30
0.0
210
0.0
220
0.0
230
1.0
  2
SOLID
 70
     1
 71
     0
 91
        1
 92
        3
 72
     0
 73
     1
 93
       67
 10
153.8128313488172
 20
102.677979601459
 10
153.8383788846477
 20
102.6792822781701
 10
153.8631728058519
 20
102.6830611172247
 10
153.8871377509673
 20
102.6892407571601
 10
153.9101122311452
 20
102.6976704750511
 10
153.931967055307
 20
102.7082103138956
 10
153.9525945642203
 20
102.7207418485381
 10
153.9718548008831
 20
102.7351574197463
 10
153.9896185742166
 20
102.7513170705182
 10
154.0057674590652
 20
102.7690808438517
 10
154.0201830302734
 20
102.7883410805144
 10
154.0327360967624
 20
102.8089685894277
 10
154.0432651696837
 20
102.8308234135895
 10
154.0516948875746
 20
102.8537978937675
 10
154.0578637615868
 20
102.8777520729596
 10
154.0616641324879
 20
102.9025675260103
 10
154.0629560432757
 20
102.9281042959176
 10
154.0629560432757
 20
102.9281042959176
 10
154.0616641324879
 20
102.9536518317481
 10
154.0578529956636
 20
102.9784565188755
 10
154.0516948875746
 20
103.0023999321444
 10
154.0432651696837
 20
103.0253744123224
 10
154.0327253308391
 20
103.0472400024074
 10
154.0201722643502
 20
103.0678675113207
 10
154.0057674590652
 20
103.0871169820603
 10
153.9896185742166
 20
103.1048807553937
 10
153.9718440349599
 20
103.1210404061656
 10
153.9525837982971
 20
103.1354559773738
 10
153.931967055307
 20
103.1479875120163
 10
153.9101122311452
 20
103.158538116784
 10
153.8871377509673
 20
103.1669570687518
 10
153.8631835717752
 20
103.173125942764
 10
153.8383681187244
 20
103.176926313665
 10
153.8128313488172
 20
103.1782182244529
 10
153.8128313488172
 20
103.1782182244529
 10
153.7872945789099
 20
103.1769155477418
 10
153.7624791258592
 20
103.173125942764
 10
153.7385357125903
 20
103.1669463028286
 10
153.7155504664891
 20
103.158538116784
 10
153.6937064082506
 20
103.1479982779395
 10
153.673068133414
 20
103.1354452114505
 10
153.6538078967513
 20
103.1210296402423
 10
153.6360441234178
 20
103.1048807553937
 10
153.6198952385692
 20
103.0871169820603
 10
153.605479667361
 20
103.0678567453975
 10
153.5929373667952
 20
103.0472400024074
 10
153.5823975279507
 20
103.0253744123224
 10
153.5739678100597
 20
103.0024106980676
 10
153.5677989360476
 20
102.9784565188755
 10
153.5639985651465
 20
102.9536410658248
 10
153.5627066543586
 20
102.9281042959176
 10
153.5627066543586
 20
102.9281042959176
 10
153.5639985651465
 20
102.9025567600871
 10
153.5677989360476
 20
102.8777628388828
 10
153.5739678100597
 20
102.8537978937675
 10
153.5823975279507
 20
102.8308341795127
 10
153.5929481327184
 20
102.8089685894277
 10
153.6054689014377
 20
102.7883410805144
 10
153.6198844726459
 20
102.7690808438517
 10
153.6360441234178
 20
102.7513170705182
 10
153.6538078967513
 20
102.7351574197463
 10
153.6730788993373
 20
102.7207526144614
 10
153.6936956423273
 20
102.7082103138956
 10
153.7155504664891
 20
102.6976597091278
 10
153.7385249466671
 20
102.6892407571601
 10
153.7624791258592
 20
102.6830718831479
 10
153.7872945789099
 20
102.6792715122469
 97
        0
 75
     1
 76
     1
 98
        0
  0
LWPOLYLINE
  5
87
330
1F
100
AcDbEntity
  8
ISS138金台
  6
Continuous
 62
   250
420
  2367521
370
    13
100
AcDbPolyline
 90
       68
 70
     0
 43
0.0
 10
153.8128313488172
 20
102.677979601459
 10
153.8383788846477
 20
102.6792822781701
 10
153.8631728058519
 20
102.6830611172247
 10
153.8871377509673
 20
102.6892407571601
 10
153.9101122311452
 20
102.6976704750511
 10
153.931967055307
 20
102.7082103138956
 10
153.9525945642203
 20
102.7207418485381
 10
153.9718548008831
 20
102.7351574197463
 10
153.9896185742166
 20
102.7513170705182
 10
154.0057674590652
 20
102.7690808438517
 10
154.0201830302734
 20
102.7883410805144
 10
154.0327360967624
 20
102.8089685894277
 10
154.0432651696837
 20
102.8308234135895
 10
154.0516948875746
 20
102.8537978937675
 10
154.0578637615868
 20
102.8777520729596
 10
154.0616641324879
 20
102.9025675260103
 10
154.0629560432757
 20
102.9281042959176
 10
154.0629560432757
 20
102.9281042959176
 10
154.0616641324879
 20
102.9536518317481
 10
154.0578529956636
 20
102.9784565188755
 10
154.0516948875746
 20
103.0023999321444
 10
154.0432651696837
 20
103.0253744123224
 10
154.0327253308391
 20
103.0472400024074
 10
154.0201722643502
 20
103.0678675113207
 10
154.0057674590652
 20
103.0871169820603
 10
153.9896185742166
 20
103.1048807553937
 10
153.9718440349599
 20
103.1210404061656
 10
153.9525837982971
 20
103.1354559773738
 10
153.931967055307
 20
103.1479875120163
 10
153.9101122311452
 20
103.158538116784
 10
153.8871377509673
 20
103.1669570687518
 10
153.8631835717752
 20
103.173125942764
 10
153.8383681187244
 20
103.176926313665
 10
153.8128313488172
 20
103.1782182244529
 10
153.8128313488172
 20
103.1782182244529
 10
153.7872945789099
 20
103.1769155477418
 10
153.7624791258592
 20
103.173125942764
 10
153.7385357125903
 20
103.1669463028286
 10
153.7155504664891
 20
103.158538116784
 10
153.6937064082506
 20
103.1479982779395
 10
153.673068133414
 20
103.1354452114505
 10
153.6538078967513
 20
103.1210296402423
 10
153.6360441234178
 20
103.1048807553937
 10
153.6198952385692
 20
103.0871169820603
 10
153.605479667361
 20
103.0678567453975
 10
153.5929373667952
 20
103.0472400024074
 10
153.5823975279507
 20
103.0253744123224
 10
153.5739678100597
 20
103.0024106980676
 10
153.5677989360476
 20
102.9784565188755
 10
153.5639985651465
 20
102.9536410658248
 10
153.5627066543586
 20
102.9281042959176
 10
153.5627066543586
 20
102.9281042959176
 10
153.5639985651465
 20
102.9025567600871
 10
153.5677989360476
 20
102.8777628388828
 10
153.5739678100597
 20
102.8537978937675
 10
153.5823975279507
 20
102.8308341795127
 10
153.5929481327184
 20
102.8089685894277
 10
153.6054689014377
 20
102.7883410805144
 10
153.6198844726459
 20
102.7690808438517
 10
153.6360441234178
 20
102.7513170705182
 10
153.6538078967513
 20
102.7351574197463
 10
153.6730788993373
 20
102.7207526144614
 10
153.6936956423273
 20
102.7082103138956
 10
153.7155504664891
 20
102.6976597091278
 10
153.7385249466671
 20
102.6892407571601
 10
153.7624791258592
 20
102.6830718831479
 10
153.7872945789099
 20
102.6792715122469
 10
153.8128313488172
 20
102.677979601459
  0
HATCH
  5
88
330
1F
100
AcDbEntity
  8
ISS138金台
  6
Continuous
 62
   250
420
  2367521
370
    13
100
AcDbHatch
 10
0.0
 20
0.0
 30
0.0
210
0.0
220
0.0
230
1.0
  2
SOLID
 70
     1
 71
     0
 91
        1
 92
        3
 72
     0
 73
     1
 93
       67
 10
148.807796701763
 20
114.2433372294141
 10
148.8333334716703
 20
114.2446183742787
 10
148.8581381587978
 20
114.2484079792565
 10
148.8821031039131
 20
114.2545660873455
 10
148.9050775840911
 20
114.2629635074667
 10
148.9269216423297
 20
114.2734818144648
 10
148.9475599171662
 20
114.2859918172609
 10
148.9668093879057
 20
114.3003750906994
 10
148.9845839271624
 20
114.3164916777783
 10
149.0007435779343
 20
114.3342231533421
 10
149.0151483832192
 20
114.3534618581584
 10
149.027690683785
 20
114.374057069302
 10
149.0382305226295
 20
114.3958903616173
 10
149.0466602405205
 20
114.4188325440256
 10
149.0528291145327
 20
114.4427651913712
 10
149.0566294854337
 20
114.4675698784987
 10
149.0579213962216
 20
114.493106648406
 10
149.0579213962216
 20
114.493106648406
 10
149.056640251357
 20
114.5187080138526
 10
149.0528183486094
 20
114.543555764673
 10
149.0466602405205
 20
114.5675422416348
 10
149.0382305226295
 20
114.5905167218128
 10
149.0276799178617
 20
114.612393077821
 10
149.015137617296
 20
114.6330205867343
 10
149.0007328120111
 20
114.6522700574739
 10
148.9845839271624
 20
114.6700230648841
 10
148.966820153829
 20
114.6861504178863
 10
148.9475491512429
 20
114.700544457248
 10
148.9269216423297
 20
114.7130652259673
 10
148.9050775840911
 20
114.7235835329654
 10
148.8821031039131
 20
114.7319917190099
 10
148.858148924721
 20
114.7381498270988
 10
148.8333334716703
 20
114.7419286661534
 10
148.807796701763
 20
114.7432205769413
 10
148.807796701763
 20
114.7432205769413
 10
148.7822599318558
 20
114.7419179002302
 10
148.757444478805
 20
114.7381498270988
 10
148.7334902996129
 20
114.7319917190099
 10
148.710515819435
 20
114.7235835329654
 10
148.6886609952732
 20
114.7130544600441
 10
148.6680334863599
 20
114.700544457248
 10
148.6487732496971
 20
114.6861611838095
 10
148.6310094763637
 20
114.6700230648841
 10
148.614860591515
 20
114.6522592915507
 10
148.6004450203068
 20
114.6330098208111
 10
148.5879027197411
 20
114.612393077821
 10
148.5773628808965
 20
114.590527487736
 10
148.5689331630056
 20
114.5675422416348
 10
148.5627642889934
 20
114.543555764673
 10
148.5589639180924
 20
114.5187080138526
 10
148.5576720073045
 20
114.493106648406
 10
148.5576720073045
 20
114.493106648406
 10
148.5589746840156
 20
114.4675698784987
 10
148.5627642889934
 20
114.4427759572944
 10
148.5689331630056
 20
114.4188325440256
 10
148.5773628808965
 20
114.3958903616173
 10
148.5879027197411
 20
114.3740463033787
 10
148.6004342543836
 20
114.3534510922351
 10
148.6148498255918
 20
114.3342339192653
 10
148.6310094763637
 20
114.3164916777783
 10
148.6487840156204
 20
114.3003643247761
 10
148.6680442522831
 20
114.2859918172609
 10
148.6886609952732
 20
114.2734818144648
 10
148.710515819435
 20
114.2629635074667
 10
148.7334902996129
 20
114.2545660873455
 10
148.757444478805
 20
114.2484079792565
 10
148.7822599318558
 20
114.244629140202
 97
        0
 75
     1
 76
     1
 98
        0
  0
LWPOLYLINE
  5
89
330
1F
100
AcDbEntity
  8
ISS138金台
  6
Continuous
 62
   250
420
  2367521
370
    13
100
AcDbPolyline
 90
       68
 70
     0
 43
0.0
 10
148.807796701763
 20
114.2433372294141
 10
148.8333334716703
 20
114.2446183742787
 10
148.8581381587978
 20
114.2484079792565
 10
148.8821031039131
 20
114.2545660873455
 10
148.9050775840911
 20
114.2629635074667
 10
148.9269216423297
 20
114.2734818144648
 10
148.9475599171662
 20
114.2859918172609
 10
148.9668093879057
 20
114.3003750906994
 10
148.9845839271624
 20
114.3164916777783
 10
149.0007435779343
 20
114.3342231533421
 10
149.0151483832192
 20
114.3534618581584
 10
149.027690683785
 20
114.374057069302
 10
149.0382305226295
 20
114.3958903616173
 10
149.0466602405205
 20
114.4188325440256
 10
149.0528291145327
 20
114.4427651913712
 10
149.0566294854337
 20
114.4675698784987
 10
149.0579213962216
 20
114.493106648406
 10
149.0579213962216
 20
114.493106648406
 10
149.056640251357
 20
114.5187080138526
 10
149.0528183486094
 20
114.543555764673
 10
149.0466602405205
 20
114.5675422416348
 10
149.0382305226295
 20
114.5905167218128
 10
149.0276799178617
 20
114.612393077821
 10
149.015137617296
 20
114.6330205867343
 10
149.0007328120111
 20
114.6522700574739
 10
148.9845839271624
 20
114.6700230648841
 10
148.966820153829
 20
114.6861504178863
 10
148.9475491512429
 20
114.700544457248
 10
148.9269216423297
 20
114.7130652259673
 10
148.9050775840911
 20
114.7235835329654
 10
148.8821031039131
 20
114.7319917190099
 10
148.858148924721
 20
114.7381498270988
 10
148.8333334716703
 20
114.7419286661534
 10
148.807796701763
 20
114.7432205769413
 10
148.807796701763
 20
114.7432205769413
 10
148.7822599318558
 20
114.7419179002302
 10
148.757444478805
 20
114.7381498270988
 10
148.7334902996129
 20
114.7319917190099
 10
148.710515819435
 20
114.7235835329654
 10
148.6886609952732
 20
114.7130544600441
 10
148.6680334863599
 20
114.700544457248
 10
148.6487732496971
 20
114.6861611838095
 10
148.6310094763637
 20
114.6700230648841
 10
148.614860591515
 20
114.6522592915507
 10
148.6004450203068
 20
114.6330098208111
 10
148.5879027197411
 20
114.612393077821
 10
148.5773628808965
 20
114.590527487736
 10
148.5689331630056
 20
114.5675422416348
 10
148.5627642889934
 20
114.543555764673
 10
148.5589639180924
 20
114.5187080138526
 10
148.5576720073045
 20
114.493106648406
 10
148.5576720073045
 20
114.493106648406
 10
148.5589746840156
 20
114.4675698784987
 10
148.5627642889934
 20
114.4427759572944
 10
148.5689331630056
 20
114.4188325440256
 10
148.5773628808965
 20
114.3958903616173
 10
148.5879027197411
 20
114.3740463033787
 10
148.6004342543836
 20
114.3534510922351
 10
148.6148498255918
 20
114.3342339192653
 10
148.6310094763637
 20
114.3164916777783
 10
148.6487840156204
 20
114.3003643247761
 10
148.6680442522831
 20
114.2859918172609
 10
148.6886609952732
 20
114.2734818144648
 10
148.710515819435
 20
114.2629635074667
 10
148.7334902996129
 20
114.2545660873455
 10
148.757444478805
 20
114.2484079792565
 10
148.7822599318558
 20
114.244629140202
 10
148.807796701763
 20
114.2433372294141
  0
HATCH
  5
8A
330
1F
100
AcDbEntity
  8
ISS138金台
  6
Continuous
 62
   250
420
  2367521
370
    13
100
AcDbHatch
 10
0.0
 20
0.0
 30
0.0
210
0.0
220
0.0
230
1.0
  2
SOLID
 70
     1
 71
     0
 91
        1
 92
        3
 72
     0
 73
     1
 93
       67
 10
153.8128313488172
 20
114.2433372294141
 10
153.8383788846477
 20
114.2446183742787
 10
153.8631728058519
 20
114.2484079792565
 10
153.8871377509673
 20
114.2545660873455
 10
153.9101122311452
 20
114.2629635074667
 10
153.931967055307
 20
114.2734818144648
 10
153.9525945642203
 20
114.2859918172609
 10
153.9718548008831
 20
114.3003750906994
 10
153.9896185742166
 20
114.3164916777783
 10
154.0057674590652
 20
114.3342231533421
 10
154.0201830302734
 20
114.3534618581584
 10
154.0327360967624
 20
114.374057069302
 10
154.0432651696837
 20
114.3958903616173
 10
154.0516948875746
 20
114.4188325440256
 10
154.0578637615868
 20
114.4427651913712
 10
154.0616641324879
 20
114.4675698784987
 10
154.0629560432757
 20
114.493106648406
 10
154.0629560432757
 20
114.493106648406
 10
154.0616641324879
 20
114.5187080138526
 10
154.0578529956636
 20
114.543555764673
 10
154.0516948875746
 20
114.5675422416348
 10
154.0432651696837
 20
114.5905167218128
 10
154.0327253308391
 20
114.612393077821
 10
154.0201722643502
 20
114.6330205867343
 10
154.0057674590652
 20
114.6522700574739
 10
153.9896185742166
 20
114.6700230648841
 10
153.9718440349599
 20
114.6861504178863
 10
153.9525837982971
 20
114.700544457248
 10
153.931967055307
 20
114.7130652259673
 10
153.9101122311452
 20
114.7235835329654
 10
153.8871377509673
 20
114.7319917190099
 10
153.8631835717752
 20
114.7381498270988
 10
153.8383681187244
 20
114.7419286661534
 10
153.8128313488172
 20
114.7432205769413
 10
153.8128313488172
 20
114.7432205769413
 10
153.7872945789099
 20
114.7419179002302
 10
153.7624791258592
 20
114.7381498270988
 10
153.7385357125903
 20
114.7319917190099
 10
153.7155504664891
 20
114.7235835329654
 10
153.6937064082506
 20
114.7130544600441
 10
153.673068133414
 20
114.700544457248
 10
153.6538078967513
 20
114.6861611838095
 10
153.6360441234178
 20
114.6700230648841
 10
153.6198952385692
 20
114.6522592915507
 10
153.605479667361
 20
114.6330098208111
 10
153.5929373667952
 20
114.612393077821
 10
153.5823975279507
 20
114.590527487736
 10
153.5739678100597
 20
114.5675422416348
 10
153.5677989360476
 20
114.543555764673
 10
153.5639985651465
 20
114.5187080138526
 10
153.5627066543586
 20
114.493106648406
 10
153.5627066543586
 20
114.493106648406
 10
153.5639985651465
 20
114.4675698784987
 10
153.5677989360476
 20
114.4427759572944
 10
153.5739678100597
 20
114.4188325440256
 10
153.5823975279507
 20
114.3958903616173
 10
153.5929481327184
 20
114.3740463033787
 10
153.6054689014377
 20
114.3534510922351
 10
153.6198844726459
 20
114.3342339192653
 10
153.6360441234178
 20
114.3164916777783
 10
153.6538078967513
 20
114.3003643247761
 10
153.6730788993373
 20
114.2859918172609
 10
153.6936956423273
 20
114.2734818144648
 10
153.7155504664891
 20
114.2629635074667
 10
153.7385249466671
 20
114.2545660873455
 10
153.7624791258592
 20
114.2484079792565
 10
153.7872945789099
 20
114.244629140202
 97
        0
 75
     1
 76
     1
 98
        0
  0
LWPOLYLINE
  5
8B
330
1F
100
AcDbEntity
  8
ISS138金台
  6
Continuous
 62
   250
420
  2367521
370
    13
100
AcDbPolyline
 90
       68
 70
     0
 43
0.0
 10
153.8128313488172
 20
114.2433372294141
 10
153.8383788846477
 20
114.2446183742787
 10
153.8631728058519
 20
114.2484079792565
 10
153.8871377509673
 20
114.2545660873455
 10
153.9101122311452
 20
114.2629635074667
 10
153.931967055307
 20
114.2734818144648
 10
153.9525945642203
 20
114.2859918172609
 10
153.9718548008831
 20
114.3003750906994
 10
153.9896185742166
 20
114.3164916777783
 10
154.0057674590652
 20
114.3342231533421
 10
154.0201830302734
 20
114.3534618581584
 10
154.0327360967624
 20
114.374057069302
 10
154.0432651696837
 20
114.3958903616173
 10
154.0516948875746
 20
114.4188325440256
 10
154.0578637615868
 20
114.4427651913712
 10
154.0616641324879
 20
114.4675698784987
 10
154.0629560432757
 20
114.493106648406
 10
154.0629560432757
 20
114.493106648406
 10
154.0616641324879
 20
114.5187080138526
 10
154.0578529956636
 20
114.543555764673
 10
154.0516948875746
 20
114.5675422416348
 10
154.0432651696837
 20
114.5905167218128
 10
154.0327253308391
 20
114.612393077821
 10
154.0201722643502
 20
114.6330205867343
 10
154.0057674590652
 20
114.6522700574739
 10
153.9896185742166
 20
114.6700230648841
 10
153.9718440349599
 20
114.6861504178863
 10
153.9525837982971
 20
114.700544457248
 10
153.931967055307
 20
114.7130652259673
 10
153.9101122311452
 20
114.7235835329654
 10
153.8871377509673
 20
114.7319917190099
 10
153.8631835717752
 20
114.7381498270988
 10
153.8383681187244
 20
114.7419286661534
 10
153.8128313488172
 20
114.7432205769413
 10
153.8128313488172
 20
114.7432205769413
 10
153.7872945789099
 20
114.7419179002302
 10
153.7624791258592
 20
114.7381498270988
 10
153.7385357125903
 20
114.7319917190099
 10
153.7155504664891
 20
114.7235835329654
 10
153.6937064082506
 20
114.7130544600441
 10
153.673068133414
 20
114.700544457248
 10
153.6538078967513
 20
114.6861611838095
 10
153.6360441234178
 20
114.6700230648841
 10
153.6198952385692
 20
114.6522592915507
 10
153.605479667361
 20
114.6330098208111
 10
153.5929373667952
 20
114.612393077821
 10
153.5823975279507
 20
114.590527487736
 10
153.5739678100597
 20
114.5675422416348
 10
153.5677989360476
 20
114.543555764673
 10
153.5639985651465
 20
114.5187080138526
 10
153.5627066543586
 20
114.493106648406
 10
153.5627066543586
 20
114.493106648406
 10
153.5639985651465
 20
114.4675698784987
 10
153.5677989360476
 20
114.4427759572944
 10
153.5739678100597
 20
114.4188325440256
 10
153.5823975279507
 20
114.3958903616173
 10
153.5929481327184
 20
114.3740463033787
 10
153.6054689014377
 20
114.3534510922351
 10
153.6198844726459
 20
114.3342339192653
 10
153.6360441234178
 20
114.3164916777783
 10
153.6538078967513
 20
114.3003643247761
 10
153.6730788993373
 20
114.2859918172609
 10
153.6936956423273
 20
114.2734818144648
 10
153.7155504664891
 20
114.2629635074667
 10
153.7385249466671
 20
114.2545660873455
 10
153.7624791258592
 20
114.2484079792565
 10
153.7872945789099
 20
114.244629140202
 10
153.8128313488172
 20
114.2433372294141
  0
TEXT
  5
8C
330
1F
100
AcDbEntity
  8
ISS138金台
  6
Continuous
 62
   250
420
  2367521
100
AcDbText
 10
106.7020448554225
 20
119.0465140887012
 30
0.0
 40
2.150533301035563
  1
20
 41
0.9460029602050779
  7
MS Gothic
100
AcDbText
  0
TEXT
  5
8D
330
1F
100
AcDbEntity
  8
ISS138金台
  6
Continuous
 62
   250
420
  2367521
100
AcDbText
 10
119.3371369135194
 20
98.54025100284842
 30
0.0
 40
2.150533301035563
  1
45
 41
0.9440002441406249
  7
MS Gothic
100
AcDbText
  0
TEXT
  5
8E
330
1F
100
AcDbEntity
  8
ISS138金台
  6
Continuous
 62
   250
420
  2367521
100
AcDbText
 10
147.9551000111458
 20
107.5536939612512
 30
0.0
 40
2.150533301035563
  1
10
 50
90.00000250447816
 41
0.9978761672973631
  7
MS Gothic
100
AcDbText
  0
TEXT
  5
8F
330
1F
100
AcDbEntity
  8
ISS138金台
  6
Continuous
 62
   250
420
  2367521
100
AcDbText
 10
152.9560759051414
 20
106.4868986281518
 30
0.0
 40
2.150533301035563
  1
11 .  5
 50
90.00000250447816
 41
0.4767245224543979
  7
MS Gothic
100
AcDbText
  0
ENDSEC
  0
SECTION
  2
OBJECTS
  0
DICTIONARY
  5
C
330
0
100
AcDbDictionary
281
     1
  3
ACAD_DETAILVIEWSTYLE
350
97
  3
ACAD_GROUP
350
D
  3
ACAD_LAYOUT
350
1A
  3
ACAD_MATERIAL
350
43
  3
ACAD_MLEADERSTYLE
350
5B
  3
ACAD_MLINESTYLE
350
17
  3
ACAD_PLOTSETTINGS
350
19
  3
ACAD_PLOTSTYLENAME
350
E
  3
ACAD_SCALELIST
350
47
  3
ACAD_SECTIONVIEWSTYLE
350
98
  3
ACAD_TABLESTYLE
350
59
  3
ACAD_VISUALSTYLE
350
2A
  3
ACDB_RECOMPOSE_DATA
350
94
  3
AcDbVariableDictionary
350
90
  0
SUN
  5
5D
330
29
100
AcDbSun
 90
        1
290
     0
 63
     7
421
 16777215
 40
1.0
291
     1
 91
  2455826
 92
 54000000
292
     0
 70
     2
 71
   256
280
     1
  0
DICTIONARY
  5
97
102
{ACAD_REACTORS
330
C
102
}
330
C
100
AcDbDictionary
281
     1
  0
DICTIONARY
  5
D
102
{ACAD_REACTORS
330
C
102
}
330
C
100
AcDbDictionary
281
     1
  0
DICTIONARY
  5
1A
102
{ACAD_REACTORS
330
C
102
}
330
C
100
AcDbDictionary
281
     1
  3
Layout1
350
1E
  3
Layout2
350
26
  3
Model
350
22
  0
DICTIONARY
  5
43
102
{ACAD_REACTORS
330
C
102
}
330
C
100
AcDbDictionary
281
     1
  3
ByBlock
350
45
  3
ByLayer
350
44
  3
Global
350
46
  0
DICTIONARY
  5
5B
102
{ACAD_REACTORS
330
C
102
}
330
C
100
AcDbDictionary
281
     1
  3
Standard
350
5C
  0
DICTIONARY
  5
17
102
{ACAD_REACTORS
330
C
102
}
330
C
100
AcDbDictionary
281
     1
  3
Standard
350
18
  0
DICTIONARY
  5
19
102
{ACAD_REACTORS
330
C
102
}
330
C
100
AcDbDictionary
281
     1
  0
ACDBDICTIONARYWDFLT
  5
E
102
{ACAD_REACTORS
330
C
102
}
330
C
100
AcDbDictionary
281
     1
  3
Normal
350
F
100
AcDbDictionaryWithDefault
340
F
  0
DICTIONARY
  5
47
102
{ACAD_REACTORS
330
C
102
}
330
C
100
AcDbDictionary
281
     1
  3
A0
350
48
  3
A1
350
49
  3
A2
350
4A
  3
A3
350
4B
  3
A4
350
4C
  3
A5
350
4D
  3
A6
350
4E
  3
A7
350
4F
  3
A8
350
50
  3
A9
350
51
  3
B0
350
52
  3
B1
350
53
  3
B2
350
54
  3
B3
350
55
  3
B4
350
56
  3
B5
350
57
  3
B6
350
58
  0
DICTIONARY
  5
98
102
{ACAD_REACTORS
330
C
102
}
330
C
100
AcDbDictionary
281
     1
  0
DICTIONARY
  5
59
102
{ACAD_REACTORS
330
C
102
}
330
C
100
AcDbDictionary
281
     1
  3
Standard
350
5A
  0
DICTIONARY
  5
2A
102
{ACAD_REACTORS
330
C
102
}
330
C
100
AcDbDictionary
281
     1
  3
2dWireframe
350
2F
  3
Basic
350
32
  3
Brighten
350
36
  3
ColorChange
350
3A
  3
Conceptual
350
34
  3
Dim
350
35
  3
EdgeColorOff
350
3D
  3
Facepattern
350
39
  3
Flat
350
2B
  3
FlatWithEdges
350
2C
  3
Gouraud
350
2D
  3
GouraudWithEdges
350
2E
  3
Hidden
350
31
  3
JitterOff
350
3B
  3
Linepattern
350
38
  3
OverhangOff
350
3C
  3
Realistic
350
33
  3
Shaded
350
42
  3
Shaded with edges
350
41
  3
Shades of Gray
350
3E
  3
Sketchy
350
3F
  3
Thicken
350
37
  3
Wireframe
350
30
  3
X-Ray
350
40
  0
XRECORD
  5
94
102
{ACAD_REACTORS
330
C
102
}
330
C
100
AcDbXrecord
280
     1
 90
        1
330
5A
  0
DICTIONARY
  5
90
102
{ACAD_REACTORS
330
C
102
}
330
C
100
AcDbDictionary
281
     1
  3
CANNOSCALE
350
91
  3
CENTEREXE
350
99
  3
CENTERLTYPEFILE
350
9A
  3
CMLEADERSTYLE
350
96
  3
CTABLESTYLE
350
95
  0
LAYOUT
  5
1E
102
{ACAD_REACTORS
330
1A
102
}
330
1A
100
AcDbPlotSettings
  1

  2
none_device
  4

  6

 40
0.0
 41
0.0
 42
0.0
 43
0.0
 44
0.0
 45
0.0
 46
0.0
 47
0.0
 48
0.0
 49
0.0
140
0.0
141
0.0
142
1.0
143
1.0
 70
   688
 72
     1
 73
     0
 74
     5
  7

 75
    16
 76
     0
 77
     5
 78
   300
147
1.0
148
0.0
149
0.0
100
AcDbLayout
  1
Layout1
 70
     1
 71
     1
 10
0.0
 20
0.0
 11
420.0
 21
297.0
 12
0.0
 22
0.0
 32
0.0
 14
1.000000000000000E+20
 24
1.000000000000000E+20
 34
1.000000000000000E+20
 15
-1.000000000000000E+20
 25
-1.000000000000000E+20
 35
-1.000000000000000E+20
146
0.0
 13
0.0
 23
0.0
 33
0.0
 16
1.0
 26
0.0
 36
0.0
 17
0.0
 27
1.0
 37
0.0
 76
     0
330
1B
  0
LAYOUT
  5
26
102
{ACAD_REACTORS
330
1A
102
}
330
1A
100
AcDbPlotSettings
  1

  2
none_device
  4

  6

 40
0.0
 41
0.0
 42
0.0
 43
0.0
 44
0.0
 45
0.0
 46
0.0
 47
0.0
 48
0.0
 49
0.0
140
0.0
141
0.0
142
1.0
143
1.0
 70
   688
 72
     1
 73
     0
 74
     5
  7

 75
    16
 76
     0
 77
     5
 78
   300
147
1.0
148
0.0
149
0.0
100
AcDbLayout
  1
Layout2
 70
     1
 71
     2
 10
0.0
 20
0.0
 11
0.0
 21
0.0
 12
0.0
 22
0.0
 32
0.0
 14
0.0
 24
0.0
 34
0.0
 15
0.0
 25
0.0
 35
0.0
146
0.0
 13
0.0
 23
0.0
 33
0.0
 16
1.0
 26
0.0
 36
0.0
 17
0.0
 27
1.0
 37
0.0
 76
     0
330
23
  0
LAYOUT
  5
22
102
{ACAD_REACTORS
330
1A
102
}
330
1A
100
AcDbPlotSettings
  1

  2
none_device
  4
Letter_(8.50_x_11.00_Inches)
  6

 40
6.35
 41
6.35
 42
6.35000508
 43
6.35000508
 44
215.9
 45
279.4
 46
0.0
 47
0.0
 48
0.0
 49
0.0
140
0.0
141
0.0
142
1.0
143
1.0
 70
  1712
 72
     1
 73
     0
 74
     0
  7

 75
     0
 76
     0
 77
     5
 78
   300
147
1.0
148
0.0
149
0.0
100
AcDbLayout
  1
Model
 70
     1
 71
     0
 10
0.0
 20
0.0
 11
302.9997823349792
 21
216.0016055409748
 12
0.0
 22
0.0
 32
0.0
 14
0.0
 24
0.0
 34
0.0
 15
302.9997823349792
 25
216.0016055409748
 35
0.0
146
0.0
 13
0.0
 23
0.0
 33
0.0
 16
1.0
 26
0.0
 36
0.0
 17
0.0
 27
1.0
 37
0.0
 76
     0
330
1F
331
29
  0
MATERIAL
  5
45
102
{ACAD_REACTORS
330
43
102
}
330
43
100
AcDbMaterial
  1
ByBlock
 72
     1
 94
      127
  0
MATERIAL
  5
44
102
{ACAD_REACTORS
330
43
102
}
330
43
100
AcDbMaterial
  1
ByLayer
 72
     1
 94
      127
  0
MATERIAL
  5
46
102
{ACAD_REACTORS
330
43
102
}
330
43
100
AcDbMaterial
  1
Global
 72
     1
 94
      127
  0
MLEADERSTYLE
  5
5C
102
{ACAD_REACTORS
330
5B
102
}
330
5B
100
AcDbMLeaderStyle
179
     2
170
     2
171
     1
172
     0
 90
        2
 40
0.0
 41
0.0
173
     1
 91
-1056964608
340
14
 92
       -2
290
     1
 42
2.0
291
     1
 43
8.0
  3
Standard
341
0
 44
4.0
300

342
11
174
     1
178
     6
175
     1
176
     0
 93
-1056964608
 45
4.0
292
     0
297
     0
 46
4.0
343
0
 94
-1056964608
 47
1.0
 49
1.0
140
1.0
293
     1
141
0.0
294
     1
177
     0
142
1.0
295
     0
296
     0
143
3.75
271
     0
272
     9
273
     9
298
     0
  0
MLINESTYLE
  5
18
102
{ACAD_REACTORS
330
17
102
}
330
17
100
AcDbMlineStyle
  2
Standard
 70
     0
  3

 62
   256
 51
90.0
 52
90.0
 71
     2
 49
0.5
 62
   256
  6
BYLAYER
 49
-0.5
 62
   256
  6
BYLAYER
  0
ACDBPLACEHOLDER
  5
F
102
{ACAD_REACTORS
330
E
102
}
330
E
  0
SCALE
  5
48
102
{ACAD_REACTORS
330
47
102
}
330
47
100
AcDbScale
 70
     0
300
1:1
140
1.0
141
1.0
290
     1
  0
SCALE
  5
49
102
{ACAD_REACTORS
330
47
102
}
330
47
100
AcDbScale
 70
     0
300
1:2
140
1.0
141
2.0
290
     0
  0
SCALE
  5
4A
102
{ACAD_REACTORS
330
47
102
}
330
47
100
AcDbScale
 70
     0
300
1:4
140
1.0
141
4.0
290
     0
  0
SCALE
  5
4B
102
{ACAD_REACTORS
330
47
102
}
330
47
100
AcDbScale
 70
     0
300
1:5
140
1.0
141
5.0
290
     0
  0
SCALE
  5
4C
102
{ACAD_REACTORS
330
47
102
}
330
47
100
AcDbScale
 70
     0
300
1:8
140
1.0
141
8.0
290
     0
  0
SCALE
  5
4D
102
{ACAD_REACTORS
330
47
102
}
330
47
100
AcDbScale
 70
     0
300
1:10
140
1.0
141
10.0
290
     0
  0
SCALE
  5
4E
102
{ACAD_REACTORS
330
47
102
}
330
47
100
AcDbScale
 70
     0
300
1:16
140
1.0
141
16.0
290
     0
  0
SCALE
  5
4F
102
{ACAD_REACTORS
330
47
102
}
330
47
100
AcDbScale
 70
     0
300
1:20
140
1.0
141
20.0
290
     0
  0
SCALE
  5
50
102
{ACAD_REACTORS
330
47
102
}
330
47
100
AcDbScale
 70
     0
300
1:30
140
1.0
141
30.0
290
     0
  0
SCALE
  5
51
102
{ACAD_REACTORS
330
47
102
}
330
47
100
AcDbScale
 70
     0
300
1:40
140
1.0
141
40.0
290
     0
  0
SCALE
  5
52
102
{ACAD_REACTORS
330
47
102
}
330
47
100
AcDbScale
 70
     0
300
1:50
140
1.0
141
50.0
290
     0
  0
SCALE
  5
53
102
{ACAD_REACTORS
330
47
102
}
330
47
100
AcDbScale
 70
     0
300
1:100
140
1.0
141
100.0
290
     0
  0
SCALE
  5
54
102
{ACAD_REACTORS
330
47
102
}
330
47
100
AcDbScale
 70
     0
300
2:1
140
2.0
141
1.0
290
     0
  0
SCALE
  5
55
102
{ACAD_REACTORS
330
47
102
}
330
47
100
AcDbScale
 70
     0
300
4:1
140
4.0
141
1.0
290
     0
  0
SCALE
  5
56
102
{ACAD_REACTORS
330
47
102
}
330
47
100
AcDbScale
 70
     0
300
8:1
140
8.0
141
1.0
290
     0
  0
SCALE
  5
57
102
{ACAD_REACTORS
330
47
102
}
330
47
100
AcDbScale
 70
     0
300
10:1
140
10.0
141
1.0
290
     0
  0
SCALE
  5
58
102
{ACAD_REACTORS
330
47
102
}
330
47
100
AcDbScale
 70
     0
300
100:1
140
100.0
141
1.0
290
     0
  0
TABLESTYLE
  5
5A
102
{ACAD_REACTORS
330
59
102
}
102
{ACAD_XDICTIONARY
360
92
102
}
330
59
100
AcDbTableStyle
  3
Standard
 70
     0
 71
     0
 40
0.06
 41
0.06
280
     0
281
     0
  7
Standard
140
4.5
170
     2
 62
     0
 63
   257
283
     0
 90
        4
 91
        0
  1

274
    -2
284
     1
 64
     0
275
    -2
285
     1
 65
     0
276
    -2
286
     1
 66
     0
277
    -2
287
     1
 67
     0
278
    -2
288
     1
 68
     0
279
    -2
289
     1
 69
     0
  7
Standard
140
6.0
170
     5
 62
     0
 63
   257
283
     0
 90
        4
 91
        0
  1

274
    -2
284
     1
 64
     0
275
    -2
285
     1
 65
     0
276
    -2
286
     1
 66
     0
277
    -2
287
     1
 67
     0
278
    -2
288
     1
 68
     0
279
    -2
289
     1
 69
     0
  7
Standard
140
4.5
170
     5
 62
     0
 63
   257
283
     0
 90
        4
 91
        0
  1

274
    -2
284
     1
 64
     0
275
    -2
285
     1
 65
     0
276
    -2
286
     1
 66
     0
277
    -2
287
     1
 67
     0
278
    -2
288
     1
 68
     0
279
    -2
289
     1
 69
     0
  0
VISUALSTYLE
  5
2F
102
{ACAD_REACTORS
330
2A
102
}
330
2A
100
AcDbVisualStyle
  2
2dWireframe
 70
     4
177
     3
291
     0
 70
    58
 90
        0
176
     1
 90
        2
176
     1
 90
        0
176
     1
 90
        0
176
     1
 40
0.6
176
     1
 40
30.0
176
     1
 62
     7
420
 16777215
176
     1
 90
        1
176
     1
 90
        4
176
     1
 62
     7
176
     1
 62
   257
176
     1
 90
        1
176
     1
 90
        1
176
     1
 40
1.0
176
     1
 90
        0
176
     1
 62
   257
176
     1
 40
1.0
176
     1
 90
        1
176
     1
 90
        6
176
     1
 90
        2
176
     1
 62
     7
176
     1
 90
        5
176
     1
 90
        0
176
     1
 90
        0
176
     1
290
     0
176
     1
 90
        1
176
     1
 40
0.0
176
     1
 90
        0
176
     1
290
     1
176
     1
290
     1
176
     1
290
     0
176
     1
290
     0
176
     1
290
     0
176
     1
290
     0
176
     1
290
     0
176
     1
290
     0
176
     1
290
     0
176
     1
 90
       50
176
     1
 40
0.0
176
     1
 40
1.0
176
     1
 90
        0
176
     1
 62
    18
420
        0
176
     1
 90
       50
176
     1
 90
        3
176
     1
 62
     5
420
      255
176
     1
290
     0
176
     1
 90
       50
176
     1
 90
       50
176
     1
 90
       50
176
     1
290
     0
176
     1
 90
       50
176
     1
 62
   256
176
     0
 40
1.0
176
     0
 90
        2
176
     1
  1
strokes_ogs.tif
176
     1
290
     0
176
     1
 40
1.0
176
     1
 40
1.0
176
     1
  0
VISUALSTYLE
  5
32
102
{ACAD_REACTORS
330
2A
102
}
330
2A
100
AcDbVisualStyle
  2
Basic
 70
     7
177
     3
291
     1
 70
    58
 90
        1
176
     1
 90
        0
176
     1
 90
        1
176
     1
 90
        0
176
     1
 40
0.6
176
     1
 40
30.0
176
     1
 62
     7
420
 16777215
176
     1
 90
        0
176
     1
 90
        4
176
     1
 62
     7
176
     1
 62
   257
176
     1
 90
        1
176
     1
 90
        1
176
     1
 40
1.0
176
     1
 90
        8
176
     1
 62
     7
176
     1
 40
1.0
176
     1
 90
        1
176
     1
 90
        6
176
     1
 90
        2
176
     1
 62
     7
176
     1
 90
        5
176
     1
 90
        0
176
     1
 90
        0
176
     1
290
     0
176
     1
 90
        1
176
     1
 40
0.0
176
     1
 90
        0
176
     1
290
     0
176
     1
290
     1
176
     1
290
     1
176
     1
290
     0
176
     1
290
     0
176
     1
290
     0
176
     1
290
     0
176
     1
290
     0
176
     1
290
     0
176
     1
 90
       50
176
     1
 40
0.0
176
     1
 40
1.0
176
     1
 90
        0
176
     1
 62
    18
420
        0
176
     1
 90
       50
176
     1
 90
        3
176
     1
 62
     5
420
      255
176
     1
290
     0
176
     1
 90
       50
176
     1
 90
       50
176
     1
 90
       50
176
     1
290
     0
176
     1
 90
       50
176
     1
 62
   256
176
     0
 40
1.0
176
     0
 90
        2
176
     1
  1
strokes_ogs.tif
176
     1
290
     0
176
     1
 40
1.0
176
     1
 40
1.0
176
     1
  0
VISUALSTYLE
  5
36
102
{ACAD_REACTORS
330
2A
102
}
330
2A
100
AcDbVisualStyle
  2
Brighten
 70
    12
177
     3
291
     1
 70
    58
 90
        2
176
     1
 90
        2
176
     1
 90
        0
176
     1
 90
        0
176
     1
 40
0.6
176
     1
 40
30.0
176
     1
 62
     7
420
 16777215
176
     1
 90
        1
176
     1
 90
        4
176
     1
 62
     7
176
     1
 62
   257
176
     1
 90
        1
176
     1
 90
        1
176
     1
 40
1.0
176
     1
 90
        8
176
     1
 62
     7
176
     1
 40
1.0
176
     1
 90
        1
176
     1
 90
        6
176
     1
 90
        2
176
     1
 62
     7
176
     1
 90
        5
176
     1
 90
        0
176
     1
 90
        0
176
     1
290
     0
176
     1
 90
        1
176
     1
 40
50.0
176
     1
 90
        0
176
     1
290
     0
176
     1
290
     1
176
     1
290
     1
176
     1
290
     0
176
     1
290
     0
176
     1
290
     0
176
     1
290
     0
176
     1
290
     0
176
     1
290
     0
176
     1
 90
       50
176
     1
 40
0.0
176
     1
 40
1.0
176
     1
 90
        0
176
     1
 62
    18
420
        0
176
     1
 90
       50
176
     1
 90
        3
176
     1
 62
     5
420
      255
176
     1
290
     0
176
     1
 90
       50
176
     1
 90
       50
176
     1
 90
       50
176
     1
290
     0
176
     1
 90
       50
176
     1
 62
   256
176
     0
 40
1.0
176
     0
 90
        2
176
     1
  1
strokes_ogs.tif
176
     1
290
     0
176
     1
 40
1.0
176
     1
 40
1.0
176
     1
  0
VISUALSTYLE
  5
3A
102
{ACAD_REACTORS
330
2A
102
}
330
2A
100
AcDbVisualStyle
  2
ColorChange
 70
    16
177
     3
291
     1
 70
    58
 90
        2
176
     1
 90
        2
176
     1
 90
        3
176
     1
 90
        0
176
     1
 40
0.6
176
     1
 40
30.0
176
     1
 62
     8
420
  8421504
176
     1
 90
        1
176
     1
 90
        4
176
     1
 62
     7
176
     1
 62
   257
176
     1
 90
        1
176
     1
 90
        1
176
     1
 40
1.0
176
     1
 90
        8
176
     1
 62
     8
420
  8421504
176
     1
 40
1.0
176
     1
 90
        1
176
     1
 90
        6
176
     1
 90
        2
176
     1
 62
     7
176
     1
 90
        5
176
     1
 90
        0
176
     1
 90
        0
176
     1
290
     0
176
     1
 90
        1
176
     1
 40
0.0
176
     1
 90
        0
176
     1
290
     0
176
     1
290
     1
176
     1
290
     1
176
     1
290
     0
176
     1
290
     0
176
     1
290
     0
176
     1
290
     0
176
     1
290
     0
176
     1
290
     0
176
     1
 90
       50
176
     1
 40
0.0
176
     1
 40
1.0
176
     1
 90
        0
176
     1
 62
    18
420
        0
176
     1
 90
       50
176
     1
 90
        3
176
     1
 62
     5
420
      255
176
     1
290
     0
176
     1
 90
       50
176
     1
 90
       50
176
     1
 90
       50
176
     1
290
     0
176
     1
 90
       50
176
     1
 62
   256
176
     0
 40
1.0
176
     0
 90
        2
176
     1
  1
strokes_ogs.tif
176
     1
290
     0
176
     1
 40
1.0
176
     1
 40
1.0
176
     1
  0
VISUALSTYLE
  5
34
102
{ACAD_REACTORS
330
2A
102
}
330
2A
100
AcDbVisualStyle
  2
Conceptual
 70
     9
177
     3
291
     0
 70
    58
 90
        3
176
     1
 90
        2
176
     1
 90
        0
176
     1
 90
        0
176
     1
 40
0.6
176
     1
 40
30.0
176
     1
 62
     7
420
 16777215
176
     1
 90
        2
176
     1
 90
        2
176
     1
 62
     7
176
     1
 62
   257
176
     1
 90
        1
176
     1
 90
        1
176
     1
 40
179.0
176
     1
 90
        8
176
     1
 62
     7
176
     1
 40
1.0
176
     1
 90
        1
176
     1
 90
        6
176
     1
 90
        2
176
     1
 62
     7
176
     1
 90
        3
176
     1
 90
        0
176
     1
 90
        0
176
     1
290
     0
176
     1
 90
        1
176
     1
 40
0.0
176
     1
 90
        0
176
     1
290
     0
176
     1
290
     1
176
     1
290
     1
176
     1
290
     0
176
     1
290
     0
176
     1
290
     0
176
     1
290
     0
176
     1
290
     0
176
     1
290
     0
176
     1
 90
       50
176
     1
 40
0.0
176
     1
 40
1.0
176
     1
 90
        0
176
     1
 62
    18
420
        0
176
     1
 90
       50
176
     1
 90
        3
176
     1
 62
     5
420
      255
176
     1
290
     0
176
     1
 90
       50
176
     1
 90
       50
176
     1
 90
       50
176
     1
290
     0
176
     1
 90
       50
176
     1
 62
   256
176
     0
 40
1.0
176
     0
 90
        2
176
     1
  1
strokes_ogs.tif
176
     1
290
     0
176
     1
 40
1.0
176
     1
 40
1.0
176
     1
  0
VISUALSTYLE
  5
35
102
{ACAD_REACTORS
330
2A
102
}
330
2A
100
AcDbVisualStyle
  2
Dim
 70
    11
177
     3
291
     1
 70
    58
 90
        2
176
     1
 90
        2
176
     1
 90
        0
176
     1
 90
        0
176
     1
 40
0.6
176
     1
 40
30.0
176
     1
 62
     7
420
 16777215
176
     1
 90
        1
176
     1
 90
        4
176
     1
 62
     7
176
     1
 62
   257
176
     1
 90
        1
176
     1
 90
        1
176
     1
 40
1.0
176
     1
 90
        8
176
     1
 62
     7
176
     1
 40
1.0
176
     1
 90
        1
176
     1
 90
        6
176
     1
 90
        2
176
     1
 62
     7
176
     1
 90
        5
176
     1
 90
        0
176
     1
 90
        0
176
     1
290
     0
176
     1
 90
        1
176
     1
 40
-50.0
176
     1
 90
        0
176
     1
290
     0
176
     1
290
     1
176
     1
290
     1
176
     1
290
     0
176
     1
290
     0
176
     1
290
     0
176
     1
290
     0
176
     1
290
     0
176
     1
290
     0
176
     1
 90
       50
176
     1
 40
0.0
176
     1
 40
1.0
176
     1
 90
        0
176
     1
 62
    18
420
        0
176
     1
 90
       50
176
     1
 90
        3
176
     1
 62
     5
420
      255
176
     1
290
     0
176
     1
 90
       50
176
     1
 90
       50
176
     1
 90
       50
176
     1
290
     0
176
     1
 90
       50
176
     1
 62
   256
176
     0
 40
1.0
176
     0
 90
        2
176
     1
  1
strokes_ogs.tif
176
     1
290
     0
176
     1
 40
1.0
176
     1
 40
1.0
176
     1
  0
VISUALSTYLE
  5
3D
102
{ACAD_REACTORS
330
2A
102
}
330
2A
100
AcDbVisualStyle
  2
EdgeColorOff
 70
    22
177
     3
291
     1
 70
    58
 90
        2
176
     0
 90
        2
176
     0
 90
        0
176
     0
 90
        0
176
     0
 40
0.6
176
     0
 40
30.0
176
     0
 62
     7
420
 16777215
176
     0
 90
        1
176
     0
 90
        4
176
     0
 62
     7
176
     0
 62
   257
176
     0
 90
        1
176
     0
 90
        1
176
     0
 40
1.0
176
     0
 90
        8
176
     2
 62
     7
176
     0
 40
1.0
176
     0
 90
        1
176
     0
 90
        6
176
     0
 90
        2
176
     0
 62
     7
176
     0
 90
        5
176
     0
 90
        0
176
     0
 90
        0
176
     0
290
     0
176
     0
 90
        1
176
     0
 40
0.0
176
     0
 90
        0
176
     0
290
     0
176
     0
290
     1
176
     0
290
     1
176
     0
290
     0
176
     0
290
     0
176
     0
290
     0
176
     0
290
     0
176
     0
290
     0
176
     0
290
     0
176
     0
 90
       50
176
     0
 40
0.0
176
     0
 40
1.0
176
     0
 90
        0
176
     0
 62
    18
420
        0
176
     0
 90
       50
176
     0
 90
        3
176
     0
 62
     5
420
      255
176
     0
290
     0
176
     0
 90
       50
176
     0
 90
       50
176
     0
 90
       50
176
     0
290
     0
176
     0
 90
       50
176
     0
 62
   256
176
     0
 40
1.0
176
     0
 90
        2
176
     0
  1
strokes_ogs.tif
176
     0
290
     0
176
     0
 40
1.0
176
     0
 40
1.0
176
     0
  0
VISUALSTYLE
  5
39
102
{ACAD_REACTORS
330
2A
102
}
330
2A
100
AcDbVisualStyle
  2
Facepattern
 70
    15
177
     3
291
     1
 70
    58
 90
        2
176
     1
 90
        2
176
     1
 90
        0
176
     1
 90
        0
176
     1
 40
0.6
176
     1
 40
30.0
176
     1
 62
     7
420
 16777215
176
     1
 90
        1
176
     1
 90
        4
176
     1
 62
     7
176
     1
 62
   257
176
     1
 90
        1
176
     1
 90
        1
176
     1
 40
1.0
176
     1
 90
        8
176
     1
 62
     7
176
     1
 40
1.0
176
     1
 90
        1
176
     1
 90
        6
176
     1
 90
        2
176
     1
 62
     7
176
     1
 90
        5
176
     1
 90
        0
176
     1
 90
        0
176
     1
290
     0
176
     1
 90
        1
176
     1
 40
0.0
176
     1
 90
        0
176
     1
290
     0
176
     1
290
     1
176
     1
290
     1
176
     1
290
     0
176
     1
290
     0
176
     1
290
     0
176
     1
290
     0
176
     1
290
     0
176
     1
290
     0
176
     1
 90
       50
176
     1
 40
0.0
176
     1
 40
1.0
176
     1
 90
        0
176
     1
 62
    18
420
        0
176
     1
 90
       50
176
     1
 90
        3
176
     1
 62
     5
420
      255
176
     1
290
     0
176
     1
 90
       50
176
     1
 90
       50
176
     1
 90
       50
176
     1
290
     0
176
     1
 90
       50
176
     1
 62
   256
176
     0
 40
1.0
176
     0
 90
        2
176
     1
  1
strokes_ogs.tif
176
     1
290
     0
176
     1
 40
1.0
176
     1
 40
1.0
176
     1
  0
VISUALSTYLE
  5
2B
102
{ACAD_REACTORS
330
2A
102
}
330
2A
100
AcDbVisualStyle
  2
Flat
 70
     0
177
     3
291
     1
 70
    58
 90
        2
176
     1
 90
        1
176
     1
 90
        1
176
     1
 90
        2
176
     1
 40
0.6
176
     1
 40
30.0
176
     1
 62
     7
420
 16777215
176
     1
 90
        0
176
     1
 90
        0
176
     1
 62
     7
176
     1
 62
   257
176
     1
 90
        1
176
     1
 90
        1
176
     1
 40
1.0
176
     1
 90
        8
176
     1
 62
     7
176
     1
 40
1.0
176
     1
 90
        1
176
     1
 90
        6
176
     1
 90
        2
176
     1
 62
     7
176
     1
 90
        5
176
     1
 90
        0
176
     1
 90
        0
176
     1
290
     0
176
     1
 90
       13
176
     1
 40
0.0
176
     1
 90
        0
176
     1
290
     0
176
     1
290
     1
176
     1
290
     1
176
     1
290
     0
176
     1
290
     0
176
     1
290
     0
176
     1
290
     0
176
     1
290
     0
176
     1
290
     0
176
     1
 90
       50
176
     1
 40
0.0
176
     1
 40
1.0
176
     1
 90
        0
176
     1
 62
    18
420
        0
176
     1
 90
       50
176
     1
 90
        3
176
     1
 62
     5
420
      255
176
     1
290
     0
176
     1
 90
       50
176
     1
 90
       50
176
     1
 90
       50
176
     1
290
     0
176
     1
 90
       50
176
     1
 62
   256
176
     0
 40
1.0
176
     0
 90
        2
176
     1
  1
strokes_ogs.tif
176
     1
290
     0
176
     1
 40
1.0
176
     1
 40
1.0
176
     1
  0
VISUALSTYLE
  5
2C
102
{ACAD_REACTORS
330
2A
102
}
330
2A
100
AcDbVisualStyle
  2
FlatWithEdges
 70
     1
177
     3
291
     1
 70
    58
 90
        2
176
     1
 90
        1
176
     1
 90
        1
176
     1
 90
        2
176
     1
 40
0.6
176
     1
 40
30.0
176
     1
 62
     7
420
 16777215
176
     1
 90
        1
176
     1
 90
        0
176
     1
 62
     7
176
     1
 62
   257
176
     1
 90
        1
176
     1
 90
        1
176
     1
 40
1.0
176
     1
 90
        0
176
     1
 62
   257
176
     1
 40
1.0
176
     1
 90
        1
176
     1
 90
        6
176
     1
 90
        2
176
     1
 62
     7
176
     1
 90
        5
176
     1
 90
        0
176
     1
 90
        0
176
     1
290
     0
176
     1
 90
       13
176
     1
 40
0.0
176
     1
 90
        0
176
     1
290
     0
176
     1
290
     1
176
     1
290
     1
176
     1
290
     0
176
     1
290
     0
176
     1
290
     0
176
     1
290
     0
176
     1
290
     0
176
     1
290
     0
176
     1
 90
       50
176
     1
 40
0.0
176
     1
 40
1.0
176
     1
 90
        0
176
     1
 62
    18
420
        0
176
     1
 90
       50
176
     1
 90
        3
176
     1
 62
     5
420
      255
176
     1
290
     0
176
     1
 90
       50
176
     1
 90
       50
176
     1
 90
       50
176
     1
290
     0
176
     1
 90
       50
176
     1
 62
   256
176
     0
 40
1.0
176
     0
 90
        2
176
     1
  1
strokes_ogs.tif
176
     1
290
     0
176
     1
 40
1.0
176
     1
 40
1.0
176
     1
  0
VISUALSTYLE
  5
2D
102
{ACAD_REACTORS
330
2A
102
}
330
2A
100
AcDbVisualStyle
  2
Gouraud
 70
     2
177
     3
291
     1
 70
    58
 90
        2
176
     1
 90
        2
176
     1
 90
        1
176
     1
 90
        2
176
     1
 40
0.6
176
     1
 40
30.0
176
     1
 62
     7
420
 16777215
176
     1
 90
        0
176
     1
 90
        0
176
     1
 62
     7
176
     1
 62
   257
176
     1
 90
        1
176
     1
 90
        1
176
     1
 40
1.0
176
     1
 90
        0
176
     1
 62
     7
176
     1
 40
1.0
176
     1
 90
        1
176
     1
 90
        6
176
     1
 90
        2
176
     1
 62
     7
176
     1
 90
        5
176
     1
 90
        0
176
     1
 90
        0
176
     1
290
     0
176
     1
 90
       13
176
     1
 40
0.0
176
     1
 90
        0
176
     1
290
     0
176
     1
290
     1
176
     1
290
     1
176
     1
290
     0
176
     1
290
     0
176
     1
290
     0
176
     1
290
     0
176
     1
290
     0
176
     1
290
     0
176
     1
 90
       50
176
     1
 40
0.0
176
     1
 40
1.0
176
     1
 90
        0
176
     1
 62
    18
420
        0
176
     1
 90
       50
176
     1
 90
        3
176
     1
 62
     5
420
      255
176
     1
290
     0
176
     1
 90
       50
176
     1
 90
       50
176
     1
 90
       50
176
     1
290
     0
176
     1
 90
       50
176
     1
 62
   256
176
     0
 40
1.0
176
     0
 90
        2
176
     1
  1
strokes_ogs.tif
176
     1
290
     0
176
     1
 40
1.0
176
     1
 40
1.0
176
     1
  0
VISUALSTYLE
  5
2E
102
{ACAD_REACTORS
330
2A
102
}
330
2A
100
AcDbVisualStyle
  2
GouraudWithEdges
 70
     3
177
     3
291
     1
 70
    58
 90
        2
176
     1
 90
        2
176
     1
 90
        1
176
     1
 90
        2
176
     1
 40
0.6
176
     1
 40
30.0
176
     1
 62
     7
420
 16777215
176
     1
 90
        1
176
     1
 90
        0
176
     1
 62
     7
176
     1
 62
   257
176
     1
 90
        1
176
     1
 90
        1
176
     1
 40
1.0
176
     1
 90
        0
176
     1
 62
   257
176
     1
 40
1.0
176
     1
 90
        1
176
     1
 90
        6
176
     1
 90
        2
176
     1
 62
     7
176
     1
 90
        5
176
     1
 90
        0
176
     1
 90
        0
176
     1
290
     0
176
     1
 90
       13
176
     1
 40
0.0
176
     1
 90
        0
176
     1
290
     0
176
     1
290
     1
176
     1
290
     1
176
     1
290
     0
176
     1
290
     0
176
     1
290
     0
176
     1
290
     0
176
     1
290
     0
176
     1
290
     0
176
     1
 90
       50
176
     1
 40
0.0
176
     1
 40
1.0
176
     1
 90
        0
176
     1
 62
    18
420
        0
176
     1
 90
       50
176
     1
 90
        3
176
     1
 62
     5
420
      255
176
     1
290
     0
176
     1
 90
       50
176
     1
 90
       50
176
     1
 90
       50
176
     1
290
     0
176
     1
 90
       50
176
     1
 62
   256
176
     0
 40
1.0
176
     0
 90
        2
176
     1
  1
strokes_ogs.tif
176
     1
290
     0
176
     1
 40
1.0
176
     1
 40
1.0
176
     1
  0
VISUALSTYLE
  5
31
102
{ACAD_REACTORS
330
2A
102
}
330
2A
100
AcDbVisualStyle
  2
Hidden
 70
     6
177
     3
291
     0
 70
    58
 90
        1
176
     1
 90
        2
176
     1
 90
        2
176
     1
 90
        0
176
     1
 40
0.6
176
     1
 40
30.0
176
     1
 62
     7
420
 16777215
176
     1
 90
        2
176
     1
 90
        2
176
     1
 62
     7
176
     1
 62
   257
176
     1
 90
        2
176
     1
 90
        1
176
     1
 40
40.0
176
     1
 90
        0
176
     1
 62
   257
176
     1
 40
1.0
176
     1
 90
        1
176
     1
 90
        6
176
     1
 90
        2
176
     1
 62
     7
176
     1
 90
        3
176
     1
 90
        0
176
     1
 90
        0
176
     1
290
     0
176
     1
 90
        1
176
     1
 40
0.0
176
     1
 90
        0
176
     1
290
     0
176
     1
290
     1
176
     1
290
     1
176
     1
290
     0
176
     1
290
     0
176
     1
290
     0
176
     1
290
     0
176
     1
290
     0
176
     1
290
     0
176
     1
 90
       50
176
     1
 40
0.0
176
     1
 40
1.0
176
     1
 90
        0
176
     1
 62
    18
420
        0
176
     1
 90
       50
176
     1
 90
        3
176
     1
 62
     5
420
      255
176
     1
290
     0
176
     1
 90
       50
176
     1
 90
       50
176
     1
 90
       50
176
     1
290
     0
176
     1
 90
       50
176
     1
 62
   256
176
     0
 40
1.0
176
     0
 90
        2
176
     1
  1
strokes_ogs.tif
176
     1
290
     0
176
     1
 40
1.0
176
     1
 40
1.0
176
     1
  0
VISUALSTYLE
  5
3B
102
{ACAD_REACTORS
330
2A
102
}
330
2A
100
AcDbVisualStyle
  2
JitterOff
 70
    20
177
     3
291
     1
 70
    58
 90
        2
176
     0
 90
        2
176
     0
 90
        0
176
     0
 90
        0
176
     0
 40
0.6
176
     0
 40
30.0
176
     0
 62
     7
420
 16777215
176
     0
 90
        1
176
     0
 90
        4
176
     0
 62
     7
176
     0
 62
   257
176
     0
 90
        1
176
     0
 90
        1
176
     0
 40
1.0
176
     0
 90
       10
176
     2
 62
     7
176
     0
 40
1.0
176
     0
 90
        1
176
     0
 90
        6
176
     0
 90
        2
176
     0
 62
     7
176
     0
 90
        5
176
     0
 90
        0
176
     0
 90
        0
176
     0
290
     0
176
     0
 90
        1
176
     0
 40
0.0
176
     0
 90
        0
176
     0
290
     0
176
     0
290
     1
176
     0
290
     1
176
     0
290
     0
176
     0
290
     0
176
     0
290
     0
176
     0
290
     0
176
     0
290
     0
176
     0
290
     0
176
     0
 90
       50
176
     0
 40
0.0
176
     0
 40
1.0
176
     0
 90
        0
176
     0
 62
    18
420
        0
176
     0
 90
       50
176
     0
 90
        3
176
     0
 62
     5
420
      255
176
     0
290
     0
176
     0
 90
       50
176
     0
 90
       50
176
     0
 90
       50
176
     0
290
     0
176
     0
 90
       50
176
     0
 62
   256
176
     0
 40
1.0
176
     0
 90
        2
176
     0
  1
strokes_ogs.tif
176
     0
290
     0
176
     0
 40
1.0
176
     0
 40
1.0
176
     0
  0
VISUALSTYLE
  5
38
102
{ACAD_REACTORS
330
2A
102
}
330
2A
100
AcDbVisualStyle
  2
Linepattern
 70
    14
177
     3
291
     1
 70
    58
 90
        2
176
     1
 90
        2
176
     1
 90
        0
176
     1
 90
        0
176
     1
 40
0.6
176
     1
 40
30.0
176
     1
 62
     7
420
 16777215
176
     1
 90
        1
176
     1
 90
        4
176
     1
 62
     7
176
     1
 62
   257
176
     1
 90
        7
176
     1
 90
        7
176
     1
 40
1.0
176
     1
 90
        8
176
     1
 62
     7
176
     1
 40
1.0
176
     1
 90
        1
176
     1
 90
        6
176
     1
 90
        2
176
     1
 62
     7
176
     1
 90
        5
176
     1
 90
        0
176
     1
 90
        0
176
     1
290
     0
176
     1
 90
        1
176
     1
 40
0.0
176
     1
 90
        0
176
     1
290
     0
176
     1
290
     1
176
     1
290
     1
176
     1
290
     0
176
     1
290
     0
176
     1
290
     0
176
     1
290
     0
176
     1
290
     0
176
     1
290
     0
176
     1
 90
       50
176
     1
 40
0.0
176
     1
 40
1.0
176
     1
 90
        0
176
     1
 62
    18
420
        0
176
     1
 90
       50
176
     1
 90
        3
176
     1
 62
     5
420
      255
176
     1
290
     0
176
     1
 90
       50
176
     1
 90
       50
176
     1
 90
       50
176
     1
290
     0
176
     1
 90
       50
176
     1
 62
   256
176
     0
 40
1.0
176
     0
 90
        2
176
     1
  1
strokes_ogs.tif
176
     1
290
     0
176
     1
 40
1.0
176
     1
 40
1.0
176
     1
  0
VISUALSTYLE
  5
3C
102
{ACAD_REACTORS
330
2A
102
}
330
2A
100
AcDbVisualStyle
  2
OverhangOff
 70
    21
177
     3
291
     1
 70
    58
 90
        2
176
     0
 90
        2
176
     0
 90
        0
176
     0
 90
        0
176
     0
 40
0.6
176
     0
 40
30.0
176
     0
 62
     7
420
 16777215
176
     0
 90
        1
176
     0
 90
        4
176
     0
 62
     7
176
     0
 62
   257
176
     0
 90
        1
176
     0
 90
        1
176
     0
 40
1.0
176
     0
 90
        9
176
     2
 62
     7
176
     0
 40
1.0
176
     0
 90
        1
176
     0
 90
        6
176
     0
 90
        2
176
     0
 62
     7
176
     0
 90
        5
176
     0
 90
        0
176
     0
 90
        0
176
     0
290
     0
176
     0
 90
        1
176
     0
 40
0.0
176
     0
 90
        0
176
     0
290
     0
176
     0
290
     1
176
     0
290
     1
176
     0
290
     0
176
     0
290
     0
176
     0
290
     0
176
     0
290
     0
176
     0
290
     0
176
     0
290
     0
176
     0
 90
       50
176
     0
 40
0.0
176
     0
 40
1.0
176
     0
 90
        0
176
     0
 62
    18
420
        0
176
     0
 90
       50
176
     0
 90
        3
176
     0
 62
     5
420
      255
176
     0
290
     0
176
     0
 90
       50
176
     0
 90
       50
176
     0
 90
       50
176
     0
290
     0
176
     0
 90
       50
176
     0
 62
   256
176
     0
 40
1.0
176
     0
 90
        2
176
     0
  1
strokes_ogs.tif
176
     0
290
     0
176
     0
 40
1.0
176
     0
 40
1.0
176
     0
  0
VISUALSTYLE
  5
33
102
{ACAD_REACTORS
330
2A
102
}
330
2A
100
AcDbVisualStyle
  2
Realistic
 70
     8
177
     3
291
     0
 70
    58
 90
        2
176
     1
 90
        3
176
     1
 90
        0
176
     1
 90
        2
176
     1
 40
0.6
176
     1
 40
30.0
176
     1
 62
     7
420
 16777215
176
     1
 90
        0
176
     1
 90
        0
176
     1
 62
     7
176
     1
 62
   257
176
     1
 90
        1
176
     1
 90
        1
176
     1
 40
1.0
176
     1
 90
        8
176
     1
 62
   257
176
     1
 40
1.0
176
     1
 90
        1
176
     1
 90
        6
176
     1
 90
        2
176
     1
 62
     7
176
     1
 90
        3
176
     1
 90
        0
176
     1
 90
        0
176
     1
290
     0
176
     1
 90
       13
176
     1
 40
0.0
176
     1
 90
        0
176
     1
290
     0
176
     1
290
     1
176
     1
290
     1
176
     1
290
     0
176
     1
290
     0
176
     1
290
     0
176
     1
290
     0
176
     1
290
     0
176
     1
290
     0
176
     1
 90
       50
176
     1
 40
0.0
176
     1
 40
1.0
176
     1
 90
        0
176
     1
 62
    18
420
        0
176
     1
 90
       50
176
     1
 90
        3
176
     1
 62
     5
420
      255
176
     1
290
     0
176
     1
 90
       50
176
     1
 90
       50
176
     1
 90
       50
176
     1
290
     0
176
     1
 90
       50
176
     1
 62
   256
176
     0
 40
1.0
176
     0
 90
        2
176
     1
  1
strokes_ogs.tif
176
     1
290
     0
176
     1
 40
1.0
176
     1
 40
1.0
176
     1
  0
VISUALSTYLE
  5
42
102
{ACAD_REACTORS
330
2A
102
}
330
2A
100
AcDbVisualStyle
  2
Shaded
 70
    27
177
     3
291
     0
 70
    58
 90
        2
176
     1
 90
        2
176
     1
 90
        1
176
     1
 90
        2
176
     1
 40
0.6
176
     1
 40
30.0
176
     1
 62
     7
420
 16777215
176
     1
 90
        0
176
     1
 90
        4
176
     1
 62
     7
176
     1
 62
   257
176
     1
 90
        1
176
     1
 90
        1
176
     1
 40
1.0
176
     1
 90
        8
176
     1
 62
   257
176
     1
 40
1.0
176
     1
 90
        1
176
     1
 90
        6
176
     1
 90
        2
176
     1
 62
     8
420
  7895160
176
     1
 90
        3
176
     1
 90
        0
176
     1
 90
        0
176
     1
290
     0
176
     1
 90
        5
176
     1
 40
0.0
176
     1
 90
        0
176
     1
290
     0
176
     1
290
     1
176
     1
290
     1
176
     1
290
     0
176
     1
290
     0
176
     1
290
     0
176
     1
290
     0
176
     1
290
     0
176
     1
290
     0
176
     1
 90
       50
176
     1
 40
0.0
176
     1
 40
1.0
176
     1
 90
        0
176
     1
 62
    18
420
        0
176
     1
 90
       50
176
     1
 90
        3
176
     1
 62
     5
420
      255
176
     1
290
     0
176
     1
 90
       50
176
     1
 90
       50
176
     1
 90
       50
176
     1
290
     0
176
     1
 90
       50
176
     1
 62
   256
176
     0
 40
1.0
176
     0
 90
        2
176
     1
  1
strokes_ogs.tif
176
     1
290
     0
176
     1
 40
1.0
176
     1
 40
1.0
176
     1
  0
VISUALSTYLE
  5
41
102
{ACAD_REACTORS
330
2A
102
}
330
2A
100
AcDbVisualStyle
  2
Shaded with edges
 70
    26
177
     3
291
     0
 70
    58
 90
        2
176
     1
 90
        2
176
     1
 90
        1
176
     1
 90
        2
176
     1
 40
0.6
176
     1
 40
30.0
176
     1
 62
     7
420
 16777215
176
     1
 90
        1
176
     1
 90
       10
176
     1
 62
     7
176
     1
 62
   257
176
     1
 90
        2
176
     1
 90
        1
176
     1
 40
1.0
176
     1
 90
        8
176
     1
 62
   257
176
     1
 40
1.0
176
     1
 90
        1
176
     1
 90
        6
176
     1
 90
        2
176
     1
 62
     7
176
     1
 90
        3
176
     1
 90
        0
176
     1
 90
        0
176
     1
290
     0
176
     1
 90
        5
176
     1
 40
0.0
176
     1
 90
        0
176
     1
290
     0
176
     1
290
     1
176
     1
290
     1
176
     1
290
     0
176
     1
290
     0
176
     1
290
     0
176
     1
290
     0
176
     1
290
     0
176
     1
290
     0
176
     1
 90
       50
176
     1
 40
0.0
176
     1
 40
1.0
176
     1
 90
        0
176
     1
 62
    18
420
        0
176
     1
 90
       50
176
     1
 90
        3
176
     1
 62
     5
420
      255
176
     1
290
     0
176
     1
 90
       50
176
     1
 90
       50
176
     1
 90
       50
176
     1
290
     0
176
     1
 90
       50
176
     1
 62
   256
176
     0
 40
1.0
176
     0
 90
        2
176
     1
  1
strokes_ogs.tif
176
     1
290
     0
176
     1
 40
1.0
176
     1
 40
1.0
176
     1
  0
VISUALSTYLE
  5
3E
102
{ACAD_REACTORS
330
2A
102
}
330
2A
100
AcDbVisualStyle
  2
Shades of Gray
 70
    23
177
     3
291
     0
 70
    58
 90
        2
176
     1
 90
        2
176
     1
 90
        3
176
     1
 90
        0
176
     1
 40
0.6
176
     1
 40
30.0
176
     1
 62
     7
420
 16777215
176
     1
 90
        2
176
     1
 90
        2
176
     1
 62
     7
176
     1
 62
     7
176
     1
 90
        1
176
     1
 90
        1
176
     1
 40
40.0
176
     1
 90
        8
176
     1
 62
     7
176
     1
 40
1.0
176
     1
 90
        1
176
     1
 90
        6
176
     1
 90
        2
176
     1
 62
     7
176
     1
 90
        3
176
     1
 90
        0
176
     1
 90
        0
176
     1
290
     0
176
     1
 90
        1
176
     1
 40
0.0
176
     1
 90
        0
176
     1
290
     0
176
     1
290
     1
176
     1
290
     1
176
     1
290
     0
176
     1
290
     0
176
     1
290
     0
176
     1
290
     0
176
     1
290
     0
176
     1
290
     0
176
     1
 90
       50
176
     1
 40
0.0
176
     1
 40
1.0
176
     1
 90
        0
176
     1
 62
    18
420
        0
176
     1
 90
       50
176
     1
 90
        3
176
     1
 62
     5
420
      255
176
     1
290
     0
176
     1
 90
       50
176
     1
 90
       50
176
     1
 90
       50
176
     1
290
     0
176
     1
 90
       50
176
     1
 62
   256
176
     0
 40
1.0
176
     0
 90
        2
176
     1
  1
strokes_ogs.tif
176
     1
290
     0
176
     1
 40
1.0
176
     1
 40
1.0
176
     1
  0
VISUALSTYLE
  5
3F
102
{ACAD_REACTORS
330
2A
102
}
330
2A
100
AcDbVisualStyle
  2
Sketchy
 70
    24
177
     3
291
     0
 70
    58
 90
        1
176
     1
 90
        2
176
     1
 90
        2
176
     1
 90
        0
176
     1
 40
0.6
176
     1
 40
30.0
176
     1
 62
     7
420
 16777215
176
     1
 90
        2
176
     1
 90
        2
176
     1
 62
     7
176
     1
 62
     7
176
     1
 90
        1
176
     1
 90
        1
176
     1
 40
40.0
176
     1
 90
       11
176
     1
 62
     7
176
     1
 40
1.0
176
     1
 90
        1
176
     1
 90
        6
176
     1
 90
        2
176
     1
 62
     7
176
     1
 90
        6
176
     1
 90
        0
176
     1
 90
        0
176
     1
290
     0
176
     1
 90
        1
176
     1
 40
0.0
176
     1
 90
        0
176
     1
290
     0
176
     1
290
     1
176
     1
290
     1
176
     1
290
     0
176
     1
290
     0
176
     1
290
     0
176
     1
290
     0
176
     1
290
     0
176
     1
290
     0
176
     1
 90
       50
176
     1
 40
0.0
176
     1
 40
1.0
176
     1
 90
        0
176
     1
 62
    18
420
        0
176
     1
 90
       50
176
     1
 90
        3
176
     1
 62
     5
420
      255
176
     1
290
     0
176
     1
 90
       50
176
     1
 90
       50
176
     1
 90
       50
176
     1
290
     0
176
     1
 90
       50
176
     1
 62
   256
176
     0
 40
1.0
176
     0
 90
        2
176
     1
  1
strokes_ogs.tif
176
     1
290
     0
176
     1
 40
1.0
176
     1
 40
1.0
176
     1
  0
VISUALSTYLE
  5
37
102
{ACAD_REACTORS
330
2A
102
}
330
2A
100
AcDbVisualStyle
  2
Thicken
 70
    13
177
     3
291
     1
 70
    58
 90
        2
176
     1
 90
        2
176
     1
 90
        0
176
     1
 90
        0
176
     1
 40
0.6
176
     1
 40
30.0
176
     1
 62
     7
420
 16777215
176
     1
 90
        1
176
     1
 90
        4
176
     1
 62
     7
176
     1
 62
   257
176
     1
 90
        1
176
     1
 90
        1
176
     1
 40
1.0
176
     1
 90
       12
176
     1
 62
     7
176
     1
 40
1.0
176
     1
 90
        1
176
     1
 90
        6
176
     1
 90
        2
176
     1
 62
     7
176
     1
 90
        5
176
     1
 90
        0
176
     1
 90
        0
176
     1
290
     0
176
     1
 90
        1
176
     1
 40
0.0
176
     1
 90
        0
176
     1
290
     0
176
     1
290
     1
176
     1
290
     1
176
     1
290
     0
176
     1
290
     0
176
     1
290
     0
176
     1
290
     0
176
     1
290
     0
176
     1
290
     0
176
     1
 90
       50
176
     1
 40
0.0
176
     1
 40
1.0
176
     1
 90
        0
176
     1
 62
    18
420
        0
176
     1
 90
       50
176
     1
 90
        3
176
     1
 62
     5
420
      255
176
     1
290
     0
176
     1
 90
       50
176
     1
 90
       50
176
     1
 90
       50
176
     1
290
     0
176
     1
 90
       50
176
     1
 62
   256
176
     0
 40
1.0
176
     0
 90
        2
176
     1
  1
strokes_ogs.tif
176
     1
290
     0
176
     1
 40
1.0
176
     1
 40
1.0
176
     1
  0
VISUALSTYLE
  5
30
102
{ACAD_REACTORS
330
2A
102
}
330
2A
100
AcDbVisualStyle
  2
Wireframe
 70
     5
177
     3
291
     0
 70
    58
 90
        0
176
     1
 90
        2
176
     1
 90
        0
176
     1
 90
        0
176
     1
 40
0.6
176
     1
 40
30.0
176
     1
 62
     7
420
 16777215
176
     1
 90
        1
176
     1
 90
        4
176
     1
 62
     7
176
     1
 62
   257
176
     1
 90
        1
176
     1
 90
        1
176
     1
 40
1.0
176
     1
 90
        0
176
     1
 62
   257
176
     1
 40
1.0
176
     1
 90
        1
176
     1
 90
        6
176
     1
 90
        2
176
     1
 62
     7
176
     1
 90
        3
176
     1
 90
        0
176
     1
 90
        0
176
     1
290
     0
176
     1
 90
        1
176
     1
 40
0.0
176
     1
 90
        0
176
     1
290
     0
176
     1
290
     1
176
     1
290
     1
176
     1
290
     0
176
     1
290
     0
176
     1
290
     0
176
     1
290
     0
176
     1
290
     0
176
     1
290
     0
176
     1
 90
       50
176
     1
 40
0.0
176
     1
 40
1.0
176
     1
 90
        0
176
     1
 62
    18
420
        0
176
     1
 90
       50
176
     1
 90
        3
176
     1
 62
     5
420
      255
176
     1
290
     0
176
     1
 90
       50
176
     1
 90
       50
176
     1
 90
       50
176
     1
290
     0
176
     1
 90
       50
176
     1
 62
   256
176
     0
 40
1.0
176
     0
 90
        2
176
     1
  1
strokes_ogs.tif
176
     1
290
     0
176
     1
 40
1.0
176
     1
 40
1.0
176
     1
  0
VISUALSTYLE
  5
40
102
{ACAD_REACTORS
330
2A
102
}
330
2A
100
AcDbVisualStyle
  2
X-Ray
 70
    25
177
     3
291
     0
 70
    58
 90
        2
176
     1
 90
        2
176
     1
 90
        1
176
     1
 90
        1
176
     1
 40
0.5
176
     1
 40
30.0
176
     1
 62
     7
420
 16777215
176
     1
 90
        1
176
     1
 90
        0
176
     1
 62
     7
176
     1
 62
   257
176
     1
 90
        1
176
     1
 90
        1
176
     1
 40
1.0
176
     1
 90
        8
176
     1
 62
     7
176
     1
 40
1.0
176
     1
 90
        1
176
     1
 90
        6
176
     1
 90
        2
176
     1
 62
     7
176
     1
 90
        3
176
     1
 90
        0
176
     1
 90
        0
176
     1
290
     0
176
     1
 90
       13
176
     1
 40
0.0
176
     1
 90
        0
176
     1
290
     0
176
     1
290
     1
176
     1
290
     1
176
     1
290
     0
176
     1
290
     0
176
     1
290
     0
176
     1
290
     0
176
     1
290
     0
176
     1
290
     0
176
     1
 90
       50
176
     1
 40
0.0
176
     1
 40
1.0
176
     1
 90
        0
176
     1
 62
    18
420
        0
176
     1
 90
       50
176
     1
 90
        3
176
     1
 62
     5
420
      255
176
     1
290
     0
176
     1
 90
       50
176
     1
 90
       50
176
     1
 90
       50
176
     1
290
     0
176
     1
 90
       50
176
     1
 62
   256
176
     0
 40
1.0
176
     0
 90
        2
176
     1
  1
strokes_ogs.tif
176
     1
290
     0
176
     1
 40
1.0
176
     1
 40
1.0
176
     1
  0
DICTIONARYVAR
  5
91
102
{ACAD_REACTORS
330
90
102
}
330
90
100
DictionaryVariables
280
     0
  1
1:1
  0
DICTIONARYVAR
  5
99
102
{ACAD_REACTORS
330
90
102
}
330
90
100
DictionaryVariables
280
     0
  1
3.500000
  0
DICTIONARYVAR
  5
9A
102
{ACAD_REACTORS
330
90
102
}
330
90
100
DictionaryVariables
280
     0
  1
acadiso.lin
  0
DICTIONARYVAR
  5
96
102
{ACAD_REACTORS
330
90
102
}
330
90
100
DictionaryVariables
280
     0
  1
Standard
  0
DICTIONARYVAR
  5
95
102
{ACAD_REACTORS
330
90
102
}
330
90
100
DictionaryVariables
280
     0
  1
Standard
  0
DICTIONARY
  5
92
330
5A
100
AcDbDictionary
280
     1
281
     1
  3
ACAD_ROUNDTRIP_2008_TABLESTYLE_CELLSTYLEMAP
360
93
  0
CELLSTYLEMAP
  5
93
102
{ACAD_REACTORS
330
92
102
}
330
92
100
AcDbCellStyleMap
 90
        3
300
CELLSTYLE
  1
TABLEFORMAT_BEGIN
 90
        5
170
     1
 91
        0
 92
    32768
 62
   257
 93
        1
300
CONTENTFORMAT
  1
CONTENTFORMAT_BEGIN
 90
        0
 91
        0
 92
        4
 93
        0
300

 40
0.0
140
1.0
 94
        5
 62
     0
340
11
144
6.0
309
CONTENTFORMAT_END
171
     1
301
MARGIN
  1
CELLMARGIN_BEGIN
 40
1.5
 40
1.5
 40
1.5
 40
1.5
 40
1.5
 40
1.5
309
CELLMARGIN_END
 94
        6
 95
        1
302
GRIDFORMAT
  1
GRIDFORMAT_BEGIN
 90
        0
 91
        1
 62
     0
 92
       -2
340
14
 93
        0
 40
0.045
309
GRIDFORMAT_END
 95
        2
302
GRIDFORMAT
  1
GRIDFORMAT_BEGIN
 90
        0
 91
        1
 62
     0
 92
       -2
340
14
 93
        0
 40
0.045
309
GRIDFORMAT_END
 95
        4
302
GRIDFORMAT
  1
GRIDFORMAT_BEGIN
 90
        0
 91
        1
 62
     0
 92
       -2
340
14
 93
        0
 40
0.045
309
GRIDFORMAT_END
 95
        8
302
GRIDFORMAT
  1
GRIDFORMAT_BEGIN
 90
        0
 91
        1
 62
     0
 92
       -2
340
14
 93
        0
 40
0.045
309
GRIDFORMAT_END
 95
       16
302
GRIDFORMAT
  1
GRIDFORMAT_BEGIN
 90
        0
 91
        1
 62
     0
 92
       -2
340
14
 93
        0
 40
0.045
309
GRIDFORMAT_END
 95
       32
302
GRIDFORMAT
  1
GRIDFORMAT_BEGIN
 90
        0
 91
        1
 62
     0
 92
       -2
340
14
 93
        0
 40
0.045
309
GRIDFORMAT_END
309
TABLEFORMAT_END
  1
CELLSTYLE_BEGIN
 90
        1
 91
        1
300
_TITLE
309
CELLSTYLE_END
300
CELLSTYLE
  1
TABLEFORMAT_BEGIN
 90
        5
170
     1
 91
        0
 92
        0
 62
   257
 93
        1
300
CONTENTFORMAT
  1
CONTENTFORMAT_BEGIN
 90
        0
 91
        0
 92
        4
 93
        0
300

 40
0.0
140
1.0
 94
        5
 62
     0
340
11
144
4.5
309
CONTENTFORMAT_END
171
     1
301
MARGIN
  1
CELLMARGIN_BEGIN
 40
1.5
 40
1.5
 40
1.5
 40
1.5
 40
1.5
 40
1.5
309
CELLMARGIN_END
 94
        6
 95
        1
302
GRIDFORMAT
  1
GRIDFORMAT_BEGIN
 90
        0
 91
        1
 62
     0
 92
       -2
340
14
 93
        0
 40
0.045
309
GRIDFORMAT_END
 95
        2
302
GRIDFORMAT
  1
GRIDFORMAT_BEGIN
 90
        0
 91
        1
 62
     0
 92
       -2
340
14
 93
        0
 40
0.045
309
GRIDFORMAT_END
 95
        4
302
GRIDFORMAT
  1
GRIDFORMAT_BEGIN
 90
        0
 91
        1
 62
     0
 92
       -2
340
14
 93
        0
 40
0.045
309
GRIDFORMAT_END
 95
        8
302
GRIDFORMAT
  1
GRIDFORMAT_BEGIN
 90
        0
 91
        1
 62
     0
 92
       -2
340
14
 93
        0
 40
0.045
309
GRIDFORMAT_END
 95
       16
302
GRIDFORMAT
  1
GRIDFORMAT_BEGIN
 90
        0
 91
        1
 62
     0
 92
       -2
340
14
 93
        0
 40
0.045
309
GRIDFORMAT_END
 95
       32
302
GRIDFORMAT
  1
GRIDFORMAT_BEGIN
 90
        0
 91
        1
 62
     0
 92
       -2
340
14
 93
        0
 40
0.045
309
GRIDFORMAT_END
309
TABLEFORMAT_END
  1
CELLSTYLE_BEGIN
 90
        2
 91
        1
300
_HEADER
309
CELLSTYLE_END
300
CELLSTYLE
  1
TABLEFORMAT_BEGIN
 90
        5
170
     1
 91
        0
 92
        0
 62
   257
 93
        1
300
CONTENTFORMAT
  1
CONTENTFORMAT_BEGIN
 90
        0
 91
        0
 92
        4
 93
        0
300

 40
0.0
140
1.0
 94
        2
 62
     0
340
11
144
4.5
309
CONTENTFORMAT_END
171
     1
301
MARGIN
  1
CELLMARGIN_BEGIN
 40
1.5
 40
1.5
 40
1.5
 40
1.5
 40
1.5
 40
1.5
309
CELLMARGIN_END
 94
        6
 95
        1
302
GRIDFORMAT
  1
GRIDFORMAT_BEGIN
 90
        0
 91
        1
 62
     0
 92
       -2
340
14
 93
        0
 40
0.045
309
GRIDFORMAT_END
 95
        2
302
GRIDFORMAT
  1
GRIDFORMAT_BEGIN
 90
        0
 91
        1
 62
     0
 92
       -2
340
14
 93
        0
 40
0.045
309
GRIDFORMAT_END
 95
        4
302
GRIDFORMAT
  1
GRIDFORMAT_BEGIN
 90
        0
 91
        1
 62
     0
 92
       -2
340
14
 93
        0
 40
0.045
309
GRIDFORMAT_END
 95
        8
302
GRIDFORMAT
  1
GRIDFORMAT_BEGIN
 90
        0
 91
        1
 62
     0
 92
       -2
340
14
 93
        0
 40
0.045
309
GRIDFORMAT_END
 95
       16
302
GRIDFORMAT
  1
GRIDFORMAT_BEGIN
 90
        0
 91
        1
 62
     0
 92
       -2
340
14
 93
        0
 40
0.045
309
GRIDFORMAT_END
 95
       32
302
GRIDFORMAT
  1
GRIDFORMAT_BEGIN
 90
        0
 91
        1
 62
     0
 92
       -2
340
14
 93
        0
 40
0.045
309
GRIDFORMAT_END
309
TABLEFORMAT_END
  1
CELLSTYLE_BEGIN
 90
        3
 91
        2
300
_DATA
309
CELLSTYLE_END
  0
ENDSEC
  0
EOF
