  0
SECTION
  2
HEADER
  9
$ACADVER
  1
AC1027
  9
$ACADMAINTVER
 70
   105
  9
$DWGCODEPAGE
  3
ANSI_932
  9
$LASTSAVEDBY
  1
a.yasuda
  9
$REQUIREDVERSIONS
160
                 0
  9
$INSBASE
 10
0.0
 20
0.0
 30
0.0
  9
$EXTMIN
 10
0.0
 20
0.0
 30
0.0
  9
$EXTMAX
 10
302.9997823349792
 20
216.0016055409748
 30
0.0
  9
$LIMMIN
 10
0.0
 20
0.0
  9
$LIMMAX
 10
302.9997823349792
 20
216.0016055409748
  9
$ORTHOMODE
 70
     0
  9
$REGENMODE
 70
     1
  9
$FILLMODE
 70
     1
  9
$QTEXTMODE
 70
     0
  9
$MIRRTEXT
 70
     1
  9
$LTSCALE
 40
1.0
  9
$ATTMODE
 70
     1
  9
$TEXTSIZE
 40
2.5
  9
$TRACEWID
 40
1.0
  9
$TEXTSTYLE
  7
Standard
  9
$CLAYER
  8
0
  9
$CELTYPE
  6
ByLayer
  9
$CECOLOR
 62
   256
  9
$CELTSCALE
 40
1.0
  9
$DISPSILH
 70
     0
  9
$DIMSCALE
 40
1.0
  9
$DIMASZ
 40
2.5
  9
$DIMEXO
 40
0.625
  9
$DIMDLI
 40
3.75
  9
$DIMRND
 40
0.0
  9
$DIMDLE
 40
0.0
  9
$DIMEXE
 40
1.25
  9
$DIMTP
 40
0.0
  9
$DIMTM
 40
0.0
  9
$DIMTXT
 40
2.5
  9
$DIMCEN
 40
2.5
  9
$DIMTSZ
 40
0.0
  9
$DIMTOL
 70
     0
  9
$DIMLIM
 70
     0
  9
$DIMTIH
 70
     0
  9
$DIMTOH
 70
     0
  9
$DIMSE1
 70
     0
  9
$DIMSE2
 70
     0
  9
$DIMTAD
 70
     1
  9
$DIMZIN
 70
     8
  9
$DIMBLK
  1

  9
$DIMASO
 70
     1
  9
$DIMSHO
 70
     1
  9
$DIMPOST
  1

  9
$DIMAPOST
  1

  9
$DIMALT
 70
     0
  9
$DIMALTD
 70
     3
  9
$DIMALTF
 40
0.03937007874016
  9
$DIMLFAC
 40
1.0
  9
$DIMTOFL
 70
     1
  9
$DIMTVP
 40
0.0
  9
$DIMTIX
 70
     0
  9
$DIMSOXD
 70
     0
  9
$DIMSAH
 70
     0
  9
$DIMBLK1
  1

  9
$DIMBLK2
  1

  9
$DIMSTYLE
  2
ISO-25
  9
$DIMCLRD
 70
     0
  9
$DIMCLRE
 70
     0
  9
$DIMCLRT
 70
     0
  9
$DIMTFAC
 40
1.0
  9
$DIMGAP
 40
0.625
  9
$DIMJUST
 70
     0
  9
$DIMSD1
 70
     0
  9
$DIMSD2
 70
     0
  9
$DIMTOLJ
 70
     0
  9
$DIMTZIN
 70
     8
  9
$DIMALTZ
 70
     0
  9
$DIMALTTZ
 70
     0
  9
$DIMUPT
 70
     0
  9
$DIMDEC
 70
     2
  9
$DIMTDEC
 70
     2
  9
$DIMALTU
 70
     2
  9
$DIMALTTD
 70
     3
  9
$DIMTXSTY
  7
Standard
  9
$DIMAUNIT
 70
     0
  9
$DIMADEC
 70
     0
  9
$DIMALTRND
 40
0.0
  9
$DIMAZIN
 70
     0
  9
$DIMDSEP
 70
    44
  9
$DIMATFIT
 70
     3
  9
$DIMFRAC
 70
     0
  9
$DIMLDRBLK
  1

  9
$DIMLUNIT
 70
     2
  9
$DIMLWD
 70
    -2
  9
$DIMLWE
 70
    -2
  9
$DIMTMOVE
 70
     0
  9
$DIMFXL
 40
1.0
  9
$DIMFXLON
 70
     0
  9
$DIMJOGANG
 40
0.7853981633974483
  9
$DIMTFILL
 70
     0
  9
$DIMTFILLCLR
 70
     0
  9
$DIMARCSYM
 70
     0
  9
$DIMLTYPE
  6

  9
$DIMLTEX1
  6

  9
$DIMLTEX2
  6

  9
$DIMTXTDIRECTION
 70
     0
  9
$LUNITS
 70
     2
  9
$LUPREC
 70
     4
  9
$SKETCHINC
 40
1.0
  9
$FILLETRAD
 40
0.0
  9
$AUNITS
 70
     0
  9
$AUPREC
 70
     0
  9
$MENU
  1
.
  9
$ELEVATION
 40
0.0
  9
$PELEVATION
 40
0.0
  9
$THICKNESS
 40
0.0
  9
$LIMCHECK
 70
     0
  9
$CHAMFERA
 40
0.0
  9
$CHAMFERB
 40
0.0
  9
$CHAMFERC
 40
0.0
  9
$CHAMFERD
 40
0.0
  9
$SKPOLY
 70
     0
  9
$TDCREATE
 40
2459866.618872396
  9
$TDUCREATE
 40
2459866.243872396
  9
$TDUPDATE
 40
2459866.618872442
  9
$TDUUPDATE
 40
2459866.243872442
  9
$TDINDWG
 40
0.0000000116
  9
$TDUSRTIMER
 40
0.0000000116
  9
$USRTIMER
 70
     1
  9
$ANGBASE
 50
0.0
  9
$ANGDIR
 70
     0
  9
$PDMODE
 70
     0
  9
$PDSIZE
 40
0.0
  9
$PLINEWID
 40
0.0
  9
$SPLFRAME
 70
     0
  9
$SPLINETYPE
 70
     6
  9
$SPLINESEGS
 70
     8
  9
$HANDSEED
  5
B7
  9
$SURFTAB1
 70
     6
  9
$SURFTAB2
 70
     6
  9
$SURFTYPE
 70
     6
  9
$SURFU
 70
     6
  9
$SURFV
 70
     6
  9
$UCSBASE
  2

  9
$UCSNAME
  2

  9
$UCSORG
 10
0.0
 20
0.0
 30
0.0
  9
$UCSXDIR
 10
1.0
 20
0.0
 30
0.0
  9
$UCSYDIR
 10
0.0
 20
1.0
 30
0.0
  9
$UCSORTHOREF
  2

  9
$UCSORTHOVIEW
 70
     0
  9
$UCSORGTOP
 10
0.0
 20
0.0
 30
0.0
  9
$UCSORGBOTTOM
 10
0.0
 20
0.0
 30
0.0
  9
$UCSORGLEFT
 10
0.0
 20
0.0
 30
0.0
  9
$UCSORGRIGHT
 10
0.0
 20
0.0
 30
0.0
  9
$UCSORGFRONT
 10
0.0
 20
0.0
 30
0.0
  9
$UCSORGBACK
 10
0.0
 20
0.0
 30
0.0
  9
$PUCSBASE
  2

  9
$PUCSNAME
  2

  9
$PUCSORG
 10
0.0
 20
0.0
 30
0.0
  9
$PUCSXDIR
 10
1.0
 20
0.0
 30
0.0
  9
$PUCSYDIR
 10
0.0
 20
1.0
 30
0.0
  9
$PUCSORTHOREF
  2

  9
$PUCSORTHOVIEW
 70
     0
  9
$PUCSORGTOP
 10
0.0
 20
0.0
 30
0.0
  9
$PUCSORGBOTTOM
 10
0.0
 20
0.0
 30
0.0
  9
$PUCSORGLEFT
 10
0.0
 20
0.0
 30
0.0
  9
$PUCSORGRIGHT
 10
0.0
 20
0.0
 30
0.0
  9
$PUCSORGFRONT
 10
0.0
 20
0.0
 30
0.0
  9
$PUCSORGBACK
 10
0.0
 20
0.0
 30
0.0
  9
$USERI1
 70
     0
  9
$USERI2
 70
     0
  9
$USERI3
 70
     0
  9
$USERI4
 70
     0
  9
$USERI5
 70
     0
  9
$USERR1
 40
0.0
  9
$USERR2
 40
0.0
  9
$USERR3
 40
0.0
  9
$USERR4
 40
0.0
  9
$USERR5
 40
0.0
  9
$WORLDVIEW
 70
     1
  9
$SHADEDGE
 70
     3
  9
$SHADEDIF
 70
    70
  9
$TILEMODE
 70
     1
  9
$MAXACTVP
 70
    64
  9
$PINSBASE
 10
0.0
 20
0.0
 30
0.0
  9
$PLIMCHECK
 70
     0
  9
$PEXTMIN
 10
1.000000000000000E+20
 20
1.000000000000000E+20
 30
1.000000000000000E+20
  9
$PEXTMAX
 10
-1.000000000000000E+20
 20
-1.000000000000000E+20
 30
-1.000000000000000E+20
  9
$PLIMMIN
 10
0.0
 20
0.0
  9
$PLIMMAX
 10
420.0
 20
297.0
  9
$UNITMODE
 70
     0
  9
$VISRETAIN
 70
     1
  9
$PLINEGEN
 70
     0
  9
$PSLTSCALE
 70
     1
  9
$TREEDEPTH
 70
  3020
  9
$CMLSTYLE
  2
Standard
  9
$CMLJUST
 70
     0
  9
$CMLSCALE
 40
20.0
  9
$PROXYGRAPHICS
 70
     1
  9
$MEASUREMENT
 70
     1
  9
$CELWEIGHT
370
    -1
  9
$ENDCAPS
280
     0
  9
$JOINSTYLE
280
     0
  9
$LWDISPLAY
290
     0
  9
$INSUNITS
 70
     4
  9
$HYPERLINKBASE
  1

  9
$STYLESHEET
  1

  9
$XEDIT
290
     1
  9
$CEPSNTYPE
380
     0
  9
$PSTYLEMODE
290
     1
  9
$FINGERPRINTGUID
  2
{077ef662-e121-4aca-9f2b-e95300a75911}
  9
$VERSIONGUID
  2
{FAEB1C32-E019-11D5-929B-00C0DF256EC4}
  9
$EXTNAMES
290
     1
  9
$PSVPSCALE
 40
0.0
  9
$OLESTARTUP
290
     0
  9
$SORTENTS
280
   127
  9
$INDEXCTL
280
     0
  9
$HIDETEXT
280
     1
  9
$XCLIPFRAME
280
     2
  9
$HALOGAP
280
     0
  9
$OBSCOLOR
 70
   257
  9
$OBSLTYPE
280
     0
  9
$INTERSECTIONDISPLAY
280
     0
  9
$INTERSECTIONCOLOR
 70
   257
  9
$DIMASSOC
280
     2
  9
$PROJECTNAME
  1

  9
$CAMERADISPLAY
290
     0
  9
$LENSLENGTH
 40
50.0
  9
$CAMERAHEIGHT
 40
0.0
  9
$STEPSPERSEC
 40
2.0
  9
$STEPSIZE
 40
6.0
  9
$3DDWFPREC
 40
2.0
  9
$PSOLWIDTH
 40
5.0
  9
$PSOLHEIGHT
 40
80.0
  9
$LOFTANG1
 40
1.570796326794897
  9
$LOFTANG2
 40
1.570796326794897
  9
$LOFTMAG1
 40
0.0
  9
$LOFTMAG2
 40
0.0
  9
$LOFTPARAM
 70
     7
  9
$LOFTNORMALS
280
     1
  9
$LATITUDE
 40
37.795
  9
$LONGITUDE
 40
-122.394
  9
$NORTHDIRECTION
 40
0.0
  9
$TIMEZONE
 70
 -8000
  9
$LIGHTGLYPHDISPLAY
280
     1
  9
$TILEMODELIGHTSYNCH
280
     1
  9
$CMATERIAL
347
44
  9
$SOLIDHIST
280
     0
  9
$SHOWHIST
280
     1
  9
$DWFFRAME
280
     2
  9
$DGNFRAME
280
     2
  9
$REALWORLDSCALE
290
     1
  9
$INTERFERECOLOR
 62
   256
  9
$CSHADOW
280
     0
  9
$SHADOWPLANELOCATION
 40
0.0
  0
ENDSEC
  0
SECTION
  2
CLASSES
  0
CLASS
  1
ACDBDICTIONARYWDFLT
  2
AcDbDictionaryWithDefault
  3
ObjectDBX Classes
 90
        0
 91
        3
280
     0
281
     0
  0
CLASS
  1
VISUALSTYLE
  2
AcDbVisualStyle
  3
ObjectDBX Classes
 90
     4095
 91
        3
280
     0
281
     0
  0
CLASS
  1
MATERIAL
  2
AcDbMaterial
  3
ObjectDBX Classes
 90
     1153
 91
        3
280
     0
281
     0
  0
CLASS
  1
SCALE
  2
AcDbScale
  3
ObjectDBX Classes
 90
     1153
 91
        3
280
     0
281
     0
  0
CLASS
  1
TABLESTYLE
  2
AcDbTableStyle
  3
ObjectDBX Classes
 90
     4095
 91
        3
280
     0
281
     0
  0
CLASS
  1
MLEADERSTYLE
  2
AcDbMLeaderStyle
  3
ACDB_MLEADERSTYLE_CLASS
 90
     4095
 91
        3
280
     0
281
     0
  0
CLASS
  1
SUN
  2
AcDbSun
  3
SCENEOE
 90
     1153
 91
        3
280
     0
281
     0
  0
CLASS
  1
DICTIONARYVAR
  2
AcDbDictionaryVar
  3
ObjectDBX Classes
 90
        0
 91
        3
280
     0
281
     0
  0
CLASS
  1
CELLSTYLEMAP
  2
AcDbCellStyleMap
  3
ObjectDBX Classes
 90
     1152
 91
        3
280
     0
281
     0
  0
ENDSEC
  0
SECTION
  2
TABLES
  0
TABLE
  2
VPORT
  5
8
330
0
100
AcDbSymbolTable
 70
     1
  0
VPORT
  5
29
330
8
100
AcDbSymbolTableRecord
100
AcDbViewportTableRecord
  2
*Active
 70
     0
 10
0.0
 20
0.0
 11
1.0
 21
1.0
 12
151.4998911674896
 22
108.0008027704874
 13
0.0
 23
0.0
 14
10.0
 24
10.0
 15
10.0
 25
10.0
 16
0.0
 26
0.0
 36
1.0
 17
0.0
 27
0.0
 37
0.0
 40
237.6017660950723
 41
1.402766343222857
 42
50.0
 43
0.0
 44
0.0
 50
0.0
 51
0.0
 71
     0
 72
 10000
 73
     1
 74
     3
 75
     0
 76
     0
 77
     0
 78
     0
281
     0
 65
     1
110
0.0
120
0.0
130
0.0
111
1.0
121
0.0
131
0.0
112
0.0
122
1.0
132
0.0
 79
     0
146
0.0
348
2F
 60
     3
 61
     5
292
     1
282
     1
141
0.0
142
0.0
 63
   250
361
5D
  0
ENDTAB
  0
TABLE
  2
LTYPE
  5
5
330
0
100
AcDbSymbolTable
 70
     2
  0
LTYPE
  5
14
330
5
100
AcDbSymbolTableRecord
100
AcDbLinetypeTableRecord
  2
ByBlock
 70
     0
  3

 72
    65
 73
     0
 40
0.0
  0
LTYPE
  5
15
330
5
100
AcDbSymbolTableRecord
100
AcDbLinetypeTableRecord
  2
ByLayer
 70
     0
  3

 72
    65
 73
     0
 40
0.0
  0
LTYPE
  5
16
330
5
100
AcDbSymbolTableRecord
100
AcDbLinetypeTableRecord
  2
Continuous
 70
     0
  3
Solid line
 72
    65
 73
     0
 40
0.0
  0
LTYPE
  5
5F
330
5
100
AcDbSymbolTableRecord
100
AcDbLinetypeTableRecord
  2
UserDefined01
 70
     0
  3
--------------------------------
 72
    65
 73
     1
 40
0.3527777724795871
 49
0.3527777724795871
 74
     0
  0
ENDTAB
  0
TABLE
  2
LAYER
  5
2
330
0
100
AcDbSymbolTable
 70
     3
  0
LAYER
  5
10
330
2
100
AcDbSymbolTableRecord
100
AcDbLayerTableRecord
  2
0
 70
     0
 62
     7
  6
Continuous
370
    -3
390
F
347
46
348
0
  0
LAYER
  5
60
330
2
100
AcDbSymbolTableRecord
100
AcDbLayerTableRecord
  2
外枠
 70
     0
 62
     7
  6
Continuous
370
    -3
390
F
347
46
348
0
  0
LAYER
  5
61
330
2
100
AcDbSymbolTableRecord
100
AcDbLayerTableRecord
  2
ISS138金台
 70
     0
 62
     7
  6
Continuous
370
    -3
390
F
347
46
348
0
  0
ENDTAB
  0
TABLE
  2
STYLE
  5
3
330
0
100
AcDbSymbolTable
 70
     2
  0
STYLE
  5
11
330
3
100
AcDbSymbolTableRecord
100
AcDbTextStyleTableRecord
  2
Standard
 70
     0
 40
0.0
 41
1.0
 50
0.0
 71
     0
 42
2.5
  3

  4

  0
STYLE
  5
5E
330
3
100
AcDbSymbolTableRecord
100
AcDbTextStyleTableRecord
  2
MS Gothic
 70
     0
 40
1.0
 41
1.0
 50
0.0
 71
     0
 42
2.5
  3
msgothic.ttc
  4

1001
ACAD
1000
MS Gothic
1071
    32817
  0
ENDTAB
  0
TABLE
  2
VIEW
  5
6
330
0
100
AcDbSymbolTable
 70
     0
  0
ENDTAB
  0
TABLE
  2
UCS
  5
7
330
0
100
AcDbSymbolTable
 70
     0
  0
ENDTAB
  0
TABLE
  2
APPID
  5
9
330
0
100
AcDbSymbolTable
 70
     1
  0
APPID
  5
12
330
9
100
AcDbSymbolTableRecord
100
AcDbRegAppTableRecord
  2
ACAD
 70
     0
  0
ENDTAB
  0
TABLE
  2
DIMSTYLE
  5
A
330
0
100
AcDbSymbolTable
 70
     1
100
AcDbDimStyleTable
  0
DIMSTYLE
105
27
330
A
100
AcDbSymbolTableRecord
100
AcDbDimStyleTableRecord
  2
ISO-25
 70
     0
 41
2.5
 42
0.625
 43
3.75
 44
1.25
 73
     0
 74
     0
 77
     1
 78
     8
140
2.5
141
2.5
143
0.03937007874016
147
0.625
171
     3
172
     1
178
     0
271
     2
272
     2
274
     3
278
    44
283
     0
284
     8
340
11
  0
ENDTAB
  0
TABLE
  2
BLOCK_RECORD
  5
1
330
0
100
AcDbSymbolTable
 70
     1
  0
BLOCK_RECORD
  5
1F
330
1
100
AcDbSymbolTableRecord
100
AcDbBlockTableRecord
  2
*Model_Space
340
22
 70
     0
280
     1
281
     0
  0
BLOCK_RECORD
  5
1B
330
1
100
AcDbSymbolTableRecord
100
AcDbBlockTableRecord
  2
*Paper_Space
340
1E
 70
     0
280
     1
281
     0
  0
BLOCK_RECORD
  5
23
330
1
100
AcDbSymbolTableRecord
100
AcDbBlockTableRecord
  2
*Paper_Space0
340
26
 70
     0
280
     1
281
     0
  0
ENDTAB
  0
ENDSEC
  0
SECTION
  2
BLOCKS
  0
BLOCK
  5
20
330
1F
100
AcDbEntity
  8
0
100
AcDbBlockBegin
  2
*Model_Space
 70
     0
 10
0.0
 20
0.0
 30
0.0
  3
*Model_Space
  1

  0
ENDBLK
  5
21
330
1F
100
AcDbEntity
  8
0
100
AcDbBlockEnd
  0
BLOCK
  5
1C
330
1B
100
AcDbEntity
 67
     1
  8
0
100
AcDbBlockBegin
  2
*Paper_Space
 70
     0
 10
0.0
 20
0.0
 30
0.0
  3
*Paper_Space
  1

  0
ENDBLK
  5
1D
330
1B
100
AcDbEntity
 67
     1
  8
0
100
AcDbBlockEnd
  0
BLOCK
  5
24
330
23
100
AcDbEntity
  8
0
100
AcDbBlockBegin
  2
*Paper_Space0
 70
     0
 10
0.0
 20
0.0
 30
0.0
  3
*Paper_Space0
  1

  0
ENDBLK
  5
25
330
23
100
AcDbEntity
  8
0
100
AcDbBlockEnd
  0
ENDSEC
  0
SECTION
  2
ENTITIES
  0
LWPOLYLINE
  5
62
330
1F
100
AcDbEntity
  8
外枠
  6
Continuous
 62
   250
420
  2367521
370
   100
100
AcDbPolyline
 90
        5
 70
     0
 43
0.0
 10
281.9999662644599
 20
13.29407825637392
 10
20.99981607051935
 20
13.29407825637392
 10
20.99981607051935
 20
193.0018900389566
 10
281.9999662644599
 20
193.0018900389566
 10
281.9999662644599
 20
13.29407825637392
  0
LINE
  5
63
330
1F
100
AcDbEntity
  8
外枠
  6
Continuous
 62
   250
420
  2367521
370
    25
100
AcDbLine
 10
223.3097080177524
 20
174.0786160074276
 30
0.0
 11
281.9999232007669
 21
174.0786160074276
 31
0.0
  0
LINE
  5
64
330
1F
100
AcDbEntity
  8
外枠
  6
Continuous
 62
   250
420
  2367521
370
    25
100
AcDbLine
 10
223.3097080177524
 20
50.37109023844297
 30
0.0
 11
281.9999232007669
 21
50.37109023844297
 31
0.0
  0
LINE
  5
65
330
1F
100
AcDbEntity
  8
外枠
  6
Continuous
 62
   250
420
  2367521
370
    25
100
AcDbLine
 10
223.3097080177524
 20
36.25997933925949
 30
0.0
 11
281.9999232007669
 21
36.25997933925949
 31
0.0
  0
LINE
  5
66
330
1F
100
AcDbEntity
  8
外枠
  6
Continuous
 62
   250
420
  2367521
370
    50
100
AcDbLine
 10
223.0158413772006
 20
193.3637327187979
 30
0.0
 11
223.0158413772006
 21
13.29396655992039
 31
0.0
  0
TEXT
  5
67
330
1F
100
AcDbEntity
  8
外枠
  6
Continuous
 62
   250
420
  2367521
100
AcDbText
 10
224.7190965599536
 20
186.6888051931772
 30
0.0
 40
2.688166626294454
  1
品名：
 41
0.974166170756022
  7
MS Gothic
100
AcDbText
  0
TEXT
  5
68
330
1F
100
AcDbEntity
  8
外枠
  6
Continuous
 62
   250
420
  2367521
100
AcDbText
 10
224.7190965599536
 20
168.1080059455944
 30
0.0
 40
2.688166626294454
  1
仕様：
 41
0.9978878657023111
  7
MS Gothic
100
AcDbText
  0
TEXT
  5
69
330
1F
100
AcDbEntity
  8
外枠
  6
Continuous
 62
   250
420
  2367521
100
AcDbText
 10
224.7190965599536
 20
44.16660664327048
 30
0.0
 40
2.688166626294454
  1
縮尺：
 41
0.9939999262491861
  7
MS Gothic
100
AcDbText
  0
TEXT
  5
6A
330
1F
100
AcDbEntity
  8
外枠
  6
Continuous
 62
   250
420
  2367521
100
AcDbText
 10
250.2379519709696
 20
40.59738467878129
 30
0.0
 40
2.150533301035563
  1
1/1
 41
1.000003814697266
  7
MS Gothic
100
AcDbText
  0
TEXT
  5
6B
330
1F
100
AcDbEntity
  8
外枠
  6
Continuous
 62
   250
420
  2367521
100
AcDbText
 10
232.7757967427735
 20
181.9845273775436
 30
0.0
 40
2.688166626294454
  1
ダブルアドロック325
 41
1.049534205386513
  7
MS Gothic
100
AcDbText
  0
TEXT
  5
6C
330
1F
100
AcDbEntity
  8
外枠
  6
Continuous
 62
   250
420
  2367521
100
AcDbText
 10
226.1633020978884
 20
24.25683874973963
 30
0.0
 40
2.553758294979732
  1
ヤスダインテリアサプライ株式会社
 41
1.0194908945184
  7
MS Gothic
100
AcDbText
  0
TEXT
  5
6D
330
1F
100
AcDbEntity
  8
外枠
  6
Continuous
 62
   250
420
  2367521
100
AcDbText
 10
227.7635273953072
 20
161.7763665048245
 30
0.0
 40
2.150533301035563
  1
材質
 41
1.028502464294433
  7
MS Gothic
100
AcDbText
  0
TEXT
  5
6E
330
1F
100
AcDbEntity
  8
外枠
  6
Continuous
 62
   250
420
  2367521
100
AcDbText
 10
232.7757967427735
 20
156.199681315683
 30
0.0
 40
2.016124969720841
  1
アルミ押出形材（A6063S-T5）/
 41
1.030580357142857
  7
MS Gothic
100
AcDbText
  0
TEXT
  5
6F
330
1F
100
AcDbEntity
  8
外枠
  6
Continuous
 62
   250
420
  2367521
100
AcDbText
 10
232.7757967427735
 20
151.9663480459279
 30
0.0
 40
2.016124969720841
  1
シルバー仕上(アルマイト)
 41
1.052132924397786
  7
MS Gothic
100
AcDbText
  0
LINE
  5
70
330
1F
100
AcDbEntity
  8
ISS138金台
  6
Continuous
 62
   250
420
  2367521
370
    13
100
AcDbLine
 10
143.5349058846866
 20
103.8237968110843
 30
0.0
 11
143.5349058846866
 21
93.93896750193866
 31
0.0
  0
LINE
  5
71
330
1F
100
AcDbEntity
  8
ISS138金台
  6
Continuous
 62
   250
420
  2367521
370
    13
100
AcDbLine
 10
143.4942645244842
 20
94.44626857057301
 30
0.0
 11
100.4938321597607
 21
94.44626857057301
 31
0.0
  0
LINE
  5
72
330
1F
100
AcDbEntity
  8
ISS138金台
  6
Continuous
 62
   250
420
  2367521
370
    13
100
AcDbLine
 10
100.4231646396632
 20
93.93915052263361
 30
0.0
 11
100.4231646396632
 21
103.8239798317793
 31
0.0
  0
LINE
  5
73
330
1F
100
AcDbEntity
  8
ISS138金台
  6
Continuous
 62
   250
420
  2367521
370
    13
100
AcDbLine
 10
118.4938852104177
 20
115.6861324314054
 30
0.0
 11
118.4938852104177
 21
121.0218962401592
 31
0.0
  0
LINE
  5
74
330
1F
100
AcDbEntity
  8
ISS138金台
  6
Continuous
 62
   250
420
  2367521
370
    13
100
AcDbLine
 10
125.4939961553626
 20
115.7302296529653
 30
0.0
 11
125.4939961553626
 21
121.0218962401592
 31
0.0
  0
LINE
  5
75
330
1F
100
AcDbEntity
  8
ISS138金台
  6
Continuous
 62
   250
420
  2367521
370
    13
100
AcDbLine
 10
125.4939961553626
 20
120.514788958143
 30
0.0
 11
118.4938313808016
 21
120.514788958143
 31
0.0
  0
LINE
  5
76
330
1F
100
AcDbEntity
  8
ISS138金台
  6
Continuous
 62
   250
420
  2367521
370
    13
100
AcDbLine
 10
127.3784633579635
 20
108.0647200567182
 30
0.0
 11
149.645084083394
 21
108.0647200567182
 31
0.0
  0
LINE
  5
77
330
1F
100
AcDbEntity
  8
ISS138金台
  6
Continuous
 62
   250
420
  2367521
370
    13
100
AcDbLine
 10
148.998461202209
 20
108.0647200567182
 30
0.0
 11
148.998461202209
 21
105.5645820022255
 31
0.0
  0
LINE
  5
78
330
1F
100
AcDbEntity
  8
ISS138金台
  6
Continuous
 62
   250
420
  2367521
370
    13
100
AcDbLine
 10
144.0006720214903
 20
105.6834808584042
 30
0.0
 11
149.6451163811637
 21
105.6834808584042
 31
0.0
  0
HATCH
  5
79
330
1F
100
AcDbEntity
  8
ISS138金台
  6
Continuous
 62
   250
420
  2367521
370
    13
100
AcDbHatch
 10
0.0
 20
0.0
 30
0.0
210
0.0
220
0.0
230
1.0
  2
SOLID
 70
     1
 71
     0
 91
        1
 92
        3
 72
     0
 73
     1
 93
       67
 10
148.9988164776757
 20
107.8146168941061
 10
149.024353247583
 20
107.815908804894
 10
149.0491579347104
 20
107.819709175795
 10
149.0730905820561
 20
107.825867283884
 10
149.0960327644643
 20
107.8343077676982
 10
149.1178660567796
 20
107.8448368406195
 10
149.1384720338465
 20
107.8573899071085
 10
149.1576784408931
 20
107.8717947123935
 10
149.1754314483034
 20
107.8879435972421
 10
149.1915480353823
 20
107.9057181364988
 10
149.2059313088208
 20
107.9249783731615
 10
149.2184413116168
 20
107.9456058820748
 10
149.2289596186149
 20
107.9674607062366
 10
149.2373570387361
 20
107.9904351864146
 10
149.2435151468251
 20
108.0143893656067
 10
149.2472939858797
 20
108.0392048186574
 10
149.2485858966676
 20
108.0647415885647
 10
149.2485858966676
 20
108.0647415885647
 10
149.2472939858797
 20
108.0903321880881
 10
149.2435151468251
 20
108.1151907048318
 10
149.2373678046594
 20
108.1391664158703
 10
149.2289596186149
 20
108.162173193818
 10
149.2184413116168
 20
108.1840280179798
 10
149.2059313088208
 20
108.2046447609698
 10
149.1915480353823
 20
108.2239049976326
 10
149.1754314483034
 20
108.2416580050429
 10
149.1576892068163
 20
108.2577961239682
 10
149.1384612679232
 20
108.2721793974067
 10
149.1178660567796
 20
108.284700166126
 10
149.0960327644643
 20
108.2952184731241
 10
149.0730905820561
 20
108.3036266591686
 10
149.0491471687872
 20
108.3097847672576
 10
149.024353247583
 20
108.3135636063121
 10
148.9988164776757
 20
108.3148555171
 10
148.9988164776757
 20
108.3148555171
 10
148.973215112229
 20
108.3135636063121
 10
148.9483673614086
 20
108.3097847672576
 10
148.9243808844468
 20
108.3036266591686
 10
148.9013956383456
 20
108.2952292390473
 10
148.8795300482606
 20
108.2846894002028
 10
148.8589133052705
 20
108.2721793974067
 10
148.8396530686077
 20
108.2577961239682
 10
148.8219000611975
 20
108.2416580050429
 10
148.8057619422721
 20
108.2238942317094
 10
148.7913786688336
 20
108.2046555268931
 10
148.7788579001143
 20
108.1840280179798
 10
148.768328827193
 20
108.1621624278948
 10
148.7599314070717
 20
108.1391771817936
 10
148.7537625330596
 20
108.1151907048318
 10
148.749983694005
 20
108.0903429540113
 10
148.7486917832171
 20
108.0647415885647
 10
148.7486917832171
 20
108.0647415885647
 10
148.749983694005
 20
108.0392048186574
 10
148.7537625330596
 20
108.0143785996835
 10
148.7599314070717
 20
107.9904244204914
 10
148.768328827193
 20
107.9674714721599
 10
148.7788471341911
 20
107.9456058820748
 10
148.7913679029104
 20
107.9249783731615
 10
148.8057619422721
 20
107.9057181364988
 10
148.8219000611975
 20
107.8879435972421
 10
148.8396530686077
 20
107.8717947123935
 10
148.8589025393473
 20
107.8573791411852
 10
148.8795300482606
 20
107.8448476065427
 10
148.9013956383456
 20
107.834297001775
 10
148.9243808844468
 20
107.8258780498072
 10
148.9483673614086
 20
107.819709175795
 10
148.973215112229
 20
107.815908804894
 97
        0
 75
     1
 76
     1
 98
        0
  0
LWPOLYLINE
  5
7A
330
1F
100
AcDbEntity
  8
ISS138金台
  6
Continuous
 62
   250
420
  2367521
370
    13
100
AcDbPolyline
 90
       68
 70
     0
 43
0.0
 10
148.9988164776757
 20
107.8146168941061
 10
149.024353247583
 20
107.815908804894
 10
149.0491579347104
 20
107.819709175795
 10
149.0730905820561
 20
107.825867283884
 10
149.0960327644643
 20
107.8343077676982
 10
149.1178660567796
 20
107.8448368406195
 10
149.1384720338465
 20
107.8573899071085
 10
149.1576784408931
 20
107.8717947123935
 10
149.1754314483034
 20
107.8879435972421
 10
149.1915480353823
 20
107.9057181364988
 10
149.2059313088208
 20
107.9249783731615
 10
149.2184413116168
 20
107.9456058820748
 10
149.2289596186149
 20
107.9674607062366
 10
149.2373570387361
 20
107.9904351864146
 10
149.2435151468251
 20
108.0143893656067
 10
149.2472939858797
 20
108.0392048186574
 10
149.2485858966676
 20
108.0647415885647
 10
149.2485858966676
 20
108.0647415885647
 10
149.2472939858797
 20
108.0903321880881
 10
149.2435151468251
 20
108.1151907048318
 10
149.2373678046594
 20
108.1391664158703
 10
149.2289596186149
 20
108.162173193818
 10
149.2184413116168
 20
108.1840280179798
 10
149.2059313088208
 20
108.2046447609698
 10
149.1915480353823
 20
108.2239049976326
 10
149.1754314483034
 20
108.2416580050429
 10
149.1576892068163
 20
108.2577961239682
 10
149.1384612679232
 20
108.2721793974067
 10
149.1178660567796
 20
108.284700166126
 10
149.0960327644643
 20
108.2952184731241
 10
149.0730905820561
 20
108.3036266591686
 10
149.0491471687872
 20
108.3097847672576
 10
149.024353247583
 20
108.3135636063121
 10
148.9988164776757
 20
108.3148555171
 10
148.9988164776757
 20
108.3148555171
 10
148.973215112229
 20
108.3135636063121
 10
148.9483673614086
 20
108.3097847672576
 10
148.9243808844468
 20
108.3036266591686
 10
148.9013956383456
 20
108.2952292390473
 10
148.8795300482606
 20
108.2846894002028
 10
148.8589133052705
 20
108.2721793974067
 10
148.8396530686077
 20
108.2577961239682
 10
148.8219000611975
 20
108.2416580050429
 10
148.8057619422721
 20
108.2238942317094
 10
148.7913786688336
 20
108.2046555268931
 10
148.7788579001143
 20
108.1840280179798
 10
148.768328827193
 20
108.1621624278948
 10
148.7599314070717
 20
108.1391771817936
 10
148.7537625330596
 20
108.1151907048318
 10
148.749983694005
 20
108.0903429540113
 10
148.7486917832171
 20
108.0647415885647
 10
148.7486917832171
 20
108.0647415885647
 10
148.749983694005
 20
108.0392048186574
 10
148.7537625330596
 20
108.0143785996835
 10
148.7599314070717
 20
107.9904244204914
 10
148.768328827193
 20
107.9674714721599
 10
148.7788471341911
 20
107.9456058820748
 10
148.7913679029104
 20
107.9249783731615
 10
148.8057619422721
 20
107.9057181364988
 10
148.8219000611975
 20
107.8879435972421
 10
148.8396530686077
 20
107.8717947123935
 10
148.8589025393473
 20
107.8573791411852
 10
148.8795300482606
 20
107.8448476065427
 10
148.9013956383456
 20
107.834297001775
 10
148.9243808844468
 20
107.8258780498072
 10
148.9483673614086
 20
107.819709175795
 10
148.973215112229
 20
107.815908804894
 10
148.9988164776757
 20
107.8146168941061
  0
HATCH
  5
7B
330
1F
100
AcDbEntity
  8
ISS138金台
  6
Continuous
 62
   250
420
  2367521
370
    13
100
AcDbHatch
 10
0.0
 20
0.0
 30
0.0
210
0.0
220
0.0
230
1.0
  2
SOLID
 70
     1
 71
     0
 91
        1
 92
        3
 72
     0
 73
     1
 93
       67
 10
148.998461202209
 20
105.4337006734891
 10
149.0240087380395
 20
105.434992584277
 10
149.0488026592437
 20
105.4387821892548
 10
149.0727245406662
 20
105.4449187654973
 10
149.0956774889976
 20
105.453337717465
 10
149.1175215472362
 20
105.4638452585398
 10
149.1381059924566
 20
105.4763552613359
 10
149.1573339313497
 20
105.4907277688512
 10
149.1750761728367
 20
105.5068551218533
 10
149.1911927599156
 20
105.5245973633403
 10
149.2055760333541
 20
105.5438253022334
 10
149.2180752702269
 20
105.5644097474538
 10
149.2286043431482
 20
105.5862538056924
 10
149.2370017632695
 20
105.6091959881006
 10
149.2431598713584
 20
105.6331286354463
 10
149.246938710413
 20
105.6579333225737
 10
149.2482306212009
 20
105.683470092481
 10
149.2482306212009
 20
105.683470092481
 10
149.2469494763362
 20
105.7090606920044
 10
149.2431598713584
 20
105.7339192087481
 10
149.2370017632695
 20
105.7578949197866
 10
149.2286043431482
 20
105.7809016977343
 10
149.2180752702269
 20
105.8027565218961
 10
149.2055652674309
 20
105.8233732648862
 10
149.1911927599156
 20
105.8426335015489
 10
149.1750761728367
 20
105.8603865089592
 10
149.1573339313497
 20
105.8765138619613
 10
149.1381059924566
 20
105.8909079013231
 10
149.117510781313
 20
105.9034286700423
 10
149.0956774889976
 20
105.9139469770404
 10
149.0727353065894
 20
105.9223551630849
 10
149.0488026592437
 20
105.9285132711739
 10
149.0239979721163
 20
105.9322921102284
 10
148.998461202209
 20
105.9335840210163
 10
148.998461202209
 20
105.9335840210163
 10
148.9728706026856
 20
105.9323028761517
 10
148.9480228518652
 20
105.9285132711739
 10
148.9240256089801
 20
105.9223443971617
 10
148.9010403628789
 20
105.9139469770404
 10
148.8791747727939
 20
105.9034286700423
 10
148.8585472638806
 20
105.8909079013231
 10
148.839297793141
 20
105.8765138619613
 10
148.8215447857308
 20
105.8603865089592
 10
148.8054066668054
 20
105.8426335015489
 10
148.7910233933669
 20
105.8233840308094
 10
148.7785026246476
 20
105.8027565218961
 10
148.7679627858031
 20
105.7808909318111
 10
148.7595653656819
 20
105.7579056857099
 10
148.7534072575929
 20
105.7339192087481
 10
148.7496284185383
 20
105.7090714579277
 10
148.7483365077504
 20
105.683470092481
 10
148.7483365077504
 20
105.683470092481
 10
148.7496391844616
 20
105.6579333225737
 10
148.7534072575929
 20
105.6331286354463
 10
148.7595653656819
 20
105.6091959881006
 10
148.7679735517264
 20
105.5862538056924
 10
148.7785026246476
 20
105.5644097474538
 10
148.7910126274437
 20
105.5438145363102
 10
148.8054066668054
 20
105.5245973633403
 10
148.8215447857308
 20
105.5068551218533
 10
148.839297793141
 20
105.4907277688512
 10
148.8585472638806
 20
105.4763552613359
 10
148.8791640068707
 20
105.4638452585398
 10
148.9010403628789
 20
105.4533269515418
 10
148.9240256089801
 20
105.4449295314205
 10
148.9480120859419
 20
105.4387714233316
 10
148.9728598367623
 20
105.434992584277
 97
        0
 75
     1
 76
     1
 98
        0
  0
LWPOLYLINE
  5
7C
330
1F
100
AcDbEntity
  8
ISS138金台
  6
Continuous
 62
   250
420
  2367521
370
    13
100
AcDbPolyline
 90
       68
 70
     0
 43
0.0
 10
148.998461202209
 20
105.4337006734891
 10
149.0240087380395
 20
105.434992584277
 10
149.0488026592437
 20
105.4387821892548
 10
149.0727245406662
 20
105.4449187654973
 10
149.0956774889976
 20
105.453337717465
 10
149.1175215472362
 20
105.4638452585398
 10
149.1381059924566
 20
105.4763552613359
 10
149.1573339313497
 20
105.4907277688512
 10
149.1750761728367
 20
105.5068551218533
 10
149.1911927599156
 20
105.5245973633403
 10
149.2055760333541
 20
105.5438253022334
 10
149.2180752702269
 20
105.5644097474538
 10
149.2286043431482
 20
105.5862538056924
 10
149.2370017632695
 20
105.6091959881006
 10
149.2431598713584
 20
105.6331286354463
 10
149.246938710413
 20
105.6579333225737
 10
149.2482306212009
 20
105.683470092481
 10
149.2482306212009
 20
105.683470092481
 10
149.2469494763362
 20
105.7090606920044
 10
149.2431598713584
 20
105.7339192087481
 10
149.2370017632695
 20
105.7578949197866
 10
149.2286043431482
 20
105.7809016977343
 10
149.2180752702269
 20
105.8027565218961
 10
149.2055652674309
 20
105.8233732648862
 10
149.1911927599156
 20
105.8426335015489
 10
149.1750761728367
 20
105.8603865089592
 10
149.1573339313497
 20
105.8765138619613
 10
149.1381059924566
 20
105.8909079013231
 10
149.117510781313
 20
105.9034286700423
 10
149.0956774889976
 20
105.9139469770404
 10
149.0727353065894
 20
105.9223551630849
 10
149.0488026592437
 20
105.9285132711739
 10
149.0239979721163
 20
105.9322921102284
 10
148.998461202209
 20
105.9335840210163
 10
148.998461202209
 20
105.9335840210163
 10
148.9728706026856
 20
105.9323028761517
 10
148.9480228518652
 20
105.9285132711739
 10
148.9240256089801
 20
105.9223443971617
 10
148.9010403628789
 20
105.9139469770404
 10
148.8791747727939
 20
105.9034286700423
 10
148.8585472638806
 20
105.8909079013231
 10
148.839297793141
 20
105.8765138619613
 10
148.8215447857308
 20
105.8603865089592
 10
148.8054066668054
 20
105.8426335015489
 10
148.7910233933669
 20
105.8233840308094
 10
148.7785026246476
 20
105.8027565218961
 10
148.7679627858031
 20
105.7808909318111
 10
148.7595653656819
 20
105.7579056857099
 10
148.7534072575929
 20
105.7339192087481
 10
148.7496284185383
 20
105.7090714579277
 10
148.7483365077504
 20
105.683470092481
 10
148.7483365077504
 20
105.683470092481
 10
148.7496391844616
 20
105.6579333225737
 10
148.7534072575929
 20
105.6331286354463
 10
148.7595653656819
 20
105.6091959881006
 10
148.7679735517264
 20
105.5862538056924
 10
148.7785026246476
 20
105.5644097474538
 10
148.7910126274437
 20
105.5438145363102
 10
148.8054066668054
 20
105.5245973633403
 10
148.8215447857308
 20
105.5068551218533
 10
148.839297793141
 20
105.4907277688512
 10
148.8585472638806
 20
105.4763552613359
 10
148.8791640068707
 20
105.4638452585398
 10
148.9010403628789
 20
105.4533269515418
 10
148.9240256089801
 20
105.4449295314205
 10
148.9480120859419
 20
105.4387714233316
 10
148.9728598367623
 20
105.434992584277
 10
148.998461202209
 20
105.4337006734891
  0
HATCH
  5
7D
330
1F
100
AcDbEntity
  8
ISS138金台
  6
Continuous
 62
   250
420
  2367521
370
    13
100
AcDbHatch
 10
0.0
 20
0.0
 30
0.0
210
0.0
220
0.0
230
1.0
  2
SOLID
 70
     1
 71
     0
 91
        1
 92
        3
 72
     0
 73
     1
 93
       67
 10
143.4942645244842
 20
94.19615464203767
 10
143.5198120603147
 20
94.19744655282557
 10
143.5446059815189
 20
94.20122539188014
 10
143.5685278629414
 20
94.20738349996908
 10
143.5914700453496
 20
94.2157916860136
 10
143.6133141035882
 20
94.22632075893489
 10
143.6339093147318
 20
94.23883076173095
 10
143.6531372536249
 20
94.25321403516945
 10
143.6708687291886
 20
94.26935215409483
 10
143.687006848114
 20
94.2871159274283
 10
143.7013685897061
 20
94.30636539816786
 10
143.7138785925021
 20
94.32698214115791
 10
143.7244076654234
 20
94.34884773124294
 10
143.7328050855447
 20
94.37184374326736
 10
143.7389631936337
 20
94.39581945430595
 10
143.7427420326882
 20
94.42067797104957
 10
143.7440339434761
 20
94.44627933649625
 10
143.7440339434761
 20
94.44627933649625
 10
143.7427420326882
 20
94.47181610640351
 10
143.7389631936337
 20
94.49662079353098
 10
143.7328050855447
 20
94.52055344087663
 10
143.7244076654234
 20
94.5434956232849
 10
143.7138785925021
 20
94.56532891560022
 10
143.7013685897061
 20
94.58592412674383
 10
143.6869960821908
 20
94.6051520656369
 10
143.6708687291886
 20
94.62288354120068
 10
143.6531480195481
 20
94.6390001282796
 10
143.6339093147318
 20
94.6533834017181
 10
143.6133248695114
 20
94.66589340451415
 10
143.5914808112728
 20
94.67641171151223
 10
143.5685278629414
 20
94.6848091316335
 10
143.5446059815189
 20
94.69096723972244
 10
143.5198012943915
 20
94.69474607877702
 10
143.4942645244842
 20
94.6960379895649
 10
143.4942645244842
 20
94.6960379895649
 10
143.4686631590375
 20
94.69475684470025
 10
143.4438154082171
 20
94.69096723972244
 10
143.4198289312553
 20
94.6848091316335
 10
143.3968436851541
 20
94.67641171151223
 10
143.3749673291459
 20
94.66590417043739
 10
143.3543505861558
 20
94.6533834017181
 10
143.335090349493
 20
94.6390001282796
 10
143.317348108006
 20
94.62288354120068
 10
143.3012099890806
 20
94.6051520656369
 10
143.2868159497189
 20
94.5859133608206
 10
143.2742951809996
 20
94.56532891560022
 10
143.2637768740016
 20
94.5434956232849
 10
143.2553686879571
 20
94.52055344087663
 10
143.2492105798681
 20
94.49661002760776
 10
143.2454317408135
 20
94.47181610640351
 10
143.2441398300256
 20
94.44627933649625
 10
143.2441398300256
 20
94.44627933649625
 10
143.2454209748903
 20
94.42067797104957
 10
143.2491998139449
 20
94.39581945430595
 10
143.2553686879571
 20
94.37184374326736
 10
143.2637768740016
 20
94.34885849716616
 10
143.2742951809996
 20
94.32698214115791
 10
143.2868159497189
 20
94.30636539816786
 10
143.3012099890806
 20
94.28710516150508
 10
143.317348108006
 20
94.26936292001807
 10
143.3351011154163
 20
94.25321403516945
 10
143.3543505861558
 20
94.23883076173095
 10
143.3749780950691
 20
94.22630999301165
 10
143.3968436851541
 20
94.2157916860136
 10
143.4198289312553
 20
94.20738349996908
 10
143.4438154082171
 20
94.20122539188014
 10
143.4686631590375
 20
94.19744655282557
 97
        0
 75
     1
 76
     1
 98
        0
  0
LWPOLYLINE
  5
7E
330
1F
100
AcDbEntity
  8
ISS138金台
  6
Continuous
 62
   250
420
  2367521
370
    13
100
AcDbPolyline
 90
       68
 70
     0
 43
0.0
 10
143.4942645244842
 20
94.19615464203767
 10
143.5198120603147
 20
94.19744655282557
 10
143.5446059815189
 20
94.20122539188014
 10
143.5685278629414
 20
94.20738349996908
 10
143.5914700453496
 20
94.2157916860136
 10
143.6133141035882
 20
94.22632075893489
 10
143.6339093147318
 20
94.23883076173095
 10
143.6531372536249
 20
94.25321403516945
 10
143.6708687291886
 20
94.26935215409483
 10
143.687006848114
 20
94.2871159274283
 10
143.7013685897061
 20
94.30636539816786
 10
143.7138785925021
 20
94.32698214115791
 10
143.7244076654234
 20
94.34884773124294
 10
143.7328050855447
 20
94.37184374326736
 10
143.7389631936337
 20
94.39581945430595
 10
143.7427420326882
 20
94.42067797104957
 10
143.7440339434761
 20
94.44627933649625
 10
143.7440339434761
 20
94.44627933649625
 10
143.7427420326882
 20
94.47181610640351
 10
143.7389631936337
 20
94.49662079353098
 10
143.7328050855447
 20
94.52055344087663
 10
143.7244076654234
 20
94.5434956232849
 10
143.7138785925021
 20
94.56532891560022
 10
143.7013685897061
 20
94.58592412674383
 10
143.6869960821908
 20
94.6051520656369
 10
143.6708687291886
 20
94.62288354120068
 10
143.6531480195481
 20
94.6390001282796
 10
143.6339093147318
 20
94.6533834017181
 10
143.6133248695114
 20
94.66589340451415
 10
143.5914808112728
 20
94.67641171151223
 10
143.5685278629414
 20
94.6848091316335
 10
143.5446059815189
 20
94.69096723972244
 10
143.5198012943915
 20
94.69474607877702
 10
143.4942645244842
 20
94.6960379895649
 10
143.4942645244842
 20
94.6960379895649
 10
143.4686631590375
 20
94.69475684470025
 10
143.4438154082171
 20
94.69096723972244
 10
143.4198289312553
 20
94.6848091316335
 10
143.3968436851541
 20
94.67641171151223
 10
143.3749673291459
 20
94.66590417043739
 10
143.3543505861558
 20
94.6533834017181
 10
143.335090349493
 20
94.6390001282796
 10
143.317348108006
 20
94.62288354120068
 10
143.3012099890806
 20
94.6051520656369
 10
143.2868159497189
 20
94.5859133608206
 10
143.2742951809996
 20
94.56532891560022
 10
143.2637768740016
 20
94.5434956232849
 10
143.2553686879571
 20
94.52055344087663
 10
143.2492105798681
 20
94.49661002760776
 10
143.2454317408135
 20
94.47181610640351
 10
143.2441398300256
 20
94.44627933649625
 10
143.2441398300256
 20
94.44627933649625
 10
143.2454209748903
 20
94.42067797104957
 10
143.2491998139449
 20
94.39581945430595
 10
143.2553686879571
 20
94.37184374326736
 10
143.2637768740016
 20
94.34885849716616
 10
143.2742951809996
 20
94.32698214115791
 10
143.2868159497189
 20
94.30636539816786
 10
143.3012099890806
 20
94.28710516150508
 10
143.317348108006
 20
94.26936292001807
 10
143.3351011154163
 20
94.25321403516945
 10
143.3543505861558
 20
94.23883076173095
 10
143.3749780950691
 20
94.22630999301165
 10
143.3968436851541
 20
94.2157916860136
 10
143.4198289312553
 20
94.20738349996908
 10
143.4438154082171
 20
94.20122539188014
 10
143.4686631590375
 20
94.19744655282557
 10
143.4942645244842
 20
94.19615464203767
  0
HATCH
  5
7F
330
1F
100
AcDbEntity
  8
ISS138金台
  6
Continuous
 62
   250
420
  2367521
370
    13
100
AcDbHatch
 10
0.0
 20
0.0
 30
0.0
210
0.0
220
0.0
230
1.0
  2
SOLID
 70
     1
 71
     0
 91
        1
 92
        3
 72
     0
 73
     1
 93
       67
 10
100.4937890960678
 20
94.17409526533447
 10
100.5193366318983
 20
94.17538717612237
 10
100.5441305531025
 20
94.17916601517695
 10
100.5680632004482
 20
94.18532412326587
 10
100.5910053828565
 20
94.19373230931038
 10
100.6128386751718
 20
94.20425061630846
 10
100.6334338863154
 20
94.21677138502774
 10
100.6526618252085
 20
94.23116542438947
 10
100.6704040666955
 20
94.24729277739162
 10
100.6865206537744
 20
94.26505655072509
 10
100.7008931612897
 20
94.28430602146464
 10
100.713413930009
 20
94.30492276445472
 10
100.723932237007
 20
94.32678835453973
 10
100.7323296571283
 20
94.34978436656417
 10
100.7384877652172
 20
94.37376007760273
 10
100.7422666042718
 20
94.39861859434637
 10
100.7435585150597
 20
94.42421995979304
 10
100.7435585150597
 20
94.42421995979304
 10
100.7422666042718
 20
94.44975672970031
 10
100.738476999294
 20
94.47455065090455
 10
100.7323296571283
 20
94.49849406417343
 10
100.723932237007
 20
94.52143624658169
 10
100.7134031640857
 20
94.54325877297379
 10
100.7008931612897
 20
94.56386475004061
 10
100.6865206537744
 20
94.5830926889337
 10
100.6704040666955
 20
94.60082416449748
 10
100.6526618252085
 20
94.6169407515764
 10
100.6334338863154
 20
94.63132402501489
 10
100.6128386751718
 20
94.64383402781095
 10
100.5910053828565
 20
94.65435233480902
 10
100.5680632004482
 20
94.6627497549303
 10
100.5441197871793
 20
94.66890786301923
 10
100.5193258659751
 20
94.6726867020738
 10
100.4937890960678
 20
94.6739786128617
 10
100.4937890960678
 20
94.6739786128617
 10
100.4682523261605
 20
94.6726867020738
 10
100.4434584049563
 20
94.66889709709599
 10
100.4195257576106
 20
94.66273898900707
 10
100.3965728092791
 20
94.65435233480902
 10
100.3747395169638
 20
94.64383402781095
 10
100.3541443058202
 20
94.63132402501489
 10
100.3349163669271
 20
94.6169407515764
 10
100.3171848913634
 20
94.60082416449748
 10
100.3010575383612
 20
94.5830926889337
 10
100.2866742649227
 20
94.56386475004061
 10
100.2741642621267
 20
94.54326953889702
 10
100.2636459551286
 20
94.52143624658169
 10
100.2552485350073
 20
94.49849406417343
 10
100.2490904269184
 20
94.47455065090455
 10
100.2453115878638
 20
94.44975672970031
 10
100.2440196770759
 20
94.42421995979304
 10
100.2440196770759
 20
94.42421995979304
 10
100.2453008219406
 20
94.39861859434637
 10
100.2490904269184
 20
94.37377084352596
 10
100.2552593009305
 20
94.34978436656417
 10
100.2636567210518
 20
94.32679912046297
 10
100.2741642621267
 20
94.30492276445472
 10
100.2866742649227
 20
94.28429525554142
 10
100.3010575383612
 20
94.26505655072509
 10
100.3171848913634
 20
94.24729277739162
 10
100.3349163669271
 20
94.23116542438947
 10
100.3541443058202
 20
94.21677138502774
 10
100.3747395169638
 20
94.20425061630846
 10
100.3965728092791
 20
94.19373230931038
 10
100.4195149916874
 20
94.18532412326587
 10
100.4434584049563
 20
94.17916601517695
 10
100.4682523261605
 20
94.17538717612237
 97
        0
 75
     1
 76
     1
 98
        0
  0
LWPOLYLINE
  5
80
330
1F
100
AcDbEntity
  8
ISS138金台
  6
Continuous
 62
   250
420
  2367521
370
    13
100
AcDbPolyline
 90
       68
 70
     0
 43
0.0
 10
100.4937890960678
 20
94.17409526533447
 10
100.5193366318983
 20
94.17538717612237
 10
100.5441305531025
 20
94.17916601517695
 10
100.5680632004482
 20
94.18532412326587
 10
100.5910053828565
 20
94.19373230931038
 10
100.6128386751718
 20
94.20425061630846
 10
100.6334338863154
 20
94.21677138502774
 10
100.6526618252085
 20
94.23116542438947
 10
100.6704040666955
 20
94.24729277739162
 10
100.6865206537744
 20
94.26505655072509
 10
100.7008931612897
 20
94.28430602146464
 10
100.713413930009
 20
94.30492276445472
 10
100.723932237007
 20
94.32678835453973
 10
100.7323296571283
 20
94.34978436656417
 10
100.7384877652172
 20
94.37376007760273
 10
100.7422666042718
 20
94.39861859434637
 10
100.7435585150597
 20
94.42421995979304
 10
100.7435585150597
 20
94.42421995979304
 10
100.7422666042718
 20
94.44975672970031
 10
100.738476999294
 20
94.47455065090455
 10
100.7323296571283
 20
94.49849406417343
 10
100.723932237007
 20
94.52143624658169
 10
100.7134031640857
 20
94.54325877297379
 10
100.7008931612897
 20
94.56386475004061
 10
100.6865206537744
 20
94.5830926889337
 10
100.6704040666955
 20
94.60082416449748
 10
100.6526618252085
 20
94.6169407515764
 10
100.6334338863154
 20
94.63132402501489
 10
100.6128386751718
 20
94.64383402781095
 10
100.5910053828565
 20
94.65435233480902
 10
100.5680632004482
 20
94.6627497549303
 10
100.5441197871793
 20
94.66890786301923
 10
100.5193258659751
 20
94.6726867020738
 10
100.4937890960678
 20
94.6739786128617
 10
100.4937890960678
 20
94.6739786128617
 10
100.4682523261605
 20
94.6726867020738
 10
100.4434584049563
 20
94.66889709709599
 10
100.4195257576106
 20
94.66273898900707
 10
100.3965728092791
 20
94.65435233480902
 10
100.3747395169638
 20
94.64383402781095
 10
100.3541443058202
 20
94.63132402501489
 10
100.3349163669271
 20
94.6169407515764
 10
100.3171848913634
 20
94.60082416449748
 10
100.3010575383612
 20
94.5830926889337
 10
100.2866742649227
 20
94.56386475004061
 10
100.2741642621267
 20
94.54326953889702
 10
100.2636459551286
 20
94.52143624658169
 10
100.2552485350073
 20
94.49849406417343
 10
100.2490904269184
 20
94.47455065090455
 10
100.2453115878638
 20
94.44975672970031
 10
100.2440196770759
 20
94.42421995979304
 10
100.2440196770759
 20
94.42421995979304
 10
100.2453008219406
 20
94.39861859434637
 10
100.2490904269184
 20
94.37377084352596
 10
100.2552593009305
 20
94.34978436656417
 10
100.2636567210518
 20
94.32679912046297
 10
100.2741642621267
 20
94.30492276445472
 10
100.2866742649227
 20
94.28429525554142
 10
100.3010575383612
 20
94.26505655072509
 10
100.3171848913634
 20
94.24729277739162
 10
100.3349163669271
 20
94.23116542438947
 10
100.3541443058202
 20
94.21677138502774
 10
100.3747395169638
 20
94.20425061630846
 10
100.3965728092791
 20
94.19373230931038
 10
100.4195149916874
 20
94.18532412326587
 10
100.4434584049563
 20
94.17916601517695
 10
100.4682523261605
 20
94.17538717612237
 10
100.4937890960678
 20
94.17409526533447
  0
HATCH
  5
81
330
1F
100
AcDbEntity
  8
ISS138金台
  6
Continuous
 62
   250
420
  2367521
370
    13
100
AcDbHatch
 10
0.0
 20
0.0
 30
0.0
210
0.0
220
0.0
230
1.0
  2
SOLID
 70
     1
 71
     0
 91
        1
 92
        3
 72
     0
 73
     1
 93
       67
 10
118.4938852104177
 20
120.2427879076761
 10
118.5194327462482
 20
120.244079818464
 10
118.5442159015292
 20
120.2478586575186
 10
118.5681485488749
 20
120.2540275315308
 10
118.5910907312831
 20
120.2624249516521
 10
118.6129347895217
 20
120.2729432586501
 10
118.6335300006653
 20
120.285442495523
 10
118.6527579395584
 20
120.2998150030382
 10
118.6704894151222
 20
120.3159423560404
 10
118.6866167681243
 20
120.3336738316041
 10
118.7010000415628
 20
120.3529125364205
 10
118.7135100443589
 20
120.3734969816408
 10
118.7240283513569
 20
120.3953410398794
 10
118.7324257714782
 20
120.4182832222877
 10
118.7385838795672
 20
120.4422158696333
 10
118.7423627186217
 20
120.4670205567608
 10
118.7436546294096
 20
120.492557326668
 10
118.7436546294096
 20
120.492557326668
 10
118.7423627186217
 20
120.5181586921147
 10
118.7385731136439
 20
120.5430064429351
 10
118.7324257714782
 20
120.5669929198969
 10
118.7240283513569
 20
120.5899674000749
 10
118.7135100443589
 20
120.6118545220064
 10
118.7010000415628
 20
120.6324712649964
 10
118.6866167681243
 20
120.651720735736
 10
118.6704894151222
 20
120.6694737431462
 10
118.6527579395584
 20
120.6856118620716
 10
118.6335300006653
 20
120.7000059014333
 10
118.6129347895217
 20
120.7125159042294
 10
118.5911014972064
 20
120.7230342112275
 10
118.5681593147981
 20
120.731442397272
 10
118.5442159015292
 20
120.7376005053609
 10
118.519421980325
 20
120.7413793444155
 10
118.4938852104177
 20
120.7426712552034
 10
118.4938852104177
 20
120.7426712552034
 10
118.4683484405105
 20
120.7413793444155
 10
118.4435545193062
 20
120.7375897394377
 10
118.4196111060373
 20
120.731442397272
 10
118.3966581577058
 20
120.7230342112275
 10
118.3748356313138
 20
120.7125266701526
 10
118.3542404201701
 20
120.6999951355101
 10
118.3350017153538
 20
120.6856010961484
 10
118.3172810057133
 20
120.6694737431462
 10
118.3011536527111
 20
120.6517099698128
 10
118.2867703792726
 20
120.6324712649964
 10
118.2742711423998
 20
120.6118437560831
 10
118.2637420694785
 20
120.5899781659981
 10
118.2553446493572
 20
120.5669929198969
 10
118.2491865412683
 20
120.5430064429351
 10
118.2454077022137
 20
120.5181586921147
 10
118.2441157914258
 20
120.492557326668
 10
118.2441157914258
 20
120.492557326668
 10
118.2454077022137
 20
120.4670205567608
 10
118.2491865412683
 20
120.4422266355565
 10
118.2553446493572
 20
120.4182939882109
 10
118.2637528354017
 20
120.3953410398794
 10
118.2742603764766
 20
120.3735077475641
 10
118.2867811451959
 20
120.3529017704972
 10
118.3011536527111
 20
120.3336845975274
 10
118.3172810057133
 20
120.3159423560404
 10
118.3350124812771
 20
120.2998257689615
 10
118.3542404201701
 20
120.2854532614462
 10
118.3748356313138
 20
120.2729324927269
 10
118.3966689236291
 20
120.2624141857288
 10
118.4196111060373
 20
120.2540167656076
 10
118.4435545193062
 20
120.2478586575186
 10
118.4683484405105
 20
120.244079818464
 97
        0
 75
     1
 76
     1
 98
        0
  0
LWPOLYLINE
  5
82
330
1F
100
AcDbEntity
  8
ISS138金台
  6
Continuous
 62
   250
420
  2367521
370
    13
100
AcDbPolyline
 90
       68
 70
     0
 43
0.0
 10
118.4938852104177
 20
120.2427879076761
 10
118.5194327462482
 20
120.244079818464
 10
118.5442159015292
 20
120.2478586575186
 10
118.5681485488749
 20
120.2540275315308
 10
118.5910907312831
 20
120.2624249516521
 10
118.6129347895217
 20
120.2729432586501
 10
118.6335300006653
 20
120.285442495523
 10
118.6527579395584
 20
120.2998150030382
 10
118.6704894151222
 20
120.3159423560404
 10
118.6866167681243
 20
120.3336738316041
 10
118.7010000415628
 20
120.3529125364205
 10
118.7135100443589
 20
120.3734969816408
 10
118.7240283513569
 20
120.3953410398794
 10
118.7324257714782
 20
120.4182832222877
 10
118.7385838795672
 20
120.4422158696333
 10
118.7423627186217
 20
120.4670205567608
 10
118.7436546294096
 20
120.492557326668
 10
118.7436546294096
 20
120.492557326668
 10
118.7423627186217
 20
120.5181586921147
 10
118.7385731136439
 20
120.5430064429351
 10
118.7324257714782
 20
120.5669929198969
 10
118.7240283513569
 20
120.5899674000749
 10
118.7135100443589
 20
120.6118545220064
 10
118.7010000415628
 20
120.6324712649964
 10
118.6866167681243
 20
120.651720735736
 10
118.6704894151222
 20
120.6694737431462
 10
118.6527579395584
 20
120.6856118620716
 10
118.6335300006653
 20
120.7000059014333
 10
118.6129347895217
 20
120.7125159042294
 10
118.5911014972064
 20
120.7230342112275
 10
118.5681593147981
 20
120.731442397272
 10
118.5442159015292
 20
120.7376005053609
 10
118.519421980325
 20
120.7413793444155
 10
118.4938852104177
 20
120.7426712552034
 10
118.4938852104177
 20
120.7426712552034
 10
118.4683484405105
 20
120.7413793444155
 10
118.4435545193062
 20
120.7375897394377
 10
118.4196111060373
 20
120.731442397272
 10
118.3966581577058
 20
120.7230342112275
 10
118.3748356313138
 20
120.7125266701526
 10
118.3542404201701
 20
120.6999951355101
 10
118.3350017153538
 20
120.6856010961484
 10
118.3172810057133
 20
120.6694737431462
 10
118.3011536527111
 20
120.6517099698128
 10
118.2867703792726
 20
120.6324712649964
 10
118.2742711423998
 20
120.6118437560831
 10
118.2637420694785
 20
120.5899781659981
 10
118.2553446493572
 20
120.5669929198969
 10
118.2491865412683
 20
120.5430064429351
 10
118.2454077022137
 20
120.5181586921147
 10
118.2441157914258
 20
120.492557326668
 10
118.2441157914258
 20
120.492557326668
 10
118.2454077022137
 20
120.4670205567608
 10
118.2491865412683
 20
120.4422266355565
 10
118.2553446493572
 20
120.4182939882109
 10
118.2637528354017
 20
120.3953410398794
 10
118.2742603764766
 20
120.3735077475641
 10
118.2867811451959
 20
120.3529017704972
 10
118.3011536527111
 20
120.3336845975274
 10
118.3172810057133
 20
120.3159423560404
 10
118.3350124812771
 20
120.2998257689615
 10
118.3542404201701
 20
120.2854532614462
 10
118.3748356313138
 20
120.2729324927269
 10
118.3966689236291
 20
120.2624141857288
 10
118.4196111060373
 20
120.2540167656076
 10
118.4435545193062
 20
120.2478586575186
 10
118.4683484405105
 20
120.244079818464
 10
118.4938852104177
 20
120.2427879076761
  0
HATCH
  5
83
330
1F
100
AcDbEntity
  8
ISS138金台
  6
Continuous
 62
   250
420
  2367521
370
    13
100
AcDbHatch
 10
0.0
 20
0.0
 30
0.0
210
0.0
220
0.0
230
1.0
  2
SOLID
 70
     1
 71
     0
 91
        1
 92
        3
 72
     0
 73
     1
 93
       67
 10
125.4939961553626
 20
120.2427879076761
 10
125.5195329252698
 20
120.244079818464
 10
125.5443268464741
 20
120.2478586575186
 10
125.568270259743
 20
120.2540275315308
 10
125.5912124421512
 20
120.2624249516521
 10
125.6130565003898
 20
120.2729432586501
 10
125.6336409456101
 20
120.285442495523
 10
125.6528688845032
 20
120.2998150030382
 10
125.670600360067
 20
120.3159423560404
 10
125.6867277130692
 20
120.3336738316041
 10
125.7011002205844
 20
120.3529125364205
 10
125.7136209893037
 20
120.3734969816408
 10
125.7241392963018
 20
120.3953410398794
 10
125.7325367164231
 20
120.4182832222877
 10
125.7386840585888
 20
120.4422158696333
 10
125.7424736635666
 20
120.4670205567608
 10
125.7437655743545
 20
120.492557326668
 10
125.7437655743545
 20
120.492557326668
 10
125.7424844294898
 20
120.5181586921147
 10
125.738694824512
 20
120.5430064429351
 10
125.7325474823463
 20
120.5669929198969
 10
125.7241285303786
 20
120.5899674000749
 10
125.7136102233805
 20
120.6118545220064
 10
125.7011002205844
 20
120.6324712649964
 10
125.6867277130692
 20
120.651720735736
 10
125.670600360067
 20
120.6694737431462
 10
125.6528688845032
 20
120.6856118620716
 10
125.6336409456101
 20
120.7000059014333
 10
125.6130457344665
 20
120.7125159042294
 10
125.5912124421512
 20
120.7230342112275
 10
125.5682594938197
 20
120.731442397272
 10
125.5443268464741
 20
120.7376005053609
 10
125.5195329252698
 20
120.7413793444155
 10
125.4939961553626
 20
120.7426712552034
 10
125.4939961553626
 20
120.7426712552034
 10
125.4684486195321
 20
120.7413793444155
 10
125.4436546983278
 20
120.7375897394377
 10
125.4197328169054
 20
120.731442397272
 10
125.3967798685739
 20
120.7230342112275
 10
125.3749465762586
 20
120.7125266701526
 10
125.354351365115
 20
120.6999951355101
 10
125.3351234262219
 20
120.6856010961484
 10
125.3173811847349
 20
120.6694737431462
 10
125.301264597656
 20
120.6517099698128
 10
125.2868813242175
 20
120.6324712649964
 10
125.2743820873446
 20
120.6118437560831
 10
125.2638530144234
 20
120.5899781659981
 10
125.2554555943021
 20
120.5669929198969
 10
125.2492974862131
 20
120.5430064429351
 10
125.2455186471586
 20
120.5181586921147
 10
125.2442267363707
 20
120.492557326668
 10
125.2442267363707
 20
120.492557326668
 10
125.2455078812353
 20
120.4670205567608
 10
125.2492974862131
 20
120.4422266355565
 10
125.2554555943021
 20
120.4182939882109
 10
125.2638530144234
 20
120.3953410398794
 10
125.2743713214214
 20
120.3735077475641
 10
125.2868813242175
 20
120.3529017704972
 10
125.301264597656
 20
120.3336845975274
 10
125.3173811847349
 20
120.3159423560404
 10
125.3351234262219
 20
120.2998257689615
 10
125.354351365115
 20
120.2854532614462
 10
125.3749465762586
 20
120.2729324927269
 10
125.3967798685739
 20
120.2624141857288
 10
125.4197220509822
 20
120.2540167656076
 10
125.4436654642511
 20
120.2478586575186
 10
125.4684593854553
 20
120.244079818464
 97
        0
 75
     1
 76
     1
 98
        0
  0
LWPOLYLINE
  5
84
330
1F
100
AcDbEntity
  8
ISS138金台
  6
Continuous
 62
   250
420
  2367521
370
    13
100
AcDbPolyline
 90
       68
 70
     0
 43
0.0
 10
125.4939961553626
 20
120.2427879076761
 10
125.5195329252698
 20
120.244079818464
 10
125.5443268464741
 20
120.2478586575186
 10
125.568270259743
 20
120.2540275315308
 10
125.5912124421512
 20
120.2624249516521
 10
125.6130565003898
 20
120.2729432586501
 10
125.6336409456101
 20
120.285442495523
 10
125.6528688845032
 20
120.2998150030382
 10
125.670600360067
 20
120.3159423560404
 10
125.6867277130692
 20
120.3336738316041
 10
125.7011002205844
 20
120.3529125364205
 10
125.7136209893037
 20
120.3734969816408
 10
125.7241392963018
 20
120.3953410398794
 10
125.7325367164231
 20
120.4182832222877
 10
125.7386840585888
 20
120.4422158696333
 10
125.7424736635666
 20
120.4670205567608
 10
125.7437655743545
 20
120.492557326668
 10
125.7437655743545
 20
120.492557326668
 10
125.7424844294898
 20
120.5181586921147
 10
125.738694824512
 20
120.5430064429351
 10
125.7325474823463
 20
120.5669929198969
 10
125.7241285303786
 20
120.5899674000749
 10
125.7136102233805
 20
120.6118545220064
 10
125.7011002205844
 20
120.6324712649964
 10
125.6867277130692
 20
120.651720735736
 10
125.670600360067
 20
120.6694737431462
 10
125.6528688845032
 20
120.6856118620716
 10
125.6336409456101
 20
120.7000059014333
 10
125.6130457344665
 20
120.7125159042294
 10
125.5912124421512
 20
120.7230342112275
 10
125.5682594938197
 20
120.731442397272
 10
125.5443268464741
 20
120.7376005053609
 10
125.5195329252698
 20
120.7413793444155
 10
125.4939961553626
 20
120.7426712552034
 10
125.4939961553626
 20
120.7426712552034
 10
125.4684486195321
 20
120.7413793444155
 10
125.4436546983278
 20
120.7375897394377
 10
125.4197328169054
 20
120.731442397272
 10
125.3967798685739
 20
120.7230342112275
 10
125.3749465762586
 20
120.7125266701526
 10
125.354351365115
 20
120.6999951355101
 10
125.3351234262219
 20
120.6856010961484
 10
125.3173811847349
 20
120.6694737431462
 10
125.301264597656
 20
120.6517099698128
 10
125.2868813242175
 20
120.6324712649964
 10
125.2743820873446
 20
120.6118437560831
 10
125.2638530144234
 20
120.5899781659981
 10
125.2554555943021
 20
120.5669929198969
 10
125.2492974862131
 20
120.5430064429351
 10
125.2455186471586
 20
120.5181586921147
 10
125.2442267363707
 20
120.492557326668
 10
125.2442267363707
 20
120.492557326668
 10
125.2455078812353
 20
120.4670205567608
 10
125.2492974862131
 20
120.4422266355565
 10
125.2554555943021
 20
120.4182939882109
 10
125.2638530144234
 20
120.3953410398794
 10
125.2743713214214
 20
120.3735077475641
 10
125.2868813242175
 20
120.3529017704972
 10
125.301264597656
 20
120.3336845975274
 10
125.3173811847349
 20
120.3159423560404
 10
125.3351234262219
 20
120.2998257689615
 10
125.354351365115
 20
120.2854532614462
 10
125.3749465762586
 20
120.2729324927269
 10
125.3967798685739
 20
120.2624141857288
 10
125.4197220509822
 20
120.2540167656076
 10
125.4436654642511
 20
120.2478586575186
 10
125.4684593854553
 20
120.244079818464
 10
125.4939961553626
 20
120.2427879076761
  0
TEXT
  5
85
330
1F
100
AcDbEntity
  8
ISS138金台
  6
Continuous
 62
   250
420
  2367521
100
AcDbText
 10
121.3048892982463
 20
121.5962184537559
 30
0.0
 40
2.150533301035563
  1
7
 41
1.024999618530273
  7
MS Gothic
100
AcDbText
  0
TEXT
  5
86
330
1F
100
AcDbEntity
  8
ISS138金台
  6
Continuous
 62
   250
420
  2367521
100
AcDbText
 10
152.3596760558356
 20
105.337216452086
 30
0.0
 40
2.150533301035563
  1
2 .
 50
90.00000250447816
 41
0.506334106127421
  7
MS Gothic
100
AcDbText
  0
TEXT
  5
87
330
1F
100
AcDbEntity
  8
ISS138金台
  6
Continuous
 62
   250
420
  2367521
100
AcDbText
 10
152.3596760558356
 20
107.4962146971134
 30
0.0
 40
2.150533301035563
  1
5
 50
90.00000250447816
 41
0.8079986572265625
  7
MS Gothic
100
AcDbText
  0
TEXT
  5
88
330
1F
100
AcDbEntity
  8
ISS138金台
  6
Continuous
 62
   250
420
  2367521
100
AcDbText
 10
120.5292368271209
 20
95.59385466444911
 30
0.0
 40
2.150533301035563
  1
4 3
 41
0.6386667887369791
  7
MS Gothic
100
AcDbText
  0
LINE
  5
89
330
1F
100
AcDbEntity
  8
ISS138金台
  6
Continuous
 62
   250
420
  2367521
370
    13
100
AcDbLine
 10
116.6435352185403
 20
108.6727686349615
 30
0.0
 11
93.0172968140121
 21
108.6727686349615
 31
0.0
  0
LINE
  5
8A
330
1F
100
AcDbEntity
  8
ISS138金台
  6
Continuous
 62
   250
420
  2367521
370
    13
100
AcDbLine
 10
93.54675415265875
 20
108.7482377568206
 30
0.0
 11
93.54675415265875
 21
105.7482163548007
 31
0.0
  0
LINE
  5
8B
330
1F
100
AcDbEntity
  8
ISS138金台
  6
Continuous
 62
   250
420
  2367521
370
    13
100
AcDbLine
 10
99.84506685985252
 20
105.6834808584042
 30
0.0
 11
93.01740447324443
 21
105.6834808584042
 31
0.0
  0
HATCH
  5
8C
330
1F
100
AcDbEntity
  8
ISS138金台
  6
Continuous
 62
   250
420
  2367521
370
    13
100
AcDbHatch
 10
0.0
 20
0.0
 30
0.0
210
0.0
220
0.0
230
1.0
  2
SOLID
 70
     1
 71
     0
 91
        1
 92
        3
 72
     0
 73
     1
 93
       67
 10
93.50230165563212
 20
108.4229992159696
 10
93.4767756516481
 20
108.4242911267575
 10
93.45197096452063
 20
108.428069965812
 10
93.42802755125174
 20
108.434228073901
 10
93.40508536884349
 20
108.4426254940223
 10
93.38325207652815
 20
108.4531438010203
 10
93.36265686538455
 20
108.4656538038164
 10
93.34342892649147
 20
108.4800370772549
 10
93.32569745092769
 20
108.4961536643338
 10
93.30957009792554
 20
108.5138959058208
 10
93.29519759041028
 20
108.5331130787906
 10
93.28267682169098
 20
108.5537190558575
 10
93.27215851469292
 20
108.5755523481728
 10
93.26376109457163
 20
108.5984945305811
 10
93.25760298648271
 20
108.6224271779267
 10
93.25382414742813
 20
108.6472318650542
 10
93.25253223664023
 20
108.6727686349615
 10
93.25253223664023
 20
108.6727686349615
 10
93.25382414742813
 20
108.6984238300243
 10
93.25761375240594
 20
108.7233038786144
 10
93.26376109457163
 20
108.7473334192691
 10
93.27216928061615
 20
108.7703401972168
 10
93.28267682169098
 20
108.792216553225
 10
93.29518682448705
 20
108.8128332962151
 10
93.30957009792554
 20
108.8320720010314
 10
93.32569745092769
 20
108.8498250084417
 10
93.34342892649147
 20
108.8659308295973
 10
93.36265686538455
 20
108.8803033371126
 10
93.38325207652815
 20
108.8927918080622
 10
93.40508536884349
 20
108.903299349137
 10
93.42802755125174
 20
108.9116860033351
 10
93.45197096452063
 20
108.9178225795776
 10
93.47676488572486
 20
108.9216014186321
 10
93.50230165563212
 20
108.9228825634968
 10
93.50230165563212
 20
108.9228825634968
 10
93.5279030210788
 20
108.9215906527089
 10
93.55275077189921
 20
108.9178225795776
 10
93.57673724886101
 20
108.9116967692583
 10
93.59973326088544
 20
108.903299349137
 10
93.62158808504722
 20
108.8927918080622
 10
93.64221559396051
 20
108.8803033371126
 10
93.66146506470008
 20
108.8659415955206
 10
93.67922883803354
 20
108.8498142425184
 10
93.6953561910357
 20
108.8320827669547
 10
93.70975023039742
 20
108.8128332962151
 10
93.72227099911672
 20
108.792216553225
 10
93.73278930611478
 20
108.7703401972168
 10
93.7411974921593
 20
108.7473334192691
 10
93.74735560024823
 20
108.7233254104609
 10
93.7511344393028
 20
108.6984238300243
 10
93.7524263500907
 20
108.6727686349615
 10
93.7524263500907
 20
108.6727686349615
 10
93.7511344393028
 20
108.6472318650542
 10
93.74735560024823
 20
108.6224271779267
 10
93.7411974921593
 20
108.5984945305811
 10
93.73280007203802
 20
108.5755415822496
 10
93.72227099911672
 20
108.5537190558575
 10
93.70975023039742
 20
108.5331238447139
 10
93.6953561910357
 20
108.5138851398976
 10
93.67922883803354
 20
108.4961536643338
 10
93.66146506470008
 20
108.4800263113316
 10
93.64221559396051
 20
108.4656538038164
 10
93.62158808504722
 20
108.4531438010203
 10
93.59972249496221
 20
108.4426254940223
 10
93.57673724886101
 20
108.434228073901
 10
93.55275077189921
 20
108.428069965812
 10
93.5279030210788
 20
108.4242911267575
 97
        0
 75
     1
 76
     1
 98
        0
  0
LWPOLYLINE
  5
8D
330
1F
100
AcDbEntity
  8
ISS138金台
  6
Continuous
 62
   250
420
  2367521
370
    13
100
AcDbPolyline
 90
       68
 70
     0
 43
0.0
 10
93.50230165563212
 20
108.4229992159696
 10
93.4767756516481
 20
108.4242911267575
 10
93.45197096452063
 20
108.428069965812
 10
93.42802755125174
 20
108.434228073901
 10
93.40508536884349
 20
108.4426254940223
 10
93.38325207652815
 20
108.4531438010203
 10
93.36265686538455
 20
108.4656538038164
 10
93.34342892649147
 20
108.4800370772549
 10
93.32569745092769
 20
108.4961536643338
 10
93.30957009792554
 20
108.5138959058208
 10
93.29519759041028
 20
108.5331130787906
 10
93.28267682169098
 20
108.5537190558575
 10
93.27215851469292
 20
108.5755523481728
 10
93.26376109457163
 20
108.5984945305811
 10
93.25760298648271
 20
108.6224271779267
 10
93.25382414742813
 20
108.6472318650542
 10
93.25253223664023
 20
108.6727686349615
 10
93.25253223664023
 20
108.6727686349615
 10
93.25382414742813
 20
108.6984238300243
 10
93.25761375240594
 20
108.7233038786144
 10
93.26376109457163
 20
108.7473334192691
 10
93.27216928061615
 20
108.7703401972168
 10
93.28267682169098
 20
108.792216553225
 10
93.29518682448705
 20
108.8128332962151
 10
93.30957009792554
 20
108.8320720010314
 10
93.32569745092769
 20
108.8498250084417
 10
93.34342892649147
 20
108.8659308295973
 10
93.36265686538455
 20
108.8803033371126
 10
93.38325207652815
 20
108.8927918080622
 10
93.40508536884349
 20
108.903299349137
 10
93.42802755125174
 20
108.9116860033351
 10
93.45197096452063
 20
108.9178225795776
 10
93.47676488572486
 20
108.9216014186321
 10
93.50230165563212
 20
108.9228825634968
 10
93.50230165563212
 20
108.9228825634968
 10
93.5279030210788
 20
108.9215906527089
 10
93.55275077189921
 20
108.9178225795776
 10
93.57673724886101
 20
108.9116967692583
 10
93.59973326088544
 20
108.903299349137
 10
93.62158808504722
 20
108.8927918080622
 10
93.64221559396051
 20
108.8803033371126
 10
93.66146506470008
 20
108.8659415955206
 10
93.67922883803354
 20
108.8498142425184
 10
93.6953561910357
 20
108.8320827669547
 10
93.70975023039742
 20
108.8128332962151
 10
93.72227099911672
 20
108.792216553225
 10
93.73278930611478
 20
108.7703401972168
 10
93.7411974921593
 20
108.7473334192691
 10
93.74735560024823
 20
108.7233254104609
 10
93.7511344393028
 20
108.6984238300243
 10
93.7524263500907
 20
108.6727686349615
 10
93.7524263500907
 20
108.6727686349615
 10
93.7511344393028
 20
108.6472318650542
 10
93.74735560024823
 20
108.6224271779267
 10
93.7411974921593
 20
108.5984945305811
 10
93.73280007203802
 20
108.5755415822496
 10
93.72227099911672
 20
108.5537190558575
 10
93.70975023039742
 20
108.5331238447139
 10
93.6953561910357
 20
108.5138851398976
 10
93.67922883803354
 20
108.4961536643338
 10
93.66146506470008
 20
108.4800263113316
 10
93.64221559396051
 20
108.4656538038164
 10
93.62158808504722
 20
108.4531438010203
 10
93.59972249496221
 20
108.4426254940223
 10
93.57673724886101
 20
108.434228073901
 10
93.55275077189921
 20
108.428069965812
 10
93.5279030210788
 20
108.4242911267575
 10
93.50230165563212
 20
108.4229992159696
  0
HATCH
  5
8E
330
1F
100
AcDbEntity
  8
ISS138金台
  6
Continuous
 62
   250
420
  2367521
370
    13
100
AcDbHatch
 10
0.0
 20
0.0
 30
0.0
210
0.0
220
0.0
230
1.0
  2
SOLID
 70
     1
 71
     0
 91
        1
 92
        3
 72
     0
 73
     1
 93
       67
 10
93.54658189788702
 20
105.3372487672499
 10
93.521055893903
 20
105.3385299121146
 10
93.49625120677553
 20
105.3423195170924
 10
93.47230779350664
 20
105.3484776251814
 10
93.44936561109839
 20
105.3568858112259
 10
93.42753231878305
 20
105.3673933523007
 10
93.40693710763945
 20
105.3799033550968
 10
93.38770916874637
 20
105.3942866285353
 10
93.36997769318259
 20
105.4104032156142
 10
93.35385034018044
 20
105.4281454571012
 10
93.33946706674195
 20
105.4473733959943
 10
93.32695706394588
 20
105.4679578412146
 10
93.31643875694782
 20
105.4897911335299
 10
93.30804133682653
 20
105.5127440818615
 10
93.30189399466084
 20
105.5366767292071
 10
93.29810438968303
 20
105.5614814163346
 10
93.29681247889513
 20
105.5870181862418
 10
93.29681247889513
 20
105.5870181862418
 10
93.2980936237598
 20
105.6126195516885
 10
93.30189399466084
 20
105.6374673025089
 10
93.30804133682653
 20
105.6614430135475
 10
93.31644952287105
 20
105.6844497914951
 10
93.32695706394588
 20
105.7063153815802
 10
93.33947783266518
 20
105.7269321245702
 10
93.35385034018044
 20
105.7461815953098
 10
93.36997769318259
 20
105.76393460272
 10
93.38770916874637
 20
105.7800727216454
 10
93.40693710763945
 20
105.7944559950839
 10
93.42753231878305
 20
105.8069767638032
 10
93.44936561109839
 20
105.8174950708013
 10
93.47230779350664
 20
105.8259032568458
 10
93.49625120677553
 20
105.8320505990115
 10
93.52104512797976
 20
105.8358402039893
 10
93.54658189788702
 20
105.8371321147772
 10
93.54658189788702
 20
105.8371321147772
 10
93.5721832633337
 20
105.8358402039893
 10
93.59703101415411
 20
105.8320505990115
 10
93.62101749111591
 20
105.8259032568458
 10
93.64401350314034
 20
105.8175058367245
 10
93.66586832730212
 20
105.8069767638032
 10
93.68649583621541
 20
105.7944559950839
 10
93.70574530695498
 20
105.7800727216454
 10
93.72349831436522
 20
105.76393460272
 10
93.7396364332906
 20
105.7461815953098
 10
93.75403047265232
 20
105.7269321245702
 10
93.76655124137162
 20
105.7063046156569
 10
93.77706954836968
 20
105.6844390255719
 10
93.7854777344142
 20
105.6614537794707
 10
93.79162507657989
 20
105.6374673025089
 10
93.7954146815577
 20
105.6126195516885
 10
93.7967065923456
 20
105.5870181862418
 10
93.7967065923456
 20
105.5870181862418
 10
93.7954146815577
 20
105.5614921822578
 10
93.79162507657989
 20
105.5366767292071
 10
93.7854777344142
 20
105.5127333159382
 10
93.77706954836968
 20
105.4898018994532
 10
93.76654047544838
 20
105.4679686071379
 10
93.75403047265232
 20
105.4473733959943
 10
93.7396364332906
 20
105.4281346911779
 10
93.72349831436522
 20
105.4104032156142
 10
93.70574530695498
 20
105.3942866285353
 10
93.68649583621541
 20
105.3799033550968
 10
93.66586832730212
 20
105.3673933523007
 10
93.64400273721711
 20
105.3568750453026
 10
93.62101749111591
 20
105.3484776251814
 10
93.59703101415411
 20
105.3423195170924
 10
93.5721832633337
 20
105.3385406780378
 97
        0
 75
     1
 76
     1
 98
        0
  0
LWPOLYLINE
  5
8F
330
1F
100
AcDbEntity
  8
ISS138金台
  6
Continuous
 62
   250
420
  2367521
370
    13
100
AcDbPolyline
 90
       68
 70
     0
 43
0.0
 10
93.54658189788702
 20
105.3372487672499
 10
93.521055893903
 20
105.3385299121146
 10
93.49625120677553
 20
105.3423195170924
 10
93.47230779350664
 20
105.3484776251814
 10
93.44936561109839
 20
105.3568858112259
 10
93.42753231878305
 20
105.3673933523007
 10
93.40693710763945
 20
105.3799033550968
 10
93.38770916874637
 20
105.3942866285353
 10
93.36997769318259
 20
105.4104032156142
 10
93.35385034018044
 20
105.4281454571012
 10
93.33946706674195
 20
105.4473733959943
 10
93.32695706394588
 20
105.4679578412146
 10
93.31643875694782
 20
105.4897911335299
 10
93.30804133682653
 20
105.5127440818615
 10
93.30189399466084
 20
105.5366767292071
 10
93.29810438968303
 20
105.5614814163346
 10
93.29681247889513
 20
105.5870181862418
 10
93.29681247889513
 20
105.5870181862418
 10
93.2980936237598
 20
105.6126195516885
 10
93.30189399466084
 20
105.6374673025089
 10
93.30804133682653
 20
105.6614430135475
 10
93.31644952287105
 20
105.6844497914951
 10
93.32695706394588
 20
105.7063153815802
 10
93.33947783266518
 20
105.7269321245702
 10
93.35385034018044
 20
105.7461815953098
 10
93.36997769318259
 20
105.76393460272
 10
93.38770916874637
 20
105.7800727216454
 10
93.40693710763945
 20
105.7944559950839
 10
93.42753231878305
 20
105.8069767638032
 10
93.44936561109839
 20
105.8174950708013
 10
93.47230779350664
 20
105.8259032568458
 10
93.49625120677553
 20
105.8320505990115
 10
93.52104512797976
 20
105.8358402039893
 10
93.54658189788702
 20
105.8371321147772
 10
93.54658189788702
 20
105.8371321147772
 10
93.5721832633337
 20
105.8358402039893
 10
93.59703101415411
 20
105.8320505990115
 10
93.62101749111591
 20
105.8259032568458
 10
93.64401350314034
 20
105.8175058367245
 10
93.66586832730212
 20
105.8069767638032
 10
93.68649583621541
 20
105.7944559950839
 10
93.70574530695498
 20
105.7800727216454
 10
93.72349831436522
 20
105.76393460272
 10
93.7396364332906
 20
105.7461815953098
 10
93.75403047265232
 20
105.7269321245702
 10
93.76655124137162
 20
105.7063046156569
 10
93.77706954836968
 20
105.6844390255719
 10
93.7854777344142
 20
105.6614537794707
 10
93.79162507657989
 20
105.6374673025089
 10
93.7954146815577
 20
105.6126195516885
 10
93.7967065923456
 20
105.5870181862418
 10
93.7967065923456
 20
105.5870181862418
 10
93.7954146815577
 20
105.5614921822578
 10
93.79162507657989
 20
105.5366767292071
 10
93.7854777344142
 20
105.5127333159382
 10
93.77706954836968
 20
105.4898018994532
 10
93.76654047544838
 20
105.4679686071379
 10
93.75403047265232
 20
105.4473733959943
 10
93.7396364332906
 20
105.4281346911779
 10
93.72349831436522
 20
105.4104032156142
 10
93.70574530695498
 20
105.3942866285353
 10
93.68649583621541
 20
105.3799033550968
 10
93.66586832730212
 20
105.3673933523007
 10
93.64400273721711
 20
105.3568750453026
 10
93.62101749111591
 20
105.3484776251814
 10
93.59703101415411
 20
105.3423195170924
 10
93.5721832633337
 20
105.3385406780378
 10
93.54658189788702
 20
105.3372487672499
  0
TEXT
  5
90
330
1F
100
AcDbEntity
  8
ISS138金台
  6
Continuous
 62
   250
420
  2367521
100
AcDbText
 10
92.28874198418782
 20
106.3814356441671
 30
0.0
 40
2.150533301035563
  1
3
 50
90.00000250447816
 41
0.8120040893554685
  7
MS Gothic
100
AcDbText
  0
LINE
  5
91
330
1F
100
AcDbEntity
  8
ISS138金台
  6
Continuous
 62
   250
420
  2367521
370
    13
100
AcDbLine
 10
126.773461535995
 20
109.4024613798077
 30
0.0
 11
156.0392027414329
 21
109.4024613798077
 31
0.0
  0
LINE
  5
92
330
1F
100
AcDbEntity
  8
ISS138金台
  6
Continuous
 62
   250
420
  2367521
370
    13
100
AcDbLine
 10
155.7748131986914
 20
109.5371430794451
 30
0.0
 11
155.7748131986914
 21
104.6370546520605
 31
0.0
  0
LINE
  5
93
330
1F
100
AcDbEntity
  8
ISS138金台
  6
Continuous
 62
   250
420
  2367521
370
    13
100
AcDbLine
 10
144.0006720214903
 20
104.5662256431145
 30
0.0
 11
156.0392135073562
 21
104.5662256431145
 31
0.0
  0
HATCH
  5
94
330
1F
100
AcDbEntity
  8
ISS138金台
  6
Continuous
 62
   250
420
  2367521
370
    13
100
AcDbHatch
 10
0.0
 20
0.0
 30
0.0
210
0.0
220
0.0
230
1.0
  2
SOLID
 70
     1
 71
     0
 91
        1
 92
        3
 72
     0
 73
     1
 93
       67
 10
155.7748131986914
 20
109.1523366853491
 10
155.8003392026755
 20
109.153628596137
 10
155.8251223579565
 20
109.1574182011148
 10
155.8490550053021
 20
109.1635655432805
 10
155.8719756558639
 20
109.171973729325
 10
155.8937658844863
 20
109.1824920363231
 10
155.9143395637835
 20
109.1950128050424
 10
155.9335459708301
 20
109.2094068444041
 10
155.9512451486242
 20
109.2255341974063
 10
155.9673402038566
 20
109.2432979707398
 10
155.9816804136022
 20
109.2625474414793
 10
155.9941581186285
 20
109.2831641844694
 10
156.0046548937801
 20
109.3050297745544
 10
156.013030782055
 20
109.3280257865788
 10
156.0191673582974
 20
109.3520014976174
 10
156.0229354314288
 20
109.376860014361
 10
156.0242273422166
 20
109.4024613798077
 10
156.0242273422166
 20
109.4024613798077
 10
156.022946197352
 20
109.427998149715
 10
156.0191673582974
 20
109.4527920709192
 10
156.0130200161317
 20
109.4767247182648
 10
156.0046548937801
 20
109.4996669006731
 10
155.9941581186285
 20
109.5215109589117
 10
155.9816804136022
 20
109.5421061700553
 10
155.9673294379334
 20
109.5613233430251
 10
155.9512451486242
 20
109.5790655845121
 10
155.9335352049068
 20
109.5951929375143
 10
155.9143395637835
 20
109.6095654450295
 10
155.8937766504096
 20
109.6220754478256
 10
155.8719756558639
 20
109.6325937548237
 10
155.8490550053021
 20
109.6409911749449
 10
155.8251331238797
 20
109.6471492830339
 10
155.8003392026755
 20
109.6509281220885
 10
155.7748131986914
 20
109.6522200328764
 10
155.7748131986914
 20
109.6522200328764
 10
155.7491580036286
 20
109.6509281220885
 10
155.7242564231921
 20
109.6471492830339
 10
155.7002484143838
 20
109.6409804090217
 10
155.6772416364361
 20
109.6325937548237
 10
155.6553652804279
 20
109.6220754478256
 10
155.6347485374378
 20
109.6095654450295
 10
155.6155098326215
 20
109.5951929375143
 10
155.5977675911345
 20
109.5790655845121
 10
155.5816402381323
 20
109.5613341089484
 10
155.5672677306171
 20
109.542095404132
 10
155.5547792596674
 20
109.5215109589117
 10
155.5442717185926
 20
109.4996776665964
 10
155.5358958303178
 20
109.4767354841881
 10
155.5297484881521
 20
109.4527920709192
 10
155.5259696490975
 20
109.427998149715
 10
155.5246885042329
 20
109.4024613798077
 10
155.5246885042329
 20
109.4024613798077
 10
155.5259804150208
 20
109.376860014361
 10
155.5297377222289
 20
109.3520122635406
 10
155.5358850643946
 20
109.3280150206556
 10
155.5442717185926
 20
109.3050405404776
 10
155.5547684937442
 20
109.2831641844694
 10
155.5672784965403
 20
109.2625366755561
 10
155.5816402381323
 20
109.2432872048165
 10
155.5977568252112
 20
109.2255341974063
 10
155.6154990666982
 20
109.2094068444041
 10
155.6347377715146
 20
109.1950128050424
 10
155.6553652804279
 20
109.1824920363231
 10
155.6772416364361
 20
109.171973729325
 10
155.7002484143838
 20
109.1635655432805
 10
155.7242564231921
 20
109.1574074351916
 10
155.7491580036286
 20
109.153628596137
 97
        0
 75
     1
 76
     1
 98
        0
  0
LWPOLYLINE
  5
95
330
1F
100
AcDbEntity
  8
ISS138金台
  6
Continuous
 62
   250
420
  2367521
370
    13
100
AcDbPolyline
 90
       68
 70
     0
 43
0.0
 10
155.7748131986914
 20
109.1523366853491
 10
155.8003392026755
 20
109.153628596137
 10
155.8251223579565
 20
109.1574182011148
 10
155.8490550053021
 20
109.1635655432805
 10
155.8719756558639
 20
109.171973729325
 10
155.8937658844863
 20
109.1824920363231
 10
155.9143395637835
 20
109.1950128050424
 10
155.9335459708301
 20
109.2094068444041
 10
155.9512451486242
 20
109.2255341974063
 10
155.9673402038566
 20
109.2432979707398
 10
155.9816804136022
 20
109.2625474414793
 10
155.9941581186285
 20
109.2831641844694
 10
156.0046548937801
 20
109.3050297745544
 10
156.013030782055
 20
109.3280257865788
 10
156.0191673582974
 20
109.3520014976174
 10
156.0229354314288
 20
109.376860014361
 10
156.0242273422166
 20
109.4024613798077
 10
156.0242273422166
 20
109.4024613798077
 10
156.022946197352
 20
109.427998149715
 10
156.0191673582974
 20
109.4527920709192
 10
156.0130200161317
 20
109.4767247182648
 10
156.0046548937801
 20
109.4996669006731
 10
155.9941581186285
 20
109.5215109589117
 10
155.9816804136022
 20
109.5421061700553
 10
155.9673294379334
 20
109.5613233430251
 10
155.9512451486242
 20
109.5790655845121
 10
155.9335352049068
 20
109.5951929375143
 10
155.9143395637835
 20
109.6095654450295
 10
155.8937766504096
 20
109.6220754478256
 10
155.8719756558639
 20
109.6325937548237
 10
155.8490550053021
 20
109.6409911749449
 10
155.8251331238797
 20
109.6471492830339
 10
155.8003392026755
 20
109.6509281220885
 10
155.7748131986914
 20
109.6522200328764
 10
155.7748131986914
 20
109.6522200328764
 10
155.7491580036286
 20
109.6509281220885
 10
155.7242564231921
 20
109.6471492830339
 10
155.7002484143838
 20
109.6409804090217
 10
155.6772416364361
 20
109.6325937548237
 10
155.6553652804279
 20
109.6220754478256
 10
155.6347485374378
 20
109.6095654450295
 10
155.6155098326215
 20
109.5951929375143
 10
155.5977675911345
 20
109.5790655845121
 10
155.5816402381323
 20
109.5613341089484
 10
155.5672677306171
 20
109.542095404132
 10
155.5547792596674
 20
109.5215109589117
 10
155.5442717185926
 20
109.4996776665964
 10
155.5358958303178
 20
109.4767354841881
 10
155.5297484881521
 20
109.4527920709192
 10
155.5259696490975
 20
109.427998149715
 10
155.5246885042329
 20
109.4024613798077
 10
155.5246885042329
 20
109.4024613798077
 10
155.5259804150208
 20
109.376860014361
 10
155.5297377222289
 20
109.3520122635406
 10
155.5358850643946
 20
109.3280150206556
 10
155.5442717185926
 20
109.3050405404776
 10
155.5547684937442
 20
109.2831641844694
 10
155.5672784965403
 20
109.2625366755561
 10
155.5816402381323
 20
109.2432872048165
 10
155.5977568252112
 20
109.2255341974063
 10
155.6154990666982
 20
109.2094068444041
 10
155.6347377715146
 20
109.1950128050424
 10
155.6553652804279
 20
109.1824920363231
 10
155.6772416364361
 20
109.171973729325
 10
155.7002484143838
 20
109.1635655432805
 10
155.7242564231921
 20
109.1574074351916
 10
155.7491580036286
 20
109.153628596137
 10
155.7748131986914
 20
109.1523366853491
  0
HATCH
  5
96
330
1F
100
AcDbEntity
  8
ISS138金台
  6
Continuous
 62
   250
420
  2367521
370
    13
100
AcDbHatch
 10
0.0
 20
0.0
 30
0.0
210
0.0
220
0.0
230
1.0
  2
SOLID
 70
     1
 71
     0
 91
        1
 92
        3
 72
     0
 73
     1
 93
       67
 10
155.7748131986914
 20
104.3570975843249
 10
155.8003392026755
 20
104.3583894951128
 10
155.8251223579565
 20
104.3621683341674
 10
155.8490550053021
 20
104.3683264422564
 10
155.8719756558639
 20
104.3767238623776
 10
155.8937658844863
 20
104.3872421693757
 10
155.9143395637835
 20
104.3997521721718
 10
155.9335459708301
 20
104.4141354456103
 10
155.9512451486242
 20
104.4302520326892
 10
155.9673402038566
 20
104.4479942741762
 10
155.9816804136022
 20
104.4672222130693
 10
155.9941581186285
 20
104.4878066582896
 10
156.0046548937801
 20
104.5096507165282
 10
156.013030782055
 20
104.5325928989365
 10
156.0191673582974
 20
104.5565255462821
 10
156.0229354314288
 20
104.5813302334096
 10
156.0242273422166
 20
104.6068670033168
 10
156.0242273422166
 20
104.6068670033168
 10
156.022946197352
 20
104.6324683687635
 10
156.0191673582974
 20
104.6573161195839
 10
156.0130200161317
 20
104.6813025965457
 10
156.0046548937801
 20
104.7042878426469
 10
155.9941581186285
 20
104.7261534327319
 10
155.9816804136022
 20
104.7467809416452
 10
155.9673294379334
 20
104.7660304123848
 10
155.9512451486242
 20
104.783783419795
 10
155.9335352049068
 20
104.7999215387204
 10
155.9143395637835
 20
104.8143048121589
 10
155.8937766504096
 20
104.8268255808782
 10
155.8719756558639
 20
104.8373438878763
 10
155.8490550053021
 20
104.8457520739208
 10
155.8251331238797
 20
104.8519101820097
 10
155.8003392026755
 20
104.8556890210643
 10
155.7748131986914
 20
104.8569809318522
 10
155.7748131986914
 20
104.8569809318522
 10
155.7491580036286
 20
104.8556890210643
 10
155.7242564231921
 20
104.8518994160865
 10
155.7002484143838
 20
104.8457413079975
 10
155.6772416364361
 20
104.8373438878763
 10
155.6553652804279
 20
104.8268255808782
 10
155.6347485374378
 20
104.8143048121589
 10
155.6155098326215
 20
104.7999107727972
 10
155.5977675911345
 20
104.783783419795
 10
155.5816402381323
 20
104.7660304123848
 10
155.5672677306171
 20
104.7467809416452
 10
155.5547792596674
 20
104.7261534327319
 10
155.5442717185926
 20
104.7042878426469
 10
155.5358958303178
 20
104.6813025965457
 10
155.5297484881521
 20
104.6573161195839
 10
155.5259696490975
 20
104.6324683687635
 10
155.5246885042329
 20
104.6068670033168
 10
155.5246885042329
 20
104.6068670033168
 10
155.5259804150208
 20
104.5813409993328
 10
155.5297377222289
 20
104.5565255462821
 10
155.5358850643946
 20
104.5325928989365
 10
155.5442717185926
 20
104.5096399506049
 10
155.5547684937442
 20
104.4878066582896
 10
155.5672784965403
 20
104.4672222130693
 10
155.5816402381323
 20
104.4479835082529
 10
155.5977568252112
 20
104.4302520326892
 10
155.6154990666982
 20
104.4141354456103
 10
155.6347377715146
 20
104.3997521721718
 10
155.6553652804279
 20
104.3872421693757
 10
155.6772416364361
 20
104.3767238623776
 10
155.7002484143838
 20
104.3683264422564
 10
155.7242564231921
 20
104.3621683341674
 10
155.7491580036286
 20
104.3583894951128
 97
        0
 75
     1
 76
     1
 98
        0
  0
LWPOLYLINE
  5
97
330
1F
100
AcDbEntity
  8
ISS138金台
  6
Continuous
 62
   250
420
  2367521
370
    13
100
AcDbPolyline
 90
       68
 70
     0
 43
0.0
 10
155.7748131986914
 20
104.3570975843249
 10
155.8003392026755
 20
104.3583894951128
 10
155.8251223579565
 20
104.3621683341674
 10
155.8490550053021
 20
104.3683264422564
 10
155.8719756558639
 20
104.3767238623776
 10
155.8937658844863
 20
104.3872421693757
 10
155.9143395637835
 20
104.3997521721718
 10
155.9335459708301
 20
104.4141354456103
 10
155.9512451486242
 20
104.4302520326892
 10
155.9673402038566
 20
104.4479942741762
 10
155.9816804136022
 20
104.4672222130693
 10
155.9941581186285
 20
104.4878066582896
 10
156.0046548937801
 20
104.5096507165282
 10
156.013030782055
 20
104.5325928989365
 10
156.0191673582974
 20
104.5565255462821
 10
156.0229354314288
 20
104.5813302334096
 10
156.0242273422166
 20
104.6068670033168
 10
156.0242273422166
 20
104.6068670033168
 10
156.022946197352
 20
104.6324683687635
 10
156.0191673582974
 20
104.6573161195839
 10
156.0130200161317
 20
104.6813025965457
 10
156.0046548937801
 20
104.7042878426469
 10
155.9941581186285
 20
104.7261534327319
 10
155.9816804136022
 20
104.7467809416452
 10
155.9673294379334
 20
104.7660304123848
 10
155.9512451486242
 20
104.783783419795
 10
155.9335352049068
 20
104.7999215387204
 10
155.9143395637835
 20
104.8143048121589
 10
155.8937766504096
 20
104.8268255808782
 10
155.8719756558639
 20
104.8373438878763
 10
155.8490550053021
 20
104.8457520739208
 10
155.8251331238797
 20
104.8519101820097
 10
155.8003392026755
 20
104.8556890210643
 10
155.7748131986914
 20
104.8569809318522
 10
155.7748131986914
 20
104.8569809318522
 10
155.7491580036286
 20
104.8556890210643
 10
155.7242564231921
 20
104.8518994160865
 10
155.7002484143838
 20
104.8457413079975
 10
155.6772416364361
 20
104.8373438878763
 10
155.6553652804279
 20
104.8268255808782
 10
155.6347485374378
 20
104.8143048121589
 10
155.6155098326215
 20
104.7999107727972
 10
155.5977675911345
 20
104.783783419795
 10
155.5816402381323
 20
104.7660304123848
 10
155.5672677306171
 20
104.7467809416452
 10
155.5547792596674
 20
104.7261534327319
 10
155.5442717185926
 20
104.7042878426469
 10
155.5358958303178
 20
104.6813025965457
 10
155.5297484881521
 20
104.6573161195839
 10
155.5259696490975
 20
104.6324683687635
 10
155.5246885042329
 20
104.6068670033168
 10
155.5246885042329
 20
104.6068670033168
 10
155.5259804150208
 20
104.5813409993328
 10
155.5297377222289
 20
104.5565255462821
 10
155.5358850643946
 20
104.5325928989365
 10
155.5442717185926
 20
104.5096399506049
 10
155.5547684937442
 20
104.4878066582896
 10
155.5672784965403
 20
104.4672222130693
 10
155.5816402381323
 20
104.4479835082529
 10
155.5977568252112
 20
104.4302520326892
 10
155.6154990666982
 20
104.4141354456103
 10
155.6347377715146
 20
104.3997521721718
 10
155.6553652804279
 20
104.3872421693757
 10
155.6772416364361
 20
104.3767238623776
 10
155.7002484143838
 20
104.3683264422564
 10
155.7242564231921
 20
104.3621683341674
 10
155.7491580036286
 20
104.3583894951128
 10
155.7748131986914
 20
104.3570975843249
  0
TEXT
  5
98
330
1F
100
AcDbEntity
  8
ISS138金台
  6
Continuous
 62
    18
420
        0
100
AcDbText
 10
156.3759360154556
 20
110.3433169255402
 30
0.0
 40
2.150533301035563
  1
4 . 9
 50
90.00000250447816
 41
0.48280029296875
  7
MS Gothic
100
AcDbText
  0
LINE
  5
99
330
1F
100
AcDbEntity
  8
ISS138金台
  6
Continuous
 62
   250
420
  2367521
370
    13
100
AcDbLine
 10
117.8951168580008
 20
109.8189734178231
 30
0.0
 11
86.79740309164319
 21
109.9212819863007
 31
0.0
  0
LINE
  5
9A
330
1F
100
AcDbEntity
  8
ISS138金台
  6
Continuous
 62
   250
420
  2367521
370
    13
100
AcDbLine
 10
87.30456420327553
 20
109.9188811854199
 30
0.0
 11
87.28128289428545
 21
104.5189094105081
 31
0.0
  0
LINE
  5
9B
330
1F
100
AcDbEntity
  8
ISS138金台
  6
Continuous
 62
   250
420
  2367521
370
    13
100
AcDbLine
 10
99.84506685985252
 20
104.5172945220232
 30
0.0
 11
86.77429942038644
 21
104.5391708780314
 31
0.0
  0
HATCH
  5
9C
330
1F
100
AcDbEntity
  8
ISS138金台
  6
Continuous
 62
   250
420
  2367521
370
    13
100
AcDbHatch
 10
0.0
 20
0.0
 30
0.0
210
0.0
220
0.0
230
1.0
  2
SOLID
 70
     1
 71
     0
 91
        1
 92
        3
 72
     0
 73
     1
 93
       67
 10
87.30336380283512
 20
109.6687672568846
 10
87.27782703292783
 20
109.6701991246745
 10
87.25304387764683
 20
109.6741071548079
 10
87.22912737918604
 20
109.6803836880523
 10
87.20621749454747
 20
109.6889318310989
 10
87.18441650000184
 20
109.6995685632525
 10
87.16386973551279
 20
109.7122077571273
 10
87.14469562623586
 20
109.7267094557214
 10
87.12701259732663
 20
109.7429444679559
 10
87.11097137171035
 20
109.7607943686752
 10
87.09666884269609
 20
109.7801299668006
 10
87.08424496728588
 20
109.8008328371765
 10
87.07381817063529
 20
109.8227630228009
 10
87.06552840974635
 20
109.8457913325951
 10
87.05948334385135
 20
109.8698208732498
 10
87.05581754699071
 20
109.8947009218399
 10
87.05465482728161
 20
109.9203022872866
 10
87.05465482728161
 20
109.9203022872866
 10
87.05608131210991
 20
109.9458282912706
 10
87.05998934224327
 20
109.9706114465516
 10
87.06627664141101
 20
109.9944902642811
 10
87.07479248668784
 20
110.0173893829964
 10
87.08542921884145
 20
110.0391688456956
 10
87.09805226383145
 20
110.0596886953766
 10
87.11252704761742
 20
110.0788197409606
 10
87.12873514504382
 20
110.0964650891385
 10
87.14655274799347
 20
110.1124847829083
 10
87.16583989946432
 20
110.1267496311913
 10
87.18647817430085
 20
110.139151974755
 10
87.20834376438587
 20
110.1495410906743
 10
87.23130209567898
 20
110.15782008564
 10
87.25522936006301
 20
110.1638382367269
 10
87.27999636645917
 20
110.1674986506259
 10
87.30547930675029
 20
110.1686506044118
 10
87.30547930675029
 20
110.1686506044118
 10
87.33107528923534
 20
110.1673048640077
 10
87.3559122741325
 20
110.1634183657209
 10
87.37987183628624
 20
110.1571848961693
 10
87.40284093350257
 20
110.1487121145854
 10
87.42466345989467
 20
110.1380969142782
 10
87.44524252215342
 20
110.1255007840963
 10
87.46443816327681
 20
110.1110313832719
 10
87.48213734107088
 20
110.0948286688072
 10
87.49820009853364
 20
110.0770110658575
 10
87.51251339347112
 20
110.0577077655018
 10
87.52494265184295
 20
110.0370479588188
 10
87.53537483145516
 20
110.0151608368873
 10
87.54366997530573
 20
109.9921648248629
 10
87.54971504120073
 20
109.9681891138243
 10
87.55338083806136
 20
109.9433736607736
 10
87.55454355777046
 20
109.9178261249431
 10
87.55454355777046
 20
109.9178261249431
 10
87.5531278388654
 20
109.8922462913429
 10
87.54921980873203
 20
109.8674093064458
 10
87.54295404141077
 20
109.8434551272536
 10
87.53444357909555
 20
109.8205237107686
 10
87.5238283787884
 20
109.7987119502998
 10
87.51122148268324
 20
109.7781598028491
 10
87.49675746482049
 20
109.7589856935722
 10
87.4805493673941
 20
109.7412972817013
 10
87.46272638148285
 20
109.725256056085
 10
87.44342308112715
 20
109.7109481441091
 10
87.42275789148253
 20
109.698524268699
 10
87.40084923770459
 20
109.6880813231635
 10
87.37783707679532
 20
109.6797700304281
 10
87.35383445094865
 20
109.673698049725
 10
87.32896516828178
 20
109.6699838062098
 97
        0
 75
     1
 76
     1
 98
        0
  0
LWPOLYLINE
  5
9D
330
1F
100
AcDbEntity
  8
ISS138金台
  6
Continuous
 62
   250
420
  2367521
370
    13
100
AcDbPolyline
 90
       68
 70
     0
 43
0.0
 10
87.30336380283512
 20
109.6687672568846
 10
87.27782703292783
 20
109.6701991246745
 10
87.25304387764683
 20
109.6741071548079
 10
87.22912737918604
 20
109.6803836880523
 10
87.20621749454747
 20
109.6889318310989
 10
87.18441650000184
 20
109.6995685632525
 10
87.16386973551279
 20
109.7122077571273
 10
87.14469562623586
 20
109.7267094557214
 10
87.12701259732663
 20
109.7429444679559
 10
87.11097137171035
 20
109.7607943686752
 10
87.09666884269609
 20
109.7801299668006
 10
87.08424496728588
 20
109.8008328371765
 10
87.07381817063529
 20
109.8227630228009
 10
87.06552840974635
 20
109.8457913325951
 10
87.05948334385135
 20
109.8698208732498
 10
87.05581754699071
 20
109.8947009218399
 10
87.05465482728161
 20
109.9203022872866
 10
87.05465482728161
 20
109.9203022872866
 10
87.05608131210991
 20
109.9458282912706
 10
87.05998934224327
 20
109.9706114465516
 10
87.06627664141101
 20
109.9944902642811
 10
87.07479248668784
 20
110.0173893829964
 10
87.08542921884145
 20
110.0391688456956
 10
87.09805226383145
 20
110.0596886953766
 10
87.11252704761742
 20
110.0788197409606
 10
87.12873514504382
 20
110.0964650891385
 10
87.14655274799347
 20
110.1124847829083
 10
87.16583989946432
 20
110.1267496311913
 10
87.18647817430085
 20
110.139151974755
 10
87.20834376438587
 20
110.1495410906743
 10
87.23130209567898
 20
110.15782008564
 10
87.25522936006301
 20
110.1638382367269
 10
87.27999636645917
 20
110.1674986506259
 10
87.30547930675029
 20
110.1686506044118
 10
87.30547930675029
 20
110.1686506044118
 10
87.33107528923534
 20
110.1673048640077
 10
87.3559122741325
 20
110.1634183657209
 10
87.37987183628624
 20
110.1571848961693
 10
87.40284093350257
 20
110.1487121145854
 10
87.42466345989467
 20
110.1380969142782
 10
87.44524252215342
 20
110.1255007840963
 10
87.46443816327681
 20
110.1110313832719
 10
87.48213734107088
 20
110.0948286688072
 10
87.49820009853364
 20
110.0770110658575
 10
87.51251339347112
 20
110.0577077655018
 10
87.52494265184295
 20
110.0370479588188
 10
87.53537483145516
 20
110.0151608368873
 10
87.54366997530573
 20
109.9921648248629
 10
87.54971504120073
 20
109.9681891138243
 10
87.55338083806136
 20
109.9433736607736
 10
87.55454355777046
 20
109.9178261249431
 10
87.55454355777046
 20
109.9178261249431
 10
87.5531278388654
 20
109.8922462913429
 10
87.54921980873203
 20
109.8674093064458
 10
87.54295404141077
 20
109.8434551272536
 10
87.53444357909555
 20
109.8205237107686
 10
87.5238283787884
 20
109.7987119502998
 10
87.51122148268324
 20
109.7781598028491
 10
87.49675746482049
 20
109.7589856935722
 10
87.4805493673941
 20
109.7412972817013
 10
87.46272638148285
 20
109.725256056085
 10
87.44342308112715
 20
109.7109481441091
 10
87.42275789148253
 20
109.698524268699
 10
87.40084923770459
 20
109.6880813231635
 10
87.37783707679532
 20
109.6797700304281
 10
87.35383445094865
 20
109.673698049725
 10
87.32896516828178
 20
109.6699838062098
 10
87.30336380283512
 20
109.6687672568846
  0
HATCH
  5
9E
330
1F
100
AcDbEntity
  8
ISS138金台
  6
Continuous
 62
   250
420
  2367521
370
    13
100
AcDbHatch
 10
0.0
 20
0.0
 30
0.0
210
0.0
220
0.0
230
1.0
  2
SOLID
 70
     1
 71
     0
 91
        1
 92
        3
 72
     0
 73
     1
 93
       67
 10
87.28028704638645
 20
104.327825039056
 10
87.25475027647917
 20
104.3291923113065
 10
87.22996712119817
 20
104.3330357459005
 10
87.20605062273737
 20
104.3392799813753
 10
87.18313535513718
 20
104.3477742948057
 10
87.16133436059155
 20
104.3583679632664
 10
87.14078759610251
 20
104.3709748593715
 10
87.12161348682558
 20
104.3854442601959
 10
87.10394122383958
 20
104.4016469746607
 10
87.08788923230006
 20
104.4194645776103
 10
87.07359208624743
 20
104.438767877966
 10
87.06116821083722
 20
104.459427684649
 10
87.05074679714825
 20
104.4813148065805
 10
87.04244627033606
 20
104.5043108186049
 10
87.03640658740268
 20
104.5282865296435
 10
87.03274079054205
 20
104.5531019826942
 10
87.03157807083295
 20
104.5786495185247
 10
87.03157807083295
 20
104.5786495185247
 10
87.03299917269962
 20
104.6042401180481
 10
87.0369125857946
 20
104.6290771029453
 10
87.04319988496232
 20
104.6530097502909
 10
87.05172111320078
 20
104.6759519326992
 10
87.0623524623928
 20
104.6977636931681
 10
87.07497550738279
 20
104.7183158406187
 10
87.08945567413038
 20
104.7375007158189
 10
87.10565838859515
 20
104.7551675958433
 10
87.12347599154478
 20
104.7712195873828
 10
87.14276314301566
 20
104.7855274993587
 10
87.16340141785219
 20
104.7979513747689
 10
87.1852670079372
 20
104.8083943203043
 10
87.20822533923032
 20
104.8167056130397
 10
87.23215260361434
 20
104.8227775937428
 10
87.2569196100105
 20
104.826491837258
 10
87.28240255030161
 20
104.8277083865833
 10
87.28240255030161
 20
104.8277083865833
 10
87.30799314982505
 20
104.8262765187933
 10
87.33283551768383
 20
104.82236848866
 10
87.35680046279919
 20
104.8160811894923
 10
87.37976417705391
 20
104.8075545782922
 10
87.401586703446
 20
104.7969070802153
 10
87.42216576570476
 20
104.7842786522637
 10
87.44136140682814
 20
104.7697877195929
 10
87.4590552016606
 20
104.7535419414352
 10
87.47512334208497
 20
104.7356920407158
 10
87.48943125406085
 20
104.7163564425904
 10
87.50186589539427
 20
104.6956643381378
 10
87.51229269204487
 20
104.6737233865901
 10
87.52059321885704
 20
104.6506843108727
 10
87.52663828475205
 20
104.6266655361412
 10
87.53030408161268
 20
104.6017854875511
 10
87.53146680132178
 20
104.5761841221045
 10
87.53146680132178
 20
104.5761841221045
 10
87.53005108241672
 20
104.5506581181204
 10
87.52613766932174
 20
104.5258857287627
 10
87.51988266792372
 20
104.5019746132635
 10
87.51136682264688
 20
104.4790862604714
 10
87.50074623937812
 20
104.4573067977722
 10
87.48814472623457
 20
104.4367977140145
 10
87.47367532541021
 20
104.4176559025072
 10
87.45747261094544
 20
104.4000105543293
 10
87.43965500799581
 20
104.3839908605595
 10
87.42034632467848
 20
104.3697260122766
 10
87.39967575207226
 20
104.3573344346361
 10
87.3777724812559
 20
104.3469345527935
 10
87.35476032034663
 20
104.3386663237511
 10
87.33075769449998
 20
104.3326374067409
 10
87.30588841183311
 20
104.3289769928419
 97
        0
 75
     1
 76
     1
 98
        0
  0
LWPOLYLINE
  5
9F
330
1F
100
AcDbEntity
  8
ISS138金台
  6
Continuous
 62
   250
420
  2367521
370
    13
100
AcDbPolyline
 90
       68
 70
     0
 43
0.0
 10
87.28028704638645
 20
104.327825039056
 10
87.25475027647917
 20
104.3291923113065
 10
87.22996712119817
 20
104.3330357459005
 10
87.20605062273737
 20
104.3392799813753
 10
87.18313535513718
 20
104.3477742948057
 10
87.16133436059155
 20
104.3583679632664
 10
87.14078759610251
 20
104.3709748593715
 10
87.12161348682558
 20
104.3854442601959
 10
87.10394122383958
 20
104.4016469746607
 10
87.08788923230006
 20
104.4194645776103
 10
87.07359208624743
 20
104.438767877966
 10
87.06116821083722
 20
104.459427684649
 10
87.05074679714825
 20
104.4813148065805
 10
87.04244627033606
 20
104.5043108186049
 10
87.03640658740268
 20
104.5282865296435
 10
87.03274079054205
 20
104.5531019826942
 10
87.03157807083295
 20
104.5786495185247
 10
87.03157807083295
 20
104.5786495185247
 10
87.03299917269962
 20
104.6042401180481
 10
87.0369125857946
 20
104.6290771029453
 10
87.04319988496232
 20
104.6530097502909
 10
87.05172111320078
 20
104.6759519326992
 10
87.0623524623928
 20
104.6977636931681
 10
87.07497550738279
 20
104.7183158406187
 10
87.08945567413038
 20
104.7375007158189
 10
87.10565838859515
 20
104.7551675958433
 10
87.12347599154478
 20
104.7712195873828
 10
87.14276314301566
 20
104.7855274993587
 10
87.16340141785219
 20
104.7979513747689
 10
87.1852670079372
 20
104.8083943203043
 10
87.20822533923032
 20
104.8167056130397
 10
87.23215260361434
 20
104.8227775937428
 10
87.2569196100105
 20
104.826491837258
 10
87.28240255030161
 20
104.8277083865833
 10
87.28240255030161
 20
104.8277083865833
 10
87.30799314982505
 20
104.8262765187933
 10
87.33283551768383
 20
104.82236848866
 10
87.35680046279919
 20
104.8160811894923
 10
87.37976417705391
 20
104.8075545782922
 10
87.401586703446
 20
104.7969070802153
 10
87.42216576570476
 20
104.7842786522637
 10
87.44136140682814
 20
104.7697877195929
 10
87.4590552016606
 20
104.7535419414352
 10
87.47512334208497
 20
104.7356920407158
 10
87.48943125406085
 20
104.7163564425904
 10
87.50186589539427
 20
104.6956643381378
 10
87.51229269204487
 20
104.6737233865901
 10
87.52059321885704
 20
104.6506843108727
 10
87.52663828475205
 20
104.6266655361412
 10
87.53030408161268
 20
104.6017854875511
 10
87.53146680132178
 20
104.5761841221045
 10
87.53146680132178
 20
104.5761841221045
 10
87.53005108241672
 20
104.5506581181204
 10
87.52613766932174
 20
104.5258857287627
 10
87.51988266792372
 20
104.5019746132635
 10
87.51136682264688
 20
104.4790862604714
 10
87.50074623937812
 20
104.4573067977722
 10
87.48814472623457
 20
104.4367977140145
 10
87.47367532541021
 20
104.4176559025072
 10
87.45747261094544
 20
104.4000105543293
 10
87.43965500799581
 20
104.3839908605595
 10
87.42034632467848
 20
104.3697260122766
 10
87.39967575207226
 20
104.3573344346361
 10
87.3777724812559
 20
104.3469345527935
 10
87.35476032034663
 20
104.3386663237511
 10
87.33075769449998
 20
104.3326374067409
 10
87.30588841183311
 20
104.3289769928419
 10
87.28028704638645
 20
104.327825039056
  0
TEXT
  5
A0
330
1F
100
AcDbEntity
  8
ISS138金台
  6
Continuous
 62
    18
420
        0
100
AcDbText
 10
87.9639360476886
 20
110.3433169255402
 30
0.0
 40
2.150533301035563
  1
5 . 4
 50
90.00000250447816
 41
0.4908004760742187
  7
MS Gothic
100
AcDbText
  0
LINE
  5
A1
330
1F
100
AcDbEntity
  8
ISS138金台
  6
UserDefined01
 62
   140
420
    44526
370
    13
100
AcDbLine
 10
133.5348058354915
 20
99.99492851124765
 30
0.0
 11
143.5349920120724
 21
99.99492851124765
 31
0.0
  0
TEXT
  5
A2
330
1F
100
AcDbEntity
  8
ISS138金台
  6
Continuous
 62
   140
420
    44526
100
AcDbText
 10
137.4714948565007
 20
100.7841031542077
 30
0.0
 40
1.881716638406118
  1
10
 41
1.108752659388951
  7
MS Gothic
100
AcDbText
  0
TEXT
  5
A3
330
1F
100
AcDbEntity
  8
ISS138金台
  6
Continuous
 62
   140
420
    44526
100
AcDbText
 10
104.7858612429789
 20
100.7841031542077
 30
0.0
 40
1.881716638406118
  1
10
 41
0.9977449689592633
  7
MS Gothic
100
AcDbText
  0
HATCH
  5
A4
330
1F
100
AcDbEntity
  8
ISS138金台
  6
Continuous
 62
   140
420
    44526
370
    13
100
AcDbHatch
 10
0.0
 20
0.0
 30
0.0
210
0.0
220
0.0
230
1.0
  2
SOLID
 70
     1
 71
     0
 91
        1
 92
        3
 72
     0
 73
     1
 93
        3
 10
132.6687088432906
 20
107.4029172237755
 10
134.4008489980762
 20
107.4022066728422
 10
133.5358393641218
 20
105.903966966204
 97
        0
 75
     1
 76
     1
 98
        0
  0
LWPOLYLINE
  5
A5
330
1F
100
AcDbEntity
  8
ISS138金台
  6
Continuous
 62
   140
420
    44526
370
    13
100
AcDbPolyline
 90
        4
 70
     0
 43
0.0
 10
132.6687088432906
 20
107.4029172237755
 10
134.4008489980762
 20
107.4022066728422
 10
133.5358393641218
 20
105.903966966204
 10
132.6687088432906
 20
107.4029172237755
  0
LINE
  5
A6
330
1F
100
AcDbEntity
  8
ISS138金台
  6
UserDefined01
 62
   140
420
    44526
370
    13
100
AcDbLine
 10
110.4232216251654
 20
99.99492851124765
 30
0.0
 11
100.4230246826612
 21
99.99492851124765
 31
0.0
  0
HATCH
  5
A7
330
1F
100
AcDbEntity
  8
ISS138金台
  6
Continuous
 62
   140
420
    44526
370
    13
100
AcDbHatch
 10
0.0
 20
0.0
 30
0.0
210
0.0
220
0.0
230
1.0
  2
SOLID
 70
     1
 71
     0
 91
        1
 92
        3
 72
     0
 73
     1
 93
        3
 10
111.3086111517987
 20
107.4029172237755
 10
109.5764709970131
 20
107.4022066728422
 10
110.4414806309675
 20
105.903966966204
 97
        0
 75
     1
 76
     1
 98
        0
  0
LWPOLYLINE
  5
A8
330
1F
100
AcDbEntity
  8
ISS138金台
  6
Continuous
 62
   140
420
    44526
370
    13
100
AcDbPolyline
 90
        4
 70
     0
 43
0.0
 10
111.3086111517987
 20
107.4029172237755
 10
109.5764709970131
 20
107.4022066728422
 10
110.4414806309675
 20
105.903966966204
 10
111.3086111517987
 20
107.4029172237755
  0
HATCH
  5
A9
330
1F
100
AcDbEntity
  8
ISS138金台
  6
Continuous
 62
     7
420
 16777215
370
    13
100
AcDbHatch
 10
0.0
 20
0.0
 30
0.0
210
0.0
220
0.0
230
1.0
  2
SOLID
 70
     1
 71
     0
 91
        1
 92
        3
 72
     0
 73
     1
 93
      296
 10
122.0078717875529
 20
109.8795855656216
 10
125.0766874390279
 20
109.4350821272019
 10
125.0814567430199
 20
109.4352436160504
 10
125.0948926152139
 20
109.435179020511
 10
125.115789272208
 20
109.4340485985716
 10
125.1428978669072
 20
109.4310341400665
 10
125.1749480203701
 20
109.4253389666766
 10
125.2107447151179
 20
109.4160910386199
 10
125.2490068062859
 20
109.4024936775774
 10
125.288528510472
 20
109.3837071415368
 10
125.3280502146582
 20
109.3589239862558
 10
125.3663230717494
 20
109.3273044697223
 10
125.4020982346507
 20
109.2880303817704
 10
125.4341699199601
 20
109.2402727463114
 10
125.461267748736
 20
109.1832025872564
 10
125.4821644057301
 20
109.1160016944398
 10
125.4956110438474
 20
109.0378410917725
 10
125.5003695819162
 20
108.9479025690889
 10
125.5003695819162
 20
108.1266348812278
 10
123.6017236584182
 20
108.1756736615514
 10
123.5945104898524
 20
108.175329152008
 10
123.5740767675573
 20
108.1738972842181
 10
123.5422957621752
 20
108.1706352094786
 10
123.5010192125022
 20
108.1649400360887
 10
123.4520988573341
 20
108.1560796812685
 10
123.3973756695438
 20
108.1433866577774
 10
123.3387121538504
 20
108.126182712452
 10
123.2779600490499
 20
108.1037895921286
 10
123.2169710939383
 20
108.07555057549
 10
123.1575862613883
 20
108.0407658775261
 10
123.101657290196
 20
107.9987572450733
 10
123.0510574510036
 20
107.948857190891
 10
123.0076277166841
 20
107.8903874618158
 10
122.9732090601101
 20
107.8226590387607
 10
122.949674751924
 20
107.7450044344854
 10
122.9388549990755
 20
107.6567346299028
 10
122.9388549990755
 20
107.6567346299028
 10
122.9346670549381
 20
107.5620052713809
 10
122.9300054101784
 20
107.465800981376
 10
122.9250961491845
 20
107.3686815878965
 10
122.9200792289582
 20
107.2712176848735
 10
122.9151269042712
 20
107.1739691003151
 10
122.9104652595116
 20
107.077517194076
 10
122.9062450176045
 20
106.9824325600873
 10
122.9026599651681
 20
106.8892642604341
 10
122.8998500592045
 20
106.7985936549707
 10
122.8980521500246
 20
106.7110021035518
 10
122.8974061946307
 20
106.627027902339
 10
122.8981275114873
 20
106.5472739430334
 10
122.9003560575964
 20
106.4722785217964
 10
122.9042963854994
 20
106.4026229984827
 10
122.9101315158914
 20
106.3388779670236
 10
122.918033703544
 20
106.2816032554272
 10
122.918033703544
 20
106.2816032554272
 10
122.9268725265178
 20
106.2258896026995
 10
122.9360450931118
 20
106.1671937892364
 10
122.9465741660331
 20
106.106398620743
 10
122.9594286783726
 20
106.0444407325405
 10
122.9756206269142
 20
105.9822136962571
 10
122.9961404765951
 20
105.9206326153678
 10
123.0219894582761
 20
105.8605910615006
 10
123.0541688028178
 20
105.8030149040537
 10
123.0936689751575
 20
105.7488084805785
 10
123.1414804402327
 20
105.6988868945498
 10
123.1986044289038
 20
105.6541437175959
 10
123.2660529379549
 20
105.6155048191148
 10
123.3447949004767
 20
105.5838637707348
 10
123.4358530791764
 20
105.5601356759305
 10
123.5402071730682
 20
105.5452356381769
 10
123.6588691789358
 20
105.5400679950253
 10
133.3105193567907
 20
105.5400679950253
 10
133.5013668779316
 20
105.2384391238229
 10
133.713035694604
 20
105.5400679950253
 10
137.0146859678264
 20
105.5400679950253
 10
137.0786032540572
 20
105.5364183470495
 10
137.259395402899
 20
105.5260938266696
 10
137.5405797858831
 20
105.509944941821
 10
137.9056845404638
 20
105.4889083278249
 10
138.3382270381723
 20
105.4638775563096
 10
138.821735416463
 20
105.4357246670568
 10
139.3397378127904
 20
105.4053647635414
 10
139.8757623646088
 20
105.3736914173917
 10
140.4133156775262
 20
105.3415982002359
 10
140.9359474208435
 20
105.3099894496255
 10
141.4271534342454
 20
105.2797479712656
 10
141.8704941529561
 20
105.2517888686311
 10
142.2494761825834
 20
105.2269841815036
 10
142.5476276605817
 20
105.2062597792812
 10
142.7484659584823
 20
105.1904877017457
 10
142.8355192137395
 20
105.1805830523719
 10
142.8355192137395
 20
105.1805830523719
 10
142.8637797622246
 20
105.1722071640971
 10
142.8984998646491
 20
105.1606876262384
 10
142.9386782901525
 20
105.1462074594908
 10
142.983216914565
 20
105.1289496845493
 10
143.0310822092563
 20
105.109108088032
 10
143.081240645596
 20
105.0868441587873
 10
143.1326263971843
 20
105.0623516834336
 10
143.1841951694676
 20
105.0358136826657
 10
143.2349026678922
 20
105.0074131771786
 10
143.2837045979047
 20
104.9773331876673
 10
143.3295351331051
 20
104.9457459689034
 10
143.3713499789398
 20
104.9128453075052
 10
143.4081156067785
 20
104.8788034582443
 10
143.4387769561444
 20
104.8438142077389
 10
143.4622789665607
 20
104.8080605766841
 10
143.477577343474
 20
104.7717148198515
 10
143.477577343474
 20
104.7717148198515
 10
143.4876865453892
 20
104.7356705088694
 10
143.4960839655105
 20
104.7005951309782
 10
143.5024035624479
 20
104.6665209839476
 10
143.506300826658
 20
104.6334911314706
 10
143.5073881849045
 20
104.6015701690865
 10
143.5053318935671
 20
104.5707580967953
 10
143.499765911256
 20
104.5411195101365
 10
143.4903241965811
 20
104.5126867068797
 10
143.476651474076
 20
104.4855027507179
 10
143.458403234197
 20
104.4596107053439
 10
143.435191903708
 20
104.4350428685276
 10
143.4066837389885
 20
104.4118423039617
 10
143.3725126986489
 20
104.3900628412626
 10
143.3323019753759
 20
104.3697260122766
 10
143.2857178255492
 20
104.3508748806966
 10
143.2323942077791
 20
104.3335632761389
 10
143.2323942077791
 20
104.3335632761389
 10
142.9440935495384
 20
104.3191477049307
 10
142.2333918932741
 20
104.3084463772377
 10
141.1611490030191
 20
104.3010824857467
 10
139.7882246428061
 20
104.296646925375
 10
138.175435512975
 20
104.294795186579
 10
136.3836521434819
 20
104.295118164276
 10
134.4737235324363
 20
104.2972282852295
 10
132.5064986779479
 20
104.3007595080498
 10
130.5428158122029
 20
104.3053027276538
 10
128.6435454651574
 20
104.3105026685751
 10
126.8695151030746
 20
104.3159394598075
 10
125.2815844899871
 20
104.3212578258842
 10
123.9406133899279
 20
104.3260594276459
 10
122.9074292691601
 20
104.3299782237025
 10
122.2429026576396
 20
104.3326051089712
 10
122.0078717875529
 20
104.3335632761389
 10
100.8196843582361
 20
104.3335632761389
 10
100.8158732214118
 20
104.3341446359934
 10
100.8050965322562
 20
104.3361686295611
 10
100.788366287553
 20
104.3399905323086
 10
100.7666621863165
 20
104.3459979174723
 10
100.7409746934839
 20
104.3545675923653
 10
100.7122942739928
 20
104.3660655983775
 10
100.6816544564734
 20
104.3808902746686
 10
100.6500026421701
 20
104.3993968967051
 10
100.6183508278668
 20
104.4219945695699
 10
100.5876894785009
 20
104.4490278028065
 10
100.559019824933
 20
104.4808949355744
 10
100.5333323321005
 20
104.5179620092636
 10
100.5116282308639
 20
104.5606165971104
 10
100.4948979861607
 20
104.609235506428
 10
100.4841212970051
 20
104.6641847786062
 10
100.4803101601808
 20
104.7258519868814
 10
100.4803101601808
 20
104.7258519868814
 10
100.4865328638092
 20
104.7880574913183
 10
100.5043397008356
 20
104.8446647156743
 10
100.5323741649328
 20
104.8958997443373
 10
100.5692905156967
 20
104.9419994276185
 10
100.6137537786466
 20
104.9832221476754
 10
100.664450511148
 20
105.0197939888959
 10
100.7200134409504
 20
105.0519518015911
 10
100.7791183594964
 20
105.0799539679186
 10
100.8404195263817
 20
105.1040265722663
 10
100.9025819671256
 20
105.1244172308685
 10
100.9642599413241
 20
105.141352028113
 10
101.0241292404195
 20
105.1550785802344
 10
101.0808441240079
 20
105.1658337375435
 10
101.1330696176083
 20
105.1738651162749
 10
101.1794599808167
 20
105.1794095667396
 10
101.2186802391524
 20
105.1827039392487
 10
101.2186802391524
 20
105.1827039392487
 10
101.3150998476218
 20
105.1886359629498
 10
101.5230221230094
 20
105.2014043479034
 10
101.8262012871572
 20
105.2199970973258
 10
102.2083915619078
 20
105.243445278126
 10
102.6533579350265
 20
105.2707476594434
 10
103.1448438624324
 20
105.3008922444941
 10
103.6666143318911
 20
105.3328885683408
 10
104.2024235652449
 20
105.3657569319694
 10
104.7360365502593
 20
105.3984745726727
 10
105.2511967428533
 20
105.4300617914366
 10
105.7316691307925
 20
105.4595281233237
 10
106.1612079359192
 20
105.4858723374734
 10
106.5235673800756
 20
105.5080932030251
 10
106.8025124510273
 20
105.5251894891181
 10
106.9817866046934
 20
105.5361814967384
 10
107.0451548288394
 20
105.5400679950253
 10
110.3249287460534
 20
105.5400679950253
 10
110.5143766971742
 20
105.2991158671608
 10
110.704524433305
 20
105.5400679950253
 10
110.80958907813
 20
105.5390021686253
 10
111.1068577504233
 20
105.5361276671222
 10
111.56946947172
 20
105.5319181911384
 10
112.1705201998621
 20
105.5268582072191
 10
112.8831597223082
 20
105.5214214159868
 10
113.6805055287469
 20
105.5160815180635
 10
114.5356858747901
 20
105.511333745918
 10
115.4218182501265
 20
105.5076518001725
 10
116.312030910368
 20
105.5055093814493
 10
117.1794521111264
 20
105.5053909562937
 10
117.9972101080138
 20
105.5077702253281
 10
118.7384116247954
 20
105.5131316550978
 10
119.3761956830066
 20
105.5219489462252
 10
119.8836797723359
 20
105.5346957993323
 10
120.2339921483953
 20
105.551867446888
 10
120.4002610667966
 20
105.5739375895145
 10
120.4002610667966
 20
105.5739375895145
 10
120.4654702638153
 20
105.6023380950016
 10
120.5302057602118
 20
105.6379840668241
 10
120.5939184939012
 20
105.6801649540487
 10
120.6561347642613
 20
105.728170205742
 10
120.7163055092072
 20
105.7813000368939
 10
120.7739570281168
 20
105.8388008328782
 10
120.8285294929818
 20
105.899983574608
 10
120.8795599691035
 20
105.9641484770731
 10
120.9264886284735
 20
106.0305526915706
 10
120.9688417704698
 20
106.0985071990136
 10
121.0060810989307
 20
106.1672799166222
 10
121.0377006154643
 20
106.2361710593864
 10
121.0631835557554
 20
106.3044485445264
 10
121.0820239214121
 20
106.3714233529552
 10
121.0937049481193
 20
106.4363634018931
 10
121.0977098715618
 20
106.4985581404067
 10
121.0977098715618
 20
106.4985581404067
 10
121.0977959989476
 20
106.5639611240436
 10
121.098043615182
 20
106.637912250727
 10
121.0983988906486
 20
106.7188181638186
 10
121.0988510594244
 20
106.8050855066799
 10
121.0993462918931
 20
106.8951209226725
 10
121.099852290285
 20
106.9873202892349
 10
121.1003259909073
 20
107.0801010156517
 10
121.1007458619133
 20
107.1718912771313
 10
121.1010688396103
 20
107.2610546533421
 10
121.1012733921517
 20
107.3460193194923
 10
121.1013056899214
 20
107.4251811530202
 10
121.1011334351497
 20
107.4969575632106
 10
121.1007243300668
 20
107.5597444275021
 10
121.10003531098
 20
107.6119591551792
 10
121.0990448460426
 20
107.6519868577573
 10
121.0977098715618
 20
107.6782557104444
 10
121.0977098715618
 20
107.6782557104444
 10
121.0950937522163
 20
107.7059026013052
 10
121.089753854293
 20
107.749526122243
 10
121.0806674150849
 20
107.8066716427606
 10
121.0667901400383
 20
107.8749060642076
 10
121.0471100323694
 20
107.9517855220102
 10
121.0206043293713
 20
108.0348446197483
 10
120.9862502683366
 20
108.1216717906177
 10
120.943003554712
 20
108.2098016381982
 10
120.8898737235601
 20
108.2968010638393
 10
120.8257949484808
 20
108.3802262029672
 10
120.7497552326903
 20
108.4576331910082
 10
120.6607425794048
 20
108.5265781633886
 10
120.5577234599938
 20
108.5846064896113
 10
120.4396751117504
 20
108.629295836949
 10
120.3055640060443
 20
108.6581915749048
 10
120.1543781460916
 20
108.6688498389049
 10
120.1543781460916
 20
108.6688498389049
 10
119.9952900984863
 20
108.6695926876079
 10
119.8388504679962
 20
108.6702494089251
 10
119.6861035491747
 20
108.6708200028564
 10
119.538115168422
 20
108.6712937034786
 10
119.3959403862148
 20
108.6717028085614
 10
119.2606127311835
 20
108.6720473181049
 10
119.1331872638047
 20
108.6723272321089
 10
119.0147405764017
 20
108.67256408242
 10
118.9062631339119
 20
108.6727255712685
 10
118.8088638264283
 20
108.6728547623473
 10
118.7235546507347
 20
108.6729516556564
 10
118.6514121991543
 20
108.6730162511958
 10
118.5934700003175
 20
108.6730485489655
 10
118.550783114701
 20
108.673070080812
 10
118.5243958368584
 20
108.6730808467352
 10
118.5153739931896
 20
108.6730808467352
 10
118.5153739931896
 20
109.3923952415854
 10
118.5160630122765
 20
109.3978643305875
 10
118.5185284086967
 20
109.4133241963492
 10
118.5233946059978
 20
109.4373537370039
 10
118.5312537299574
 20
109.4685103188385
 10
118.5426979063535
 20
109.5053943718328
 10
118.5583730905798
 20
109.5465524963503
 10
118.5788498765679
 20
109.5905528246011
 10
118.6047526878651
 20
109.6359957865651
 10
118.6366951820956
 20
109.6814279826059
 10
118.6752802509606
 20
109.72543907678
 10
118.7211000202377
 20
109.7665864353742
 10
118.7747789134745
 20
109.8034597224453
 10
118.836919822372
 20
109.8346270702031
 10
118.9081256386311
 20
109.8586566108578
 10
118.988999253953
 20
109.8741164766195
 10
119.080165091885
 20
109.8795855656216
 97
        0
 75
     1
 76
     1
 98
        0
  0
LWPOLYLINE
  5
AA
330
1F
100
AcDbEntity
  8
ISS138金台
  6
Continuous
 62
     7
420
 16777215
370
    13
100
AcDbPolyline
 90
      297
 70
     0
 43
0.0
 10
122.0078717875529
 20
109.8795855656216
 10
125.0766874390279
 20
109.4350821272019
 10
125.0814567430199
 20
109.4352436160504
 10
125.0948926152139
 20
109.435179020511
 10
125.115789272208
 20
109.4340485985716
 10
125.1428978669072
 20
109.4310341400665
 10
125.1749480203701
 20
109.4253389666766
 10
125.2107447151179
 20
109.4160910386199
 10
125.2490068062859
 20
109.4024936775774
 10
125.288528510472
 20
109.3837071415368
 10
125.3280502146582
 20
109.3589239862558
 10
125.3663230717494
 20
109.3273044697223
 10
125.4020982346507
 20
109.2880303817704
 10
125.4341699199601
 20
109.2402727463114
 10
125.461267748736
 20
109.1832025872564
 10
125.4821644057301
 20
109.1160016944398
 10
125.4956110438474
 20
109.0378410917725
 10
125.5003695819162
 20
108.9479025690889
 10
125.5003695819162
 20
108.1266348812278
 10
123.6017236584182
 20
108.1756736615514
 10
123.5945104898524
 20
108.175329152008
 10
123.5740767675573
 20
108.1738972842181
 10
123.5422957621752
 20
108.1706352094786
 10
123.5010192125022
 20
108.1649400360887
 10
123.4520988573341
 20
108.1560796812685
 10
123.3973756695438
 20
108.1433866577774
 10
123.3387121538504
 20
108.126182712452
 10
123.2779600490499
 20
108.1037895921286
 10
123.2169710939383
 20
108.07555057549
 10
123.1575862613883
 20
108.0407658775261
 10
123.101657290196
 20
107.9987572450733
 10
123.0510574510036
 20
107.948857190891
 10
123.0076277166841
 20
107.8903874618158
 10
122.9732090601101
 20
107.8226590387607
 10
122.949674751924
 20
107.7450044344854
 10
122.9388549990755
 20
107.6567346299028
 10
122.9388549990755
 20
107.6567346299028
 10
122.9346670549381
 20
107.5620052713809
 10
122.9300054101784
 20
107.465800981376
 10
122.9250961491845
 20
107.3686815878965
 10
122.9200792289582
 20
107.2712176848735
 10
122.9151269042712
 20
107.1739691003151
 10
122.9104652595116
 20
107.077517194076
 10
122.9062450176045
 20
106.9824325600873
 10
122.9026599651681
 20
106.8892642604341
 10
122.8998500592045
 20
106.7985936549707
 10
122.8980521500246
 20
106.7110021035518
 10
122.8974061946307
 20
106.627027902339
 10
122.8981275114873
 20
106.5472739430334
 10
122.9003560575964
 20
106.4722785217964
 10
122.9042963854994
 20
106.4026229984827
 10
122.9101315158914
 20
106.3388779670236
 10
122.918033703544
 20
106.2816032554272
 10
122.918033703544
 20
106.2816032554272
 10
122.9268725265178
 20
106.2258896026995
 10
122.9360450931118
 20
106.1671937892364
 10
122.9465741660331
 20
106.106398620743
 10
122.9594286783726
 20
106.0444407325405
 10
122.9756206269142
 20
105.9822136962571
 10
122.9961404765951
 20
105.9206326153678
 10
123.0219894582761
 20
105.8605910615006
 10
123.0541688028178
 20
105.8030149040537
 10
123.0936689751575
 20
105.7488084805785
 10
123.1414804402327
 20
105.6988868945498
 10
123.1986044289038
 20
105.6541437175959
 10
123.2660529379549
 20
105.6155048191148
 10
123.3447949004767
 20
105.5838637707348
 10
123.4358530791764
 20
105.5601356759305
 10
123.5402071730682
 20
105.5452356381769
 10
123.6588691789358
 20
105.5400679950253
 10
133.3105193567907
 20
105.5400679950253
 10
133.5013668779316
 20
105.2384391238229
 10
133.713035694604
 20
105.5400679950253
 10
137.0146859678264
 20
105.5400679950253
 10
137.0786032540572
 20
105.5364183470495
 10
137.259395402899
 20
105.5260938266696
 10
137.5405797858831
 20
105.509944941821
 10
137.9056845404638
 20
105.4889083278249
 10
138.3382270381723
 20
105.4638775563096
 10
138.821735416463
 20
105.4357246670568
 10
139.3397378127904
 20
105.4053647635414
 10
139.8757623646088
 20
105.3736914173917
 10
140.4133156775262
 20
105.3415982002359
 10
140.9359474208435
 20
105.3099894496255
 10
141.4271534342454
 20
105.2797479712656
 10
141.8704941529561
 20
105.2517888686311
 10
142.2494761825834
 20
105.2269841815036
 10
142.5476276605817
 20
105.2062597792812
 10
142.7484659584823
 20
105.1904877017457
 10
142.8355192137395
 20
105.1805830523719
 10
142.8355192137395
 20
105.1805830523719
 10
142.8637797622246
 20
105.1722071640971
 10
142.8984998646491
 20
105.1606876262384
 10
142.9386782901525
 20
105.1462074594908
 10
142.983216914565
 20
105.1289496845493
 10
143.0310822092563
 20
105.109108088032
 10
143.081240645596
 20
105.0868441587873
 10
143.1326263971843
 20
105.0623516834336
 10
143.1841951694676
 20
105.0358136826657
 10
143.2349026678922
 20
105.0074131771786
 10
143.2837045979047
 20
104.9773331876673
 10
143.3295351331051
 20
104.9457459689034
 10
143.3713499789398
 20
104.9128453075052
 10
143.4081156067785
 20
104.8788034582443
 10
143.4387769561444
 20
104.8438142077389
 10
143.4622789665607
 20
104.8080605766841
 10
143.477577343474
 20
104.7717148198515
 10
143.477577343474
 20
104.7717148198515
 10
143.4876865453892
 20
104.7356705088694
 10
143.4960839655105
 20
104.7005951309782
 10
143.5024035624479
 20
104.6665209839476
 10
143.506300826658
 20
104.6334911314706
 10
143.5073881849045
 20
104.6015701690865
 10
143.5053318935671
 20
104.5707580967953
 10
143.499765911256
 20
104.5411195101365
 10
143.4903241965811
 20
104.5126867068797
 10
143.476651474076
 20
104.4855027507179
 10
143.458403234197
 20
104.4596107053439
 10
143.435191903708
 20
104.4350428685276
 10
143.4066837389885
 20
104.4118423039617
 10
143.3725126986489
 20
104.3900628412626
 10
143.3323019753759
 20
104.3697260122766
 10
143.2857178255492
 20
104.3508748806966
 10
143.2323942077791
 20
104.3335632761389
 10
143.2323942077791
 20
104.3335632761389
 10
142.9440935495384
 20
104.3191477049307
 10
142.2333918932741
 20
104.3084463772377
 10
141.1611490030191
 20
104.3010824857467
 10
139.7882246428061
 20
104.296646925375
 10
138.175435512975
 20
104.294795186579
 10
136.3836521434819
 20
104.295118164276
 10
134.4737235324363
 20
104.2972282852295
 10
132.5064986779479
 20
104.3007595080498
 10
130.5428158122029
 20
104.3053027276538
 10
128.6435454651574
 20
104.3105026685751
 10
126.8695151030746
 20
104.3159394598075
 10
125.2815844899871
 20
104.3212578258842
 10
123.9406133899279
 20
104.3260594276459
 10
122.9074292691601
 20
104.3299782237025
 10
122.2429026576396
 20
104.3326051089712
 10
122.0078717875529
 20
104.3335632761389
 10
100.8196843582361
 20
104.3335632761389
 10
100.8158732214118
 20
104.3341446359934
 10
100.8050965322562
 20
104.3361686295611
 10
100.788366287553
 20
104.3399905323086
 10
100.7666621863165
 20
104.3459979174723
 10
100.7409746934839
 20
104.3545675923653
 10
100.7122942739928
 20
104.3660655983775
 10
100.6816544564734
 20
104.3808902746686
 10
100.6500026421701
 20
104.3993968967051
 10
100.6183508278668
 20
104.4219945695699
 10
100.5876894785009
 20
104.4490278028065
 10
100.559019824933
 20
104.4808949355744
 10
100.5333323321005
 20
104.5179620092636
 10
100.5116282308639
 20
104.5606165971104
 10
100.4948979861607
 20
104.609235506428
 10
100.4841212970051
 20
104.6641847786062
 10
100.4803101601808
 20
104.7258519868814
 10
100.4803101601808
 20
104.7258519868814
 10
100.4865328638092
 20
104.7880574913183
 10
100.5043397008356
 20
104.8446647156743
 10
100.5323741649328
 20
104.8958997443373
 10
100.5692905156967
 20
104.9419994276185
 10
100.6137537786466
 20
104.9832221476754
 10
100.664450511148
 20
105.0197939888959
 10
100.7200134409504
 20
105.0519518015911
 10
100.7791183594964
 20
105.0799539679186
 10
100.8404195263817
 20
105.1040265722663
 10
100.9025819671256
 20
105.1244172308685
 10
100.9642599413241
 20
105.141352028113
 10
101.0241292404195
 20
105.1550785802344
 10
101.0808441240079
 20
105.1658337375435
 10
101.1330696176083
 20
105.1738651162749
 10
101.1794599808167
 20
105.1794095667396
 10
101.2186802391524
 20
105.1827039392487
 10
101.2186802391524
 20
105.1827039392487
 10
101.3150998476218
 20
105.1886359629498
 10
101.5230221230094
 20
105.2014043479034
 10
101.8262012871572
 20
105.2199970973258
 10
102.2083915619078
 20
105.243445278126
 10
102.6533579350265
 20
105.2707476594434
 10
103.1448438624324
 20
105.3008922444941
 10
103.6666143318911
 20
105.3328885683408
 10
104.2024235652449
 20
105.3657569319694
 10
104.7360365502593
 20
105.3984745726727
 10
105.2511967428533
 20
105.4300617914366
 10
105.7316691307925
 20
105.4595281233237
 10
106.1612079359192
 20
105.4858723374734
 10
106.5235673800756
 20
105.5080932030251
 10
106.8025124510273
 20
105.5251894891181
 10
106.9817866046934
 20
105.5361814967384
 10
107.0451548288394
 20
105.5400679950253
 10
110.3249287460534
 20
105.5400679950253
 10
110.5143766971742
 20
105.2991158671608
 10
110.704524433305
 20
105.5400679950253
 10
110.80958907813
 20
105.5390021686253
 10
111.1068577504233
 20
105.5361276671222
 10
111.56946947172
 20
105.5319181911384
 10
112.1705201998621
 20
105.5268582072191
 10
112.8831597223082
 20
105.5214214159868
 10
113.6805055287469
 20
105.5160815180635
 10
114.5356858747901
 20
105.511333745918
 10
115.4218182501265
 20
105.5076518001725
 10
116.312030910368
 20
105.5055093814493
 10
117.1794521111264
 20
105.5053909562937
 10
117.9972101080138
 20
105.5077702253281
 10
118.7384116247954
 20
105.5131316550978
 10
119.3761956830066
 20
105.5219489462252
 10
119.8836797723359
 20
105.5346957993323
 10
120.2339921483953
 20
105.551867446888
 10
120.4002610667966
 20
105.5739375895145
 10
120.4002610667966
 20
105.5739375895145
 10
120.4654702638153
 20
105.6023380950016
 10
120.5302057602118
 20
105.6379840668241
 10
120.5939184939012
 20
105.6801649540487
 10
120.6561347642613
 20
105.728170205742
 10
120.7163055092072
 20
105.7813000368939
 10
120.7739570281168
 20
105.8388008328782
 10
120.8285294929818
 20
105.899983574608
 10
120.8795599691035
 20
105.9641484770731
 10
120.9264886284735
 20
106.0305526915706
 10
120.9688417704698
 20
106.0985071990136
 10
121.0060810989307
 20
106.1672799166222
 10
121.0377006154643
 20
106.2361710593864
 10
121.0631835557554
 20
106.3044485445264
 10
121.0820239214121
 20
106.3714233529552
 10
121.0937049481193
 20
106.4363634018931
 10
121.0977098715618
 20
106.4985581404067
 10
121.0977098715618
 20
106.4985581404067
 10
121.0977959989476
 20
106.5639611240436
 10
121.098043615182
 20
106.637912250727
 10
121.0983988906486
 20
106.7188181638186
 10
121.0988510594244
 20
106.8050855066799
 10
121.0993462918931
 20
106.8951209226725
 10
121.099852290285
 20
106.9873202892349
 10
121.1003259909073
 20
107.0801010156517
 10
121.1007458619133
 20
107.1718912771313
 10
121.1010688396103
 20
107.2610546533421
 10
121.1012733921517
 20
107.3460193194923
 10
121.1013056899214
 20
107.4251811530202
 10
121.1011334351497
 20
107.4969575632106
 10
121.1007243300668
 20
107.5597444275021
 10
121.10003531098
 20
107.6119591551792
 10
121.0990448460426
 20
107.6519868577573
 10
121.0977098715618
 20
107.6782557104444
 10
121.0977098715618
 20
107.6782557104444
 10
121.0950937522163
 20
107.7059026013052
 10
121.089753854293
 20
107.749526122243
 10
121.0806674150849
 20
107.8066716427606
 10
121.0667901400383
 20
107.8749060642076
 10
121.0471100323694
 20
107.9517855220102
 10
121.0206043293713
 20
108.0348446197483
 10
120.9862502683366
 20
108.1216717906177
 10
120.943003554712
 20
108.2098016381982
 10
120.8898737235601
 20
108.2968010638393
 10
120.8257949484808
 20
108.3802262029672
 10
120.7497552326903
 20
108.4576331910082
 10
120.6607425794048
 20
108.5265781633886
 10
120.5577234599938
 20
108.5846064896113
 10
120.4396751117504
 20
108.629295836949
 10
120.3055640060443
 20
108.6581915749048
 10
120.1543781460916
 20
108.6688498389049
 10
120.1543781460916
 20
108.6688498389049
 10
119.9952900984863
 20
108.6695926876079
 10
119.8388504679962
 20
108.6702494089251
 10
119.6861035491747
 20
108.6708200028564
 10
119.538115168422
 20
108.6712937034786
 10
119.3959403862148
 20
108.6717028085614
 10
119.2606127311835
 20
108.6720473181049
 10
119.1331872638047
 20
108.6723272321089
 10
119.0147405764017
 20
108.67256408242
 10
118.9062631339119
 20
108.6727255712685
 10
118.8088638264283
 20
108.6728547623473
 10
118.7235546507347
 20
108.6729516556564
 10
118.6514121991543
 20
108.6730162511958
 10
118.5934700003175
 20
108.6730485489655
 10
118.550783114701
 20
108.673070080812
 10
118.5243958368584
 20
108.6730808467352
 10
118.5153739931896
 20
108.6730808467352
 10
118.5153739931896
 20
109.3923952415854
 10
118.5160630122765
 20
109.3978643305875
 10
118.5185284086967
 20
109.4133241963492
 10
118.5233946059978
 20
109.4373537370039
 10
118.5312537299574
 20
109.4685103188385
 10
118.5426979063535
 20
109.5053943718328
 10
118.5583730905798
 20
109.5465524963503
 10
118.5788498765679
 20
109.5905528246011
 10
118.6047526878651
 20
109.6359957865651
 10
118.6366951820956
 20
109.6814279826059
 10
118.6752802509606
 20
109.72543907678
 10
118.7211000202377
 20
109.7665864353742
 10
118.7747789134745
 20
109.8034597224453
 10
118.836919822372
 20
109.8346270702031
 10
118.9081256386311
 20
109.8586566108578
 10
118.988999253953
 20
109.8741164766195
 10
119.080165091885
 20
109.8795855656216
 10
122.0078717875529
 20
109.8795855656216
  0
LWPOLYLINE
  5
AB
330
1F
100
AcDbEntity
  8
ISS138金台
  6
Continuous
 62
   250
420
  2300438
370
    25
100
AcDbPolyline
 90
      297
 70
     0
 43
0.0
 10
122.0078717875529
 20
109.8795855656216
 10
125.0766874390279
 20
109.4350821272019
 10
125.0814567430199
 20
109.4352436160504
 10
125.0948926152139
 20
109.435179020511
 10
125.115789272208
 20
109.4340485985716
 10
125.1428978669072
 20
109.4310341400665
 10
125.1749480203701
 20
109.4253389666766
 10
125.2107447151179
 20
109.4160910386199
 10
125.2490068062859
 20
109.4024936775774
 10
125.288528510472
 20
109.3837071415368
 10
125.3280502146582
 20
109.3589239862558
 10
125.3663230717494
 20
109.3273044697223
 10
125.4020982346507
 20
109.2880303817704
 10
125.4341699199601
 20
109.2402727463114
 10
125.461267748736
 20
109.1832025872564
 10
125.4821644057301
 20
109.1160016944398
 10
125.4956110438474
 20
109.0378410917725
 10
125.5003695819162
 20
108.9479025690889
 10
125.5003695819162
 20
108.1266348812278
 10
123.6017236584182
 20
108.1756736615514
 10
123.5945104898524
 20
108.175329152008
 10
123.5740767675573
 20
108.1738972842181
 10
123.5422957621752
 20
108.1706352094786
 10
123.5010192125022
 20
108.1649400360887
 10
123.4520988573341
 20
108.1560796812685
 10
123.3973756695438
 20
108.1433866577774
 10
123.3387121538504
 20
108.126182712452
 10
123.2779600490499
 20
108.1037895921286
 10
123.2169710939383
 20
108.07555057549
 10
123.1575862613883
 20
108.0407658775261
 10
123.101657290196
 20
107.9987572450733
 10
123.0510574510036
 20
107.948857190891
 10
123.0076277166841
 20
107.8903874618158
 10
122.9732090601101
 20
107.8226590387607
 10
122.949674751924
 20
107.7450044344854
 10
122.9388549990755
 20
107.6567346299028
 10
122.9388549990755
 20
107.6567346299028
 10
122.9346670549381
 20
107.5620052713809
 10
122.9300054101784
 20
107.465800981376
 10
122.9250961491845
 20
107.3686815878965
 10
122.9200792289582
 20
107.2712176848735
 10
122.9151269042712
 20
107.1739691003151
 10
122.9104652595116
 20
107.077517194076
 10
122.9062450176045
 20
106.9824325600873
 10
122.9026599651681
 20
106.8892642604341
 10
122.8998500592045
 20
106.7985936549707
 10
122.8980521500246
 20
106.7110021035518
 10
122.8974061946307
 20
106.627027902339
 10
122.8981275114873
 20
106.5472739430334
 10
122.9003560575964
 20
106.4722785217964
 10
122.9042963854994
 20
106.4026229984827
 10
122.9101315158914
 20
106.3388779670236
 10
122.918033703544
 20
106.2816032554272
 10
122.918033703544
 20
106.2816032554272
 10
122.9268725265178
 20
106.2258896026995
 10
122.9360450931118
 20
106.1671937892364
 10
122.9465741660331
 20
106.106398620743
 10
122.9594286783726
 20
106.0444407325405
 10
122.9756206269142
 20
105.9822136962571
 10
122.9961404765951
 20
105.9206326153678
 10
123.0219894582761
 20
105.8605910615006
 10
123.0541688028178
 20
105.8030149040537
 10
123.0936689751575
 20
105.7488084805785
 10
123.1414804402327
 20
105.6988868945498
 10
123.1986044289038
 20
105.6541437175959
 10
123.2660529379549
 20
105.6155048191148
 10
123.3447949004767
 20
105.5838637707348
 10
123.4358530791764
 20
105.5601356759305
 10
123.5402071730682
 20
105.5452356381769
 10
123.6588691789358
 20
105.5400679950253
 10
133.3105193567907
 20
105.5400679950253
 10
133.5013668779316
 20
105.2384391238229
 10
133.713035694604
 20
105.5400679950253
 10
137.0146859678264
 20
105.5400679950253
 10
137.0786032540572
 20
105.5364183470495
 10
137.259395402899
 20
105.5260938266696
 10
137.5405797858831
 20
105.509944941821
 10
137.9056845404638
 20
105.4889083278249
 10
138.3382270381723
 20
105.4638775563096
 10
138.821735416463
 20
105.4357246670568
 10
139.3397378127904
 20
105.4053647635414
 10
139.8757623646088
 20
105.3736914173917
 10
140.4133156775262
 20
105.3415982002359
 10
140.9359474208435
 20
105.3099894496255
 10
141.4271534342454
 20
105.2797479712656
 10
141.8704941529561
 20
105.2517888686311
 10
142.2494761825834
 20
105.2269841815036
 10
142.5476276605817
 20
105.2062597792812
 10
142.7484659584823
 20
105.1904877017457
 10
142.8355192137395
 20
105.1805830523719
 10
142.8355192137395
 20
105.1805830523719
 10
142.8637797622246
 20
105.1722071640971
 10
142.8984998646491
 20
105.1606876262384
 10
142.9386782901525
 20
105.1462074594908
 10
142.983216914565
 20
105.1289496845493
 10
143.0310822092563
 20
105.109108088032
 10
143.081240645596
 20
105.0868441587873
 10
143.1326263971843
 20
105.0623516834336
 10
143.1841951694676
 20
105.0358136826657
 10
143.2349026678922
 20
105.0074131771786
 10
143.2837045979047
 20
104.9773331876673
 10
143.3295351331051
 20
104.9457459689034
 10
143.3713499789398
 20
104.9128453075052
 10
143.4081156067785
 20
104.8788034582443
 10
143.4387769561444
 20
104.8438142077389
 10
143.4622789665607
 20
104.8080605766841
 10
143.477577343474
 20
104.7717148198515
 10
143.477577343474
 20
104.7717148198515
 10
143.4876865453892
 20
104.7356705088694
 10
143.4960839655105
 20
104.7005951309782
 10
143.5024035624479
 20
104.6665209839476
 10
143.506300826658
 20
104.6334911314706
 10
143.5073881849045
 20
104.6015701690865
 10
143.5053318935671
 20
104.5707580967953
 10
143.499765911256
 20
104.5411195101365
 10
143.4903241965811
 20
104.5126867068797
 10
143.476651474076
 20
104.4855027507179
 10
143.458403234197
 20
104.4596107053439
 10
143.435191903708
 20
104.4350428685276
 10
143.4066837389885
 20
104.4118423039617
 10
143.3725126986489
 20
104.3900628412626
 10
143.3323019753759
 20
104.3697260122766
 10
143.2857178255492
 20
104.3508748806966
 10
143.2323942077791
 20
104.3335632761389
 10
143.2323942077791
 20
104.3335632761389
 10
142.9440935495384
 20
104.3191477049307
 10
142.2333918932741
 20
104.3084463772377
 10
141.1611490030191
 20
104.3010824857467
 10
139.7882246428061
 20
104.296646925375
 10
138.175435512975
 20
104.294795186579
 10
136.3836521434819
 20
104.295118164276
 10
134.4737235324363
 20
104.2972282852295
 10
132.5064986779479
 20
104.3007595080498
 10
130.5428158122029
 20
104.3053027276538
 10
128.6435454651574
 20
104.3105026685751
 10
126.8695151030746
 20
104.3159394598075
 10
125.2815844899871
 20
104.3212578258842
 10
123.9406133899279
 20
104.3260594276459
 10
122.9074292691601
 20
104.3299782237025
 10
122.2429026576396
 20
104.3326051089712
 10
122.0078717875529
 20
104.3335632761389
 10
100.8196843582361
 20
104.3335632761389
 10
100.8158732214118
 20
104.3341446359934
 10
100.8050965322562
 20
104.3361686295611
 10
100.788366287553
 20
104.3399905323086
 10
100.7666621863165
 20
104.3459979174723
 10
100.7409746934839
 20
104.3545675923653
 10
100.7122942739928
 20
104.3660655983775
 10
100.6816544564734
 20
104.3808902746686
 10
100.6500026421701
 20
104.3993968967051
 10
100.6183508278668
 20
104.4219945695699
 10
100.5876894785009
 20
104.4490278028065
 10
100.559019824933
 20
104.4808949355744
 10
100.5333323321005
 20
104.5179620092636
 10
100.5116282308639
 20
104.5606165971104
 10
100.4948979861607
 20
104.609235506428
 10
100.4841212970051
 20
104.6641847786062
 10
100.4803101601808
 20
104.7258519868814
 10
100.4803101601808
 20
104.7258519868814
 10
100.4865328638092
 20
104.7880574913183
 10
100.5043397008356
 20
104.8446647156743
 10
100.5323741649328
 20
104.8958997443373
 10
100.5692905156967
 20
104.9419994276185
 10
100.6137537786466
 20
104.9832221476754
 10
100.664450511148
 20
105.0197939888959
 10
100.7200134409504
 20
105.0519518015911
 10
100.7791183594964
 20
105.0799539679186
 10
100.8404195263817
 20
105.1040265722663
 10
100.9025819671256
 20
105.1244172308685
 10
100.9642599413241
 20
105.141352028113
 10
101.0241292404195
 20
105.1550785802344
 10
101.0808441240079
 20
105.1658337375435
 10
101.1330696176083
 20
105.1738651162749
 10
101.1794599808167
 20
105.1794095667396
 10
101.2186802391524
 20
105.1827039392487
 10
101.2186802391524
 20
105.1827039392487
 10
101.3150998476218
 20
105.1886359629498
 10
101.5230221230094
 20
105.2014043479034
 10
101.8262012871572
 20
105.2199970973258
 10
102.2083915619078
 20
105.243445278126
 10
102.6533579350265
 20
105.2707476594434
 10
103.1448438624324
 20
105.3008922444941
 10
103.6666143318911
 20
105.3328885683408
 10
104.2024235652449
 20
105.3657569319694
 10
104.7360365502593
 20
105.3984745726727
 10
105.2511967428533
 20
105.4300617914366
 10
105.7316691307925
 20
105.4595281233237
 10
106.1612079359192
 20
105.4858723374734
 10
106.5235673800756
 20
105.5080932030251
 10
106.8025124510273
 20
105.5251894891181
 10
106.9817866046934
 20
105.5361814967384
 10
107.0451548288394
 20
105.5400679950253
 10
110.3249287460534
 20
105.5400679950253
 10
110.5143766971742
 20
105.2991158671608
 10
110.704524433305
 20
105.5400679950253
 10
110.80958907813
 20
105.5390021686253
 10
111.1068577504233
 20
105.5361276671222
 10
111.56946947172
 20
105.5319181911384
 10
112.1705201998621
 20
105.5268582072191
 10
112.8831597223082
 20
105.5214214159868
 10
113.6805055287469
 20
105.5160815180635
 10
114.5356858747901
 20
105.511333745918
 10
115.4218182501265
 20
105.5076518001725
 10
116.312030910368
 20
105.5055093814493
 10
117.1794521111264
 20
105.5053909562937
 10
117.9972101080138
 20
105.5077702253281
 10
118.7384116247954
 20
105.5131316550978
 10
119.3761956830066
 20
105.5219489462252
 10
119.8836797723359
 20
105.5346957993323
 10
120.2339921483953
 20
105.551867446888
 10
120.4002610667966
 20
105.5739375895145
 10
120.4002610667966
 20
105.5739375895145
 10
120.4654702638153
 20
105.6023380950016
 10
120.5302057602118
 20
105.6379840668241
 10
120.5939184939012
 20
105.6801649540487
 10
120.6561347642613
 20
105.728170205742
 10
120.7163055092072
 20
105.7813000368939
 10
120.7739570281168
 20
105.8388008328782
 10
120.8285294929818
 20
105.899983574608
 10
120.8795599691035
 20
105.9641484770731
 10
120.9264886284735
 20
106.0305526915706
 10
120.9688417704698
 20
106.0985071990136
 10
121.0060810989307
 20
106.1672799166222
 10
121.0377006154643
 20
106.2361710593864
 10
121.0631835557554
 20
106.3044485445264
 10
121.0820239214121
 20
106.3714233529552
 10
121.0937049481193
 20
106.4363634018931
 10
121.0977098715618
 20
106.4985581404067
 10
121.0977098715618
 20
106.4985581404067
 10
121.0977959989476
 20
106.5639611240436
 10
121.098043615182
 20
106.637912250727
 10
121.0983988906486
 20
106.7188181638186
 10
121.0988510594244
 20
106.8050855066799
 10
121.0993462918931
 20
106.8951209226725
 10
121.099852290285
 20
106.9873202892349
 10
121.1003259909073
 20
107.0801010156517
 10
121.1007458619133
 20
107.1718912771313
 10
121.1010688396103
 20
107.2610546533421
 10
121.1012733921517
 20
107.3460193194923
 10
121.1013056899214
 20
107.4251811530202
 10
121.1011334351497
 20
107.4969575632106
 10
121.1007243300668
 20
107.5597444275021
 10
121.10003531098
 20
107.6119591551792
 10
121.0990448460426
 20
107.6519868577573
 10
121.0977098715618
 20
107.6782557104444
 10
121.0977098715618
 20
107.6782557104444
 10
121.0950937522163
 20
107.7059026013052
 10
121.089753854293
 20
107.749526122243
 10
121.0806674150849
 20
107.8066716427606
 10
121.0667901400383
 20
107.8749060642076
 10
121.0471100323694
 20
107.9517855220102
 10
121.0206043293713
 20
108.0348446197483
 10
120.9862502683366
 20
108.1216717906177
 10
120.943003554712
 20
108.2098016381982
 10
120.8898737235601
 20
108.2968010638393
 10
120.8257949484808
 20
108.3802262029672
 10
120.7497552326903
 20
108.4576331910082
 10
120.6607425794048
 20
108.5265781633886
 10
120.5577234599938
 20
108.5846064896113
 10
120.4396751117504
 20
108.629295836949
 10
120.3055640060443
 20
108.6581915749048
 10
120.1543781460916
 20
108.6688498389049
 10
120.1543781460916
 20
108.6688498389049
 10
119.9952900984863
 20
108.6695926876079
 10
119.8388504679962
 20
108.6702494089251
 10
119.6861035491747
 20
108.6708200028564
 10
119.538115168422
 20
108.6712937034786
 10
119.3959403862148
 20
108.6717028085614
 10
119.2606127311835
 20
108.6720473181049
 10
119.1331872638047
 20
108.6723272321089
 10
119.0147405764017
 20
108.67256408242
 10
118.9062631339119
 20
108.6727255712685
 10
118.8088638264283
 20
108.6728547623473
 10
118.7235546507347
 20
108.6729516556564
 10
118.6514121991543
 20
108.6730162511958
 10
118.5934700003175
 20
108.6730485489655
 10
118.550783114701
 20
108.673070080812
 10
118.5243958368584
 20
108.6730808467352
 10
118.5153739931896
 20
108.6730808467352
 10
118.5153739931896
 20
109.3923952415854
 10
118.5160630122765
 20
109.3978643305875
 10
118.5185284086967
 20
109.4133241963492
 10
118.5233946059978
 20
109.4373537370039
 10
118.5312537299574
 20
109.4685103188385
 10
118.5426979063535
 20
109.5053943718328
 10
118.5583730905798
 20
109.5465524963503
 10
118.5788498765679
 20
109.5905528246011
 10
118.6047526878651
 20
109.6359957865651
 10
118.6366951820956
 20
109.6814279826059
 10
118.6752802509606
 20
109.72543907678
 10
118.7211000202377
 20
109.7665864353742
 10
118.7747789134745
 20
109.8034597224453
 10
118.836919822372
 20
109.8346270702031
 10
118.9081256386311
 20
109.8586566108578
 10
118.988999253953
 20
109.8741164766195
 10
119.080165091885
 20
109.8795855656216
 10
122.0078717875529
 20
109.8795855656216
  0
ENDSEC
  0
SECTION
  2
OBJECTS
  0
DICTIONARY
  5
C
330
0
100
AcDbDictionary
281
     1
  3
ACAD_DETAILVIEWSTYLE
350
B3
  3
ACAD_GROUP
350
D
  3
ACAD_LAYOUT
350
1A
  3
ACAD_MATERIAL
350
43
  3
ACAD_MLEADERSTYLE
350
5B
  3
ACAD_MLINESTYLE
350
17
  3
ACAD_PLOTSETTINGS
350
19
  3
ACAD_PLOTSTYLENAME
350
E
  3
ACAD_SCALELIST
350
47
  3
ACAD_SECTIONVIEWSTYLE
350
B4
  3
ACAD_TABLESTYLE
350
59
  3
ACAD_VISUALSTYLE
350
2A
  3
ACDB_RECOMPOSE_DATA
350
B0
  3
AcDbVariableDictionary
350
AC
  0
SUN
  5
5D
330
29
100
AcDbSun
 90
        1
290
     0
 63
     7
421
 16777215
 40
1.0
291
     1
 91
  2455826
 92
 54000000
292
     0
 70
     2
 71
   256
280
     1
  0
DICTIONARY
  5
B3
102
{ACAD_REACTORS
330
C
102
}
330
C
100
AcDbDictionary
281
     1
  0
DICTIONARY
  5
D
102
{ACAD_REACTORS
330
C
102
}
330
C
100
AcDbDictionary
281
     1
  0
DICTIONARY
  5
1A
102
{ACAD_REACTORS
330
C
102
}
330
C
100
AcDbDictionary
281
     1
  3
Layout1
350
1E
  3
Layout2
350
26
  3
Model
350
22
  0
DICTIONARY
  5
43
102
{ACAD_REACTORS
330
C
102
}
330
C
100
AcDbDictionary
281
     1
  3
ByBlock
350
45
  3
ByLayer
350
44
  3
Global
350
46
  0
DICTIONARY
  5
5B
102
{ACAD_REACTORS
330
C
102
}
330
C
100
AcDbDictionary
281
     1
  3
Standard
350
5C
  0
DICTIONARY
  5
17
102
{ACAD_REACTORS
330
C
102
}
330
C
100
AcDbDictionary
281
     1
  3
Standard
350
18
  0
DICTIONARY
  5
19
102
{ACAD_REACTORS
330
C
102
}
330
C
100
AcDbDictionary
281
     1
  0
ACDBDICTIONARYWDFLT
  5
E
102
{ACAD_REACTORS
330
C
102
}
330
C
100
AcDbDictionary
281
     1
  3
Normal
350
F
100
AcDbDictionaryWithDefault
340
F
  0
DICTIONARY
  5
47
102
{ACAD_REACTORS
330
C
102
}
330
C
100
AcDbDictionary
281
     1
  3
A0
350
48
  3
A1
350
49
  3
A2
350
4A
  3
A3
350
4B
  3
A4
350
4C
  3
A5
350
4D
  3
A6
350
4E
  3
A7
350
4F
  3
A8
350
50
  3
A9
350
51
  3
B0
350
52
  3
B1
350
53
  3
B2
350
54
  3
B3
350
55
  3
B4
350
56
  3
B5
350
57
  3
B6
350
58
  0
DICTIONARY
  5
B4
102
{ACAD_REACTORS
330
C
102
}
330
C
100
AcDbDictionary
281
     1
  0
DICTIONARY
  5
59
102
{ACAD_REACTORS
330
C
102
}
330
C
100
AcDbDictionary
281
     1
  3
Standard
350
5A
  0
DICTIONARY
  5
2A
102
{ACAD_REACTORS
330
C
102
}
330
C
100
AcDbDictionary
281
     1
  3
2dWireframe
350
2F
  3
Basic
350
32
  3
Brighten
350
36
  3
ColorChange
350
3A
  3
Conceptual
350
34
  3
Dim
350
35
  3
EdgeColorOff
350
3D
  3
Facepattern
350
39
  3
Flat
350
2B
  3
FlatWithEdges
350
2C
  3
Gouraud
350
2D
  3
GouraudWithEdges
350
2E
  3
Hidden
350
31
  3
JitterOff
350
3B
  3
Linepattern
350
38
  3
OverhangOff
350
3C
  3
Realistic
350
33
  3
Shaded
350
42
  3
Shaded with edges
350
41
  3
Shades of Gray
350
3E
  3
Sketchy
350
3F
  3
Thicken
350
37
  3
Wireframe
350
30
  3
X-Ray
350
40
  0
XRECORD
  5
B0
102
{ACAD_REACTORS
330
C
102
}
330
C
100
AcDbXrecord
280
     1
 90
        1
330
5A
  0
DICTIONARY
  5
AC
102
{ACAD_REACTORS
330
C
102
}
330
C
100
AcDbDictionary
281
     1
  3
CANNOSCALE
350
AD
  3
CENTEREXE
350
B5
  3
CENTERLTYPEFILE
350
B6
  3
CMLEADERSTYLE
350
B2
  3
CTABLESTYLE
350
B1
  0
LAYOUT
  5
1E
102
{ACAD_REACTORS
330
1A
102
}
330
1A
100
AcDbPlotSettings
  1

  2
none_device
  4

  6

 40
0.0
 41
0.0
 42
0.0
 43
0.0
 44
0.0
 45
0.0
 46
0.0
 47
0.0
 48
0.0
 49
0.0
140
0.0
141
0.0
142
1.0
143
1.0
 70
   688
 72
     1
 73
     0
 74
     5
  7

 75
    16
 76
     0
 77
     5
 78
   300
147
1.0
148
0.0
149
0.0
100
AcDbLayout
  1
Layout1
 70
     1
 71
     1
 10
0.0
 20
0.0
 11
420.0
 21
297.0
 12
0.0
 22
0.0
 32
0.0
 14
1.000000000000000E+20
 24
1.000000000000000E+20
 34
1.000000000000000E+20
 15
-1.000000000000000E+20
 25
-1.000000000000000E+20
 35
-1.000000000000000E+20
146
0.0
 13
0.0
 23
0.0
 33
0.0
 16
1.0
 26
0.0
 36
0.0
 17
0.0
 27
1.0
 37
0.0
 76
     0
330
1B
  0
LAYOUT
  5
26
102
{ACAD_REACTORS
330
1A
102
}
330
1A
100
AcDbPlotSettings
  1

  2
none_device
  4

  6

 40
0.0
 41
0.0
 42
0.0
 43
0.0
 44
0.0
 45
0.0
 46
0.0
 47
0.0
 48
0.0
 49
0.0
140
0.0
141
0.0
142
1.0
143
1.0
 70
   688
 72
     1
 73
     0
 74
     5
  7

 75
    16
 76
     0
 77
     5
 78
   300
147
1.0
148
0.0
149
0.0
100
AcDbLayout
  1
Layout2
 70
     1
 71
     2
 10
0.0
 20
0.0
 11
0.0
 21
0.0
 12
0.0
 22
0.0
 32
0.0
 14
0.0
 24
0.0
 34
0.0
 15
0.0
 25
0.0
 35
0.0
146
0.0
 13
0.0
 23
0.0
 33
0.0
 16
1.0
 26
0.0
 36
0.0
 17
0.0
 27
1.0
 37
0.0
 76
     0
330
23
  0
LAYOUT
  5
22
102
{ACAD_REACTORS
330
1A
102
}
330
1A
100
AcDbPlotSettings
  1

  2
none_device
  4
Letter_(8.50_x_11.00_Inches)
  6

 40
6.35
 41
6.35
 42
6.35000508
 43
6.35000508
 44
215.9
 45
279.4
 46
0.0
 47
0.0
 48
0.0
 49
0.0
140
0.0
141
0.0
142
1.0
143
1.0
 70
  1712
 72
     1
 73
     0
 74
     0
  7

 75
     0
 76
     0
 77
     5
 78
   300
147
1.0
148
0.0
149
0.0
100
AcDbLayout
  1
Model
 70
     1
 71
     0
 10
0.0
 20
0.0
 11
302.9997823349792
 21
216.0016055409748
 12
0.0
 22
0.0
 32
0.0
 14
0.0
 24
0.0
 34
0.0
 15
302.9997823349792
 25
216.0016055409748
 35
0.0
146
0.0
 13
0.0
 23
0.0
 33
0.0
 16
1.0
 26
0.0
 36
0.0
 17
0.0
 27
1.0
 37
0.0
 76
     0
330
1F
331
29
  0
MATERIAL
  5
45
102
{ACAD_REACTORS
330
43
102
}
330
43
100
AcDbMaterial
  1
ByBlock
 72
     1
 94
      127
  0
MATERIAL
  5
44
102
{ACAD_REACTORS
330
43
102
}
330
43
100
AcDbMaterial
  1
ByLayer
 72
     1
 94
      127
  0
MATERIAL
  5
46
102
{ACAD_REACTORS
330
43
102
}
330
43
100
AcDbMaterial
  1
Global
 72
     1
 94
      127
  0
MLEADERSTYLE
  5
5C
102
{ACAD_REACTORS
330
5B
102
}
330
5B
100
AcDbMLeaderStyle
179
     2
170
     2
171
     1
172
     0
 90
        2
 40
0.0
 41
0.0
173
     1
 91
-1056964608
340
14
 92
       -2
290
     1
 42
2.0
291
     1
 43
8.0
  3
Standard
341
0
 44
4.0
300

342
11
174
     1
178
     6
175
     1
176
     0
 93
-1056964608
 45
4.0
292
     0
297
     0
 46
4.0
343
0
 94
-1056964608
 47
1.0
 49
1.0
140
1.0
293
     1
141
0.0
294
     1
177
     0
142
1.0
295
     0
296
     0
143
3.75
271
     0
272
     9
273
     9
298
     0
  0
MLINESTYLE
  5
18
102
{ACAD_REACTORS
330
17
102
}
330
17
100
AcDbMlineStyle
  2
Standard
 70
     0
  3

 62
   256
 51
90.0
 52
90.0
 71
     2
 49
0.5
 62
   256
  6
BYLAYER
 49
-0.5
 62
   256
  6
BYLAYER
  0
ACDBPLACEHOLDER
  5
F
102
{ACAD_REACTORS
330
E
102
}
330
E
  0
SCALE
  5
48
102
{ACAD_REACTORS
330
47
102
}
330
47
100
AcDbScale
 70
     0
300
1:1
140
1.0
141
1.0
290
     1
  0
SCALE
  5
49
102
{ACAD_REACTORS
330
47
102
}
330
47
100
AcDbScale
 70
     0
300
1:2
140
1.0
141
2.0
290
     0
  0
SCALE
  5
4A
102
{ACAD_REACTORS
330
47
102
}
330
47
100
AcDbScale
 70
     0
300
1:4
140
1.0
141
4.0
290
     0
  0
SCALE
  5
4B
102
{ACAD_REACTORS
330
47
102
}
330
47
100
AcDbScale
 70
     0
300
1:5
140
1.0
141
5.0
290
     0
  0
SCALE
  5
4C
102
{ACAD_REACTORS
330
47
102
}
330
47
100
AcDbScale
 70
     0
300
1:8
140
1.0
141
8.0
290
     0
  0
SCALE
  5
4D
102
{ACAD_REACTORS
330
47
102
}
330
47
100
AcDbScale
 70
     0
300
1:10
140
1.0
141
10.0
290
     0
  0
SCALE
  5
4E
102
{ACAD_REACTORS
330
47
102
}
330
47
100
AcDbScale
 70
     0
300
1:16
140
1.0
141
16.0
290
     0
  0
SCALE
  5
4F
102
{ACAD_REACTORS
330
47
102
}
330
47
100
AcDbScale
 70
     0
300
1:20
140
1.0
141
20.0
290
     0
  0
SCALE
  5
50
102
{ACAD_REACTORS
330
47
102
}
330
47
100
AcDbScale
 70
     0
300
1:30
140
1.0
141
30.0
290
     0
  0
SCALE
  5
51
102
{ACAD_REACTORS
330
47
102
}
330
47
100
AcDbScale
 70
     0
300
1:40
140
1.0
141
40.0
290
     0
  0
SCALE
  5
52
102
{ACAD_REACTORS
330
47
102
}
330
47
100
AcDbScale
 70
     0
300
1:50
140
1.0
141
50.0
290
     0
  0
SCALE
  5
53
102
{ACAD_REACTORS
330
47
102
}
330
47
100
AcDbScale
 70
     0
300
1:100
140
1.0
141
100.0
290
     0
  0
SCALE
  5
54
102
{ACAD_REACTORS
330
47
102
}
330
47
100
AcDbScale
 70
     0
300
2:1
140
2.0
141
1.0
290
     0
  0
SCALE
  5
55
102
{ACAD_REACTORS
330
47
102
}
330
47
100
AcDbScale
 70
     0
300
4:1
140
4.0
141
1.0
290
     0
  0
SCALE
  5
56
102
{ACAD_REACTORS
330
47
102
}
330
47
100
AcDbScale
 70
     0
300
8:1
140
8.0
141
1.0
290
     0
  0
SCALE
  5
57
102
{ACAD_REACTORS
330
47
102
}
330
47
100
AcDbScale
 70
     0
300
10:1
140
10.0
141
1.0
290
     0
  0
SCALE
  5
58
102
{ACAD_REACTORS
330
47
102
}
330
47
100
AcDbScale
 70
     0
300
100:1
140
100.0
141
1.0
290
     0
  0
TABLESTYLE
  5
5A
102
{ACAD_REACTORS
330
59
102
}
102
{ACAD_XDICTIONARY
360
AE
102
}
330
59
100
AcDbTableStyle
  3
Standard
 70
     0
 71
     0
 40
0.06
 41
0.06
280
     0
281
     0
  7
Standard
140
4.5
170
     2
 62
     0
 63
   257
283
     0
 90
        4
 91
        0
  1

274
    -2
284
     1
 64
     0
275
    -2
285
     1
 65
     0
276
    -2
286
     1
 66
     0
277
    -2
287
     1
 67
     0
278
    -2
288
     1
 68
     0
279
    -2
289
     1
 69
     0
  7
Standard
140
6.0
170
     5
 62
     0
 63
   257
283
     0
 90
        4
 91
        0
  1

274
    -2
284
     1
 64
     0
275
    -2
285
     1
 65
     0
276
    -2
286
     1
 66
     0
277
    -2
287
     1
 67
     0
278
    -2
288
     1
 68
     0
279
    -2
289
     1
 69
     0
  7
Standard
140
4.5
170
     5
 62
     0
 63
   257
283
     0
 90
        4
 91
        0
  1

274
    -2
284
     1
 64
     0
275
    -2
285
     1
 65
     0
276
    -2
286
     1
 66
     0
277
    -2
287
     1
 67
     0
278
    -2
288
     1
 68
     0
279
    -2
289
     1
 69
     0
  0
VISUALSTYLE
  5
2F
102
{ACAD_REACTORS
330
2A
102
}
330
2A
100
AcDbVisualStyle
  2
2dWireframe
 70
     4
177
     3
291
     0
 70
    58
 90
        0
176
     1
 90
        2
176
     1
 90
        0
176
     1
 90
        0
176
     1
 40
0.6
176
     1
 40
30.0
176
     1
 62
     7
420
 16777215
176
     1
 90
        1
176
     1
 90
        4
176
     1
 62
     7
176
     1
 62
   257
176
     1
 90
        1
176
     1
 90
        1
176
     1
 40
1.0
176
     1
 90
        0
176
     1
 62
   257
176
     1
 40
1.0
176
     1
 90
        1
176
     1
 90
        6
176
     1
 90
        2
176
     1
 62
     7
176
     1
 90
        5
176
     1
 90
        0
176
     1
 90
        0
176
     1
290
     0
176
     1
 90
        1
176
     1
 40
0.0
176
     1
 90
        0
176
     1
290
     1
176
     1
290
     1
176
     1
290
     0
176
     1
290
     0
176
     1
290
     0
176
     1
290
     0
176
     1
290
     0
176
     1
290
     0
176
     1
290
     0
176
     1
 90
       50
176
     1
 40
0.0
176
     1
 40
1.0
176
     1
 90
        0
176
     1
 62
    18
420
        0
176
     1
 90
       50
176
     1
 90
        3
176
     1
 62
     5
420
      255
176
     1
290
     0
176
     1
 90
       50
176
     1
 90
       50
176
     1
 90
       50
176
     1
290
     0
176
     1
 90
       50
176
     1
 62
   256
176
     0
 40
1.0
176
     0
 90
        2
176
     1
  1
strokes_ogs.tif
176
     1
290
     0
176
     1
 40
1.0
176
     1
 40
1.0
176
     1
  0
VISUALSTYLE
  5
32
102
{ACAD_REACTORS
330
2A
102
}
330
2A
100
AcDbVisualStyle
  2
Basic
 70
     7
177
     3
291
     1
 70
    58
 90
        1
176
     1
 90
        0
176
     1
 90
        1
176
     1
 90
        0
176
     1
 40
0.6
176
     1
 40
30.0
176
     1
 62
     7
420
 16777215
176
     1
 90
        0
176
     1
 90
        4
176
     1
 62
     7
176
     1
 62
   257
176
     1
 90
        1
176
     1
 90
        1
176
     1
 40
1.0
176
     1
 90
        8
176
     1
 62
     7
176
     1
 40
1.0
176
     1
 90
        1
176
     1
 90
        6
176
     1
 90
        2
176
     1
 62
     7
176
     1
 90
        5
176
     1
 90
        0
176
     1
 90
        0
176
     1
290
     0
176
     1
 90
        1
176
     1
 40
0.0
176
     1
 90
        0
176
     1
290
     0
176
     1
290
     1
176
     1
290
     1
176
     1
290
     0
176
     1
290
     0
176
     1
290
     0
176
     1
290
     0
176
     1
290
     0
176
     1
290
     0
176
     1
 90
       50
176
     1
 40
0.0
176
     1
 40
1.0
176
     1
 90
        0
176
     1
 62
    18
420
        0
176
     1
 90
       50
176
     1
 90
        3
176
     1
 62
     5
420
      255
176
     1
290
     0
176
     1
 90
       50
176
     1
 90
       50
176
     1
 90
       50
176
     1
290
     0
176
     1
 90
       50
176
     1
 62
   256
176
     0
 40
1.0
176
     0
 90
        2
176
     1
  1
strokes_ogs.tif
176
     1
290
     0
176
     1
 40
1.0
176
     1
 40
1.0
176
     1
  0
VISUALSTYLE
  5
36
102
{ACAD_REACTORS
330
2A
102
}
330
2A
100
AcDbVisualStyle
  2
Brighten
 70
    12
177
     3
291
     1
 70
    58
 90
        2
176
     1
 90
        2
176
     1
 90
        0
176
     1
 90
        0
176
     1
 40
0.6
176
     1
 40
30.0
176
     1
 62
     7
420
 16777215
176
     1
 90
        1
176
     1
 90
        4
176
     1
 62
     7
176
     1
 62
   257
176
     1
 90
        1
176
     1
 90
        1
176
     1
 40
1.0
176
     1
 90
        8
176
     1
 62
     7
176
     1
 40
1.0
176
     1
 90
        1
176
     1
 90
        6
176
     1
 90
        2
176
     1
 62
     7
176
     1
 90
        5
176
     1
 90
        0
176
     1
 90
        0
176
     1
290
     0
176
     1
 90
        1
176
     1
 40
50.0
176
     1
 90
        0
176
     1
290
     0
176
     1
290
     1
176
     1
290
     1
176
     1
290
     0
176
     1
290
     0
176
     1
290
     0
176
     1
290
     0
176
     1
290
     0
176
     1
290
     0
176
     1
 90
       50
176
     1
 40
0.0
176
     1
 40
1.0
176
     1
 90
        0
176
     1
 62
    18
420
        0
176
     1
 90
       50
176
     1
 90
        3
176
     1
 62
     5
420
      255
176
     1
290
     0
176
     1
 90
       50
176
     1
 90
       50
176
     1
 90
       50
176
     1
290
     0
176
     1
 90
       50
176
     1
 62
   256
176
     0
 40
1.0
176
     0
 90
        2
176
     1
  1
strokes_ogs.tif
176
     1
290
     0
176
     1
 40
1.0
176
     1
 40
1.0
176
     1
  0
VISUALSTYLE
  5
3A
102
{ACAD_REACTORS
330
2A
102
}
330
2A
100
AcDbVisualStyle
  2
ColorChange
 70
    16
177
     3
291
     1
 70
    58
 90
        2
176
     1
 90
        2
176
     1
 90
        3
176
     1
 90
        0
176
     1
 40
0.6
176
     1
 40
30.0
176
     1
 62
     8
420
  8421504
176
     1
 90
        1
176
     1
 90
        4
176
     1
 62
     7
176
     1
 62
   257
176
     1
 90
        1
176
     1
 90
        1
176
     1
 40
1.0
176
     1
 90
        8
176
     1
 62
     8
420
  8421504
176
     1
 40
1.0
176
     1
 90
        1
176
     1
 90
        6
176
     1
 90
        2
176
     1
 62
     7
176
     1
 90
        5
176
     1
 90
        0
176
     1
 90
        0
176
     1
290
     0
176
     1
 90
        1
176
     1
 40
0.0
176
     1
 90
        0
176
     1
290
     0
176
     1
290
     1
176
     1
290
     1
176
     1
290
     0
176
     1
290
     0
176
     1
290
     0
176
     1
290
     0
176
     1
290
     0
176
     1
290
     0
176
     1
 90
       50
176
     1
 40
0.0
176
     1
 40
1.0
176
     1
 90
        0
176
     1
 62
    18
420
        0
176
     1
 90
       50
176
     1
 90
        3
176
     1
 62
     5
420
      255
176
     1
290
     0
176
     1
 90
       50
176
     1
 90
       50
176
     1
 90
       50
176
     1
290
     0
176
     1
 90
       50
176
     1
 62
   256
176
     0
 40
1.0
176
     0
 90
        2
176
     1
  1
strokes_ogs.tif
176
     1
290
     0
176
     1
 40
1.0
176
     1
 40
1.0
176
     1
  0
VISUALSTYLE
  5
34
102
{ACAD_REACTORS
330
2A
102
}
330
2A
100
AcDbVisualStyle
  2
Conceptual
 70
     9
177
     3
291
     0
 70
    58
 90
        3
176
     1
 90
        2
176
     1
 90
        0
176
     1
 90
        0
176
     1
 40
0.6
176
     1
 40
30.0
176
     1
 62
     7
420
 16777215
176
     1
 90
        2
176
     1
 90
        2
176
     1
 62
     7
176
     1
 62
   257
176
     1
 90
        1
176
     1
 90
        1
176
     1
 40
179.0
176
     1
 90
        8
176
     1
 62
     7
176
     1
 40
1.0
176
     1
 90
        1
176
     1
 90
        6
176
     1
 90
        2
176
     1
 62
     7
176
     1
 90
        3
176
     1
 90
        0
176
     1
 90
        0
176
     1
290
     0
176
     1
 90
        1
176
     1
 40
0.0
176
     1
 90
        0
176
     1
290
     0
176
     1
290
     1
176
     1
290
     1
176
     1
290
     0
176
     1
290
     0
176
     1
290
     0
176
     1
290
     0
176
     1
290
     0
176
     1
290
     0
176
     1
 90
       50
176
     1
 40
0.0
176
     1
 40
1.0
176
     1
 90
        0
176
     1
 62
    18
420
        0
176
     1
 90
       50
176
     1
 90
        3
176
     1
 62
     5
420
      255
176
     1
290
     0
176
     1
 90
       50
176
     1
 90
       50
176
     1
 90
       50
176
     1
290
     0
176
     1
 90
       50
176
     1
 62
   256
176
     0
 40
1.0
176
     0
 90
        2
176
     1
  1
strokes_ogs.tif
176
     1
290
     0
176
     1
 40
1.0
176
     1
 40
1.0
176
     1
  0
VISUALSTYLE
  5
35
102
{ACAD_REACTORS
330
2A
102
}
330
2A
100
AcDbVisualStyle
  2
Dim
 70
    11
177
     3
291
     1
 70
    58
 90
        2
176
     1
 90
        2
176
     1
 90
        0
176
     1
 90
        0
176
     1
 40
0.6
176
     1
 40
30.0
176
     1
 62
     7
420
 16777215
176
     1
 90
        1
176
     1
 90
        4
176
     1
 62
     7
176
     1
 62
   257
176
     1
 90
        1
176
     1
 90
        1
176
     1
 40
1.0
176
     1
 90
        8
176
     1
 62
     7
176
     1
 40
1.0
176
     1
 90
        1
176
     1
 90
        6
176
     1
 90
        2
176
     1
 62
     7
176
     1
 90
        5
176
     1
 90
        0
176
     1
 90
        0
176
     1
290
     0
176
     1
 90
        1
176
     1
 40
-50.0
176
     1
 90
        0
176
     1
290
     0
176
     1
290
     1
176
     1
290
     1
176
     1
290
     0
176
     1
290
     0
176
     1
290
     0
176
     1
290
     0
176
     1
290
     0
176
     1
290
     0
176
     1
 90
       50
176
     1
 40
0.0
176
     1
 40
1.0
176
     1
 90
        0
176
     1
 62
    18
420
        0
176
     1
 90
       50
176
     1
 90
        3
176
     1
 62
     5
420
      255
176
     1
290
     0
176
     1
 90
       50
176
     1
 90
       50
176
     1
 90
       50
176
     1
290
     0
176
     1
 90
       50
176
     1
 62
   256
176
     0
 40
1.0
176
     0
 90
        2
176
     1
  1
strokes_ogs.tif
176
     1
290
     0
176
     1
 40
1.0
176
     1
 40
1.0
176
     1
  0
VISUALSTYLE
  5
3D
102
{ACAD_REACTORS
330
2A
102
}
330
2A
100
AcDbVisualStyle
  2
EdgeColorOff
 70
    22
177
     3
291
     1
 70
    58
 90
        2
176
     0
 90
        2
176
     0
 90
        0
176
     0
 90
        0
176
     0
 40
0.6
176
     0
 40
30.0
176
     0
 62
     7
420
 16777215
176
     0
 90
        1
176
     0
 90
        4
176
     0
 62
     7
176
     0
 62
   257
176
     0
 90
        1
176
     0
 90
        1
176
     0
 40
1.0
176
     0
 90
        8
176
     2
 62
     7
176
     0
 40
1.0
176
     0
 90
        1
176
     0
 90
        6
176
     0
 90
        2
176
     0
 62
     7
176
     0
 90
        5
176
     0
 90
        0
176
     0
 90
        0
176
     0
290
     0
176
     0
 90
        1
176
     0
 40
0.0
176
     0
 90
        0
176
     0
290
     0
176
     0
290
     1
176
     0
290
     1
176
     0
290
     0
176
     0
290
     0
176
     0
290
     0
176
     0
290
     0
176
     0
290
     0
176
     0
290
     0
176
     0
 90
       50
176
     0
 40
0.0
176
     0
 40
1.0
176
     0
 90
        0
176
     0
 62
    18
420
        0
176
     0
 90
       50
176
     0
 90
        3
176
     0
 62
     5
420
      255
176
     0
290
     0
176
     0
 90
       50
176
     0
 90
       50
176
     0
 90
       50
176
     0
290
     0
176
     0
 90
       50
176
     0
 62
   256
176
     0
 40
1.0
176
     0
 90
        2
176
     0
  1
strokes_ogs.tif
176
     0
290
     0
176
     0
 40
1.0
176
     0
 40
1.0
176
     0
  0
VISUALSTYLE
  5
39
102
{ACAD_REACTORS
330
2A
102
}
330
2A
100
AcDbVisualStyle
  2
Facepattern
 70
    15
177
     3
291
     1
 70
    58
 90
        2
176
     1
 90
        2
176
     1
 90
        0
176
     1
 90
        0
176
     1
 40
0.6
176
     1
 40
30.0
176
     1
 62
     7
420
 16777215
176
     1
 90
        1
176
     1
 90
        4
176
     1
 62
     7
176
     1
 62
   257
176
     1
 90
        1
176
     1
 90
        1
176
     1
 40
1.0
176
     1
 90
        8
176
     1
 62
     7
176
     1
 40
1.0
176
     1
 90
        1
176
     1
 90
        6
176
     1
 90
        2
176
     1
 62
     7
176
     1
 90
        5
176
     1
 90
        0
176
     1
 90
        0
176
     1
290
     0
176
     1
 90
        1
176
     1
 40
0.0
176
     1
 90
        0
176
     1
290
     0
176
     1
290
     1
176
     1
290
     1
176
     1
290
     0
176
     1
290
     0
176
     1
290
     0
176
     1
290
     0
176
     1
290
     0
176
     1
290
     0
176
     1
 90
       50
176
     1
 40
0.0
176
     1
 40
1.0
176
     1
 90
        0
176
     1
 62
    18
420
        0
176
     1
 90
       50
176
     1
 90
        3
176
     1
 62
     5
420
      255
176
     1
290
     0
176
     1
 90
       50
176
     1
 90
       50
176
     1
 90
       50
176
     1
290
     0
176
     1
 90
       50
176
     1
 62
   256
176
     0
 40
1.0
176
     0
 90
        2
176
     1
  1
strokes_ogs.tif
176
     1
290
     0
176
     1
 40
1.0
176
     1
 40
1.0
176
     1
  0
VISUALSTYLE
  5
2B
102
{ACAD_REACTORS
330
2A
102
}
330
2A
100
AcDbVisualStyle
  2
Flat
 70
     0
177
     3
291
     1
 70
    58
 90
        2
176
     1
 90
        1
176
     1
 90
        1
176
     1
 90
        2
176
     1
 40
0.6
176
     1
 40
30.0
176
     1
 62
     7
420
 16777215
176
     1
 90
        0
176
     1
 90
        0
176
     1
 62
     7
176
     1
 62
   257
176
     1
 90
        1
176
     1
 90
        1
176
     1
 40
1.0
176
     1
 90
        8
176
     1
 62
     7
176
     1
 40
1.0
176
     1
 90
        1
176
     1
 90
        6
176
     1
 90
        2
176
     1
 62
     7
176
     1
 90
        5
176
     1
 90
        0
176
     1
 90
        0
176
     1
290
     0
176
     1
 90
       13
176
     1
 40
0.0
176
     1
 90
        0
176
     1
290
     0
176
     1
290
     1
176
     1
290
     1
176
     1
290
     0
176
     1
290
     0
176
     1
290
     0
176
     1
290
     0
176
     1
290
     0
176
     1
290
     0
176
     1
 90
       50
176
     1
 40
0.0
176
     1
 40
1.0
176
     1
 90
        0
176
     1
 62
    18
420
        0
176
     1
 90
       50
176
     1
 90
        3
176
     1
 62
     5
420
      255
176
     1
290
     0
176
     1
 90
       50
176
     1
 90
       50
176
     1
 90
       50
176
     1
290
     0
176
     1
 90
       50
176
     1
 62
   256
176
     0
 40
1.0
176
     0
 90
        2
176
     1
  1
strokes_ogs.tif
176
     1
290
     0
176
     1
 40
1.0
176
     1
 40
1.0
176
     1
  0
VISUALSTYLE
  5
2C
102
{ACAD_REACTORS
330
2A
102
}
330
2A
100
AcDbVisualStyle
  2
FlatWithEdges
 70
     1
177
     3
291
     1
 70
    58
 90
        2
176
     1
 90
        1
176
     1
 90
        1
176
     1
 90
        2
176
     1
 40
0.6
176
     1
 40
30.0
176
     1
 62
     7
420
 16777215
176
     1
 90
        1
176
     1
 90
        0
176
     1
 62
     7
176
     1
 62
   257
176
     1
 90
        1
176
     1
 90
        1
176
     1
 40
1.0
176
     1
 90
        0
176
     1
 62
   257
176
     1
 40
1.0
176
     1
 90
        1
176
     1
 90
        6
176
     1
 90
        2
176
     1
 62
     7
176
     1
 90
        5
176
     1
 90
        0
176
     1
 90
        0
176
     1
290
     0
176
     1
 90
       13
176
     1
 40
0.0
176
     1
 90
        0
176
     1
290
     0
176
     1
290
     1
176
     1
290
     1
176
     1
290
     0
176
     1
290
     0
176
     1
290
     0
176
     1
290
     0
176
     1
290
     0
176
     1
290
     0
176
     1
 90
       50
176
     1
 40
0.0
176
     1
 40
1.0
176
     1
 90
        0
176
     1
 62
    18
420
        0
176
     1
 90
       50
176
     1
 90
        3
176
     1
 62
     5
420
      255
176
     1
290
     0
176
     1
 90
       50
176
     1
 90
       50
176
     1
 90
       50
176
     1
290
     0
176
     1
 90
       50
176
     1
 62
   256
176
     0
 40
1.0
176
     0
 90
        2
176
     1
  1
strokes_ogs.tif
176
     1
290
     0
176
     1
 40
1.0
176
     1
 40
1.0
176
     1
  0
VISUALSTYLE
  5
2D
102
{ACAD_REACTORS
330
2A
102
}
330
2A
100
AcDbVisualStyle
  2
Gouraud
 70
     2
177
     3
291
     1
 70
    58
 90
        2
176
     1
 90
        2
176
     1
 90
        1
176
     1
 90
        2
176
     1
 40
0.6
176
     1
 40
30.0
176
     1
 62
     7
420
 16777215
176
     1
 90
        0
176
     1
 90
        0
176
     1
 62
     7
176
     1
 62
   257
176
     1
 90
        1
176
     1
 90
        1
176
     1
 40
1.0
176
     1
 90
        0
176
     1
 62
     7
176
     1
 40
1.0
176
     1
 90
        1
176
     1
 90
        6
176
     1
 90
        2
176
     1
 62
     7
176
     1
 90
        5
176
     1
 90
        0
176
     1
 90
        0
176
     1
290
     0
176
     1
 90
       13
176
     1
 40
0.0
176
     1
 90
        0
176
     1
290
     0
176
     1
290
     1
176
     1
290
     1
176
     1
290
     0
176
     1
290
     0
176
     1
290
     0
176
     1
290
     0
176
     1
290
     0
176
     1
290
     0
176
     1
 90
       50
176
     1
 40
0.0
176
     1
 40
1.0
176
     1
 90
        0
176
     1
 62
    18
420
        0
176
     1
 90
       50
176
     1
 90
        3
176
     1
 62
     5
420
      255
176
     1
290
     0
176
     1
 90
       50
176
     1
 90
       50
176
     1
 90
       50
176
     1
290
     0
176
     1
 90
       50
176
     1
 62
   256
176
     0
 40
1.0
176
     0
 90
        2
176
     1
  1
strokes_ogs.tif
176
     1
290
     0
176
     1
 40
1.0
176
     1
 40
1.0
176
     1
  0
VISUALSTYLE
  5
2E
102
{ACAD_REACTORS
330
2A
102
}
330
2A
100
AcDbVisualStyle
  2
GouraudWithEdges
 70
     3
177
     3
291
     1
 70
    58
 90
        2
176
     1
 90
        2
176
     1
 90
        1
176
     1
 90
        2
176
     1
 40
0.6
176
     1
 40
30.0
176
     1
 62
     7
420
 16777215
176
     1
 90
        1
176
     1
 90
        0
176
     1
 62
     7
176
     1
 62
   257
176
     1
 90
        1
176
     1
 90
        1
176
     1
 40
1.0
176
     1
 90
        0
176
     1
 62
   257
176
     1
 40
1.0
176
     1
 90
        1
176
     1
 90
        6
176
     1
 90
        2
176
     1
 62
     7
176
     1
 90
        5
176
     1
 90
        0
176
     1
 90
        0
176
     1
290
     0
176
     1
 90
       13
176
     1
 40
0.0
176
     1
 90
        0
176
     1
290
     0
176
     1
290
     1
176
     1
290
     1
176
     1
290
     0
176
     1
290
     0
176
     1
290
     0
176
     1
290
     0
176
     1
290
     0
176
     1
290
     0
176
     1
 90
       50
176
     1
 40
0.0
176
     1
 40
1.0
176
     1
 90
        0
176
     1
 62
    18
420
        0
176
     1
 90
       50
176
     1
 90
        3
176
     1
 62
     5
420
      255
176
     1
290
     0
176
     1
 90
       50
176
     1
 90
       50
176
     1
 90
       50
176
     1
290
     0
176
     1
 90
       50
176
     1
 62
   256
176
     0
 40
1.0
176
     0
 90
        2
176
     1
  1
strokes_ogs.tif
176
     1
290
     0
176
     1
 40
1.0
176
     1
 40
1.0
176
     1
  0
VISUALSTYLE
  5
31
102
{ACAD_REACTORS
330
2A
102
}
330
2A
100
AcDbVisualStyle
  2
Hidden
 70
     6
177
     3
291
     0
 70
    58
 90
        1
176
     1
 90
        2
176
     1
 90
        2
176
     1
 90
        0
176
     1
 40
0.6
176
     1
 40
30.0
176
     1
 62
     7
420
 16777215
176
     1
 90
        2
176
     1
 90
        2
176
     1
 62
     7
176
     1
 62
   257
176
     1
 90
        2
176
     1
 90
        1
176
     1
 40
40.0
176
     1
 90
        0
176
     1
 62
   257
176
     1
 40
1.0
176
     1
 90
        1
176
     1
 90
        6
176
     1
 90
        2
176
     1
 62
     7
176
     1
 90
        3
176
     1
 90
        0
176
     1
 90
        0
176
     1
290
     0
176
     1
 90
        1
176
     1
 40
0.0
176
     1
 90
        0
176
     1
290
     0
176
     1
290
     1
176
     1
290
     1
176
     1
290
     0
176
     1
290
     0
176
     1
290
     0
176
     1
290
     0
176
     1
290
     0
176
     1
290
     0
176
     1
 90
       50
176
     1
 40
0.0
176
     1
 40
1.0
176
     1
 90
        0
176
     1
 62
    18
420
        0
176
     1
 90
       50
176
     1
 90
        3
176
     1
 62
     5
420
      255
176
     1
290
     0
176
     1
 90
       50
176
     1
 90
       50
176
     1
 90
       50
176
     1
290
     0
176
     1
 90
       50
176
     1
 62
   256
176
     0
 40
1.0
176
     0
 90
        2
176
     1
  1
strokes_ogs.tif
176
     1
290
     0
176
     1
 40
1.0
176
     1
 40
1.0
176
     1
  0
VISUALSTYLE
  5
3B
102
{ACAD_REACTORS
330
2A
102
}
330
2A
100
AcDbVisualStyle
  2
JitterOff
 70
    20
177
     3
291
     1
 70
    58
 90
        2
176
     0
 90
        2
176
     0
 90
        0
176
     0
 90
        0
176
     0
 40
0.6
176
     0
 40
30.0
176
     0
 62
     7
420
 16777215
176
     0
 90
        1
176
     0
 90
        4
176
     0
 62
     7
176
     0
 62
   257
176
     0
 90
        1
176
     0
 90
        1
176
     0
 40
1.0
176
     0
 90
       10
176
     2
 62
     7
176
     0
 40
1.0
176
     0
 90
        1
176
     0
 90
        6
176
     0
 90
        2
176
     0
 62
     7
176
     0
 90
        5
176
     0
 90
        0
176
     0
 90
        0
176
     0
290
     0
176
     0
 90
        1
176
     0
 40
0.0
176
     0
 90
        0
176
     0
290
     0
176
     0
290
     1
176
     0
290
     1
176
     0
290
     0
176
     0
290
     0
176
     0
290
     0
176
     0
290
     0
176
     0
290
     0
176
     0
290
     0
176
     0
 90
       50
176
     0
 40
0.0
176
     0
 40
1.0
176
     0
 90
        0
176
     0
 62
    18
420
        0
176
     0
 90
       50
176
     0
 90
        3
176
     0
 62
     5
420
      255
176
     0
290
     0
176
     0
 90
       50
176
     0
 90
       50
176
     0
 90
       50
176
     0
290
     0
176
     0
 90
       50
176
     0
 62
   256
176
     0
 40
1.0
176
     0
 90
        2
176
     0
  1
strokes_ogs.tif
176
     0
290
     0
176
     0
 40
1.0
176
     0
 40
1.0
176
     0
  0
VISUALSTYLE
  5
38
102
{ACAD_REACTORS
330
2A
102
}
330
2A
100
AcDbVisualStyle
  2
Linepattern
 70
    14
177
     3
291
     1
 70
    58
 90
        2
176
     1
 90
        2
176
     1
 90
        0
176
     1
 90
        0
176
     1
 40
0.6
176
     1
 40
30.0
176
     1
 62
     7
420
 16777215
176
     1
 90
        1
176
     1
 90
        4
176
     1
 62
     7
176
     1
 62
   257
176
     1
 90
        7
176
     1
 90
        7
176
     1
 40
1.0
176
     1
 90
        8
176
     1
 62
     7
176
     1
 40
1.0
176
     1
 90
        1
176
     1
 90
        6
176
     1
 90
        2
176
     1
 62
     7
176
     1
 90
        5
176
     1
 90
        0
176
     1
 90
        0
176
     1
290
     0
176
     1
 90
        1
176
     1
 40
0.0
176
     1
 90
        0
176
     1
290
     0
176
     1
290
     1
176
     1
290
     1
176
     1
290
     0
176
     1
290
     0
176
     1
290
     0
176
     1
290
     0
176
     1
290
     0
176
     1
290
     0
176
     1
 90
       50
176
     1
 40
0.0
176
     1
 40
1.0
176
     1
 90
        0
176
     1
 62
    18
420
        0
176
     1
 90
       50
176
     1
 90
        3
176
     1
 62
     5
420
      255
176
     1
290
     0
176
     1
 90
       50
176
     1
 90
       50
176
     1
 90
       50
176
     1
290
     0
176
     1
 90
       50
176
     1
 62
   256
176
     0
 40
1.0
176
     0
 90
        2
176
     1
  1
strokes_ogs.tif
176
     1
290
     0
176
     1
 40
1.0
176
     1
 40
1.0
176
     1
  0
VISUALSTYLE
  5
3C
102
{ACAD_REACTORS
330
2A
102
}
330
2A
100
AcDbVisualStyle
  2
OverhangOff
 70
    21
177
     3
291
     1
 70
    58
 90
        2
176
     0
 90
        2
176
     0
 90
        0
176
     0
 90
        0
176
     0
 40
0.6
176
     0
 40
30.0
176
     0
 62
     7
420
 16777215
176
     0
 90
        1
176
     0
 90
        4
176
     0
 62
     7
176
     0
 62
   257
176
     0
 90
        1
176
     0
 90
        1
176
     0
 40
1.0
176
     0
 90
        9
176
     2
 62
     7
176
     0
 40
1.0
176
     0
 90
        1
176
     0
 90
        6
176
     0
 90
        2
176
     0
 62
     7
176
     0
 90
        5
176
     0
 90
        0
176
     0
 90
        0
176
     0
290
     0
176
     0
 90
        1
176
     0
 40
0.0
176
     0
 90
        0
176
     0
290
     0
176
     0
290
     1
176
     0
290
     1
176
     0
290
     0
176
     0
290
     0
176
     0
290
     0
176
     0
290
     0
176
     0
290
     0
176
     0
290
     0
176
     0
 90
       50
176
     0
 40
0.0
176
     0
 40
1.0
176
     0
 90
        0
176
     0
 62
    18
420
        0
176
     0
 90
       50
176
     0
 90
        3
176
     0
 62
     5
420
      255
176
     0
290
     0
176
     0
 90
       50
176
     0
 90
       50
176
     0
 90
       50
176
     0
290
     0
176
     0
 90
       50
176
     0
 62
   256
176
     0
 40
1.0
176
     0
 90
        2
176
     0
  1
strokes_ogs.tif
176
     0
290
     0
176
     0
 40
1.0
176
     0
 40
1.0
176
     0
  0
VISUALSTYLE
  5
33
102
{ACAD_REACTORS
330
2A
102
}
330
2A
100
AcDbVisualStyle
  2
Realistic
 70
     8
177
     3
291
     0
 70
    58
 90
        2
176
     1
 90
        3
176
     1
 90
        0
176
     1
 90
        2
176
     1
 40
0.6
176
     1
 40
30.0
176
     1
 62
     7
420
 16777215
176
     1
 90
        0
176
     1
 90
        0
176
     1
 62
     7
176
     1
 62
   257
176
     1
 90
        1
176
     1
 90
        1
176
     1
 40
1.0
176
     1
 90
        8
176
     1
 62
   257
176
     1
 40
1.0
176
     1
 90
        1
176
     1
 90
        6
176
     1
 90
        2
176
     1
 62
     7
176
     1
 90
        3
176
     1
 90
        0
176
     1
 90
        0
176
     1
290
     0
176
     1
 90
       13
176
     1
 40
0.0
176
     1
 90
        0
176
     1
290
     0
176
     1
290
     1
176
     1
290
     1
176
     1
290
     0
176
     1
290
     0
176
     1
290
     0
176
     1
290
     0
176
     1
290
     0
176
     1
290
     0
176
     1
 90
       50
176
     1
 40
0.0
176
     1
 40
1.0
176
     1
 90
        0
176
     1
 62
    18
420
        0
176
     1
 90
       50
176
     1
 90
        3
176
     1
 62
     5
420
      255
176
     1
290
     0
176
     1
 90
       50
176
     1
 90
       50
176
     1
 90
       50
176
     1
290
     0
176
     1
 90
       50
176
     1
 62
   256
176
     0
 40
1.0
176
     0
 90
        2
176
     1
  1
strokes_ogs.tif
176
     1
290
     0
176
     1
 40
1.0
176
     1
 40
1.0
176
     1
  0
VISUALSTYLE
  5
42
102
{ACAD_REACTORS
330
2A
102
}
330
2A
100
AcDbVisualStyle
  2
Shaded
 70
    27
177
     3
291
     0
 70
    58
 90
        2
176
     1
 90
        2
176
     1
 90
        1
176
     1
 90
        2
176
     1
 40
0.6
176
     1
 40
30.0
176
     1
 62
     7
420
 16777215
176
     1
 90
        0
176
     1
 90
        4
176
     1
 62
     7
176
     1
 62
   257
176
     1
 90
        1
176
     1
 90
        1
176
     1
 40
1.0
176
     1
 90
        8
176
     1
 62
   257
176
     1
 40
1.0
176
     1
 90
        1
176
     1
 90
        6
176
     1
 90
        2
176
     1
 62
     8
420
  7895160
176
     1
 90
        3
176
     1
 90
        0
176
     1
 90
        0
176
     1
290
     0
176
     1
 90
        5
176
     1
 40
0.0
176
     1
 90
        0
176
     1
290
     0
176
     1
290
     1
176
     1
290
     1
176
     1
290
     0
176
     1
290
     0
176
     1
290
     0
176
     1
290
     0
176
     1
290
     0
176
     1
290
     0
176
     1
 90
       50
176
     1
 40
0.0
176
     1
 40
1.0
176
     1
 90
        0
176
     1
 62
    18
420
        0
176
     1
 90
       50
176
     1
 90
        3
176
     1
 62
     5
420
      255
176
     1
290
     0
176
     1
 90
       50
176
     1
 90
       50
176
     1
 90
       50
176
     1
290
     0
176
     1
 90
       50
176
     1
 62
   256
176
     0
 40
1.0
176
     0
 90
        2
176
     1
  1
strokes_ogs.tif
176
     1
290
     0
176
     1
 40
1.0
176
     1
 40
1.0
176
     1
  0
VISUALSTYLE
  5
41
102
{ACAD_REACTORS
330
2A
102
}
330
2A
100
AcDbVisualStyle
  2
Shaded with edges
 70
    26
177
     3
291
     0
 70
    58
 90
        2
176
     1
 90
        2
176
     1
 90
        1
176
     1
 90
        2
176
     1
 40
0.6
176
     1
 40
30.0
176
     1
 62
     7
420
 16777215
176
     1
 90
        1
176
     1
 90
       10
176
     1
 62
     7
176
     1
 62
   257
176
     1
 90
        2
176
     1
 90
        1
176
     1
 40
1.0
176
     1
 90
        8
176
     1
 62
   257
176
     1
 40
1.0
176
     1
 90
        1
176
     1
 90
        6
176
     1
 90
        2
176
     1
 62
     7
176
     1
 90
        3
176
     1
 90
        0
176
     1
 90
        0
176
     1
290
     0
176
     1
 90
        5
176
     1
 40
0.0
176
     1
 90
        0
176
     1
290
     0
176
     1
290
     1
176
     1
290
     1
176
     1
290
     0
176
     1
290
     0
176
     1
290
     0
176
     1
290
     0
176
     1
290
     0
176
     1
290
     0
176
     1
 90
       50
176
     1
 40
0.0
176
     1
 40
1.0
176
     1
 90
        0
176
     1
 62
    18
420
        0
176
     1
 90
       50
176
     1
 90
        3
176
     1
 62
     5
420
      255
176
     1
290
     0
176
     1
 90
       50
176
     1
 90
       50
176
     1
 90
       50
176
     1
290
     0
176
     1
 90
       50
176
     1
 62
   256
176
     0
 40
1.0
176
     0
 90
        2
176
     1
  1
strokes_ogs.tif
176
     1
290
     0
176
     1
 40
1.0
176
     1
 40
1.0
176
     1
  0
VISUALSTYLE
  5
3E
102
{ACAD_REACTORS
330
2A
102
}
330
2A
100
AcDbVisualStyle
  2
Shades of Gray
 70
    23
177
     3
291
     0
 70
    58
 90
        2
176
     1
 90
        2
176
     1
 90
        3
176
     1
 90
        0
176
     1
 40
0.6
176
     1
 40
30.0
176
     1
 62
     7
420
 16777215
176
     1
 90
        2
176
     1
 90
        2
176
     1
 62
     7
176
     1
 62
     7
176
     1
 90
        1
176
     1
 90
        1
176
     1
 40
40.0
176
     1
 90
        8
176
     1
 62
     7
176
     1
 40
1.0
176
     1
 90
        1
176
     1
 90
        6
176
     1
 90
        2
176
     1
 62
     7
176
     1
 90
        3
176
     1
 90
        0
176
     1
 90
        0
176
     1
290
     0
176
     1
 90
        1
176
     1
 40
0.0
176
     1
 90
        0
176
     1
290
     0
176
     1
290
     1
176
     1
290
     1
176
     1
290
     0
176
     1
290
     0
176
     1
290
     0
176
     1
290
     0
176
     1
290
     0
176
     1
290
     0
176
     1
 90
       50
176
     1
 40
0.0
176
     1
 40
1.0
176
     1
 90
        0
176
     1
 62
    18
420
        0
176
     1
 90
       50
176
     1
 90
        3
176
     1
 62
     5
420
      255
176
     1
290
     0
176
     1
 90
       50
176
     1
 90
       50
176
     1
 90
       50
176
     1
290
     0
176
     1
 90
       50
176
     1
 62
   256
176
     0
 40
1.0
176
     0
 90
        2
176
     1
  1
strokes_ogs.tif
176
     1
290
     0
176
     1
 40
1.0
176
     1
 40
1.0
176
     1
  0
VISUALSTYLE
  5
3F
102
{ACAD_REACTORS
330
2A
102
}
330
2A
100
AcDbVisualStyle
  2
Sketchy
 70
    24
177
     3
291
     0
 70
    58
 90
        1
176
     1
 90
        2
176
     1
 90
        2
176
     1
 90
        0
176
     1
 40
0.6
176
     1
 40
30.0
176
     1
 62
     7
420
 16777215
176
     1
 90
        2
176
     1
 90
        2
176
     1
 62
     7
176
     1
 62
     7
176
     1
 90
        1
176
     1
 90
        1
176
     1
 40
40.0
176
     1
 90
       11
176
     1
 62
     7
176
     1
 40
1.0
176
     1
 90
        1
176
     1
 90
        6
176
     1
 90
        2
176
     1
 62
     7
176
     1
 90
        6
176
     1
 90
        0
176
     1
 90
        0
176
     1
290
     0
176
     1
 90
        1
176
     1
 40
0.0
176
     1
 90
        0
176
     1
290
     0
176
     1
290
     1
176
     1
290
     1
176
     1
290
     0
176
     1
290
     0
176
     1
290
     0
176
     1
290
     0
176
     1
290
     0
176
     1
290
     0
176
     1
 90
       50
176
     1
 40
0.0
176
     1
 40
1.0
176
     1
 90
        0
176
     1
 62
    18
420
        0
176
     1
 90
       50
176
     1
 90
        3
176
     1
 62
     5
420
      255
176
     1
290
     0
176
     1
 90
       50
176
     1
 90
       50
176
     1
 90
       50
176
     1
290
     0
176
     1
 90
       50
176
     1
 62
   256
176
     0
 40
1.0
176
     0
 90
        2
176
     1
  1
strokes_ogs.tif
176
     1
290
     0
176
     1
 40
1.0
176
     1
 40
1.0
176
     1
  0
VISUALSTYLE
  5
37
102
{ACAD_REACTORS
330
2A
102
}
330
2A
100
AcDbVisualStyle
  2
Thicken
 70
    13
177
     3
291
     1
 70
    58
 90
        2
176
     1
 90
        2
176
     1
 90
        0
176
     1
 90
        0
176
     1
 40
0.6
176
     1
 40
30.0
176
     1
 62
     7
420
 16777215
176
     1
 90
        1
176
     1
 90
        4
176
     1
 62
     7
176
     1
 62
   257
176
     1
 90
        1
176
     1
 90
        1
176
     1
 40
1.0
176
     1
 90
       12
176
     1
 62
     7
176
     1
 40
1.0
176
     1
 90
        1
176
     1
 90
        6
176
     1
 90
        2
176
     1
 62
     7
176
     1
 90
        5
176
     1
 90
        0
176
     1
 90
        0
176
     1
290
     0
176
     1
 90
        1
176
     1
 40
0.0
176
     1
 90
        0
176
     1
290
     0
176
     1
290
     1
176
     1
290
     1
176
     1
290
     0
176
     1
290
     0
176
     1
290
     0
176
     1
290
     0
176
     1
290
     0
176
     1
290
     0
176
     1
 90
       50
176
     1
 40
0.0
176
     1
 40
1.0
176
     1
 90
        0
176
     1
 62
    18
420
        0
176
     1
 90
       50
176
     1
 90
        3
176
     1
 62
     5
420
      255
176
     1
290
     0
176
     1
 90
       50
176
     1
 90
       50
176
     1
 90
       50
176
     1
290
     0
176
     1
 90
       50
176
     1
 62
   256
176
     0
 40
1.0
176
     0
 90
        2
176
     1
  1
strokes_ogs.tif
176
     1
290
     0
176
     1
 40
1.0
176
     1
 40
1.0
176
     1
  0
VISUALSTYLE
  5
30
102
{ACAD_REACTORS
330
2A
102
}
330
2A
100
AcDbVisualStyle
  2
Wireframe
 70
     5
177
     3
291
     0
 70
    58
 90
        0
176
     1
 90
        2
176
     1
 90
        0
176
     1
 90
        0
176
     1
 40
0.6
176
     1
 40
30.0
176
     1
 62
     7
420
 16777215
176
     1
 90
        1
176
     1
 90
        4
176
     1
 62
     7
176
     1
 62
   257
176
     1
 90
        1
176
     1
 90
        1
176
     1
 40
1.0
176
     1
 90
        0
176
     1
 62
   257
176
     1
 40
1.0
176
     1
 90
        1
176
     1
 90
        6
176
     1
 90
        2
176
     1
 62
     7
176
     1
 90
        3
176
     1
 90
        0
176
     1
 90
        0
176
     1
290
     0
176
     1
 90
        1
176
     1
 40
0.0
176
     1
 90
        0
176
     1
290
     0
176
     1
290
     1
176
     1
290
     1
176
     1
290
     0
176
     1
290
     0
176
     1
290
     0
176
     1
290
     0
176
     1
290
     0
176
     1
290
     0
176
     1
 90
       50
176
     1
 40
0.0
176
     1
 40
1.0
176
     1
 90
        0
176
     1
 62
    18
420
        0
176
     1
 90
       50
176
     1
 90
        3
176
     1
 62
     5
420
      255
176
     1
290
     0
176
     1
 90
       50
176
     1
 90
       50
176
     1
 90
       50
176
     1
290
     0
176
     1
 90
       50
176
     1
 62
   256
176
     0
 40
1.0
176
     0
 90
        2
176
     1
  1
strokes_ogs.tif
176
     1
290
     0
176
     1
 40
1.0
176
     1
 40
1.0
176
     1
  0
VISUALSTYLE
  5
40
102
{ACAD_REACTORS
330
2A
102
}
330
2A
100
AcDbVisualStyle
  2
X-Ray
 70
    25
177
     3
291
     0
 70
    58
 90
        2
176
     1
 90
        2
176
     1
 90
        1
176
     1
 90
        1
176
     1
 40
0.5
176
     1
 40
30.0
176
     1
 62
     7
420
 16777215
176
     1
 90
        1
176
     1
 90
        0
176
     1
 62
     7
176
     1
 62
   257
176
     1
 90
        1
176
     1
 90
        1
176
     1
 40
1.0
176
     1
 90
        8
176
     1
 62
     7
176
     1
 40
1.0
176
     1
 90
        1
176
     1
 90
        6
176
     1
 90
        2
176
     1
 62
     7
176
     1
 90
        3
176
     1
 90
        0
176
     1
 90
        0
176
     1
290
     0
176
     1
 90
       13
176
     1
 40
0.0
176
     1
 90
        0
176
     1
290
     0
176
     1
290
     1
176
     1
290
     1
176
     1
290
     0
176
     1
290
     0
176
     1
290
     0
176
     1
290
     0
176
     1
290
     0
176
     1
290
     0
176
     1
 90
       50
176
     1
 40
0.0
176
     1
 40
1.0
176
     1
 90
        0
176
     1
 62
    18
420
        0
176
     1
 90
       50
176
     1
 90
        3
176
     1
 62
     5
420
      255
176
     1
290
     0
176
     1
 90
       50
176
     1
 90
       50
176
     1
 90
       50
176
     1
290
     0
176
     1
 90
       50
176
     1
 62
   256
176
     0
 40
1.0
176
     0
 90
        2
176
     1
  1
strokes_ogs.tif
176
     1
290
     0
176
     1
 40
1.0
176
     1
 40
1.0
176
     1
  0
DICTIONARYVAR
  5
AD
102
{ACAD_REACTORS
330
AC
102
}
330
AC
100
DictionaryVariables
280
     0
  1
1:1
  0
DICTIONARYVAR
  5
B5
102
{ACAD_REACTORS
330
AC
102
}
330
AC
100
DictionaryVariables
280
     0
  1
3.500000
  0
DICTIONARYVAR
  5
B6
102
{ACAD_REACTORS
330
AC
102
}
330
AC
100
DictionaryVariables
280
     0
  1
acadiso.lin
  0
DICTIONARYVAR
  5
B2
102
{ACAD_REACTORS
330
AC
102
}
330
AC
100
DictionaryVariables
280
     0
  1
Standard
  0
DICTIONARYVAR
  5
B1
102
{ACAD_REACTORS
330
AC
102
}
330
AC
100
DictionaryVariables
280
     0
  1
Standard
  0
DICTIONARY
  5
AE
330
5A
100
AcDbDictionary
280
     1
281
     1
  3
ACAD_ROUNDTRIP_2008_TABLESTYLE_CELLSTYLEMAP
360
AF
  0
CELLSTYLEMAP
  5
AF
102
{ACAD_REACTORS
330
AE
102
}
330
AE
100
AcDbCellStyleMap
 90
        3
300
CELLSTYLE
  1
TABLEFORMAT_BEGIN
 90
        5
170
     1
 91
        0
 92
    32768
 62
   257
 93
        1
300
CONTENTFORMAT
  1
CONTENTFORMAT_BEGIN
 90
        0
 91
        0
 92
        4
 93
        0
300

 40
0.0
140
1.0
 94
        5
 62
     0
340
11
144
6.0
309
CONTENTFORMAT_END
171
     1
301
MARGIN
  1
CELLMARGIN_BEGIN
 40
1.5
 40
1.5
 40
1.5
 40
1.5
 40
1.5
 40
1.5
309
CELLMARGIN_END
 94
        6
 95
        1
302
GRIDFORMAT
  1
GRIDFORMAT_BEGIN
 90
        0
 91
        1
 62
     0
 92
       -2
340
14
 93
        0
 40
0.045
309
GRIDFORMAT_END
 95
        2
302
GRIDFORMAT
  1
GRIDFORMAT_BEGIN
 90
        0
 91
        1
 62
     0
 92
       -2
340
14
 93
        0
 40
0.045
309
GRIDFORMAT_END
 95
        4
302
GRIDFORMAT
  1
GRIDFORMAT_BEGIN
 90
        0
 91
        1
 62
     0
 92
       -2
340
14
 93
        0
 40
0.045
309
GRIDFORMAT_END
 95
        8
302
GRIDFORMAT
  1
GRIDFORMAT_BEGIN
 90
        0
 91
        1
 62
     0
 92
       -2
340
14
 93
        0
 40
0.045
309
GRIDFORMAT_END
 95
       16
302
GRIDFORMAT
  1
GRIDFORMAT_BEGIN
 90
        0
 91
        1
 62
     0
 92
       -2
340
14
 93
        0
 40
0.045
309
GRIDFORMAT_END
 95
       32
302
GRIDFORMAT
  1
GRIDFORMAT_BEGIN
 90
        0
 91
        1
 62
     0
 92
       -2
340
14
 93
        0
 40
0.045
309
GRIDFORMAT_END
309
TABLEFORMAT_END
  1
CELLSTYLE_BEGIN
 90
        1
 91
        1
300
_TITLE
309
CELLSTYLE_END
300
CELLSTYLE
  1
TABLEFORMAT_BEGIN
 90
        5
170
     1
 91
        0
 92
        0
 62
   257
 93
        1
300
CONTENTFORMAT
  1
CONTENTFORMAT_BEGIN
 90
        0
 91
        0
 92
        4
 93
        0
300

 40
0.0
140
1.0
 94
        5
 62
     0
340
11
144
4.5
309
CONTENTFORMAT_END
171
     1
301
MARGIN
  1
CELLMARGIN_BEGIN
 40
1.5
 40
1.5
 40
1.5
 40
1.5
 40
1.5
 40
1.5
309
CELLMARGIN_END
 94
        6
 95
        1
302
GRIDFORMAT
  1
GRIDFORMAT_BEGIN
 90
        0
 91
        1
 62
     0
 92
       -2
340
14
 93
        0
 40
0.045
309
GRIDFORMAT_END
 95
        2
302
GRIDFORMAT
  1
GRIDFORMAT_BEGIN
 90
        0
 91
        1
 62
     0
 92
       -2
340
14
 93
        0
 40
0.045
309
GRIDFORMAT_END
 95
        4
302
GRIDFORMAT
  1
GRIDFORMAT_BEGIN
 90
        0
 91
        1
 62
     0
 92
       -2
340
14
 93
        0
 40
0.045
309
GRIDFORMAT_END
 95
        8
302
GRIDFORMAT
  1
GRIDFORMAT_BEGIN
 90
        0
 91
        1
 62
     0
 92
       -2
340
14
 93
        0
 40
0.045
309
GRIDFORMAT_END
 95
       16
302
GRIDFORMAT
  1
GRIDFORMAT_BEGIN
 90
        0
 91
        1
 62
     0
 92
       -2
340
14
 93
        0
 40
0.045
309
GRIDFORMAT_END
 95
       32
302
GRIDFORMAT
  1
GRIDFORMAT_BEGIN
 90
        0
 91
        1
 62
     0
 92
       -2
340
14
 93
        0
 40
0.045
309
GRIDFORMAT_END
309
TABLEFORMAT_END
  1
CELLSTYLE_BEGIN
 90
        2
 91
        1
300
_HEADER
309
CELLSTYLE_END
300
CELLSTYLE
  1
TABLEFORMAT_BEGIN
 90
        5
170
     1
 91
        0
 92
        0
 62
   257
 93
        1
300
CONTENTFORMAT
  1
CONTENTFORMAT_BEGIN
 90
        0
 91
        0
 92
        4
 93
        0
300

 40
0.0
140
1.0
 94
        2
 62
     0
340
11
144
4.5
309
CONTENTFORMAT_END
171
     1
301
MARGIN
  1
CELLMARGIN_BEGIN
 40
1.5
 40
1.5
 40
1.5
 40
1.5
 40
1.5
 40
1.5
309
CELLMARGIN_END
 94
        6
 95
        1
302
GRIDFORMAT
  1
GRIDFORMAT_BEGIN
 90
        0
 91
        1
 62
     0
 92
       -2
340
14
 93
        0
 40
0.045
309
GRIDFORMAT_END
 95
        2
302
GRIDFORMAT
  1
GRIDFORMAT_BEGIN
 90
        0
 91
        1
 62
     0
 92
       -2
340
14
 93
        0
 40
0.045
309
GRIDFORMAT_END
 95
        4
302
GRIDFORMAT
  1
GRIDFORMAT_BEGIN
 90
        0
 91
        1
 62
     0
 92
       -2
340
14
 93
        0
 40
0.045
309
GRIDFORMAT_END
 95
        8
302
GRIDFORMAT
  1
GRIDFORMAT_BEGIN
 90
        0
 91
        1
 62
     0
 92
       -2
340
14
 93
        0
 40
0.045
309
GRIDFORMAT_END
 95
       16
302
GRIDFORMAT
  1
GRIDFORMAT_BEGIN
 90
        0
 91
        1
 62
     0
 92
       -2
340
14
 93
        0
 40
0.045
309
GRIDFORMAT_END
 95
       32
302
GRIDFORMAT
  1
GRIDFORMAT_BEGIN
 90
        0
 91
        1
 62
     0
 92
       -2
340
14
 93
        0
 40
0.045
309
GRIDFORMAT_END
309
TABLEFORMAT_END
  1
CELLSTYLE_BEGIN
 90
        3
 91
        2
300
_DATA
309
CELLSTYLE_END
  0
ENDSEC
  0
EOF
