  0
SECTION
  2
HEADER
  9
$ACADVER
  1
AC1027
  9
$ACADMAINTVER
 70
   105
  9
$DWGCODEPAGE
  3
ANSI_932
  9
$LASTSAVEDBY
  1
a.yasuda
  9
$REQUIREDVERSIONS
160
                 0
  9
$INSBASE
 10
0.0
 20
0.0
 30
0.0
  9
$EXTMIN
 10
0.0
 20
0.0
 30
0.0
  9
$EXTMAX
 10
302.9997823349792
 20
216.0016055409748
 30
0.0
  9
$LIMMIN
 10
0.0
 20
0.0
  9
$LIMMAX
 10
302.9997823349792
 20
216.0016055409748
  9
$ORTHOMODE
 70
     0
  9
$REGENMODE
 70
     1
  9
$FILLMODE
 70
     1
  9
$QTEXTMODE
 70
     0
  9
$MIRRTEXT
 70
     1
  9
$LTSCALE
 40
1.0
  9
$ATTMODE
 70
     1
  9
$TEXTSIZE
 40
2.5
  9
$TRACEWID
 40
1.0
  9
$TEXTSTYLE
  7
Standard
  9
$CLAYER
  8
0
  9
$CELTYPE
  6
ByLayer
  9
$CECOLOR
 62
   256
  9
$CELTSCALE
 40
1.0
  9
$DISPSILH
 70
     0
  9
$DIMSCALE
 40
1.0
  9
$DIMASZ
 40
2.5
  9
$DIMEXO
 40
0.625
  9
$DIMDLI
 40
3.75
  9
$DIMRND
 40
0.0
  9
$DIMDLE
 40
0.0
  9
$DIMEXE
 40
1.25
  9
$DIMTP
 40
0.0
  9
$DIMTM
 40
0.0
  9
$DIMTXT
 40
2.5
  9
$DIMCEN
 40
2.5
  9
$DIMTSZ
 40
0.0
  9
$DIMTOL
 70
     0
  9
$DIMLIM
 70
     0
  9
$DIMTIH
 70
     0
  9
$DIMTOH
 70
     0
  9
$DIMSE1
 70
     0
  9
$DIMSE2
 70
     0
  9
$DIMTAD
 70
     1
  9
$DIMZIN
 70
     8
  9
$DIMBLK
  1

  9
$DIMASO
 70
     1
  9
$DIMSHO
 70
     1
  9
$DIMPOST
  1

  9
$DIMAPOST
  1

  9
$DIMALT
 70
     0
  9
$DIMALTD
 70
     3
  9
$DIMALTF
 40
0.03937007874016
  9
$DIMLFAC
 40
1.0
  9
$DIMTOFL
 70
     1
  9
$DIMTVP
 40
0.0
  9
$DIMTIX
 70
     0
  9
$DIMSOXD
 70
     0
  9
$DIMSAH
 70
     0
  9
$DIMBLK1
  1

  9
$DIMBLK2
  1

  9
$DIMSTYLE
  2
ISO-25
  9
$DIMCLRD
 70
     0
  9
$DIMCLRE
 70
     0
  9
$DIMCLRT
 70
     0
  9
$DIMTFAC
 40
1.0
  9
$DIMGAP
 40
0.625
  9
$DIMJUST
 70
     0
  9
$DIMSD1
 70
     0
  9
$DIMSD2
 70
     0
  9
$DIMTOLJ
 70
     0
  9
$DIMTZIN
 70
     8
  9
$DIMALTZ
 70
     0
  9
$DIMALTTZ
 70
     0
  9
$DIMUPT
 70
     0
  9
$DIMDEC
 70
     2
  9
$DIMTDEC
 70
     2
  9
$DIMALTU
 70
     2
  9
$DIMALTTD
 70
     3
  9
$DIMTXSTY
  7
Standard
  9
$DIMAUNIT
 70
     0
  9
$DIMADEC
 70
     0
  9
$DIMALTRND
 40
0.0
  9
$DIMAZIN
 70
     0
  9
$DIMDSEP
 70
    44
  9
$DIMATFIT
 70
     3
  9
$DIMFRAC
 70
     0
  9
$DIMLDRBLK
  1

  9
$DIMLUNIT
 70
     2
  9
$DIMLWD
 70
    -2
  9
$DIMLWE
 70
    -2
  9
$DIMTMOVE
 70
     0
  9
$DIMFXL
 40
1.0
  9
$DIMFXLON
 70
     0
  9
$DIMJOGANG
 40
0.7853981633974483
  9
$DIMTFILL
 70
     0
  9
$DIMTFILLCLR
 70
     0
  9
$DIMARCSYM
 70
     0
  9
$DIMLTYPE
  6

  9
$DIMLTEX1
  6

  9
$DIMLTEX2
  6

  9
$DIMTXTDIRECTION
 70
     0
  9
$LUNITS
 70
     2
  9
$LUPREC
 70
     4
  9
$SKETCHINC
 40
1.0
  9
$FILLETRAD
 40
0.0
  9
$AUNITS
 70
     0
  9
$AUPREC
 70
     0
  9
$MENU
  1
.
  9
$ELEVATION
 40
0.0
  9
$PELEVATION
 40
0.0
  9
$THICKNESS
 40
0.0
  9
$LIMCHECK
 70
     0
  9
$CHAMFERA
 40
0.0
  9
$CHAMFERB
 40
0.0
  9
$CHAMFERC
 40
0.0
  9
$CHAMFERD
 40
0.0
  9
$SKPOLY
 70
     0
  9
$TDCREATE
 40
2459866.621292454
  9
$TDUCREATE
 40
2459866.246292454
  9
$TDUPDATE
 40
2459866.621292523
  9
$TDUUPDATE
 40
2459866.246292523
  9
$TDINDWG
 40
0.0000000116
  9
$TDUSRTIMER
 40
0.0000000116
  9
$USRTIMER
 70
     1
  9
$ANGBASE
 50
0.0
  9
$ANGDIR
 70
     0
  9
$PDMODE
 70
     0
  9
$PDSIZE
 40
0.0
  9
$PLINEWID
 40
0.0
  9
$SPLFRAME
 70
     0
  9
$SPLINETYPE
 70
     6
  9
$SPLINESEGS
 70
     8
  9
$HANDSEED
  5
A7
  9
$SURFTAB1
 70
     6
  9
$SURFTAB2
 70
     6
  9
$SURFTYPE
 70
     6
  9
$SURFU
 70
     6
  9
$SURFV
 70
     6
  9
$UCSBASE
  2

  9
$UCSNAME
  2

  9
$UCSORG
 10
0.0
 20
0.0
 30
0.0
  9
$UCSXDIR
 10
1.0
 20
0.0
 30
0.0
  9
$UCSYDIR
 10
0.0
 20
1.0
 30
0.0
  9
$UCSORTHOREF
  2

  9
$UCSORTHOVIEW
 70
     0
  9
$UCSORGTOP
 10
0.0
 20
0.0
 30
0.0
  9
$UCSORGBOTTOM
 10
0.0
 20
0.0
 30
0.0
  9
$UCSORGLEFT
 10
0.0
 20
0.0
 30
0.0
  9
$UCSORGRIGHT
 10
0.0
 20
0.0
 30
0.0
  9
$UCSORGFRONT
 10
0.0
 20
0.0
 30
0.0
  9
$UCSORGBACK
 10
0.0
 20
0.0
 30
0.0
  9
$PUCSBASE
  2

  9
$PUCSNAME
  2

  9
$PUCSORG
 10
0.0
 20
0.0
 30
0.0
  9
$PUCSXDIR
 10
1.0
 20
0.0
 30
0.0
  9
$PUCSYDIR
 10
0.0
 20
1.0
 30
0.0
  9
$PUCSORTHOREF
  2

  9
$PUCSORTHOVIEW
 70
     0
  9
$PUCSORGTOP
 10
0.0
 20
0.0
 30
0.0
  9
$PUCSORGBOTTOM
 10
0.0
 20
0.0
 30
0.0
  9
$PUCSORGLEFT
 10
0.0
 20
0.0
 30
0.0
  9
$PUCSORGRIGHT
 10
0.0
 20
0.0
 30
0.0
  9
$PUCSORGFRONT
 10
0.0
 20
0.0
 30
0.0
  9
$PUCSORGBACK
 10
0.0
 20
0.0
 30
0.0
  9
$USERI1
 70
     0
  9
$USERI2
 70
     0
  9
$USERI3
 70
     0
  9
$USERI4
 70
     0
  9
$USERI5
 70
     0
  9
$USERR1
 40
0.0
  9
$USERR2
 40
0.0
  9
$USERR3
 40
0.0
  9
$USERR4
 40
0.0
  9
$USERR5
 40
0.0
  9
$WORLDVIEW
 70
     1
  9
$SHADEDGE
 70
     3
  9
$SHADEDIF
 70
    70
  9
$TILEMODE
 70
     1
  9
$MAXACTVP
 70
    64
  9
$PINSBASE
 10
0.0
 20
0.0
 30
0.0
  9
$PLIMCHECK
 70
     0
  9
$PEXTMIN
 10
1.000000000000000E+20
 20
1.000000000000000E+20
 30
1.000000000000000E+20
  9
$PEXTMAX
 10
-1.000000000000000E+20
 20
-1.000000000000000E+20
 30
-1.000000000000000E+20
  9
$PLIMMIN
 10
0.0
 20
0.0
  9
$PLIMMAX
 10
420.0
 20
297.0
  9
$UNITMODE
 70
     0
  9
$VISRETAIN
 70
     1
  9
$PLINEGEN
 70
     0
  9
$PSLTSCALE
 70
     1
  9
$TREEDEPTH
 70
  3020
  9
$CMLSTYLE
  2
Standard
  9
$CMLJUST
 70
     0
  9
$CMLSCALE
 40
20.0
  9
$PROXYGRAPHICS
 70
     1
  9
$MEASUREMENT
 70
     1
  9
$CELWEIGHT
370
    -1
  9
$ENDCAPS
280
     0
  9
$JOINSTYLE
280
     0
  9
$LWDISPLAY
290
     0
  9
$INSUNITS
 70
     4
  9
$HYPERLINKBASE
  1

  9
$STYLESHEET
  1

  9
$XEDIT
290
     1
  9
$CEPSNTYPE
380
     0
  9
$PSTYLEMODE
290
     1
  9
$FINGERPRINTGUID
  2
{0153dc71-f64a-4b95-88e0-ee573262fa40}
  9
$VERSIONGUID
  2
{FAEB1C32-E019-11D5-929B-00C0DF256EC4}
  9
$EXTNAMES
290
     1
  9
$PSVPSCALE
 40
0.0
  9
$OLESTARTUP
290
     0
  9
$SORTENTS
280
   127
  9
$INDEXCTL
280
     0
  9
$HIDETEXT
280
     1
  9
$XCLIPFRAME
280
     2
  9
$HALOGAP
280
     0
  9
$OBSCOLOR
 70
   257
  9
$OBSLTYPE
280
     0
  9
$INTERSECTIONDISPLAY
280
     0
  9
$INTERSECTIONCOLOR
 70
   257
  9
$DIMASSOC
280
     2
  9
$PROJECTNAME
  1

  9
$CAMERADISPLAY
290
     0
  9
$LENSLENGTH
 40
50.0
  9
$CAMERAHEIGHT
 40
0.0
  9
$STEPSPERSEC
 40
2.0
  9
$STEPSIZE
 40
6.0
  9
$3DDWFPREC
 40
2.0
  9
$PSOLWIDTH
 40
5.0
  9
$PSOLHEIGHT
 40
80.0
  9
$LOFTANG1
 40
1.570796326794897
  9
$LOFTANG2
 40
1.570796326794897
  9
$LOFTMAG1
 40
0.0
  9
$LOFTMAG2
 40
0.0
  9
$LOFTPARAM
 70
     7
  9
$LOFTNORMALS
280
     1
  9
$LATITUDE
 40
37.795
  9
$LONGITUDE
 40
-122.394
  9
$NORTHDIRECTION
 40
0.0
  9
$TIMEZONE
 70
 -8000
  9
$LIGHTGLYPHDISPLAY
280
     1
  9
$TILEMODELIGHTSYNCH
280
     1
  9
$CMATERIAL
347
44
  9
$SOLIDHIST
280
     0
  9
$SHOWHIST
280
     1
  9
$DWFFRAME
280
     2
  9
$DGNFRAME
280
     2
  9
$REALWORLDSCALE
290
     1
  9
$INTERFERECOLOR
 62
   256
  9
$CSHADOW
280
     0
  9
$SHADOWPLANELOCATION
 40
0.0
  0
ENDSEC
  0
SECTION
  2
CLASSES
  0
CLASS
  1
ACDBDICTIONARYWDFLT
  2
AcDbDictionaryWithDefault
  3
ObjectDBX Classes
 90
        0
 91
        3
280
     0
281
     0
  0
CLASS
  1
VISUALSTYLE
  2
AcDbVisualStyle
  3
ObjectDBX Classes
 90
     4095
 91
        3
280
     0
281
     0
  0
CLASS
  1
MATERIAL
  2
AcDbMaterial
  3
ObjectDBX Classes
 90
     1153
 91
        3
280
     0
281
     0
  0
CLASS
  1
SCALE
  2
AcDbScale
  3
ObjectDBX Classes
 90
     1153
 91
        3
280
     0
281
     0
  0
CLASS
  1
TABLESTYLE
  2
AcDbTableStyle
  3
ObjectDBX Classes
 90
     4095
 91
        3
280
     0
281
     0
  0
CLASS
  1
MLEADERSTYLE
  2
AcDbMLeaderStyle
  3
ACDB_MLEADERSTYLE_CLASS
 90
     4095
 91
        3
280
     0
281
     0
  0
CLASS
  1
SUN
  2
AcDbSun
  3
SCENEOE
 90
     1153
 91
        3
280
     0
281
     0
  0
CLASS
  1
DICTIONARYVAR
  2
AcDbDictionaryVar
  3
ObjectDBX Classes
 90
        0
 91
        3
280
     0
281
     0
  0
CLASS
  1
CELLSTYLEMAP
  2
AcDbCellStyleMap
  3
ObjectDBX Classes
 90
     1152
 91
        3
280
     0
281
     0
  0
ENDSEC
  0
SECTION
  2
TABLES
  0
TABLE
  2
VPORT
  5
8
330
0
100
AcDbSymbolTable
 70
     1
  0
VPORT
  5
29
330
8
100
AcDbSymbolTableRecord
100
AcDbViewportTableRecord
  2
*Active
 70
     0
 10
0.0
 20
0.0
 11
1.0
 21
1.0
 12
151.4998911674896
 22
108.0008027704874
 13
0.0
 23
0.0
 14
10.0
 24
10.0
 15
10.0
 25
10.0
 16
0.0
 26
0.0
 36
1.0
 17
0.0
 27
0.0
 37
0.0
 40
237.6017660950723
 41
1.402766343222857
 42
50.0
 43
0.0
 44
0.0
 50
0.0
 51
0.0
 71
     0
 72
 10000
 73
     1
 74
     3
 75
     0
 76
     0
 77
     0
 78
     0
281
     0
 65
     1
110
0.0
120
0.0
130
0.0
111
1.0
121
0.0
131
0.0
112
0.0
122
1.0
132
0.0
 79
     0
146
0.0
348
2F
 60
     3
 61
     5
292
     1
282
     1
141
0.0
142
0.0
 63
   250
361
5D
  0
ENDTAB
  0
TABLE
  2
LTYPE
  5
5
330
0
100
AcDbSymbolTable
 70
     2
  0
LTYPE
  5
14
330
5
100
AcDbSymbolTableRecord
100
AcDbLinetypeTableRecord
  2
ByBlock
 70
     0
  3

 72
    65
 73
     0
 40
0.0
  0
LTYPE
  5
15
330
5
100
AcDbSymbolTableRecord
100
AcDbLinetypeTableRecord
  2
ByLayer
 70
     0
  3

 72
    65
 73
     0
 40
0.0
  0
LTYPE
  5
16
330
5
100
AcDbSymbolTableRecord
100
AcDbLinetypeTableRecord
  2
Continuous
 70
     0
  3
Solid line
 72
    65
 73
     0
 40
0.0
  0
LTYPE
  5
5F
330
5
100
AcDbSymbolTableRecord
100
AcDbLinetypeTableRecord
  2
UserDefined01
 70
     0
  3
----------------                
 72
    65
 73
     2
 40
0.7055555449591743
 49
0.3527777724795871
 74
     0
 49
-0.3527777724795871
 74
     0
  0
ENDTAB
  0
TABLE
  2
LAYER
  5
2
330
0
100
AcDbSymbolTable
 70
     3
  0
LAYER
  5
10
330
2
100
AcDbSymbolTableRecord
100
AcDbLayerTableRecord
  2
0
 70
     0
 62
     7
  6
Continuous
370
    -3
390
F
347
46
348
0
  0
LAYER
  5
60
330
2
100
AcDbSymbolTableRecord
100
AcDbLayerTableRecord
  2
外枠
 70
     0
 62
     7
  6
Continuous
370
    -3
390
F
347
46
348
0
  0
LAYER
  5
61
330
2
100
AcDbSymbolTableRecord
100
AcDbLayerTableRecord
  2
ISS138金台
 70
     0
 62
     7
  6
Continuous
370
    -3
390
F
347
46
348
0
  0
ENDTAB
  0
TABLE
  2
STYLE
  5
3
330
0
100
AcDbSymbolTable
 70
     2
  0
STYLE
  5
11
330
3
100
AcDbSymbolTableRecord
100
AcDbTextStyleTableRecord
  2
Standard
 70
     0
 40
0.0
 41
1.0
 50
0.0
 71
     0
 42
2.5
  3

  4

  0
STYLE
  5
5E
330
3
100
AcDbSymbolTableRecord
100
AcDbTextStyleTableRecord
  2
MS Gothic
 70
     0
 40
1.0
 41
1.0
 50
0.0
 71
     0
 42
2.5
  3
msgothic.ttc
  4

1001
ACAD
1000
MS Gothic
1071
    32817
  0
ENDTAB
  0
TABLE
  2
VIEW
  5
6
330
0
100
AcDbSymbolTable
 70
     0
  0
ENDTAB
  0
TABLE
  2
UCS
  5
7
330
0
100
AcDbSymbolTable
 70
     0
  0
ENDTAB
  0
TABLE
  2
APPID
  5
9
330
0
100
AcDbSymbolTable
 70
     1
  0
APPID
  5
12
330
9
100
AcDbSymbolTableRecord
100
AcDbRegAppTableRecord
  2
ACAD
 70
     0
  0
ENDTAB
  0
TABLE
  2
DIMSTYLE
  5
A
330
0
100
AcDbSymbolTable
 70
     1
100
AcDbDimStyleTable
  0
DIMSTYLE
105
27
330
A
100
AcDbSymbolTableRecord
100
AcDbDimStyleTableRecord
  2
ISO-25
 70
     0
 41
2.5
 42
0.625
 43
3.75
 44
1.25
 73
     0
 74
     0
 77
     1
 78
     8
140
2.5
141
2.5
143
0.03937007874016
147
0.625
171
     3
172
     1
178
     0
271
     2
272
     2
274
     3
278
    44
283
     0
284
     8
340
11
  0
ENDTAB
  0
TABLE
  2
BLOCK_RECORD
  5
1
330
0
100
AcDbSymbolTable
 70
     1
  0
BLOCK_RECORD
  5
1F
330
1
100
AcDbSymbolTableRecord
100
AcDbBlockTableRecord
  2
*Model_Space
340
22
 70
     0
280
     1
281
     0
  0
BLOCK_RECORD
  5
1B
330
1
100
AcDbSymbolTableRecord
100
AcDbBlockTableRecord
  2
*Paper_Space
340
1E
 70
     0
280
     1
281
     0
  0
BLOCK_RECORD
  5
23
330
1
100
AcDbSymbolTableRecord
100
AcDbBlockTableRecord
  2
*Paper_Space0
340
26
 70
     0
280
     1
281
     0
  0
ENDTAB
  0
ENDSEC
  0
SECTION
  2
BLOCKS
  0
BLOCK
  5
20
330
1F
100
AcDbEntity
  8
0
100
AcDbBlockBegin
  2
*Model_Space
 70
     0
 10
0.0
 20
0.0
 30
0.0
  3
*Model_Space
  1

  0
ENDBLK
  5
21
330
1F
100
AcDbEntity
  8
0
100
AcDbBlockEnd
  0
BLOCK
  5
1C
330
1B
100
AcDbEntity
 67
     1
  8
0
100
AcDbBlockBegin
  2
*Paper_Space
 70
     0
 10
0.0
 20
0.0
 30
0.0
  3
*Paper_Space
  1

  0
ENDBLK
  5
1D
330
1B
100
AcDbEntity
 67
     1
  8
0
100
AcDbBlockEnd
  0
BLOCK
  5
24
330
23
100
AcDbEntity
  8
0
100
AcDbBlockBegin
  2
*Paper_Space0
 70
     0
 10
0.0
 20
0.0
 30
0.0
  3
*Paper_Space0
  1

  0
ENDBLK
  5
25
330
23
100
AcDbEntity
  8
0
100
AcDbBlockEnd
  0
ENDSEC
  0
SECTION
  2
ENTITIES
  0
LWPOLYLINE
  5
62
330
1F
100
AcDbEntity
  8
外枠
  6
Continuous
 62
   250
420
  2367521
370
   100
100
AcDbPolyline
 90
        5
 70
     0
 43
0.0
 10
281.9999662644599
 20
13.29407825637392
 10
20.99981607051935
 20
13.29407825637392
 10
20.99981607051935
 20
193.0018900389566
 10
281.9999662644599
 20
193.0018900389566
 10
281.9999662644599
 20
13.29407825637392
  0
LINE
  5
63
330
1F
100
AcDbEntity
  8
外枠
  6
Continuous
 62
   250
420
  2367521
370
    25
100
AcDbLine
 10
223.3097080177524
 20
174.0786160074276
 30
0.0
 11
281.9999232007669
 21
174.0786160074276
 31
0.0
  0
LINE
  5
64
330
1F
100
AcDbEntity
  8
外枠
  6
Continuous
 62
   250
420
  2367521
370
    25
100
AcDbLine
 10
223.3097080177524
 20
50.37109023844297
 30
0.0
 11
281.9999232007669
 21
50.37109023844297
 31
0.0
  0
LINE
  5
65
330
1F
100
AcDbEntity
  8
外枠
  6
Continuous
 62
   250
420
  2367521
370
    25
100
AcDbLine
 10
223.3097080177524
 20
36.25997933925949
 30
0.0
 11
281.9999232007669
 21
36.25997933925949
 31
0.0
  0
LINE
  5
66
330
1F
100
AcDbEntity
  8
外枠
  6
Continuous
 62
   250
420
  2367521
370
    50
100
AcDbLine
 10
223.0158413772006
 20
193.3637327187979
 30
0.0
 11
223.0158413772006
 21
13.29396655992039
 31
0.0
  0
TEXT
  5
67
330
1F
100
AcDbEntity
  8
外枠
  6
Continuous
 62
   250
420
  2367521
100
AcDbText
 10
224.7190965599536
 20
186.6888051931772
 30
0.0
 40
2.688166626294454
  1
品名：
 41
0.974166170756022
  7
MS Gothic
100
AcDbText
  0
TEXT
  5
68
330
1F
100
AcDbEntity
  8
外枠
  6
Continuous
 62
   250
420
  2367521
100
AcDbText
 10
224.7190965599536
 20
168.1080059455944
 30
0.0
 40
2.688166626294454
  1
仕様：
 41
0.9978878657023111
  7
MS Gothic
100
AcDbText
  0
TEXT
  5
69
330
1F
100
AcDbEntity
  8
外枠
  6
Continuous
 62
   250
420
  2367521
100
AcDbText
 10
224.7190965599536
 20
44.16660664327048
 30
0.0
 40
2.688166626294454
  1
縮尺：
 41
0.9939999262491861
  7
MS Gothic
100
AcDbText
  0
TEXT
  5
6A
330
1F
100
AcDbEntity
  8
外枠
  6
Continuous
 62
   250
420
  2367521
100
AcDbText
 10
250.2379519709696
 20
40.59738467878129
 30
0.0
 40
2.150533301035563
  1
1/1
 41
1.000003814697266
  7
MS Gothic
100
AcDbText
  0
TEXT
  5
6B
330
1F
100
AcDbEntity
  8
外枠
  6
Continuous
 62
   250
420
  2367521
100
AcDbText
 10
232.7757967427735
 20
181.9845273775436
 30
0.0
 40
2.688166626294454
  1
エッジカバー　EST-25
 41
1.012350006103515
  7
MS Gothic
100
AcDbText
  0
TEXT
  5
6C
330
1F
100
AcDbEntity
  8
外枠
  6
Continuous
 62
   250
420
  2367521
100
AcDbText
 10
226.1633020978884
 20
24.25683874973963
 30
0.0
 40
2.553758294979732
  1
ヤスダインテリアサプライ株式会社
 41
1.0194908945184
  7
MS Gothic
100
AcDbText
  0
TEXT
  5
6D
330
1F
100
AcDbEntity
  8
外枠
  6
Continuous
 62
   250
420
  2367521
100
AcDbText
 10
227.7635273953072
 20
161.7763665048245
 30
0.0
 40
2.150533301035563
  1
材質
 41
1.028502464294433
  7
MS Gothic
100
AcDbText
  0
TEXT
  5
6E
330
1F
100
AcDbEntity
  8
外枠
  6
Continuous
 62
   250
420
  2367521
100
AcDbText
 10
232.7757967427735
 20
156.199681315683
 30
0.0
 40
2.016124969720841
  1
 ステンレスSUS304（18.8CR）/HL仕上
 41
1.066277118757659
  7
MS Gothic
100
AcDbText
  0
LWPOLYLINE
  5
6F
330
1F
100
AcDbEntity
  8
ISS138金台
  6
Continuous
 62
   250
420
  2367521
370
   100
100
AcDbPolyline
 90
       36
 70
     0
 43
0.0
 10
115.1502693684354
 20
107.1217866704076
 10
110.0215880930571
 20
107.1217866704076
 10
109.919301056426
 20
107.1181154905854
 10
109.8221385992535
 20
107.1071773125813
 10
109.7303160400043
 20
107.089144391167
 10
109.6440163993733
 20
107.0641459174213
 10
109.5634442299019
 20
107.0323003164999
 10
109.4888148500549
 20
106.9937798431743
 10
109.4203220464503
 20
106.948692156677
 10
109.358191903476
 20
106.8971987458564
 10
109.3025966759039
 20
106.8394288017913
 10
109.2537516821984
 20
106.7755330474069
 10
109.2118614749011
 20
106.7056406737821
 10
109.1771306065534
 20
106.6299024038421
 10
109.1497743956198
 20
106.5484581945889
 10
109.1299758627954
 20
106.4614372371014
 10
109.1179503265448
 20
106.3689794883814
 10
109.1138915734862
 20
106.2712356713544
 10
109.1138915734862
 20
104.82450014146
 10
109.1171536482256
 20
104.7316655854269
 10
109.1298897354096
 20
104.6422438270586
 10
109.1515400070299
 20
104.556568609975
 10
109.181512337309
 20
104.475038273336
 10
109.2192899619315
 20
104.3980188585313
 10
109.2642699891965
 20
104.3259087047206
 10
109.3159248888656
 20
104.2590738532939
 10
109.373662535161
 20
104.1978803456408
 10
109.4369446319211
 20
104.1427049890747
 10
109.5052005852146
 20
104.0939461227552
 10
109.5778705670333
 20
104.051969788072
 10
109.6543839834461
 20
104.0171527923384
 10
109.7341917723679
 20
103.9898719428675
 10
109.8167233398676
 20
103.9705040469724
 10
109.9014188579369
 20
103.9594259119662
 10
109.9877184985679
 20
103.9570143451622
 10
134.0842016639646
 20
103.9570143451622
  0
LWPOLYLINE
  5
70
330
1F
100
AcDbEntity
  8
ISS138金台
  6
Continuous
 62
     7
420
 16777215
370
    53
100
AcDbPolyline
 90
       36
 70
     0
 43
0.0
 10
115.1502693684354
 20
107.1217866704076
 10
110.0215880930571
 20
107.1217866704076
 10
109.919301056426
 20
107.1181154905854
 10
109.8221385992535
 20
107.1071773125813
 10
109.7303160400043
 20
107.089144391167
 10
109.6440163993733
 20
107.0641459174213
 10
109.5634442299019
 20
107.0323003164999
 10
109.4888148500549
 20
106.9937798431743
 10
109.4203220464503
 20
106.948692156677
 10
109.358191903476
 20
106.8971987458564
 10
109.3025966759039
 20
106.8394288017913
 10
109.2537516821984
 20
106.7755330474069
 10
109.2118614749011
 20
106.7056406737821
 10
109.1771306065534
 20
106.6299024038421
 10
109.1497743956198
 20
106.5484581945889
 10
109.1299758627954
 20
106.4614372371014
 10
109.1179503265448
 20
106.3689794883814
 10
109.1138915734862
 20
106.2712356713544
 10
109.1138915734862
 20
104.82450014146
 10
109.1171536482256
 20
104.7316655854269
 10
109.1298897354096
 20
104.6422438270586
 10
109.1515400070299
 20
104.556568609975
 10
109.181512337309
 20
104.475038273336
 10
109.2192899619315
 20
104.3980188585313
 10
109.2642699891965
 20
104.3259087047206
 10
109.3159248888656
 20
104.2590738532939
 10
109.373662535161
 20
104.1978803456408
 10
109.4369446319211
 20
104.1427049890747
 10
109.5052005852146
 20
104.0939461227552
 10
109.5778705670333
 20
104.051969788072
 10
109.6543839834461
 20
104.0171527923384
 10
109.7341917723679
 20
103.9898719428675
 10
109.8167233398676
 20
103.9705040469724
 10
109.9014188579369
 20
103.9594259119662
 10
109.9877184985679
 20
103.9570143451622
 10
134.0842016639646
 20
103.9570143451622
  0
LINE
  5
71
330
1F
100
AcDbEntity
  8
ISS138金台
  6
Continuous
 62
   250
420
  2367521
370
    13
100
AcDbLine
 10
135.5193745923073
 20
103.5051362493282
 30
0.0
 11
140.5245814941332
 21
103.5051362493282
 31
0.0
  0
LINE
  5
72
330
1F
100
AcDbEntity
  8
ISS138金台
  6
Continuous
 62
   250
420
  2367521
370
    13
100
AcDbLine
 10
135.5193745923073
 20
104.4091292913072
 30
0.0
 11
145.5294438864156
 21
104.4091292913072
 31
0.0
  0
LINE
  5
73
330
1F
100
AcDbEntity
  8
ISS138金台
  6
Continuous
 62
   250
420
  2367521
370
    13
100
AcDbLine
 10
140.0393290362788
 20
103.5051362493282
 30
0.0
 11
140.0393290362788
 21
105.9745806566853
 31
0.0
  0
LINE
  5
74
330
1F
100
AcDbEntity
  8
ISS138金台
  6
Continuous
 62
   250
420
  2367521
370
    13
100
AcDbLine
 10
135.4752666048242
 20
106.6801362016445
 30
0.0
 11
145.5294331204924
 21
106.6801362016445
 31
0.0
  0
LINE
  5
75
330
1F
100
AcDbEntity
  8
ISS138金台
  6
Continuous
 62
   250
420
  2367521
370
    13
100
AcDbLine
 10
145.022315072553
 20
104.4091292913072
 30
0.0
 11
145.022315072553
 21
107.5181556660553
 31
0.0
  0
LINE
  5
76
330
1F
100
AcDbEntity
  8
ISS138金台
  6
Continuous
 62
   250
420
  2367521
370
    13
100
AcDbLine
 10
134.5271763412853
 20
102.4909001534494
 30
0.0
 11
134.5271763412853
 21
92.52492808090109
 31
0.0
  0
LINE
  5
77
330
1F
100
AcDbEntity
  8
ISS138金台
  6
Continuous
 62
   250
420
  2367521
370
    13
100
AcDbLine
 10
108.6641558963755
 20
93.03205689476373
 30
0.0
 11
134.5273593619802
 21
93.03205689476373
 31
0.0
  0
LINE
  5
78
330
1F
100
AcDbEntity
  8
ISS138金台
  6
Continuous
 62
   250
420
  2367521
370
    13
100
AcDbLine
 10
108.6641558963755
 20
92.52493884682431
 30
0.0
 11
108.6641558963755
 21
102.5572290064843
 31
0.0
  0
LINE
  5
79
330
1F
100
AcDbEntity
  8
ISS138金台
  6
Continuous
 62
   250
420
  2367521
370
    13
100
AcDbLine
 10
107.6278711897167
 20
103.5051362493282
 30
0.0
 11
102.6667615094508
 21
103.5051362493282
 31
0.0
  0
LINE
  5
7A
330
1F
100
AcDbEntity
  8
ISS138金台
  6
Continuous
 62
   250
420
  2367521
370
    13
100
AcDbLine
 10
103.1961004229419
 20
107.5620806328435
 30
0.0
 11
103.1961004229419
 21
103.5051362493282
 31
0.0
  0
LINE
  5
7B
330
1F
100
AcDbEntity
  8
ISS138金台
  6
Continuous
 62
   250
420
  2367521
370
    13
100
AcDbLine
 10
102.6669337642225
 20
107.5620806328435
 30
0.0
 11
107.6280434444885
 21
107.5620806328435
 31
0.0
  0
LINE
  5
7C
330
1F
100
AcDbEntity
  8
ISS138金台
  6
Continuous
 62
   250
420
  2367521
370
    13
100
AcDbLine
 10
108.6641558963755
 20
108.5542788838656
 30
0.0
 11
108.6641558963755
 21
113.5813621416997
 31
0.0
  0
LINE
  5
7D
330
1F
100
AcDbEntity
  8
ISS138金台
  6
Continuous
 62
   250
420
  2367521
370
    13
100
AcDbLine
 10
115.5874304472107
 20
113.074233327837
 30
0.0
 11
108.6641666622988
 21
113.074233327837
 31
0.0
  0
LINE
  5
7E
330
1F
100
AcDbEntity
  8
ISS138金台
  6
Continuous
 62
   250
420
  2367521
370
    13
100
AcDbLine
 10
115.5874304472107
 20
113.5813513757764
 30
0.0
 11
115.5874304472107
 21
108.5542681179423
 31
0.0
  0
HATCH
  5
7F
330
1F
100
AcDbEntity
  8
ISS138金台
  6
Continuous
 62
   250
420
  2367521
370
    13
100
AcDbHatch
 10
0.0
 20
0.0
 30
0.0
210
0.0
220
0.0
230
1.0
  2
SOLID
 70
     1
 71
     0
 91
        1
 92
        3
 72
     0
 73
     1
 93
       67
 10
115.5874304472107
 20
112.8242916540734
 10
115.6129672171179
 20
112.8255727989381
 10
115.6377826701686
 20
112.8293731698391
 10
115.6617260834375
 20
112.8355097460816
 10
115.6847113295387
 20
112.8439286980493
 10
115.7065553877773
 20
112.8544362391242
 10
115.7271828966906
 20
112.8669462419202
 10
115.7464538992766
 20
112.8813187494355
 10
115.7642176726101
 20
112.8974461024376
 10
115.7803665574587
 20
112.9151775780014
 10
115.7947821286669
 20
112.9344162828177
 10
115.8073244292326
 20
112.9550114939614
 10
115.8178642680771
 20
112.9768447862767
 10
115.8262939859681
 20
112.9997869686849
 10
115.8324628599803
 20
113.0237196160306
 10
115.8362632308813
 20
113.048524303158
 10
115.8375551416692
 20
113.0740610730653
 10
115.8375551416692
 20
113.0740610730653
 10
115.8362739968046
 20
113.0996516725888
 10
115.8324628599803
 20
113.1245101893324
 10
115.8262832200449
 20
113.1484966662942
 10
115.8178642680771
 20
113.1714819123954
 10
115.8073244292326
 20
113.1933475024804
 10
115.7947821286669
 20
113.2139642454705
 10
115.7803773233819
 20
113.2332244821333
 10
115.7642176726101
 20
113.2509774895435
 10
115.7464431333534
 20
113.2671156084689
 10
115.7271828966906
 20
113.2814988819074
 10
115.7065553877773
 20
113.2940196506267
 10
115.6847005636155
 20
113.3045379576247
 10
115.6617368493608
 20
113.3129461436693
 10
115.6377826701686
 20
113.3191042517582
 10
115.6129672171179
 20
113.3228830908128
 10
115.5874304472107
 20
113.3241750016007
 10
115.5874304472107
 20
113.3241750016007
 10
115.5618936773034
 20
113.3228830908128
 10
115.5370782242527
 20
113.3191042517582
 10
115.5131240450606
 20
113.3129461436693
 10
115.4901495648826
 20
113.3045379576247
 10
115.4682947407208
 20
113.2940196506267
 10
115.4476779977308
 20
113.2814988819074
 10
115.4284069951448
 20
113.2671048425457
 10
115.4106432218113
 20
113.2509774895435
 10
115.3944835710394
 20
113.2332244821333
 10
115.3800787657544
 20
113.2139750113937
 10
115.3675364651887
 20
113.1933475024804
 10
115.3569966263442
 20
113.1714819123954
 10
115.3485669084532
 20
113.1484966662942
 10
115.342398034441
 20
113.1245101893324
 10
115.33859766354
 20
113.099662438512
 10
115.3373057527521
 20
113.0740610730653
 10
115.3373057527521
 20
113.0740610730653
 10
115.33859766354
 20
113.048524303158
 10
115.342398034441
 20
113.0237196160306
 10
115.3485669084532
 20
112.9997869686849
 10
115.3569966263442
 20
112.9768340203534
 10
115.3675364651887
 20
112.9550114939614
 10
115.3800787657544
 20
112.9344162828177
 10
115.3944943369627
 20
112.9151883439247
 10
115.4106432218113
 20
112.8974461024376
 10
115.4284069951448
 20
112.8813295153587
 10
115.4476779977308
 20
112.8669462419202
 10
115.4682947407208
 20
112.8544362391242
 10
115.4901603308058
 20
112.8439179321261
 10
115.5131240450606
 20
112.8355205120048
 10
115.5370782242527
 20
112.8293624039159
 10
115.5618936773034
 20
112.8255835648613
 97
        0
 75
     1
 76
     1
 98
        0
  0
LWPOLYLINE
  5
80
330
1F
100
AcDbEntity
  8
ISS138金台
  6
Continuous
 62
   250
420
  2367521
370
    13
100
AcDbPolyline
 90
       68
 70
     0
 43
0.0
 10
115.5874304472107
 20
112.8242916540734
 10
115.6129672171179
 20
112.8255727989381
 10
115.6377826701686
 20
112.8293731698391
 10
115.6617260834375
 20
112.8355097460816
 10
115.6847113295387
 20
112.8439286980493
 10
115.7065553877773
 20
112.8544362391242
 10
115.7271828966906
 20
112.8669462419202
 10
115.7464538992766
 20
112.8813187494355
 10
115.7642176726101
 20
112.8974461024376
 10
115.7803665574587
 20
112.9151775780014
 10
115.7947821286669
 20
112.9344162828177
 10
115.8073244292326
 20
112.9550114939614
 10
115.8178642680771
 20
112.9768447862767
 10
115.8262939859681
 20
112.9997869686849
 10
115.8324628599803
 20
113.0237196160306
 10
115.8362632308813
 20
113.048524303158
 10
115.8375551416692
 20
113.0740610730653
 10
115.8375551416692
 20
113.0740610730653
 10
115.8362739968046
 20
113.0996516725888
 10
115.8324628599803
 20
113.1245101893324
 10
115.8262832200449
 20
113.1484966662942
 10
115.8178642680771
 20
113.1714819123954
 10
115.8073244292326
 20
113.1933475024804
 10
115.7947821286669
 20
113.2139642454705
 10
115.7803773233819
 20
113.2332244821333
 10
115.7642176726101
 20
113.2509774895435
 10
115.7464431333534
 20
113.2671156084689
 10
115.7271828966906
 20
113.2814988819074
 10
115.7065553877773
 20
113.2940196506267
 10
115.6847005636155
 20
113.3045379576247
 10
115.6617368493608
 20
113.3129461436693
 10
115.6377826701686
 20
113.3191042517582
 10
115.6129672171179
 20
113.3228830908128
 10
115.5874304472107
 20
113.3241750016007
 10
115.5874304472107
 20
113.3241750016007
 10
115.5618936773034
 20
113.3228830908128
 10
115.5370782242527
 20
113.3191042517582
 10
115.5131240450606
 20
113.3129461436693
 10
115.4901495648826
 20
113.3045379576247
 10
115.4682947407208
 20
113.2940196506267
 10
115.4476779977308
 20
113.2814988819074
 10
115.4284069951448
 20
113.2671048425457
 10
115.4106432218113
 20
113.2509774895435
 10
115.3944835710394
 20
113.2332244821333
 10
115.3800787657544
 20
113.2139750113937
 10
115.3675364651887
 20
113.1933475024804
 10
115.3569966263442
 20
113.1714819123954
 10
115.3485669084532
 20
113.1484966662942
 10
115.342398034441
 20
113.1245101893324
 10
115.33859766354
 20
113.099662438512
 10
115.3373057527521
 20
113.0740610730653
 10
115.3373057527521
 20
113.0740610730653
 10
115.33859766354
 20
113.048524303158
 10
115.342398034441
 20
113.0237196160306
 10
115.3485669084532
 20
112.9997869686849
 10
115.3569966263442
 20
112.9768340203534
 10
115.3675364651887
 20
112.9550114939614
 10
115.3800787657544
 20
112.9344162828177
 10
115.3944943369627
 20
112.9151883439247
 10
115.4106432218113
 20
112.8974461024376
 10
115.4284069951448
 20
112.8813295153587
 10
115.4476779977308
 20
112.8669462419202
 10
115.4682947407208
 20
112.8544362391242
 10
115.4901603308058
 20
112.8439179321261
 10
115.5131240450606
 20
112.8355205120048
 10
115.5370782242527
 20
112.8293624039159
 10
115.5618936773034
 20
112.8255835648613
 10
115.5874304472107
 20
112.8242916540734
  0
HATCH
  5
81
330
1F
100
AcDbEntity
  8
ISS138金台
  6
Continuous
 62
   250
420
  2367521
370
    13
100
AcDbHatch
 10
0.0
 20
0.0
 30
0.0
210
0.0
220
0.0
230
1.0
  2
SOLID
 70
     1
 71
     0
 91
        1
 92
        3
 72
     0
 73
     1
 93
       67
 10
108.6641558963755
 20
112.8242916540734
 10
108.689703432206
 20
112.8255727989381
 10
108.7145081193335
 20
112.8293731698391
 10
108.7384515326024
 20
112.8355097460816
 10
108.7614260127803
 20
112.8439286980493
 10
108.7832808369421
 20
112.8544362391242
 10
108.8039083458554
 20
112.8669462419202
 10
108.8231685825182
 20
112.8813187494355
 10
108.8409431217749
 20
112.8974461024376
 10
108.8571027725468
 20
112.9151775780014
 10
108.8715075778317
 20
112.9344162828177
 10
108.8840498783975
 20
112.9550114939614
 10
108.8946004831653
 20
112.9768447862767
 10
108.903019435133
 20
112.9997869686849
 10
108.9091883091452
 20
113.0237196160306
 10
108.9129886800462
 20
113.048524303158
 10
108.9142805908341
 20
113.0740610730653
 10
108.9142805908341
 20
113.0740610730653
 10
108.9129886800462
 20
113.0996516725888
 10
108.9091883091452
 20
113.1245101893324
 10
108.9030086692098
 20
113.1484966662942
 10
108.894589717242
 20
113.1714819123954
 10
108.8840391124743
 20
113.1933475024804
 10
108.8715075778317
 20
113.2139642454705
 10
108.8570920066235
 20
113.2332244821333
 10
108.8409431217749
 20
113.2509774895435
 10
108.8231685825182
 20
113.2671156084689
 10
108.8039191117787
 20
113.2814988819074
 10
108.7832916028654
 20
113.2940196506267
 10
108.7614260127803
 20
113.3045379576247
 10
108.7384622985256
 20
113.3129461436693
 10
108.7145081193335
 20
113.3191042517582
 10
108.6896926662828
 20
113.3228830908128
 10
108.6641558963755
 20
113.3241750016007
 10
108.6641558963755
 20
113.3241750016007
 10
108.6386298923915
 20
113.3228830908128
 10
108.6138036734176
 20
113.3191042517582
 10
108.5898602601487
 20
113.3129461436693
 10
108.5668750140475
 20
113.3045379576247
 10
108.5450201898857
 20
113.2940196506267
 10
108.5244034468956
 20
113.2814988819074
 10
108.5051324443096
 20
113.2671048425457
 10
108.4873686709761
 20
113.2509774895435
 10
108.4712197861275
 20
113.2332244821333
 10
108.4568042149193
 20
113.2139750113937
 10
108.4442619143536
 20
113.1933475024804
 10
108.433722075509
 20
113.1714819123954
 10
108.4252923576181
 20
113.1484966662942
 10
108.4191234836059
 20
113.1245101893324
 10
108.4153231127049
 20
113.099662438512
 10
108.414031201917
 20
113.0740610730653
 10
108.414031201917
 20
113.0740610730653
 10
108.4153231127049
 20
113.048524303158
 10
108.4191234836059
 20
113.0237196160306
 10
108.4252923576181
 20
112.9997869686849
 10
108.4337113095858
 20
112.9768340203534
 10
108.4442511484303
 20
112.9550114939614
 10
108.4568042149193
 20
112.9344162828177
 10
108.4712197861275
 20
112.9151883439247
 10
108.4873686709761
 20
112.8974461024376
 10
108.5051432102328
 20
112.8813295153587
 10
108.5244034468956
 20
112.8669462419202
 10
108.5450201898857
 20
112.8544362391242
 10
108.5668857799707
 20
112.8439179321261
 10
108.5898602601487
 20
112.8355205120048
 10
108.6138036734176
 20
112.8293624039159
 10
108.6386191264683
 20
112.8255835648613
 97
        0
 75
     1
 76
     1
 98
        0
  0
LWPOLYLINE
  5
82
330
1F
100
AcDbEntity
  8
ISS138金台
  6
Continuous
 62
   250
420
  2367521
370
    13
100
AcDbPolyline
 90
       68
 70
     0
 43
0.0
 10
108.6641558963755
 20
112.8242916540734
 10
108.689703432206
 20
112.8255727989381
 10
108.7145081193335
 20
112.8293731698391
 10
108.7384515326024
 20
112.8355097460816
 10
108.7614260127803
 20
112.8439286980493
 10
108.7832808369421
 20
112.8544362391242
 10
108.8039083458554
 20
112.8669462419202
 10
108.8231685825182
 20
112.8813187494355
 10
108.8409431217749
 20
112.8974461024376
 10
108.8571027725468
 20
112.9151775780014
 10
108.8715075778317
 20
112.9344162828177
 10
108.8840498783975
 20
112.9550114939614
 10
108.8946004831653
 20
112.9768447862767
 10
108.903019435133
 20
112.9997869686849
 10
108.9091883091452
 20
113.0237196160306
 10
108.9129886800462
 20
113.048524303158
 10
108.9142805908341
 20
113.0740610730653
 10
108.9142805908341
 20
113.0740610730653
 10
108.9129886800462
 20
113.0996516725888
 10
108.9091883091452
 20
113.1245101893324
 10
108.9030086692098
 20
113.1484966662942
 10
108.894589717242
 20
113.1714819123954
 10
108.8840391124743
 20
113.1933475024804
 10
108.8715075778317
 20
113.2139642454705
 10
108.8570920066235
 20
113.2332244821333
 10
108.8409431217749
 20
113.2509774895435
 10
108.8231685825182
 20
113.2671156084689
 10
108.8039191117787
 20
113.2814988819074
 10
108.7832916028654
 20
113.2940196506267
 10
108.7614260127803
 20
113.3045379576247
 10
108.7384622985256
 20
113.3129461436693
 10
108.7145081193335
 20
113.3191042517582
 10
108.6896926662828
 20
113.3228830908128
 10
108.6641558963755
 20
113.3241750016007
 10
108.6641558963755
 20
113.3241750016007
 10
108.6386298923915
 20
113.3228830908128
 10
108.6138036734176
 20
113.3191042517582
 10
108.5898602601487
 20
113.3129461436693
 10
108.5668750140475
 20
113.3045379576247
 10
108.5450201898857
 20
113.2940196506267
 10
108.5244034468956
 20
113.2814988819074
 10
108.5051324443096
 20
113.2671048425457
 10
108.4873686709761
 20
113.2509774895435
 10
108.4712197861275
 20
113.2332244821333
 10
108.4568042149193
 20
113.2139750113937
 10
108.4442619143536
 20
113.1933475024804
 10
108.433722075509
 20
113.1714819123954
 10
108.4252923576181
 20
113.1484966662942
 10
108.4191234836059
 20
113.1245101893324
 10
108.4153231127049
 20
113.099662438512
 10
108.414031201917
 20
113.0740610730653
 10
108.414031201917
 20
113.0740610730653
 10
108.4153231127049
 20
113.048524303158
 10
108.4191234836059
 20
113.0237196160306
 10
108.4252923576181
 20
112.9997869686849
 10
108.4337113095858
 20
112.9768340203534
 10
108.4442511484303
 20
112.9550114939614
 10
108.4568042149193
 20
112.9344162828177
 10
108.4712197861275
 20
112.9151883439247
 10
108.4873686709761
 20
112.8974461024376
 10
108.5051432102328
 20
112.8813295153587
 10
108.5244034468956
 20
112.8669462419202
 10
108.5450201898857
 20
112.8544362391242
 10
108.5668857799707
 20
112.8439179321261
 10
108.5898602601487
 20
112.8355205120048
 10
108.6138036734176
 20
112.8293624039159
 10
108.6386191264683
 20
112.8255835648613
 10
108.6641558963755
 20
112.8242916540734
  0
HATCH
  5
83
330
1F
100
AcDbEntity
  8
ISS138金台
  6
Continuous
 62
   250
420
  2367521
370
    13
100
AcDbHatch
 10
0.0
 20
0.0
 30
0.0
210
0.0
220
0.0
230
1.0
  2
SOLID
 70
     1
 71
     0
 91
        1
 92
        3
 72
     0
 73
     1
 93
       67
 10
103.1961004229419
 20
107.3123219797748
 10
103.2216479587724
 20
107.3136031246395
 10
103.2464311140535
 20
107.3173819636941
 10
103.2703745273223
 20
107.3235185399365
 10
103.2933167097306
 20
107.3319051941346
 10
103.3151500020459
 20
107.3423912033629
 10
103.3357452131895
 20
107.3548904402358
 10
103.3549731520826
 20
107.3692521818278
 10
103.3727153935696
 20
107.3853472370603
 10
103.3888319806485
 20
107.4030679467008
 10
103.403215254087
 20
107.4222958855939
 10
103.4157252568831
 20
107.4428803308143
 10
103.4262435638811
 20
107.4647243890528
 10
103.4346409840024
 20
107.4876881033075
 10
103.4407990920914
 20
107.5116530484229
 10
103.4445779311459
 20
107.5365007992433
 10
103.4458698419338
 20
107.5620913987667
 10
103.4458698419338
 20
107.5620913987667
 10
103.4445779311459
 20
107.587628168674
 10
103.4407990920914
 20
107.6124436217247
 10
103.4346302180792
 20
107.6363978009168
 10
103.4262327979579
 20
107.6593615151715
 10
103.4157144909598
 20
107.6812163393333
 10
103.4032044881638
 20
107.7018438482466
 10
103.3888319806485
 20
107.7211040849094
 10
103.3727153935696
 20
107.7388678582429
 10
103.3549731520826
 20
107.7550275090147
 10
103.3357452131895
 20
107.7694323142997
 10
103.3151500020459
 20
107.7819746148655
 10
103.2933167097306
 20
107.7925252196332
 10
103.2703745273223
 20
107.800944171601
 10
103.2464311140535
 20
107.8071130456131
 10
103.2216371928492
 20
107.8109134165142
 10
103.1961004229419
 20
107.8122053273021
 10
103.1961004229419
 20
107.8122053273021
 10
103.1705744189579
 20
107.8109134165142
 10
103.1457589659072
 20
107.8071238115364
 10
103.1218263185615
 20
107.8009334056777
 10
103.0988841361533
 20
107.7925252196332
 10
103.0770508438379
 20
107.7819746148655
 10
103.0564556326944
 20
107.7694323142997
 10
103.0372276938013
 20
107.7550275090147
 10
103.0194854523143
 20
107.7388678582429
 10
103.0033688652353
 20
107.7211040849094
 10
102.9889963577201
 20
107.7018438482466
 10
102.9764755890008
 20
107.6812271052566
 10
102.9659572820027
 20
107.6593615151715
 10
102.9575598618814
 20
107.6363870349936
 10
102.9514017537925
 20
107.6124436217247
 10
102.9476229147379
 20
107.587628168674
 10
102.94633100395
 20
107.5620913987667
 10
102.94633100395
 20
107.5620913987667
 10
102.9476121488147
 20
107.5365007992433
 10
102.9514017537925
 20
107.5116530484229
 10
102.9575598618814
 20
107.4876881033075
 10
102.9659572820027
 20
107.464735154976
 10
102.9764755890008
 20
107.4428803308143
 10
102.9889963577201
 20
107.4222851196707
 10
103.0033688652353
 20
107.403078712624
 10
103.0194854523143
 20
107.3853472370603
 10
103.0372276938013
 20
107.3692521818278
 10
103.0564556326944
 20
107.3548904402358
 10
103.0770508438379
 20
107.3424019692862
 10
103.0988841361533
 20
107.3319051941346
 10
103.1218370844848
 20
107.3235185399365
 10
103.1457697318304
 20
107.3173819636941
 10
103.1705636530347
 20
107.3136031246395
 97
        0
 75
     1
 76
     1
 98
        0
  0
LWPOLYLINE
  5
84
330
1F
100
AcDbEntity
  8
ISS138金台
  6
Continuous
 62
   250
420
  2367521
370
    13
100
AcDbPolyline
 90
       68
 70
     0
 43
0.0
 10
103.1961004229419
 20
107.3123219797748
 10
103.2216479587724
 20
107.3136031246395
 10
103.2464311140535
 20
107.3173819636941
 10
103.2703745273223
 20
107.3235185399365
 10
103.2933167097306
 20
107.3319051941346
 10
103.3151500020459
 20
107.3423912033629
 10
103.3357452131895
 20
107.3548904402358
 10
103.3549731520826
 20
107.3692521818278
 10
103.3727153935696
 20
107.3853472370603
 10
103.3888319806485
 20
107.4030679467008
 10
103.403215254087
 20
107.4222958855939
 10
103.4157252568831
 20
107.4428803308143
 10
103.4262435638811
 20
107.4647243890528
 10
103.4346409840024
 20
107.4876881033075
 10
103.4407990920914
 20
107.5116530484229
 10
103.4445779311459
 20
107.5365007992433
 10
103.4458698419338
 20
107.5620913987667
 10
103.4458698419338
 20
107.5620913987667
 10
103.4445779311459
 20
107.587628168674
 10
103.4407990920914
 20
107.6124436217247
 10
103.4346302180792
 20
107.6363978009168
 10
103.4262327979579
 20
107.6593615151715
 10
103.4157144909598
 20
107.6812163393333
 10
103.4032044881638
 20
107.7018438482466
 10
103.3888319806485
 20
107.7211040849094
 10
103.3727153935696
 20
107.7388678582429
 10
103.3549731520826
 20
107.7550275090147
 10
103.3357452131895
 20
107.7694323142997
 10
103.3151500020459
 20
107.7819746148655
 10
103.2933167097306
 20
107.7925252196332
 10
103.2703745273223
 20
107.800944171601
 10
103.2464311140535
 20
107.8071130456131
 10
103.2216371928492
 20
107.8109134165142
 10
103.1961004229419
 20
107.8122053273021
 10
103.1961004229419
 20
107.8122053273021
 10
103.1705744189579
 20
107.8109134165142
 10
103.1457589659072
 20
107.8071238115364
 10
103.1218263185615
 20
107.8009334056777
 10
103.0988841361533
 20
107.7925252196332
 10
103.0770508438379
 20
107.7819746148655
 10
103.0564556326944
 20
107.7694323142997
 10
103.0372276938013
 20
107.7550275090147
 10
103.0194854523143
 20
107.7388678582429
 10
103.0033688652353
 20
107.7211040849094
 10
102.9889963577201
 20
107.7018438482466
 10
102.9764755890008
 20
107.6812271052566
 10
102.9659572820027
 20
107.6593615151715
 10
102.9575598618814
 20
107.6363870349936
 10
102.9514017537925
 20
107.6124436217247
 10
102.9476229147379
 20
107.587628168674
 10
102.94633100395
 20
107.5620913987667
 10
102.94633100395
 20
107.5620913987667
 10
102.9476121488147
 20
107.5365007992433
 10
102.9514017537925
 20
107.5116530484229
 10
102.9575598618814
 20
107.4876881033075
 10
102.9659572820027
 20
107.464735154976
 10
102.9764755890008
 20
107.4428803308143
 10
102.9889963577201
 20
107.4222851196707
 10
103.0033688652353
 20
107.403078712624
 10
103.0194854523143
 20
107.3853472370603
 10
103.0372276938013
 20
107.3692521818278
 10
103.0564556326944
 20
107.3548904402358
 10
103.0770508438379
 20
107.3424019692862
 10
103.0988841361533
 20
107.3319051941346
 10
103.1218370844848
 20
107.3235185399365
 10
103.1457697318304
 20
107.3173819636941
 10
103.1705636530347
 20
107.3136031246395
 10
103.1961004229419
 20
107.3123219797748
  0
HATCH
  5
85
330
1F
100
AcDbEntity
  8
ISS138金台
  6
Continuous
 62
   250
420
  2367521
370
    13
100
AcDbHatch
 10
0.0
 20
0.0
 30
0.0
210
0.0
220
0.0
230
1.0
  2
SOLID
 70
     1
 71
     0
 91
        1
 92
        3
 72
     0
 73
     1
 93
       67
 10
103.1961004229419
 20
103.2550223207929
 10
103.2216479587724
 20
103.2563142315808
 10
103.2464311140535
 20
103.2601253684051
 10
103.2703745273223
 20
103.2662727105708
 10
103.2933167097306
 20
103.2747024284618
 10
103.3151500020459
 20
103.2852422673063
 10
103.3357452131895
 20
103.2977953337953
 10
103.3549731520826
 20
103.3122001390802
 10
103.3727153935696
 20
103.3283597898521
 10
103.3888319806485
 20
103.3461235631855
 10
103.403215254087
 20
103.3653837998483
 10
103.4157252568831
 20
103.3860113087616
 10
103.4262435638811
 20
103.4078661329234
 10
103.4346409840024
 20
103.4308406131014
 10
103.4407990920914
 20
103.4547947922935
 10
103.4445779311459
 20
103.4796102453442
 10
103.4458698419338
 20
103.5051470152515
 10
103.4458698419338
 20
103.5051470152515
 10
103.4445779311459
 20
103.5306837851588
 10
103.4407990920914
 20
103.5554992382094
 10
103.4346302180792
 20
103.5794534174016
 10
103.4262327979579
 20
103.6024171316563
 10
103.4157144909598
 20
103.6242719558181
 10
103.4032044881638
 20
103.6448994647314
 10
103.3888319806485
 20
103.6641597013942
 10
103.3727153935696
 20
103.6819234747276
 10
103.3549731520826
 20
103.6980831254995
 10
103.3357452131895
 20
103.7124879307844
 10
103.3151500020459
 20
103.7250302313502
 10
103.2933167097306
 20
103.735580836118
 10
103.2703745273223
 20
103.7439997880857
 10
103.2464311140535
 20
103.7501686620979
 10
103.2216371928492
 20
103.7539690329989
 10
103.1961004229419
 20
103.7552609437868
 10
103.1961004229419
 20
103.7552609437868
 10
103.1705744189579
 20
103.7539690329989
 10
103.1457589659072
 20
103.7501794280211
 10
103.1218263185615
 20
103.7439890221625
 10
103.0988841361533
 20
103.735580836118
 10
103.0770508438379
 20
103.7250302313502
 10
103.0564556326944
 20
103.7124879307844
 10
103.0372276938013
 20
103.6980831254995
 10
103.0194854523143
 20
103.6819234747276
 10
103.0033688652353
 20
103.6641597013942
 10
102.9889963577201
 20
103.6448994647314
 10
102.9764755890008
 20
103.6242827217413
 10
102.9659572820027
 20
103.6024171316563
 10
102.9575598618814
 20
103.5794426514783
 10
102.9514017537925
 20
103.5554992382094
 10
102.9476229147379
 20
103.5306837851588
 10
102.94633100395
 20
103.5051470152515
 10
102.94633100395
 20
103.5051470152515
 10
102.9476121488147
 20
103.4796102453442
 10
102.9514017537925
 20
103.4547840263703
 10
102.9575598618814
 20
103.4308298471781
 10
102.9659572820027
 20
103.4078768988467
 10
102.9764755890008
 20
103.3860005428384
 10
102.9889963577201
 20
103.3653837998483
 10
103.0033688652353
 20
103.3461235631855
 10
103.0194854523143
 20
103.3283597898521
 10
103.0372276938013
 20
103.3122001390802
 10
103.0564556326944
 20
103.2977953337953
 10
103.0770508438379
 20
103.2852530332295
 10
103.0988841361533
 20
103.2747024284618
 10
103.1218370844848
 20
103.266283476494
 10
103.1457697318304
 20
103.2601146024818
 10
103.1705636530347
 20
103.2563142315808
 97
        0
 75
     1
 76
     1
 98
        0
  0
LWPOLYLINE
  5
86
330
1F
100
AcDbEntity
  8
ISS138金台
  6
Continuous
 62
   250
420
  2367521
370
    13
100
AcDbPolyline
 90
       68
 70
     0
 43
0.0
 10
103.1961004229419
 20
103.2550223207929
 10
103.2216479587724
 20
103.2563142315808
 10
103.2464311140535
 20
103.2601253684051
 10
103.2703745273223
 20
103.2662727105708
 10
103.2933167097306
 20
103.2747024284618
 10
103.3151500020459
 20
103.2852422673063
 10
103.3357452131895
 20
103.2977953337953
 10
103.3549731520826
 20
103.3122001390802
 10
103.3727153935696
 20
103.3283597898521
 10
103.3888319806485
 20
103.3461235631855
 10
103.403215254087
 20
103.3653837998483
 10
103.4157252568831
 20
103.3860113087616
 10
103.4262435638811
 20
103.4078661329234
 10
103.4346409840024
 20
103.4308406131014
 10
103.4407990920914
 20
103.4547947922935
 10
103.4445779311459
 20
103.4796102453442
 10
103.4458698419338
 20
103.5051470152515
 10
103.4458698419338
 20
103.5051470152515
 10
103.4445779311459
 20
103.5306837851588
 10
103.4407990920914
 20
103.5554992382094
 10
103.4346302180792
 20
103.5794534174016
 10
103.4262327979579
 20
103.6024171316563
 10
103.4157144909598
 20
103.6242719558181
 10
103.4032044881638
 20
103.6448994647314
 10
103.3888319806485
 20
103.6641597013942
 10
103.3727153935696
 20
103.6819234747276
 10
103.3549731520826
 20
103.6980831254995
 10
103.3357452131895
 20
103.7124879307844
 10
103.3151500020459
 20
103.7250302313502
 10
103.2933167097306
 20
103.735580836118
 10
103.2703745273223
 20
103.7439997880857
 10
103.2464311140535
 20
103.7501686620979
 10
103.2216371928492
 20
103.7539690329989
 10
103.1961004229419
 20
103.7552609437868
 10
103.1961004229419
 20
103.7552609437868
 10
103.1705744189579
 20
103.7539690329989
 10
103.1457589659072
 20
103.7501794280211
 10
103.1218263185615
 20
103.7439890221625
 10
103.0988841361533
 20
103.735580836118
 10
103.0770508438379
 20
103.7250302313502
 10
103.0564556326944
 20
103.7124879307844
 10
103.0372276938013
 20
103.6980831254995
 10
103.0194854523143
 20
103.6819234747276
 10
103.0033688652353
 20
103.6641597013942
 10
102.9889963577201
 20
103.6448994647314
 10
102.9764755890008
 20
103.6242827217413
 10
102.9659572820027
 20
103.6024171316563
 10
102.9575598618814
 20
103.5794426514783
 10
102.9514017537925
 20
103.5554992382094
 10
102.9476229147379
 20
103.5306837851588
 10
102.94633100395
 20
103.5051470152515
 10
102.94633100395
 20
103.5051470152515
 10
102.9476121488147
 20
103.4796102453442
 10
102.9514017537925
 20
103.4547840263703
 10
102.9575598618814
 20
103.4308298471781
 10
102.9659572820027
 20
103.4078768988467
 10
102.9764755890008
 20
103.3860005428384
 10
102.9889963577201
 20
103.3653837998483
 10
103.0033688652353
 20
103.3461235631855
 10
103.0194854523143
 20
103.3283597898521
 10
103.0372276938013
 20
103.3122001390802
 10
103.0564556326944
 20
103.2977953337953
 10
103.0770508438379
 20
103.2852530332295
 10
103.0988841361533
 20
103.2747024284618
 10
103.1218370844848
 20
103.266283476494
 10
103.1457697318304
 20
103.2601146024818
 10
103.1705636530347
 20
103.2563142315808
 10
103.1961004229419
 20
103.2550223207929
  0
HATCH
  5
87
330
1F
100
AcDbEntity
  8
ISS138金台
  6
Continuous
 62
   250
420
  2367521
370
    13
100
AcDbHatch
 10
0.0
 20
0.0
 30
0.0
210
0.0
220
0.0
230
1.0
  2
SOLID
 70
     1
 71
     0
 91
        1
 92
        3
 72
     0
 73
     1
 93
       67
 10
108.6641558963755
 20
92.78192143438193
 10
108.689703432206
 20
92.78321334516983
 10
108.7145081193335
 20
92.78701371607086
 10
108.7384515326024
 20
92.79318259008303
 10
108.7614260127803
 20
92.80160154205078
 10
108.7832808369421
 20
92.81215214681853
 10
108.8039083458554
 20
92.8246944473843
 10
108.8231685825182
 20
92.83909925266926
 10
108.8409431217749
 20
92.85524813751786
 10
108.8571027725468
 20
92.87302267677458
 10
108.8715075778317
 20
92.89228291343736
 10
108.8840498783975
 20
92.91291042235065
 10
108.8946004831653
 20
92.93476524651246
 10
108.903019435133
 20
92.9577397266904
 10
108.9091883091452
 20
92.98169390588251
 10
108.9129886800462
 20
93.00650935893322
 10
108.9142805908341
 20
93.0320461288405
 10
108.9142805908341
 20
93.0320461288405
 10
108.9129886800462
 20
93.05758289874777
 10
108.9091883091452
 20
93.08239835179847
 10
108.9030086692098
 20
93.10635253099059
 10
108.894589717242
 20
93.12931624524532
 10
108.8840391124743
 20
93.1511710694071
 10
108.8715075778317
 20
93.17179857832039
 10
108.8570920066235
 20
93.19105881498318
 10
108.8409431217749
 20
93.20882258831665
 10
108.8231685825182
 20
93.2249822390885
 10
108.8039191117787
 20
93.23939781029671
 10
108.7832916028654
 20
93.25192934493921
 10
108.7614260127803
 20
93.26247994970699
 10
108.7384622985256
 20
93.27089890167473
 10
108.7145081193335
 20
93.2770677756869
 10
108.6896926662828
 20
93.28086814658795
 10
108.6641558963755
 20
93.28216005737582
 10
108.6641558963755
 20
93.28216005737582
 10
108.6386298923915
 20
93.28086814658795
 10
108.6138036734176
 20
93.27707854161014
 10
108.5898602601487
 20
93.27089890167473
 10
108.5668750140475
 20
93.26247994970699
 10
108.5450201898857
 20
93.25192934493921
 10
108.5244034468956
 20
93.23938704437347
 10
108.5051324443096
 20
93.2249822390885
 10
108.4873686709761
 20
93.20882258831665
 10
108.4712197861275
 20
93.19105881498318
 10
108.4568042149193
 20
93.17179857832039
 10
108.4442619143536
 20
93.1511710694071
 10
108.433722075509
 20
93.12931624524532
 10
108.4252923576181
 20
93.10635253099059
 10
108.4191234836059
 20
93.08239835179847
 10
108.4153231127049
 20
93.05758289874777
 10
108.414031201917
 20
93.0320461288405
 10
108.414031201917
 20
93.0320461288405
 10
108.4153231127049
 20
93.00649859300998
 10
108.4191234836059
 20
92.98169390588251
 10
108.4252923576181
 20
92.9577397266904
 10
108.4337113095858
 20
92.93476524651246
 10
108.4442511484303
 20
92.91291042235065
 10
108.4568042149193
 20
92.89228291343736
 10
108.4712197861275
 20
92.87302267677458
 10
108.4873686709761
 20
92.85524813751786
 10
108.5051432102328
 20
92.83909925266926
 10
108.5244034468956
 20
92.8246944473843
 10
108.5450201898857
 20
92.81215214681853
 10
108.5668857799707
 20
92.80160154205078
 10
108.5898602601487
 20
92.79318259008303
 10
108.6138036734176
 20
92.78701371607086
 10
108.6386191264683
 20
92.78321334516983
 97
        0
 75
     1
 76
     1
 98
        0
  0
LWPOLYLINE
  5
88
330
1F
100
AcDbEntity
  8
ISS138金台
  6
Continuous
 62
   250
420
  2367521
370
    13
100
AcDbPolyline
 90
       68
 70
     0
 43
0.0
 10
108.6641558963755
 20
92.78192143438193
 10
108.689703432206
 20
92.78321334516983
 10
108.7145081193335
 20
92.78701371607086
 10
108.7384515326024
 20
92.79318259008303
 10
108.7614260127803
 20
92.80160154205078
 10
108.7832808369421
 20
92.81215214681853
 10
108.8039083458554
 20
92.8246944473843
 10
108.8231685825182
 20
92.83909925266926
 10
108.8409431217749
 20
92.85524813751786
 10
108.8571027725468
 20
92.87302267677458
 10
108.8715075778317
 20
92.89228291343736
 10
108.8840498783975
 20
92.91291042235065
 10
108.8946004831653
 20
92.93476524651246
 10
108.903019435133
 20
92.9577397266904
 10
108.9091883091452
 20
92.98169390588251
 10
108.9129886800462
 20
93.00650935893322
 10
108.9142805908341
 20
93.0320461288405
 10
108.9142805908341
 20
93.0320461288405
 10
108.9129886800462
 20
93.05758289874777
 10
108.9091883091452
 20
93.08239835179847
 10
108.9030086692098
 20
93.10635253099059
 10
108.894589717242
 20
93.12931624524532
 10
108.8840391124743
 20
93.1511710694071
 10
108.8715075778317
 20
93.17179857832039
 10
108.8570920066235
 20
93.19105881498318
 10
108.8409431217749
 20
93.20882258831665
 10
108.8231685825182
 20
93.2249822390885
 10
108.8039191117787
 20
93.23939781029671
 10
108.7832916028654
 20
93.25192934493921
 10
108.7614260127803
 20
93.26247994970699
 10
108.7384622985256
 20
93.27089890167473
 10
108.7145081193335
 20
93.2770677756869
 10
108.6896926662828
 20
93.28086814658795
 10
108.6641558963755
 20
93.28216005737582
 10
108.6641558963755
 20
93.28216005737582
 10
108.6386298923915
 20
93.28086814658795
 10
108.6138036734176
 20
93.27707854161014
 10
108.5898602601487
 20
93.27089890167473
 10
108.5668750140475
 20
93.26247994970699
 10
108.5450201898857
 20
93.25192934493921
 10
108.5244034468956
 20
93.23938704437347
 10
108.5051324443096
 20
93.2249822390885
 10
108.4873686709761
 20
93.20882258831665
 10
108.4712197861275
 20
93.19105881498318
 10
108.4568042149193
 20
93.17179857832039
 10
108.4442619143536
 20
93.1511710694071
 10
108.433722075509
 20
93.12931624524532
 10
108.4252923576181
 20
93.10635253099059
 10
108.4191234836059
 20
93.08239835179847
 10
108.4153231127049
 20
93.05758289874777
 10
108.414031201917
 20
93.0320461288405
 10
108.414031201917
 20
93.0320461288405
 10
108.4153231127049
 20
93.00649859300998
 10
108.4191234836059
 20
92.98169390588251
 10
108.4252923576181
 20
92.9577397266904
 10
108.4337113095858
 20
92.93476524651246
 10
108.4442511484303
 20
92.91291042235065
 10
108.4568042149193
 20
92.89228291343736
 10
108.4712197861275
 20
92.87302267677458
 10
108.4873686709761
 20
92.85524813751786
 10
108.5051432102328
 20
92.83909925266926
 10
108.5244034468956
 20
92.8246944473843
 10
108.5450201898857
 20
92.81215214681853
 10
108.5668857799707
 20
92.80160154205078
 10
108.5898602601487
 20
92.79318259008303
 10
108.6138036734176
 20
92.78701371607086
 10
108.6386191264683
 20
92.78321334516983
 10
108.6641558963755
 20
92.78192143438193
  0
HATCH
  5
89
330
1F
100
AcDbEntity
  8
ISS138金台
  6
Continuous
 62
   250
420
  2367521
370
    13
100
AcDbHatch
 10
0.0
 20
0.0
 30
0.0
210
0.0
220
0.0
230
1.0
  2
SOLID
 70
     1
 71
     0
 91
        1
 92
        3
 72
     0
 73
     1
 93
       67
 10
134.5271763412853
 20
92.78192143438193
 10
134.5527238771158
 20
92.78321334516983
 10
134.5775285642432
 20
92.78701371607086
 10
134.6014827434354
 20
92.79318259008303
 10
134.6244464576901
 20
92.80160154205078
 10
134.6463120477751
 20
92.81215214681853
 10
134.6669287907652
 20
92.8246944473843
 10
134.6861890274279
 20
92.83909925266926
 10
134.7039635666846
 20
92.85524813751786
 10
134.7201232174565
 20
92.87302267677458
 10
134.7345280227415
 20
92.89228291343736
 10
134.7470703233072
 20
92.91291042235065
 10
134.757620928075
 20
92.93476524651246
 10
134.7660398800427
 20
92.9577397266904
 10
134.7722087540549
 20
92.98169390588251
 10
134.7760091249559
 20
93.00650935893322
 10
134.7773010357438
 20
93.0320461288405
 10
134.7773010357438
 20
93.0320461288405
 10
134.7760091249559
 20
93.05758289874777
 10
134.7722087540549
 20
93.08239835179847
 10
134.7660398800427
 20
93.10635253099059
 10
134.7576101621518
 20
93.12931624524532
 10
134.7470703233072
 20
93.1511710694071
 10
134.7345280227415
 20
93.17179857832039
 10
134.7201124515333
 20
93.19105881498318
 10
134.7039635666846
 20
93.20882258831665
 10
134.6861890274279
 20
93.2249822390885
 10
134.6669287907652
 20
93.23939781029671
 10
134.6463012818519
 20
93.25192934493921
 10
134.6244464576901
 20
93.26247994970699
 10
134.6014827434354
 20
93.27089890167473
 10
134.5775285642432
 20
93.2770677756869
 10
134.5527131111925
 20
93.28086814658795
 10
134.5271763412853
 20
93.28216005737582
 10
134.5271763412853
 20
93.28216005737582
 10
134.501639571378
 20
93.28086814658795
 10
134.4768241183273
 20
93.27707854161014
 10
134.4528807050584
 20
93.27089890167473
 10
134.4298954589572
 20
93.26247994970699
 10
134.4080514007186
 20
93.25192934493921
 10
134.3874238918054
 20
93.23938704437347
 10
134.3681636551426
 20
93.2249822390885
 10
134.3503891158859
 20
93.20882258831665
 10
134.3342402310373
 20
93.19105881498318
 10
134.3198246598291
 20
93.17179857832039
 10
134.3072823592633
 20
93.1511710694071
 10
134.2967425204188
 20
93.12931624524532
 10
134.2883128025278
 20
93.10635253099059
 10
134.2821439285156
 20
93.08239835179847
 10
134.2783435576146
 20
93.05758289874777
 10
134.2770516468267
 20
93.0320461288405
 10
134.2770516468267
 20
93.0320461288405
 10
134.2783435576146
 20
93.00649859300998
 10
134.2821439285156
 20
92.98169390588251
 10
134.2883128025278
 20
92.9577397266904
 10
134.2967317544955
 20
92.93476524651246
 10
134.3072823592633
 20
92.91291042235065
 10
134.3198246598291
 20
92.89228291343736
 10
134.334229465114
 20
92.87302267677458
 10
134.3503891158859
 20
92.85524813751786
 10
134.3681636551426
 20
92.83909925266926
 10
134.3874238918054
 20
92.8246944473843
 10
134.4080406347954
 20
92.81215214681853
 10
134.4299062248804
 20
92.80160154205078
 10
134.4528699391352
 20
92.79318259008303
 10
134.4768241183273
 20
92.78701371607086
 10
134.501639571378
 20
92.78321334516983
 97
        0
 75
     1
 76
     1
 98
        0
  0
LWPOLYLINE
  5
8A
330
1F
100
AcDbEntity
  8
ISS138金台
  6
Continuous
 62
   250
420
  2367521
370
    13
100
AcDbPolyline
 90
       68
 70
     0
 43
0.0
 10
134.5271763412853
 20
92.78192143438193
 10
134.5527238771158
 20
92.78321334516983
 10
134.5775285642432
 20
92.78701371607086
 10
134.6014827434354
 20
92.79318259008303
 10
134.6244464576901
 20
92.80160154205078
 10
134.6463120477751
 20
92.81215214681853
 10
134.6669287907652
 20
92.8246944473843
 10
134.6861890274279
 20
92.83909925266926
 10
134.7039635666846
 20
92.85524813751786
 10
134.7201232174565
 20
92.87302267677458
 10
134.7345280227415
 20
92.89228291343736
 10
134.7470703233072
 20
92.91291042235065
 10
134.757620928075
 20
92.93476524651246
 10
134.7660398800427
 20
92.9577397266904
 10
134.7722087540549
 20
92.98169390588251
 10
134.7760091249559
 20
93.00650935893322
 10
134.7773010357438
 20
93.0320461288405
 10
134.7773010357438
 20
93.0320461288405
 10
134.7760091249559
 20
93.05758289874777
 10
134.7722087540549
 20
93.08239835179847
 10
134.7660398800427
 20
93.10635253099059
 10
134.7576101621518
 20
93.12931624524532
 10
134.7470703233072
 20
93.1511710694071
 10
134.7345280227415
 20
93.17179857832039
 10
134.7201124515333
 20
93.19105881498318
 10
134.7039635666846
 20
93.20882258831665
 10
134.6861890274279
 20
93.2249822390885
 10
134.6669287907652
 20
93.23939781029671
 10
134.6463012818519
 20
93.25192934493921
 10
134.6244464576901
 20
93.26247994970699
 10
134.6014827434354
 20
93.27089890167473
 10
134.5775285642432
 20
93.2770677756869
 10
134.5527131111925
 20
93.28086814658795
 10
134.5271763412853
 20
93.28216005737582
 10
134.5271763412853
 20
93.28216005737582
 10
134.501639571378
 20
93.28086814658795
 10
134.4768241183273
 20
93.27707854161014
 10
134.4528807050584
 20
93.27089890167473
 10
134.4298954589572
 20
93.26247994970699
 10
134.4080514007186
 20
93.25192934493921
 10
134.3874238918054
 20
93.23938704437347
 10
134.3681636551426
 20
93.2249822390885
 10
134.3503891158859
 20
93.20882258831665
 10
134.3342402310373
 20
93.19105881498318
 10
134.3198246598291
 20
93.17179857832039
 10
134.3072823592633
 20
93.1511710694071
 10
134.2967425204188
 20
93.12931624524532
 10
134.2883128025278
 20
93.10635253099059
 10
134.2821439285156
 20
93.08239835179847
 10
134.2783435576146
 20
93.05758289874777
 10
134.2770516468267
 20
93.0320461288405
 10
134.2770516468267
 20
93.0320461288405
 10
134.2783435576146
 20
93.00649859300998
 10
134.2821439285156
 20
92.98169390588251
 10
134.2883128025278
 20
92.9577397266904
 10
134.2967317544955
 20
92.93476524651246
 10
134.3072823592633
 20
92.91291042235065
 10
134.3198246598291
 20
92.89228291343736
 10
134.334229465114
 20
92.87302267677458
 10
134.3503891158859
 20
92.85524813751786
 10
134.3681636551426
 20
92.83909925266926
 10
134.3874238918054
 20
92.8246944473843
 10
134.4080406347954
 20
92.81215214681853
 10
134.4299062248804
 20
92.80160154205078
 10
134.4528699391352
 20
92.79318259008303
 10
134.4768241183273
 20
92.78701371607086
 10
134.501639571378
 20
92.78321334516983
 10
134.5271763412853
 20
92.78192143438193
  0
HATCH
  5
8B
330
1F
100
AcDbEntity
  8
ISS138金台
  6
Continuous
 62
   250
420
  2367521
370
    13
100
AcDbHatch
 10
0.0
 20
0.0
 30
0.0
210
0.0
220
0.0
230
1.0
  2
SOLID
 70
     1
 71
     0
 91
        1
 92
        3
 72
     0
 73
     1
 93
       67
 10
140.0393290362788
 20
103.2550223207929
 10
140.0648765721093
 20
103.2563142315808
 10
140.0896812592368
 20
103.2601253684051
 10
140.1136354384289
 20
103.2662727105708
 10
140.1365991526836
 20
103.2747024284618
 10
140.1584647427687
 20
103.2852422673063
 10
140.1790814857587
 20
103.2977953337953
 10
140.1983417224215
 20
103.3122001390802
 10
140.2161162616782
 20
103.3283597898521
 10
140.2322759124501
 20
103.3461235631855
 10
140.246680717735
 20
103.3653837998483
 10
140.2592230183008
 20
103.3860113087616
 10
140.2697736230685
 20
103.4078661329234
 10
140.2781925750363
 20
103.4308406131014
 10
140.2843614490484
 20
103.4547947922935
 10
140.2881618199495
 20
103.4796102453442
 10
140.2894537307374
 20
103.5051470152515
 10
140.2894537307374
 20
103.5051470152515
 10
140.2881618199495
 20
103.5306837851588
 10
140.2843722149717
 20
103.5554992382094
 10
140.2781925750363
 20
103.5794534174016
 10
140.2697628571453
 20
103.6024171316563
 10
140.2592230183008
 20
103.6242719558181
 10
140.246680717735
 20
103.6448994647314
 10
140.2322651465268
 20
103.6641597013942
 10
140.2161162616782
 20
103.6819234747276
 10
140.1983524883447
 20
103.6980831254995
 10
140.1790814857587
 20
103.7124879307844
 10
140.1584539768454
 20
103.7250302313502
 10
140.1365991526836
 20
103.735580836118
 10
140.1136354384289
 20
103.7439997880857
 10
140.0896812592368
 20
103.7501686620979
 10
140.0648658061861
 20
103.7539690329989
 10
140.0393290362788
 20
103.7552609437868
 10
140.0393290362788
 20
103.7552609437868
 10
140.0137922663715
 20
103.7539690329989
 10
139.9889768133208
 20
103.7501794280211
 10
139.9650334000519
 20
103.7439890221625
 10
139.9420481539508
 20
103.735580836118
 10
139.920193329789
 20
103.7250302313502
 10
139.8995765867989
 20
103.7124879307844
 10
139.8803163501361
 20
103.6980831254995
 10
139.8625418108794
 20
103.6819234747276
 10
139.8463929260308
 20
103.6641597013942
 10
139.8319773548226
 20
103.6448994647314
 10
139.8194350542569
 20
103.6242827217413
 10
139.8088952154123
 20
103.6024171316563
 10
139.8004654975213
 20
103.5794426514783
 10
139.7942966235092
 20
103.5554992382094
 10
139.7904962526081
 20
103.5306837851588
 10
139.7892043418203
 20
103.5051470152515
 10
139.7892043418203
 20
103.5051470152515
 10
139.7904962526081
 20
103.4796102453442
 10
139.7942966235092
 20
103.4547840263703
 10
139.8004654975213
 20
103.4308298471781
 10
139.8088844494891
 20
103.4078768988467
 10
139.8194350542569
 20
103.3860005428384
 10
139.8319773548226
 20
103.3653837998483
 10
139.8463821601076
 20
103.3461235631855
 10
139.8625418108794
 20
103.3283597898521
 10
139.8803163501361
 20
103.3122001390802
 10
139.8995765867989
 20
103.2977953337953
 10
139.920193329789
 20
103.2852530332295
 10
139.942058919874
 20
103.2747024284618
 10
139.9650226341287
 20
103.266283476494
 10
139.9889768133208
 20
103.2601146024818
 10
140.0137922663715
 20
103.2563142315808
 97
        0
 75
     1
 76
     1
 98
        0
  0
LWPOLYLINE
  5
8C
330
1F
100
AcDbEntity
  8
ISS138金台
  6
Continuous
 62
   250
420
  2367521
370
    13
100
AcDbPolyline
 90
       68
 70
     0
 43
0.0
 10
140.0393290362788
 20
103.2550223207929
 10
140.0648765721093
 20
103.2563142315808
 10
140.0896812592368
 20
103.2601253684051
 10
140.1136354384289
 20
103.2662727105708
 10
140.1365991526836
 20
103.2747024284618
 10
140.1584647427687
 20
103.2852422673063
 10
140.1790814857587
 20
103.2977953337953
 10
140.1983417224215
 20
103.3122001390802
 10
140.2161162616782
 20
103.3283597898521
 10
140.2322759124501
 20
103.3461235631855
 10
140.246680717735
 20
103.3653837998483
 10
140.2592230183008
 20
103.3860113087616
 10
140.2697736230685
 20
103.4078661329234
 10
140.2781925750363
 20
103.4308406131014
 10
140.2843614490484
 20
103.4547947922935
 10
140.2881618199495
 20
103.4796102453442
 10
140.2894537307374
 20
103.5051470152515
 10
140.2894537307374
 20
103.5051470152515
 10
140.2881618199495
 20
103.5306837851588
 10
140.2843722149717
 20
103.5554992382094
 10
140.2781925750363
 20
103.5794534174016
 10
140.2697628571453
 20
103.6024171316563
 10
140.2592230183008
 20
103.6242719558181
 10
140.246680717735
 20
103.6448994647314
 10
140.2322651465268
 20
103.6641597013942
 10
140.2161162616782
 20
103.6819234747276
 10
140.1983524883447
 20
103.6980831254995
 10
140.1790814857587
 20
103.7124879307844
 10
140.1584539768454
 20
103.7250302313502
 10
140.1365991526836
 20
103.735580836118
 10
140.1136354384289
 20
103.7439997880857
 10
140.0896812592368
 20
103.7501686620979
 10
140.0648658061861
 20
103.7539690329989
 10
140.0393290362788
 20
103.7552609437868
 10
140.0393290362788
 20
103.7552609437868
 10
140.0137922663715
 20
103.7539690329989
 10
139.9889768133208
 20
103.7501794280211
 10
139.9650334000519
 20
103.7439890221625
 10
139.9420481539508
 20
103.735580836118
 10
139.920193329789
 20
103.7250302313502
 10
139.8995765867989
 20
103.7124879307844
 10
139.8803163501361
 20
103.6980831254995
 10
139.8625418108794
 20
103.6819234747276
 10
139.8463929260308
 20
103.6641597013942
 10
139.8319773548226
 20
103.6448994647314
 10
139.8194350542569
 20
103.6242827217413
 10
139.8088952154123
 20
103.6024171316563
 10
139.8004654975213
 20
103.5794426514783
 10
139.7942966235092
 20
103.5554992382094
 10
139.7904962526081
 20
103.5306837851588
 10
139.7892043418203
 20
103.5051470152515
 10
139.7892043418203
 20
103.5051470152515
 10
139.7904962526081
 20
103.4796102453442
 10
139.7942966235092
 20
103.4547840263703
 10
139.8004654975213
 20
103.4308298471781
 10
139.8088844494891
 20
103.4078768988467
 10
139.8194350542569
 20
103.3860005428384
 10
139.8319773548226
 20
103.3653837998483
 10
139.8463821601076
 20
103.3461235631855
 10
139.8625418108794
 20
103.3283597898521
 10
139.8803163501361
 20
103.3122001390802
 10
139.8995765867989
 20
103.2977953337953
 10
139.920193329789
 20
103.2852530332295
 10
139.942058919874
 20
103.2747024284618
 10
139.9650226341287
 20
103.266283476494
 10
139.9889768133208
 20
103.2601146024818
 10
140.0137922663715
 20
103.2563142315808
 10
140.0393290362788
 20
103.2550223207929
  0
HATCH
  5
8D
330
1F
100
AcDbEntity
  8
ISS138金台
  6
Continuous
 62
   250
420
  2367521
370
    13
100
AcDbHatch
 10
0.0
 20
0.0
 30
0.0
210
0.0
220
0.0
230
1.0
  2
SOLID
 70
     1
 71
     0
 91
        1
 92
        3
 72
     0
 73
     1
 93
       67
 10
140.0393290362788
 20
104.1593598723153
 10
140.0648765721093
 20
104.1606517831032
 10
140.0896812592368
 20
104.1644198562345
 10
140.1136354384289
 20
104.170556432477
 10
140.1365991526836
 20
104.178943086675
 10
140.1584647427687
 20
104.1894398618266
 10
140.1790814857587
 20
104.2019283327762
 10
140.1983417224215
 20
104.216279308445
 10
140.2161162616782
 20
104.2323851296007
 10
140.2322759124501
 20
104.2501058392413
 10
140.246680717735
 20
104.2693337781344
 10
140.2592230183008
 20
104.2899182233547
 10
140.2697736230685
 20
104.3117622815933
 10
140.2781925750363
 20
104.334725995848
 10
140.2843614490484
 20
104.3586909409633
 10
140.2881618199495
 20
104.3835386917838
 10
140.2894537307374
 20
104.4091292913072
 10
140.2894537307374
 20
104.4091292913072
 10
140.2881618199495
 20
104.4347198908306
 10
140.2843722149717
 20
104.459567641651
 10
140.2781925750363
 20
104.4835325867664
 10
140.2697628571453
 20
104.5064855350979
 10
140.2592230183008
 20
104.5283295933364
 10
140.246680717735
 20
104.54892480448
 10
140.2322651465268
 20
104.5681419774499
 10
140.2161162616782
 20
104.5858734530136
 10
140.1983524883447
 20
104.6019685082461
 10
140.1790814857587
 20
104.6163194839149
 10
140.1584539768454
 20
104.6288187207877
 10
140.1365991526836
 20
104.6393154959393
 10
140.1136354384289
 20
104.6476913842141
 10
140.0896812592368
 20
104.6538279604566
 10
140.0648658061861
 20
104.6576067995112
 10
140.0393290362788
 20
104.6588879443758
 10
140.0393290362788
 20
104.6588879443758
 10
140.0137922663715
 20
104.6576067995112
 10
139.9889768133208
 20
104.6538387263798
 10
139.9650334000519
 20
104.6476913842141
 10
139.9420481539508
 20
104.6393047300161
 10
139.920193329789
 20
104.6288187207877
 10
139.8995765867989
 20
104.6163302498381
 10
139.8803163501361
 20
104.6019685082461
 10
139.8625418108794
 20
104.5858626870904
 10
139.8463929260308
 20
104.5681419774499
 10
139.8319773548226
 20
104.54892480448
 10
139.8194350542569
 20
104.5283295933364
 10
139.8088952154123
 20
104.5064963010211
 10
139.8004654975213
 20
104.4835325867664
 10
139.7942966235092
 20
104.459567641651
 10
139.7904962526081
 20
104.4347198908306
 10
139.7892043418203
 20
104.4091292913072
 10
139.7892043418203
 20
104.4091292913072
 10
139.7904962526081
 20
104.3835386917838
 10
139.7942966235092
 20
104.3586909409633
 10
139.8004654975213
 20
104.3347367617712
 10
139.8088844494891
 20
104.3117622815933
 10
139.8194350542569
 20
104.2899182233547
 10
139.8319773548226
 20
104.2693230122111
 10
139.8463821601076
 20
104.2501058392413
 10
139.8625418108794
 20
104.2323851296007
 10
139.8803163501361
 20
104.216279308445
 10
139.8995765867989
 20
104.2019283327762
 10
139.920193329789
 20
104.1894290959034
 10
139.942058919874
 20
104.1789323207518
 10
139.9650226341287
 20
104.170556432477
 10
139.9889768133208
 20
104.1644198562345
 10
140.0137922663715
 20
104.1606410171799
 97
        0
 75
     1
 76
     1
 98
        0
  0
LWPOLYLINE
  5
8E
330
1F
100
AcDbEntity
  8
ISS138金台
  6
Continuous
 62
   250
420
  2367521
370
    13
100
AcDbPolyline
 90
       68
 70
     0
 43
0.0
 10
140.0393290362788
 20
104.1593598723153
 10
140.0648765721093
 20
104.1606517831032
 10
140.0896812592368
 20
104.1644198562345
 10
140.1136354384289
 20
104.170556432477
 10
140.1365991526836
 20
104.178943086675
 10
140.1584647427687
 20
104.1894398618266
 10
140.1790814857587
 20
104.2019283327762
 10
140.1983417224215
 20
104.216279308445
 10
140.2161162616782
 20
104.2323851296007
 10
140.2322759124501
 20
104.2501058392413
 10
140.246680717735
 20
104.2693337781344
 10
140.2592230183008
 20
104.2899182233547
 10
140.2697736230685
 20
104.3117622815933
 10
140.2781925750363
 20
104.334725995848
 10
140.2843614490484
 20
104.3586909409633
 10
140.2881618199495
 20
104.3835386917838
 10
140.2894537307374
 20
104.4091292913072
 10
140.2894537307374
 20
104.4091292913072
 10
140.2881618199495
 20
104.4347198908306
 10
140.2843722149717
 20
104.459567641651
 10
140.2781925750363
 20
104.4835325867664
 10
140.2697628571453
 20
104.5064855350979
 10
140.2592230183008
 20
104.5283295933364
 10
140.246680717735
 20
104.54892480448
 10
140.2322651465268
 20
104.5681419774499
 10
140.2161162616782
 20
104.5858734530136
 10
140.1983524883447
 20
104.6019685082461
 10
140.1790814857587
 20
104.6163194839149
 10
140.1584539768454
 20
104.6288187207877
 10
140.1365991526836
 20
104.6393154959393
 10
140.1136354384289
 20
104.6476913842141
 10
140.0896812592368
 20
104.6538279604566
 10
140.0648658061861
 20
104.6576067995112
 10
140.0393290362788
 20
104.6588879443758
 10
140.0393290362788
 20
104.6588879443758
 10
140.0137922663715
 20
104.6576067995112
 10
139.9889768133208
 20
104.6538387263798
 10
139.9650334000519
 20
104.6476913842141
 10
139.9420481539508
 20
104.6393047300161
 10
139.920193329789
 20
104.6288187207877
 10
139.8995765867989
 20
104.6163302498381
 10
139.8803163501361
 20
104.6019685082461
 10
139.8625418108794
 20
104.5858626870904
 10
139.8463929260308
 20
104.5681419774499
 10
139.8319773548226
 20
104.54892480448
 10
139.8194350542569
 20
104.5283295933364
 10
139.8088952154123
 20
104.5064963010211
 10
139.8004654975213
 20
104.4835325867664
 10
139.7942966235092
 20
104.459567641651
 10
139.7904962526081
 20
104.4347198908306
 10
139.7892043418203
 20
104.4091292913072
 10
139.7892043418203
 20
104.4091292913072
 10
139.7904962526081
 20
104.3835386917838
 10
139.7942966235092
 20
104.3586909409633
 10
139.8004654975213
 20
104.3347367617712
 10
139.8088844494891
 20
104.3117622815933
 10
139.8194350542569
 20
104.2899182233547
 10
139.8319773548226
 20
104.2693230122111
 10
139.8463821601076
 20
104.2501058392413
 10
139.8625418108794
 20
104.2323851296007
 10
139.8803163501361
 20
104.216279308445
 10
139.8995765867989
 20
104.2019283327762
 10
139.920193329789
 20
104.1894290959034
 10
139.942058919874
 20
104.1789323207518
 10
139.9650226341287
 20
104.170556432477
 10
139.9889768133208
 20
104.1644198562345
 10
140.0137922663715
 20
104.1606410171799
 10
140.0393290362788
 20
104.1593598723153
  0
HATCH
  5
8F
330
1F
100
AcDbEntity
  8
ISS138金台
  6
Continuous
 62
   250
420
  2367521
370
    13
100
AcDbHatch
 10
0.0
 20
0.0
 30
0.0
210
0.0
220
0.0
230
1.0
  2
SOLID
 70
     1
 71
     0
 91
        1
 92
        3
 72
     0
 73
     1
 93
       67
 10
145.022315072553
 20
104.1593598723153
 10
145.0478626083835
 20
104.1606517831032
 10
145.0726672955109
 20
104.1644198562345
 10
145.0966214747031
 20
104.170556432477
 10
145.1195851889578
 20
104.178943086675
 10
145.1414507790428
 20
104.1894398618266
 10
145.1620675220329
 20
104.2019283327762
 10
145.1813277586957
 20
104.216279308445
 10
145.1991022979524
 20
104.2323851296007
 10
145.2152619487242
 20
104.2501058392413
 10
145.2296667540092
 20
104.2693337781344
 10
145.2422090545749
 20
104.2899182233547
 10
145.2527596593427
 20
104.3117622815933
 10
145.2611786113104
 20
104.334725995848
 10
145.2673474853226
 20
104.3586909409633
 10
145.2711478562236
 20
104.3835386917838
 10
145.2724397670115
 20
104.4091292913072
 10
145.2724397670115
 20
104.4091292913072
 10
145.2711478562236
 20
104.4347198908306
 10
145.2673582512459
 20
104.459567641651
 10
145.2611786113104
 20
104.4835325867664
 10
145.2527488934195
 20
104.5064855350979
 10
145.2422090545749
 20
104.5283295933364
 10
145.2296667540092
 20
104.54892480448
 10
145.215251182801
 20
104.5681419774499
 10
145.1991022979524
 20
104.5858734530136
 10
145.1813385246189
 20
104.6019685082461
 10
145.1620675220329
 20
104.6163194839149
 10
145.1414400131196
 20
104.6288187207877
 10
145.1195851889578
 20
104.6393154959393
 10
145.0966214747031
 20
104.6476913842141
 10
145.0726672955109
 20
104.6538279604566
 10
145.0478518424603
 20
104.6576067995112
 10
145.022315072553
 20
104.6588879443758
 10
145.022315072553
 20
104.6588879443758
 10
144.9967783026457
 20
104.6576067995112
 10
144.971962849595
 20
104.6538387263798
 10
144.9480194363261
 20
104.6476913842141
 10
144.9250341902249
 20
104.6393047300161
 10
144.9031793660631
 20
104.6288187207877
 10
144.8825626230731
 20
104.6163302498381
 10
144.8633023864103
 20
104.6019685082461
 10
144.8455278471536
 20
104.5858626870904
 10
144.829378962305
 20
104.5681419774499
 10
144.8149633910968
 20
104.54892480448
 10
144.802421090531
 20
104.5283295933364
 10
144.7918812516865
 20
104.5064963010211
 10
144.7834515337955
 20
104.4835325867664
 10
144.7772826597833
 20
104.459567641651
 10
144.7734822888823
 20
104.4347198908306
 10
144.7721903780944
 20
104.4091292913072
 10
144.7721903780944
 20
104.4091292913072
 10
144.7734822888823
 20
104.3835386917838
 10
144.7772826597833
 20
104.3586909409633
 10
144.7834515337955
 20
104.3347367617712
 10
144.7918704857632
 20
104.3117622815933
 10
144.802421090531
 20
104.2899182233547
 10
144.8149633910968
 20
104.2693230122111
 10
144.8293681963817
 20
104.2501058392413
 10
144.8455278471536
 20
104.2323851296007
 10
144.8633023864103
 20
104.216279308445
 10
144.8825518571498
 20
104.2019283327762
 10
144.9031793660631
 20
104.1894290959034
 10
144.9250449561482
 20
104.1789323207518
 10
144.9480086704029
 20
104.170556432477
 10
144.971962849595
 20
104.1644198562345
 10
144.9967783026457
 20
104.1606410171799
 97
        0
 75
     1
 76
     1
 98
        0
  0
LWPOLYLINE
  5
90
330
1F
100
AcDbEntity
  8
ISS138金台
  6
Continuous
 62
   250
420
  2367521
370
    13
100
AcDbPolyline
 90
       68
 70
     0
 43
0.0
 10
145.022315072553
 20
104.1593598723153
 10
145.0478626083835
 20
104.1606517831032
 10
145.0726672955109
 20
104.1644198562345
 10
145.0966214747031
 20
104.170556432477
 10
145.1195851889578
 20
104.178943086675
 10
145.1414507790428
 20
104.1894398618266
 10
145.1620675220329
 20
104.2019283327762
 10
145.1813277586957
 20
104.216279308445
 10
145.1991022979524
 20
104.2323851296007
 10
145.2152619487242
 20
104.2501058392413
 10
145.2296667540092
 20
104.2693337781344
 10
145.2422090545749
 20
104.2899182233547
 10
145.2527596593427
 20
104.3117622815933
 10
145.2611786113104
 20
104.334725995848
 10
145.2673474853226
 20
104.3586909409633
 10
145.2711478562236
 20
104.3835386917838
 10
145.2724397670115
 20
104.4091292913072
 10
145.2724397670115
 20
104.4091292913072
 10
145.2711478562236
 20
104.4347198908306
 10
145.2673582512459
 20
104.459567641651
 10
145.2611786113104
 20
104.4835325867664
 10
145.2527488934195
 20
104.5064855350979
 10
145.2422090545749
 20
104.5283295933364
 10
145.2296667540092
 20
104.54892480448
 10
145.215251182801
 20
104.5681419774499
 10
145.1991022979524
 20
104.5858734530136
 10
145.1813385246189
 20
104.6019685082461
 10
145.1620675220329
 20
104.6163194839149
 10
145.1414400131196
 20
104.6288187207877
 10
145.1195851889578
 20
104.6393154959393
 10
145.0966214747031
 20
104.6476913842141
 10
145.0726672955109
 20
104.6538279604566
 10
145.0478518424603
 20
104.6576067995112
 10
145.022315072553
 20
104.6588879443758
 10
145.022315072553
 20
104.6588879443758
 10
144.9967783026457
 20
104.6576067995112
 10
144.971962849595
 20
104.6538387263798
 10
144.9480194363261
 20
104.6476913842141
 10
144.9250341902249
 20
104.6393047300161
 10
144.9031793660631
 20
104.6288187207877
 10
144.8825626230731
 20
104.6163302498381
 10
144.8633023864103
 20
104.6019685082461
 10
144.8455278471536
 20
104.5858626870904
 10
144.829378962305
 20
104.5681419774499
 10
144.8149633910968
 20
104.54892480448
 10
144.802421090531
 20
104.5283295933364
 10
144.7918812516865
 20
104.5064963010211
 10
144.7834515337955
 20
104.4835325867664
 10
144.7772826597833
 20
104.459567641651
 10
144.7734822888823
 20
104.4347198908306
 10
144.7721903780944
 20
104.4091292913072
 10
144.7721903780944
 20
104.4091292913072
 10
144.7734822888823
 20
104.3835386917838
 10
144.7772826597833
 20
104.3586909409633
 10
144.7834515337955
 20
104.3347367617712
 10
144.7918704857632
 20
104.3117622815933
 10
144.802421090531
 20
104.2899182233547
 10
144.8149633910968
 20
104.2693230122111
 10
144.8293681963817
 20
104.2501058392413
 10
144.8455278471536
 20
104.2323851296007
 10
144.8633023864103
 20
104.216279308445
 10
144.8825518571498
 20
104.2019283327762
 10
144.9031793660631
 20
104.1894290959034
 10
144.9250449561482
 20
104.1789323207518
 10
144.9480086704029
 20
104.170556432477
 10
144.971962849595
 20
104.1644198562345
 10
144.9967783026457
 20
104.1606410171799
 10
145.022315072553
 20
104.1593598723153
  0
HATCH
  5
91
330
1F
100
AcDbEntity
  8
ISS138金台
  6
Continuous
 62
   250
420
  2367521
370
    13
100
AcDbHatch
 10
0.0
 20
0.0
 30
0.0
210
0.0
220
0.0
230
1.0
  2
SOLID
 70
     1
 71
     0
 91
        1
 92
        3
 72
     0
 73
     1
 93
       67
 10
145.022315072553
 20
106.4303775485759
 10
145.0478626083835
 20
106.4316586934405
 10
145.0726672955109
 20
106.4354375324951
 10
145.0966214747031
 20
106.4415741087376
 10
145.1195851889578
 20
106.4499607629356
 10
145.1414507790428
 20
106.460446772164
 10
145.1620675220329
 20
106.4729460090368
 10
145.1813277586957
 20
106.4873077506288
 10
145.1991022979524
 20
106.5034028058613
 10
145.2152619487242
 20
106.5211235155018
 10
145.2296667540092
 20
106.5403514543949
 10
145.2422090545749
 20
106.5609358996153
 10
145.2527596593427
 20
106.5827799578538
 10
145.2611786113104
 20
106.6057436721086
 10
145.2673474853226
 20
106.6297086172239
 10
145.2711478562236
 20
106.6545563680443
 10
145.2724397670115
 20
106.6801469675678
 10
145.2724397670115
 20
106.6801469675678
 10
145.2711478562236
 20
106.7057483330144
 10
145.2673582512459
 20
106.7305853179116
 10
145.2611786113104
 20
106.7545394971037
 10
145.2527488934195
 20
106.7775247432049
 10
145.2422090545749
 20
106.799347269597
 10
145.2296667540092
 20
106.8199424807406
 10
145.215251182801
 20
106.8391596537104
 10
145.1991022979524
 20
106.8568911292742
 10
145.1813385246189
 20
106.8729861845067
 10
145.1620675220329
 20
106.8873479260987
 10
145.1414400131196
 20
106.8998256311251
 10
145.1195851889578
 20
106.9103331721999
 10
145.0966214747031
 20
106.9187090604747
 10
145.0726672955109
 20
106.9248456367172
 10
145.0478518424603
 20
106.9286244757718
 10
145.022315072553
 20
106.9299056206364
 10
145.022315072553
 20
106.9299056206364
 10
144.9967783026457
 20
106.9286137098485
 10
144.971962849595
 20
106.9248456367172
 10
144.9480194363261
 20
106.9186982945515
 10
144.9250341902249
 20
106.9103224062767
 10
144.9031793660631
 20
106.8998256311251
 10
144.8825626230731
 20
106.8873479260987
 10
144.8633023864103
 20
106.8729861845067
 10
144.8455278471536
 20
106.856880363351
 10
144.829378962305
 20
106.8391596537104
 10
144.8149633910968
 20
106.8199424807406
 10
144.802421090531
 20
106.799347269597
 10
144.7918812516865
 20
106.7775139772817
 10
144.7834515337955
 20
106.7545502630269
 10
144.7772826597833
 20
106.7305853179116
 10
144.7734822888823
 20
106.7057375670912
 10
144.7721903780944
 20
106.6801469675678
 10
144.7721903780944
 20
106.6801469675678
 10
144.7734822888823
 20
106.6545563680443
 10
144.7772826597833
 20
106.6297086172239
 10
144.7834515337955
 20
106.6057436721086
 10
144.7918704857632
 20
106.5827907237771
 10
144.802421090531
 20
106.5609358996153
 10
144.8149633910968
 20
106.5403406884717
 10
144.8293681963817
 20
106.5211342814251
 10
144.8455278471536
 20
106.5034028058613
 10
144.8633023864103
 20
106.4873077506288
 10
144.8825518571498
 20
106.4729460090368
 10
144.9031793660631
 20
106.4604575380872
 10
144.9250449561482
 20
106.4499607629356
 10
144.9480086704029
 20
106.4415741087376
 10
144.971962849595
 20
106.4354375324951
 10
144.9967783026457
 20
106.4316586934405
 97
        0
 75
     1
 76
     1
 98
        0
  0
LWPOLYLINE
  5
92
330
1F
100
AcDbEntity
  8
ISS138金台
  6
Continuous
 62
   250
420
  2367521
370
    13
100
AcDbPolyline
 90
       68
 70
     0
 43
0.0
 10
145.022315072553
 20
106.4303775485759
 10
145.0478626083835
 20
106.4316586934405
 10
145.0726672955109
 20
106.4354375324951
 10
145.0966214747031
 20
106.4415741087376
 10
145.1195851889578
 20
106.4499607629356
 10
145.1414507790428
 20
106.460446772164
 10
145.1620675220329
 20
106.4729460090368
 10
145.1813277586957
 20
106.4873077506288
 10
145.1991022979524
 20
106.5034028058613
 10
145.2152619487242
 20
106.5211235155018
 10
145.2296667540092
 20
106.5403514543949
 10
145.2422090545749
 20
106.5609358996153
 10
145.2527596593427
 20
106.5827799578538
 10
145.2611786113104
 20
106.6057436721086
 10
145.2673474853226
 20
106.6297086172239
 10
145.2711478562236
 20
106.6545563680443
 10
145.2724397670115
 20
106.6801469675678
 10
145.2724397670115
 20
106.6801469675678
 10
145.2711478562236
 20
106.7057483330144
 10
145.2673582512459
 20
106.7305853179116
 10
145.2611786113104
 20
106.7545394971037
 10
145.2527488934195
 20
106.7775247432049
 10
145.2422090545749
 20
106.799347269597
 10
145.2296667540092
 20
106.8199424807406
 10
145.215251182801
 20
106.8391596537104
 10
145.1991022979524
 20
106.8568911292742
 10
145.1813385246189
 20
106.8729861845067
 10
145.1620675220329
 20
106.8873479260987
 10
145.1414400131196
 20
106.8998256311251
 10
145.1195851889578
 20
106.9103331721999
 10
145.0966214747031
 20
106.9187090604747
 10
145.0726672955109
 20
106.9248456367172
 10
145.0478518424603
 20
106.9286244757718
 10
145.022315072553
 20
106.9299056206364
 10
145.022315072553
 20
106.9299056206364
 10
144.9967783026457
 20
106.9286137098485
 10
144.971962849595
 20
106.9248456367172
 10
144.9480194363261
 20
106.9186982945515
 10
144.9250341902249
 20
106.9103224062767
 10
144.9031793660631
 20
106.8998256311251
 10
144.8825626230731
 20
106.8873479260987
 10
144.8633023864103
 20
106.8729861845067
 10
144.8455278471536
 20
106.856880363351
 10
144.829378962305
 20
106.8391596537104
 10
144.8149633910968
 20
106.8199424807406
 10
144.802421090531
 20
106.799347269597
 10
144.7918812516865
 20
106.7775139772817
 10
144.7834515337955
 20
106.7545502630269
 10
144.7772826597833
 20
106.7305853179116
 10
144.7734822888823
 20
106.7057375670912
 10
144.7721903780944
 20
106.6801469675678
 10
144.7721903780944
 20
106.6801469675678
 10
144.7734822888823
 20
106.6545563680443
 10
144.7772826597833
 20
106.6297086172239
 10
144.7834515337955
 20
106.6057436721086
 10
144.7918704857632
 20
106.5827907237771
 10
144.802421090531
 20
106.5609358996153
 10
144.8149633910968
 20
106.5403406884717
 10
144.8293681963817
 20
106.5211342814251
 10
144.8455278471536
 20
106.5034028058613
 10
144.8633023864103
 20
106.4873077506288
 10
144.8825518571498
 20
106.4729460090368
 10
144.9031793660631
 20
106.4604575380872
 10
144.9250449561482
 20
106.4499607629356
 10
144.9480086704029
 20
106.4415741087376
 10
144.971962849595
 20
106.4354375324951
 10
144.9967783026457
 20
106.4316586934405
 10
145.022315072553
 20
106.4303775485759
  0
TEXT
  5
93
330
1F
100
AcDbEntity
  8
ISS138金台
  6
Continuous
 62
   250
420
  2367521
100
AcDbText
 10
111.5304860636954
 20
114.1777222001532
 30
0.0
 40
2.150533301035563
  1
7
 41
1.024999618530273
  7
MS Gothic
100
AcDbText
  0
TEXT
  5
94
330
1F
100
AcDbEntity
  8
ISS138金台
  6
Continuous
 62
   250
420
  2367521
100
AcDbText
 10
101.4311639931498
 20
103.6374386625371
 30
0.0
 40
2.150533301035563
  1
4.1
 50
90.00000250447816
 41
0.798000733057658
  7
MS Gothic
100
AcDbText
  0
TEXT
  5
95
330
1F
100
AcDbEntity
  8
ISS138金台
  6
Continuous
 62
   250
420
  2367521
100
AcDbText
 10
120.1735414894453
 20
94.15759437785985
 30
0.0
 40
2.150533301035563
  1
26
 41
0.9480018615722654
  7
MS Gothic
100
AcDbText
  0
TEXT
  5
96
330
1F
100
AcDbEntity
  8
ISS138金台
  6
Continuous
 62
   250
420
  2367521
100
AcDbText
 10
140.0603300796646
 20
107.2974972860896
 30
0.0
 40
2.150533301035563
  1
0 .  8
 50
90.00000250447816
 41
0.432000478108724
  7
MS Gothic
100
AcDbText
  0
TEXT
  5
97
330
1F
100
AcDbEntity
  8
ISS138金台
  6
Continuous
 62
   250
420
  2367521
100
AcDbText
 10
145.0443711764155
 20
108.4884775436749
 30
0.0
 40
2.150533301035563
  1
2 .  5
 50
90.00000250447816
 41
0.418999989827474
  7
MS Gothic
100
AcDbText
  0
LINE
  5
98
330
1F
100
AcDbEntity
  8
ISS138金台
  6
UserDefined01
 62
   140
420
    44526
370
    13
100
AcDbLine
 10
126.4573847958147
 20
98.67650125443711
 30
0.0
 11
134.5712735628452
 21
98.67650125443711
 31
0.0
  0
TEXT
  5
99
330
1F
100
AcDbEntity
  8
ISS138金台
  6
Continuous
 62
   140
420
    44526
100
AcDbText
 10
129.6163758202844
 20
99.46565436555072
 30
0.0
 40
1.881716638406118
  1
8
 41
1.097499302455357
  7
MS Gothic
100
AcDbText
  0
HATCH
  5
9A
330
1F
100
AcDbEntity
  8
ISS138金台
  6
Continuous
 62
   140
420
    44526
370
    50
100
AcDbHatch
 10
0.0
 20
0.0
 30
0.0
210
0.0
220
0.0
230
1.0
  2
SOLID
 70
     1
 71
     0
 91
        1
 92
        3
 72
     0
 73
     1
 93
        3
 10
125.5906095504502
 20
107.8483680634397
 10
127.3223944297691
 20
107.8476575125064
 10
126.4573847958147
 20
106.3494178058681
 97
        0
 75
     1
 76
     1
 98
        0
  0
LWPOLYLINE
  5
9B
330
1F
100
AcDbEntity
  8
ISS138金台
  6
Continuous
 62
   140
420
    44526
370
    50
100
AcDbPolyline
 90
        4
 70
     0
 43
0.0
 10
125.5906095504502
 20
107.8483680634397
 10
127.3223944297691
 20
107.8476575125064
 10
126.4573847958147
 20
106.3494178058681
 10
125.5906095504502
 20
107.8483680634397
  0
ENDSEC
  0
SECTION
  2
OBJECTS
  0
DICTIONARY
  5
C
330
0
100
AcDbDictionary
281
     1
  3
ACAD_DETAILVIEWSTYLE
350
A3
  3
ACAD_GROUP
350
D
  3
ACAD_LAYOUT
350
1A
  3
ACAD_MATERIAL
350
43
  3
ACAD_MLEADERSTYLE
350
5B
  3
ACAD_MLINESTYLE
350
17
  3
ACAD_PLOTSETTINGS
350
19
  3
ACAD_PLOTSTYLENAME
350
E
  3
ACAD_SCALELIST
350
47
  3
ACAD_SECTIONVIEWSTYLE
350
A4
  3
ACAD_TABLESTYLE
350
59
  3
ACAD_VISUALSTYLE
350
2A
  3
ACDB_RECOMPOSE_DATA
350
A0
  3
AcDbVariableDictionary
350
9C
  0
SUN
  5
5D
330
29
100
AcDbSun
 90
        1
290
     0
 63
     7
421
 16777215
 40
1.0
291
     1
 91
  2455826
 92
 54000000
292
     0
 70
     2
 71
   256
280
     1
  0
DICTIONARY
  5
A3
102
{ACAD_REACTORS
330
C
102
}
330
C
100
AcDbDictionary
281
     1
  0
DICTIONARY
  5
D
102
{ACAD_REACTORS
330
C
102
}
330
C
100
AcDbDictionary
281
     1
  0
DICTIONARY
  5
1A
102
{ACAD_REACTORS
330
C
102
}
330
C
100
AcDbDictionary
281
     1
  3
Layout1
350
1E
  3
Layout2
350
26
  3
Model
350
22
  0
DICTIONARY
  5
43
102
{ACAD_REACTORS
330
C
102
}
330
C
100
AcDbDictionary
281
     1
  3
ByBlock
350
45
  3
ByLayer
350
44
  3
Global
350
46
  0
DICTIONARY
  5
5B
102
{ACAD_REACTORS
330
C
102
}
330
C
100
AcDbDictionary
281
     1
  3
Standard
350
5C
  0
DICTIONARY
  5
17
102
{ACAD_REACTORS
330
C
102
}
330
C
100
AcDbDictionary
281
     1
  3
Standard
350
18
  0
DICTIONARY
  5
19
102
{ACAD_REACTORS
330
C
102
}
330
C
100
AcDbDictionary
281
     1
  0
ACDBDICTIONARYWDFLT
  5
E
102
{ACAD_REACTORS
330
C
102
}
330
C
100
AcDbDictionary
281
     1
  3
Normal
350
F
100
AcDbDictionaryWithDefault
340
F
  0
DICTIONARY
  5
47
102
{ACAD_REACTORS
330
C
102
}
330
C
100
AcDbDictionary
281
     1
  3
A0
350
48
  3
A1
350
49
  3
A2
350
4A
  3
A3
350
4B
  3
A4
350
4C
  3
A5
350
4D
  3
A6
350
4E
  3
A7
350
4F
  3
A8
350
50
  3
A9
350
51
  3
B0
350
52
  3
B1
350
53
  3
B2
350
54
  3
B3
350
55
  3
B4
350
56
  3
B5
350
57
  3
B6
350
58
  0
DICTIONARY
  5
A4
102
{ACAD_REACTORS
330
C
102
}
330
C
100
AcDbDictionary
281
     1
  0
DICTIONARY
  5
59
102
{ACAD_REACTORS
330
C
102
}
330
C
100
AcDbDictionary
281
     1
  3
Standard
350
5A
  0
DICTIONARY
  5
2A
102
{ACAD_REACTORS
330
C
102
}
330
C
100
AcDbDictionary
281
     1
  3
2dWireframe
350
2F
  3
Basic
350
32
  3
Brighten
350
36
  3
ColorChange
350
3A
  3
Conceptual
350
34
  3
Dim
350
35
  3
EdgeColorOff
350
3D
  3
Facepattern
350
39
  3
Flat
350
2B
  3
FlatWithEdges
350
2C
  3
Gouraud
350
2D
  3
GouraudWithEdges
350
2E
  3
Hidden
350
31
  3
JitterOff
350
3B
  3
Linepattern
350
38
  3
OverhangOff
350
3C
  3
Realistic
350
33
  3
Shaded
350
42
  3
Shaded with edges
350
41
  3
Shades of Gray
350
3E
  3
Sketchy
350
3F
  3
Thicken
350
37
  3
Wireframe
350
30
  3
X-Ray
350
40
  0
XRECORD
  5
A0
102
{ACAD_REACTORS
330
C
102
}
330
C
100
AcDbXrecord
280
     1
 90
        1
330
5A
  0
DICTIONARY
  5
9C
102
{ACAD_REACTORS
330
C
102
}
330
C
100
AcDbDictionary
281
     1
  3
CANNOSCALE
350
9D
  3
CENTEREXE
350
A5
  3
CENTERLTYPEFILE
350
A6
  3
CMLEADERSTYLE
350
A2
  3
CTABLESTYLE
350
A1
  0
LAYOUT
  5
1E
102
{ACAD_REACTORS
330
1A
102
}
330
1A
100
AcDbPlotSettings
  1

  2
none_device
  4

  6

 40
0.0
 41
0.0
 42
0.0
 43
0.0
 44
0.0
 45
0.0
 46
0.0
 47
0.0
 48
0.0
 49
0.0
140
0.0
141
0.0
142
1.0
143
1.0
 70
   688
 72
     1
 73
     0
 74
     5
  7

 75
    16
 76
     0
 77
     5
 78
   300
147
1.0
148
0.0
149
0.0
100
AcDbLayout
  1
Layout1
 70
     1
 71
     1
 10
0.0
 20
0.0
 11
420.0
 21
297.0
 12
0.0
 22
0.0
 32
0.0
 14
1.000000000000000E+20
 24
1.000000000000000E+20
 34
1.000000000000000E+20
 15
-1.000000000000000E+20
 25
-1.000000000000000E+20
 35
-1.000000000000000E+20
146
0.0
 13
0.0
 23
0.0
 33
0.0
 16
1.0
 26
0.0
 36
0.0
 17
0.0
 27
1.0
 37
0.0
 76
     0
330
1B
  0
LAYOUT
  5
26
102
{ACAD_REACTORS
330
1A
102
}
330
1A
100
AcDbPlotSettings
  1

  2
none_device
  4

  6

 40
0.0
 41
0.0
 42
0.0
 43
0.0
 44
0.0
 45
0.0
 46
0.0
 47
0.0
 48
0.0
 49
0.0
140
0.0
141
0.0
142
1.0
143
1.0
 70
   688
 72
     1
 73
     0
 74
     5
  7

 75
    16
 76
     0
 77
     5
 78
   300
147
1.0
148
0.0
149
0.0
100
AcDbLayout
  1
Layout2
 70
     1
 71
     2
 10
0.0
 20
0.0
 11
0.0
 21
0.0
 12
0.0
 22
0.0
 32
0.0
 14
0.0
 24
0.0
 34
0.0
 15
0.0
 25
0.0
 35
0.0
146
0.0
 13
0.0
 23
0.0
 33
0.0
 16
1.0
 26
0.0
 36
0.0
 17
0.0
 27
1.0
 37
0.0
 76
     0
330
23
  0
LAYOUT
  5
22
102
{ACAD_REACTORS
330
1A
102
}
330
1A
100
AcDbPlotSettings
  1

  2
none_device
  4
Letter_(8.50_x_11.00_Inches)
  6

 40
6.35
 41
6.35
 42
6.35000508
 43
6.35000508
 44
215.9
 45
279.4
 46
0.0
 47
0.0
 48
0.0
 49
0.0
140
0.0
141
0.0
142
1.0
143
1.0
 70
  1712
 72
     1
 73
     0
 74
     0
  7

 75
     0
 76
     0
 77
     5
 78
   300
147
1.0
148
0.0
149
0.0
100
AcDbLayout
  1
Model
 70
     1
 71
     0
 10
0.0
 20
0.0
 11
302.9997823349792
 21
216.0016055409748
 12
0.0
 22
0.0
 32
0.0
 14
0.0
 24
0.0
 34
0.0
 15
302.9997823349792
 25
216.0016055409748
 35
0.0
146
0.0
 13
0.0
 23
0.0
 33
0.0
 16
1.0
 26
0.0
 36
0.0
 17
0.0
 27
1.0
 37
0.0
 76
     0
330
1F
331
29
  0
MATERIAL
  5
45
102
{ACAD_REACTORS
330
43
102
}
330
43
100
AcDbMaterial
  1
ByBlock
 72
     1
 94
      127
  0
MATERIAL
  5
44
102
{ACAD_REACTORS
330
43
102
}
330
43
100
AcDbMaterial
  1
ByLayer
 72
     1
 94
      127
  0
MATERIAL
  5
46
102
{ACAD_REACTORS
330
43
102
}
330
43
100
AcDbMaterial
  1
Global
 72
     1
 94
      127
  0
MLEADERSTYLE
  5
5C
102
{ACAD_REACTORS
330
5B
102
}
330
5B
100
AcDbMLeaderStyle
179
     2
170
     2
171
     1
172
     0
 90
        2
 40
0.0
 41
0.0
173
     1
 91
-1056964608
340
14
 92
       -2
290
     1
 42
2.0
291
     1
 43
8.0
  3
Standard
341
0
 44
4.0
300

342
11
174
     1
178
     6
175
     1
176
     0
 93
-1056964608
 45
4.0
292
     0
297
     0
 46
4.0
343
0
 94
-1056964608
 47
1.0
 49
1.0
140
1.0
293
     1
141
0.0
294
     1
177
     0
142
1.0
295
     0
296
     0
143
3.75
271
     0
272
     9
273
     9
298
     0
  0
MLINESTYLE
  5
18
102
{ACAD_REACTORS
330
17
102
}
330
17
100
AcDbMlineStyle
  2
Standard
 70
     0
  3

 62
   256
 51
90.0
 52
90.0
 71
     2
 49
0.5
 62
   256
  6
BYLAYER
 49
-0.5
 62
   256
  6
BYLAYER
  0
ACDBPLACEHOLDER
  5
F
102
{ACAD_REACTORS
330
E
102
}
330
E
  0
SCALE
  5
48
102
{ACAD_REACTORS
330
47
102
}
330
47
100
AcDbScale
 70
     0
300
1:1
140
1.0
141
1.0
290
     1
  0
SCALE
  5
49
102
{ACAD_REACTORS
330
47
102
}
330
47
100
AcDbScale
 70
     0
300
1:2
140
1.0
141
2.0
290
     0
  0
SCALE
  5
4A
102
{ACAD_REACTORS
330
47
102
}
330
47
100
AcDbScale
 70
     0
300
1:4
140
1.0
141
4.0
290
     0
  0
SCALE
  5
4B
102
{ACAD_REACTORS
330
47
102
}
330
47
100
AcDbScale
 70
     0
300
1:5
140
1.0
141
5.0
290
     0
  0
SCALE
  5
4C
102
{ACAD_REACTORS
330
47
102
}
330
47
100
AcDbScale
 70
     0
300
1:8
140
1.0
141
8.0
290
     0
  0
SCALE
  5
4D
102
{ACAD_REACTORS
330
47
102
}
330
47
100
AcDbScale
 70
     0
300
1:10
140
1.0
141
10.0
290
     0
  0
SCALE
  5
4E
102
{ACAD_REACTORS
330
47
102
}
330
47
100
AcDbScale
 70
     0
300
1:16
140
1.0
141
16.0
290
     0
  0
SCALE
  5
4F
102
{ACAD_REACTORS
330
47
102
}
330
47
100
AcDbScale
 70
     0
300
1:20
140
1.0
141
20.0
290
     0
  0
SCALE
  5
50
102
{ACAD_REACTORS
330
47
102
}
330
47
100
AcDbScale
 70
     0
300
1:30
140
1.0
141
30.0
290
     0
  0
SCALE
  5
51
102
{ACAD_REACTORS
330
47
102
}
330
47
100
AcDbScale
 70
     0
300
1:40
140
1.0
141
40.0
290
     0
  0
SCALE
  5
52
102
{ACAD_REACTORS
330
47
102
}
330
47
100
AcDbScale
 70
     0
300
1:50
140
1.0
141
50.0
290
     0
  0
SCALE
  5
53
102
{ACAD_REACTORS
330
47
102
}
330
47
100
AcDbScale
 70
     0
300
1:100
140
1.0
141
100.0
290
     0
  0
SCALE
  5
54
102
{ACAD_REACTORS
330
47
102
}
330
47
100
AcDbScale
 70
     0
300
2:1
140
2.0
141
1.0
290
     0
  0
SCALE
  5
55
102
{ACAD_REACTORS
330
47
102
}
330
47
100
AcDbScale
 70
     0
300
4:1
140
4.0
141
1.0
290
     0
  0
SCALE
  5
56
102
{ACAD_REACTORS
330
47
102
}
330
47
100
AcDbScale
 70
     0
300
8:1
140
8.0
141
1.0
290
     0
  0
SCALE
  5
57
102
{ACAD_REACTORS
330
47
102
}
330
47
100
AcDbScale
 70
     0
300
10:1
140
10.0
141
1.0
290
     0
  0
SCALE
  5
58
102
{ACAD_REACTORS
330
47
102
}
330
47
100
AcDbScale
 70
     0
300
100:1
140
100.0
141
1.0
290
     0
  0
TABLESTYLE
  5
5A
102
{ACAD_REACTORS
330
59
102
}
102
{ACAD_XDICTIONARY
360
9E
102
}
330
59
100
AcDbTableStyle
  3
Standard
 70
     0
 71
     0
 40
0.06
 41
0.06
280
     0
281
     0
  7
Standard
140
4.5
170
     2
 62
     0
 63
   257
283
     0
 90
        4
 91
        0
  1

274
    -2
284
     1
 64
     0
275
    -2
285
     1
 65
     0
276
    -2
286
     1
 66
     0
277
    -2
287
     1
 67
     0
278
    -2
288
     1
 68
     0
279
    -2
289
     1
 69
     0
  7
Standard
140
6.0
170
     5
 62
     0
 63
   257
283
     0
 90
        4
 91
        0
  1

274
    -2
284
     1
 64
     0
275
    -2
285
     1
 65
     0
276
    -2
286
     1
 66
     0
277
    -2
287
     1
 67
     0
278
    -2
288
     1
 68
     0
279
    -2
289
     1
 69
     0
  7
Standard
140
4.5
170
     5
 62
     0
 63
   257
283
     0
 90
        4
 91
        0
  1

274
    -2
284
     1
 64
     0
275
    -2
285
     1
 65
     0
276
    -2
286
     1
 66
     0
277
    -2
287
     1
 67
     0
278
    -2
288
     1
 68
     0
279
    -2
289
     1
 69
     0
  0
VISUALSTYLE
  5
2F
102
{ACAD_REACTORS
330
2A
102
}
330
2A
100
AcDbVisualStyle
  2
2dWireframe
 70
     4
177
     3
291
     0
 70
    58
 90
        0
176
     1
 90
        2
176
     1
 90
        0
176
     1
 90
        0
176
     1
 40
0.6
176
     1
 40
30.0
176
     1
 62
     7
420
 16777215
176
     1
 90
        1
176
     1
 90
        4
176
     1
 62
     7
176
     1
 62
   257
176
     1
 90
        1
176
     1
 90
        1
176
     1
 40
1.0
176
     1
 90
        0
176
     1
 62
   257
176
     1
 40
1.0
176
     1
 90
        1
176
     1
 90
        6
176
     1
 90
        2
176
     1
 62
     7
176
     1
 90
        5
176
     1
 90
        0
176
     1
 90
        0
176
     1
290
     0
176
     1
 90
        1
176
     1
 40
0.0
176
     1
 90
        0
176
     1
290
     1
176
     1
290
     1
176
     1
290
     0
176
     1
290
     0
176
     1
290
     0
176
     1
290
     0
176
     1
290
     0
176
     1
290
     0
176
     1
290
     0
176
     1
 90
       50
176
     1
 40
0.0
176
     1
 40
1.0
176
     1
 90
        0
176
     1
 62
    18
420
        0
176
     1
 90
       50
176
     1
 90
        3
176
     1
 62
     5
420
      255
176
     1
290
     0
176
     1
 90
       50
176
     1
 90
       50
176
     1
 90
       50
176
     1
290
     0
176
     1
 90
       50
176
     1
 62
   256
176
     0
 40
1.0
176
     0
 90
        2
176
     1
  1
strokes_ogs.tif
176
     1
290
     0
176
     1
 40
1.0
176
     1
 40
1.0
176
     1
  0
VISUALSTYLE
  5
32
102
{ACAD_REACTORS
330
2A
102
}
330
2A
100
AcDbVisualStyle
  2
Basic
 70
     7
177
     3
291
     1
 70
    58
 90
        1
176
     1
 90
        0
176
     1
 90
        1
176
     1
 90
        0
176
     1
 40
0.6
176
     1
 40
30.0
176
     1
 62
     7
420
 16777215
176
     1
 90
        0
176
     1
 90
        4
176
     1
 62
     7
176
     1
 62
   257
176
     1
 90
        1
176
     1
 90
        1
176
     1
 40
1.0
176
     1
 90
        8
176
     1
 62
     7
176
     1
 40
1.0
176
     1
 90
        1
176
     1
 90
        6
176
     1
 90
        2
176
     1
 62
     7
176
     1
 90
        5
176
     1
 90
        0
176
     1
 90
        0
176
     1
290
     0
176
     1
 90
        1
176
     1
 40
0.0
176
     1
 90
        0
176
     1
290
     0
176
     1
290
     1
176
     1
290
     1
176
     1
290
     0
176
     1
290
     0
176
     1
290
     0
176
     1
290
     0
176
     1
290
     0
176
     1
290
     0
176
     1
 90
       50
176
     1
 40
0.0
176
     1
 40
1.0
176
     1
 90
        0
176
     1
 62
    18
420
        0
176
     1
 90
       50
176
     1
 90
        3
176
     1
 62
     5
420
      255
176
     1
290
     0
176
     1
 90
       50
176
     1
 90
       50
176
     1
 90
       50
176
     1
290
     0
176
     1
 90
       50
176
     1
 62
   256
176
     0
 40
1.0
176
     0
 90
        2
176
     1
  1
strokes_ogs.tif
176
     1
290
     0
176
     1
 40
1.0
176
     1
 40
1.0
176
     1
  0
VISUALSTYLE
  5
36
102
{ACAD_REACTORS
330
2A
102
}
330
2A
100
AcDbVisualStyle
  2
Brighten
 70
    12
177
     3
291
     1
 70
    58
 90
        2
176
     1
 90
        2
176
     1
 90
        0
176
     1
 90
        0
176
     1
 40
0.6
176
     1
 40
30.0
176
     1
 62
     7
420
 16777215
176
     1
 90
        1
176
     1
 90
        4
176
     1
 62
     7
176
     1
 62
   257
176
     1
 90
        1
176
     1
 90
        1
176
     1
 40
1.0
176
     1
 90
        8
176
     1
 62
     7
176
     1
 40
1.0
176
     1
 90
        1
176
     1
 90
        6
176
     1
 90
        2
176
     1
 62
     7
176
     1
 90
        5
176
     1
 90
        0
176
     1
 90
        0
176
     1
290
     0
176
     1
 90
        1
176
     1
 40
50.0
176
     1
 90
        0
176
     1
290
     0
176
     1
290
     1
176
     1
290
     1
176
     1
290
     0
176
     1
290
     0
176
     1
290
     0
176
     1
290
     0
176
     1
290
     0
176
     1
290
     0
176
     1
 90
       50
176
     1
 40
0.0
176
     1
 40
1.0
176
     1
 90
        0
176
     1
 62
    18
420
        0
176
     1
 90
       50
176
     1
 90
        3
176
     1
 62
     5
420
      255
176
     1
290
     0
176
     1
 90
       50
176
     1
 90
       50
176
     1
 90
       50
176
     1
290
     0
176
     1
 90
       50
176
     1
 62
   256
176
     0
 40
1.0
176
     0
 90
        2
176
     1
  1
strokes_ogs.tif
176
     1
290
     0
176
     1
 40
1.0
176
     1
 40
1.0
176
     1
  0
VISUALSTYLE
  5
3A
102
{ACAD_REACTORS
330
2A
102
}
330
2A
100
AcDbVisualStyle
  2
ColorChange
 70
    16
177
     3
291
     1
 70
    58
 90
        2
176
     1
 90
        2
176
     1
 90
        3
176
     1
 90
        0
176
     1
 40
0.6
176
     1
 40
30.0
176
     1
 62
     8
420
  8421504
176
     1
 90
        1
176
     1
 90
        4
176
     1
 62
     7
176
     1
 62
   257
176
     1
 90
        1
176
     1
 90
        1
176
     1
 40
1.0
176
     1
 90
        8
176
     1
 62
     8
420
  8421504
176
     1
 40
1.0
176
     1
 90
        1
176
     1
 90
        6
176
     1
 90
        2
176
     1
 62
     7
176
     1
 90
        5
176
     1
 90
        0
176
     1
 90
        0
176
     1
290
     0
176
     1
 90
        1
176
     1
 40
0.0
176
     1
 90
        0
176
     1
290
     0
176
     1
290
     1
176
     1
290
     1
176
     1
290
     0
176
     1
290
     0
176
     1
290
     0
176
     1
290
     0
176
     1
290
     0
176
     1
290
     0
176
     1
 90
       50
176
     1
 40
0.0
176
     1
 40
1.0
176
     1
 90
        0
176
     1
 62
    18
420
        0
176
     1
 90
       50
176
     1
 90
        3
176
     1
 62
     5
420
      255
176
     1
290
     0
176
     1
 90
       50
176
     1
 90
       50
176
     1
 90
       50
176
     1
290
     0
176
     1
 90
       50
176
     1
 62
   256
176
     0
 40
1.0
176
     0
 90
        2
176
     1
  1
strokes_ogs.tif
176
     1
290
     0
176
     1
 40
1.0
176
     1
 40
1.0
176
     1
  0
VISUALSTYLE
  5
34
102
{ACAD_REACTORS
330
2A
102
}
330
2A
100
AcDbVisualStyle
  2
Conceptual
 70
     9
177
     3
291
     0
 70
    58
 90
        3
176
     1
 90
        2
176
     1
 90
        0
176
     1
 90
        0
176
     1
 40
0.6
176
     1
 40
30.0
176
     1
 62
     7
420
 16777215
176
     1
 90
        2
176
     1
 90
        2
176
     1
 62
     7
176
     1
 62
   257
176
     1
 90
        1
176
     1
 90
        1
176
     1
 40
179.0
176
     1
 90
        8
176
     1
 62
     7
176
     1
 40
1.0
176
     1
 90
        1
176
     1
 90
        6
176
     1
 90
        2
176
     1
 62
     7
176
     1
 90
        3
176
     1
 90
        0
176
     1
 90
        0
176
     1
290
     0
176
     1
 90
        1
176
     1
 40
0.0
176
     1
 90
        0
176
     1
290
     0
176
     1
290
     1
176
     1
290
     1
176
     1
290
     0
176
     1
290
     0
176
     1
290
     0
176
     1
290
     0
176
     1
290
     0
176
     1
290
     0
176
     1
 90
       50
176
     1
 40
0.0
176
     1
 40
1.0
176
     1
 90
        0
176
     1
 62
    18
420
        0
176
     1
 90
       50
176
     1
 90
        3
176
     1
 62
     5
420
      255
176
     1
290
     0
176
     1
 90
       50
176
     1
 90
       50
176
     1
 90
       50
176
     1
290
     0
176
     1
 90
       50
176
     1
 62
   256
176
     0
 40
1.0
176
     0
 90
        2
176
     1
  1
strokes_ogs.tif
176
     1
290
     0
176
     1
 40
1.0
176
     1
 40
1.0
176
     1
  0
VISUALSTYLE
  5
35
102
{ACAD_REACTORS
330
2A
102
}
330
2A
100
AcDbVisualStyle
  2
Dim
 70
    11
177
     3
291
     1
 70
    58
 90
        2
176
     1
 90
        2
176
     1
 90
        0
176
     1
 90
        0
176
     1
 40
0.6
176
     1
 40
30.0
176
     1
 62
     7
420
 16777215
176
     1
 90
        1
176
     1
 90
        4
176
     1
 62
     7
176
     1
 62
   257
176
     1
 90
        1
176
     1
 90
        1
176
     1
 40
1.0
176
     1
 90
        8
176
     1
 62
     7
176
     1
 40
1.0
176
     1
 90
        1
176
     1
 90
        6
176
     1
 90
        2
176
     1
 62
     7
176
     1
 90
        5
176
     1
 90
        0
176
     1
 90
        0
176
     1
290
     0
176
     1
 90
        1
176
     1
 40
-50.0
176
     1
 90
        0
176
     1
290
     0
176
     1
290
     1
176
     1
290
     1
176
     1
290
     0
176
     1
290
     0
176
     1
290
     0
176
     1
290
     0
176
     1
290
     0
176
     1
290
     0
176
     1
 90
       50
176
     1
 40
0.0
176
     1
 40
1.0
176
     1
 90
        0
176
     1
 62
    18
420
        0
176
     1
 90
       50
176
     1
 90
        3
176
     1
 62
     5
420
      255
176
     1
290
     0
176
     1
 90
       50
176
     1
 90
       50
176
     1
 90
       50
176
     1
290
     0
176
     1
 90
       50
176
     1
 62
   256
176
     0
 40
1.0
176
     0
 90
        2
176
     1
  1
strokes_ogs.tif
176
     1
290
     0
176
     1
 40
1.0
176
     1
 40
1.0
176
     1
  0
VISUALSTYLE
  5
3D
102
{ACAD_REACTORS
330
2A
102
}
330
2A
100
AcDbVisualStyle
  2
EdgeColorOff
 70
    22
177
     3
291
     1
 70
    58
 90
        2
176
     0
 90
        2
176
     0
 90
        0
176
     0
 90
        0
176
     0
 40
0.6
176
     0
 40
30.0
176
     0
 62
     7
420
 16777215
176
     0
 90
        1
176
     0
 90
        4
176
     0
 62
     7
176
     0
 62
   257
176
     0
 90
        1
176
     0
 90
        1
176
     0
 40
1.0
176
     0
 90
        8
176
     2
 62
     7
176
     0
 40
1.0
176
     0
 90
        1
176
     0
 90
        6
176
     0
 90
        2
176
     0
 62
     7
176
     0
 90
        5
176
     0
 90
        0
176
     0
 90
        0
176
     0
290
     0
176
     0
 90
        1
176
     0
 40
0.0
176
     0
 90
        0
176
     0
290
     0
176
     0
290
     1
176
     0
290
     1
176
     0
290
     0
176
     0
290
     0
176
     0
290
     0
176
     0
290
     0
176
     0
290
     0
176
     0
290
     0
176
     0
 90
       50
176
     0
 40
0.0
176
     0
 40
1.0
176
     0
 90
        0
176
     0
 62
    18
420
        0
176
     0
 90
       50
176
     0
 90
        3
176
     0
 62
     5
420
      255
176
     0
290
     0
176
     0
 90
       50
176
     0
 90
       50
176
     0
 90
       50
176
     0
290
     0
176
     0
 90
       50
176
     0
 62
   256
176
     0
 40
1.0
176
     0
 90
        2
176
     0
  1
strokes_ogs.tif
176
     0
290
     0
176
     0
 40
1.0
176
     0
 40
1.0
176
     0
  0
VISUALSTYLE
  5
39
102
{ACAD_REACTORS
330
2A
102
}
330
2A
100
AcDbVisualStyle
  2
Facepattern
 70
    15
177
     3
291
     1
 70
    58
 90
        2
176
     1
 90
        2
176
     1
 90
        0
176
     1
 90
        0
176
     1
 40
0.6
176
     1
 40
30.0
176
     1
 62
     7
420
 16777215
176
     1
 90
        1
176
     1
 90
        4
176
     1
 62
     7
176
     1
 62
   257
176
     1
 90
        1
176
     1
 90
        1
176
     1
 40
1.0
176
     1
 90
        8
176
     1
 62
     7
176
     1
 40
1.0
176
     1
 90
        1
176
     1
 90
        6
176
     1
 90
        2
176
     1
 62
     7
176
     1
 90
        5
176
     1
 90
        0
176
     1
 90
        0
176
     1
290
     0
176
     1
 90
        1
176
     1
 40
0.0
176
     1
 90
        0
176
     1
290
     0
176
     1
290
     1
176
     1
290
     1
176
     1
290
     0
176
     1
290
     0
176
     1
290
     0
176
     1
290
     0
176
     1
290
     0
176
     1
290
     0
176
     1
 90
       50
176
     1
 40
0.0
176
     1
 40
1.0
176
     1
 90
        0
176
     1
 62
    18
420
        0
176
     1
 90
       50
176
     1
 90
        3
176
     1
 62
     5
420
      255
176
     1
290
     0
176
     1
 90
       50
176
     1
 90
       50
176
     1
 90
       50
176
     1
290
     0
176
     1
 90
       50
176
     1
 62
   256
176
     0
 40
1.0
176
     0
 90
        2
176
     1
  1
strokes_ogs.tif
176
     1
290
     0
176
     1
 40
1.0
176
     1
 40
1.0
176
     1
  0
VISUALSTYLE
  5
2B
102
{ACAD_REACTORS
330
2A
102
}
330
2A
100
AcDbVisualStyle
  2
Flat
 70
     0
177
     3
291
     1
 70
    58
 90
        2
176
     1
 90
        1
176
     1
 90
        1
176
     1
 90
        2
176
     1
 40
0.6
176
     1
 40
30.0
176
     1
 62
     7
420
 16777215
176
     1
 90
        0
176
     1
 90
        0
176
     1
 62
     7
176
     1
 62
   257
176
     1
 90
        1
176
     1
 90
        1
176
     1
 40
1.0
176
     1
 90
        8
176
     1
 62
     7
176
     1
 40
1.0
176
     1
 90
        1
176
     1
 90
        6
176
     1
 90
        2
176
     1
 62
     7
176
     1
 90
        5
176
     1
 90
        0
176
     1
 90
        0
176
     1
290
     0
176
     1
 90
       13
176
     1
 40
0.0
176
     1
 90
        0
176
     1
290
     0
176
     1
290
     1
176
     1
290
     1
176
     1
290
     0
176
     1
290
     0
176
     1
290
     0
176
     1
290
     0
176
     1
290
     0
176
     1
290
     0
176
     1
 90
       50
176
     1
 40
0.0
176
     1
 40
1.0
176
     1
 90
        0
176
     1
 62
    18
420
        0
176
     1
 90
       50
176
     1
 90
        3
176
     1
 62
     5
420
      255
176
     1
290
     0
176
     1
 90
       50
176
     1
 90
       50
176
     1
 90
       50
176
     1
290
     0
176
     1
 90
       50
176
     1
 62
   256
176
     0
 40
1.0
176
     0
 90
        2
176
     1
  1
strokes_ogs.tif
176
     1
290
     0
176
     1
 40
1.0
176
     1
 40
1.0
176
     1
  0
VISUALSTYLE
  5
2C
102
{ACAD_REACTORS
330
2A
102
}
330
2A
100
AcDbVisualStyle
  2
FlatWithEdges
 70
     1
177
     3
291
     1
 70
    58
 90
        2
176
     1
 90
        1
176
     1
 90
        1
176
     1
 90
        2
176
     1
 40
0.6
176
     1
 40
30.0
176
     1
 62
     7
420
 16777215
176
     1
 90
        1
176
     1
 90
        0
176
     1
 62
     7
176
     1
 62
   257
176
     1
 90
        1
176
     1
 90
        1
176
     1
 40
1.0
176
     1
 90
        0
176
     1
 62
   257
176
     1
 40
1.0
176
     1
 90
        1
176
     1
 90
        6
176
     1
 90
        2
176
     1
 62
     7
176
     1
 90
        5
176
     1
 90
        0
176
     1
 90
        0
176
     1
290
     0
176
     1
 90
       13
176
     1
 40
0.0
176
     1
 90
        0
176
     1
290
     0
176
     1
290
     1
176
     1
290
     1
176
     1
290
     0
176
     1
290
     0
176
     1
290
     0
176
     1
290
     0
176
     1
290
     0
176
     1
290
     0
176
     1
 90
       50
176
     1
 40
0.0
176
     1
 40
1.0
176
     1
 90
        0
176
     1
 62
    18
420
        0
176
     1
 90
       50
176
     1
 90
        3
176
     1
 62
     5
420
      255
176
     1
290
     0
176
     1
 90
       50
176
     1
 90
       50
176
     1
 90
       50
176
     1
290
     0
176
     1
 90
       50
176
     1
 62
   256
176
     0
 40
1.0
176
     0
 90
        2
176
     1
  1
strokes_ogs.tif
176
     1
290
     0
176
     1
 40
1.0
176
     1
 40
1.0
176
     1
  0
VISUALSTYLE
  5
2D
102
{ACAD_REACTORS
330
2A
102
}
330
2A
100
AcDbVisualStyle
  2
Gouraud
 70
     2
177
     3
291
     1
 70
    58
 90
        2
176
     1
 90
        2
176
     1
 90
        1
176
     1
 90
        2
176
     1
 40
0.6
176
     1
 40
30.0
176
     1
 62
     7
420
 16777215
176
     1
 90
        0
176
     1
 90
        0
176
     1
 62
     7
176
     1
 62
   257
176
     1
 90
        1
176
     1
 90
        1
176
     1
 40
1.0
176
     1
 90
        0
176
     1
 62
     7
176
     1
 40
1.0
176
     1
 90
        1
176
     1
 90
        6
176
     1
 90
        2
176
     1
 62
     7
176
     1
 90
        5
176
     1
 90
        0
176
     1
 90
        0
176
     1
290
     0
176
     1
 90
       13
176
     1
 40
0.0
176
     1
 90
        0
176
     1
290
     0
176
     1
290
     1
176
     1
290
     1
176
     1
290
     0
176
     1
290
     0
176
     1
290
     0
176
     1
290
     0
176
     1
290
     0
176
     1
290
     0
176
     1
 90
       50
176
     1
 40
0.0
176
     1
 40
1.0
176
     1
 90
        0
176
     1
 62
    18
420
        0
176
     1
 90
       50
176
     1
 90
        3
176
     1
 62
     5
420
      255
176
     1
290
     0
176
     1
 90
       50
176
     1
 90
       50
176
     1
 90
       50
176
     1
290
     0
176
     1
 90
       50
176
     1
 62
   256
176
     0
 40
1.0
176
     0
 90
        2
176
     1
  1
strokes_ogs.tif
176
     1
290
     0
176
     1
 40
1.0
176
     1
 40
1.0
176
     1
  0
VISUALSTYLE
  5
2E
102
{ACAD_REACTORS
330
2A
102
}
330
2A
100
AcDbVisualStyle
  2
GouraudWithEdges
 70
     3
177
     3
291
     1
 70
    58
 90
        2
176
     1
 90
        2
176
     1
 90
        1
176
     1
 90
        2
176
     1
 40
0.6
176
     1
 40
30.0
176
     1
 62
     7
420
 16777215
176
     1
 90
        1
176
     1
 90
        0
176
     1
 62
     7
176
     1
 62
   257
176
     1
 90
        1
176
     1
 90
        1
176
     1
 40
1.0
176
     1
 90
        0
176
     1
 62
   257
176
     1
 40
1.0
176
     1
 90
        1
176
     1
 90
        6
176
     1
 90
        2
176
     1
 62
     7
176
     1
 90
        5
176
     1
 90
        0
176
     1
 90
        0
176
     1
290
     0
176
     1
 90
       13
176
     1
 40
0.0
176
     1
 90
        0
176
     1
290
     0
176
     1
290
     1
176
     1
290
     1
176
     1
290
     0
176
     1
290
     0
176
     1
290
     0
176
     1
290
     0
176
     1
290
     0
176
     1
290
     0
176
     1
 90
       50
176
     1
 40
0.0
176
     1
 40
1.0
176
     1
 90
        0
176
     1
 62
    18
420
        0
176
     1
 90
       50
176
     1
 90
        3
176
     1
 62
     5
420
      255
176
     1
290
     0
176
     1
 90
       50
176
     1
 90
       50
176
     1
 90
       50
176
     1
290
     0
176
     1
 90
       50
176
     1
 62
   256
176
     0
 40
1.0
176
     0
 90
        2
176
     1
  1
strokes_ogs.tif
176
     1
290
     0
176
     1
 40
1.0
176
     1
 40
1.0
176
     1
  0
VISUALSTYLE
  5
31
102
{ACAD_REACTORS
330
2A
102
}
330
2A
100
AcDbVisualStyle
  2
Hidden
 70
     6
177
     3
291
     0
 70
    58
 90
        1
176
     1
 90
        2
176
     1
 90
        2
176
     1
 90
        0
176
     1
 40
0.6
176
     1
 40
30.0
176
     1
 62
     7
420
 16777215
176
     1
 90
        2
176
     1
 90
        2
176
     1
 62
     7
176
     1
 62
   257
176
     1
 90
        2
176
     1
 90
        1
176
     1
 40
40.0
176
     1
 90
        0
176
     1
 62
   257
176
     1
 40
1.0
176
     1
 90
        1
176
     1
 90
        6
176
     1
 90
        2
176
     1
 62
     7
176
     1
 90
        3
176
     1
 90
        0
176
     1
 90
        0
176
     1
290
     0
176
     1
 90
        1
176
     1
 40
0.0
176
     1
 90
        0
176
     1
290
     0
176
     1
290
     1
176
     1
290
     1
176
     1
290
     0
176
     1
290
     0
176
     1
290
     0
176
     1
290
     0
176
     1
290
     0
176
     1
290
     0
176
     1
 90
       50
176
     1
 40
0.0
176
     1
 40
1.0
176
     1
 90
        0
176
     1
 62
    18
420
        0
176
     1
 90
       50
176
     1
 90
        3
176
     1
 62
     5
420
      255
176
     1
290
     0
176
     1
 90
       50
176
     1
 90
       50
176
     1
 90
       50
176
     1
290
     0
176
     1
 90
       50
176
     1
 62
   256
176
     0
 40
1.0
176
     0
 90
        2
176
     1
  1
strokes_ogs.tif
176
     1
290
     0
176
     1
 40
1.0
176
     1
 40
1.0
176
     1
  0
VISUALSTYLE
  5
3B
102
{ACAD_REACTORS
330
2A
102
}
330
2A
100
AcDbVisualStyle
  2
JitterOff
 70
    20
177
     3
291
     1
 70
    58
 90
        2
176
     0
 90
        2
176
     0
 90
        0
176
     0
 90
        0
176
     0
 40
0.6
176
     0
 40
30.0
176
     0
 62
     7
420
 16777215
176
     0
 90
        1
176
     0
 90
        4
176
     0
 62
     7
176
     0
 62
   257
176
     0
 90
        1
176
     0
 90
        1
176
     0
 40
1.0
176
     0
 90
       10
176
     2
 62
     7
176
     0
 40
1.0
176
     0
 90
        1
176
     0
 90
        6
176
     0
 90
        2
176
     0
 62
     7
176
     0
 90
        5
176
     0
 90
        0
176
     0
 90
        0
176
     0
290
     0
176
     0
 90
        1
176
     0
 40
0.0
176
     0
 90
        0
176
     0
290
     0
176
     0
290
     1
176
     0
290
     1
176
     0
290
     0
176
     0
290
     0
176
     0
290
     0
176
     0
290
     0
176
     0
290
     0
176
     0
290
     0
176
     0
 90
       50
176
     0
 40
0.0
176
     0
 40
1.0
176
     0
 90
        0
176
     0
 62
    18
420
        0
176
     0
 90
       50
176
     0
 90
        3
176
     0
 62
     5
420
      255
176
     0
290
     0
176
     0
 90
       50
176
     0
 90
       50
176
     0
 90
       50
176
     0
290
     0
176
     0
 90
       50
176
     0
 62
   256
176
     0
 40
1.0
176
     0
 90
        2
176
     0
  1
strokes_ogs.tif
176
     0
290
     0
176
     0
 40
1.0
176
     0
 40
1.0
176
     0
  0
VISUALSTYLE
  5
38
102
{ACAD_REACTORS
330
2A
102
}
330
2A
100
AcDbVisualStyle
  2
Linepattern
 70
    14
177
     3
291
     1
 70
    58
 90
        2
176
     1
 90
        2
176
     1
 90
        0
176
     1
 90
        0
176
     1
 40
0.6
176
     1
 40
30.0
176
     1
 62
     7
420
 16777215
176
     1
 90
        1
176
     1
 90
        4
176
     1
 62
     7
176
     1
 62
   257
176
     1
 90
        7
176
     1
 90
        7
176
     1
 40
1.0
176
     1
 90
        8
176
     1
 62
     7
176
     1
 40
1.0
176
     1
 90
        1
176
     1
 90
        6
176
     1
 90
        2
176
     1
 62
     7
176
     1
 90
        5
176
     1
 90
        0
176
     1
 90
        0
176
     1
290
     0
176
     1
 90
        1
176
     1
 40
0.0
176
     1
 90
        0
176
     1
290
     0
176
     1
290
     1
176
     1
290
     1
176
     1
290
     0
176
     1
290
     0
176
     1
290
     0
176
     1
290
     0
176
     1
290
     0
176
     1
290
     0
176
     1
 90
       50
176
     1
 40
0.0
176
     1
 40
1.0
176
     1
 90
        0
176
     1
 62
    18
420
        0
176
     1
 90
       50
176
     1
 90
        3
176
     1
 62
     5
420
      255
176
     1
290
     0
176
     1
 90
       50
176
     1
 90
       50
176
     1
 90
       50
176
     1
290
     0
176
     1
 90
       50
176
     1
 62
   256
176
     0
 40
1.0
176
     0
 90
        2
176
     1
  1
strokes_ogs.tif
176
     1
290
     0
176
     1
 40
1.0
176
     1
 40
1.0
176
     1
  0
VISUALSTYLE
  5
3C
102
{ACAD_REACTORS
330
2A
102
}
330
2A
100
AcDbVisualStyle
  2
OverhangOff
 70
    21
177
     3
291
     1
 70
    58
 90
        2
176
     0
 90
        2
176
     0
 90
        0
176
     0
 90
        0
176
     0
 40
0.6
176
     0
 40
30.0
176
     0
 62
     7
420
 16777215
176
     0
 90
        1
176
     0
 90
        4
176
     0
 62
     7
176
     0
 62
   257
176
     0
 90
        1
176
     0
 90
        1
176
     0
 40
1.0
176
     0
 90
        9
176
     2
 62
     7
176
     0
 40
1.0
176
     0
 90
        1
176
     0
 90
        6
176
     0
 90
        2
176
     0
 62
     7
176
     0
 90
        5
176
     0
 90
        0
176
     0
 90
        0
176
     0
290
     0
176
     0
 90
        1
176
     0
 40
0.0
176
     0
 90
        0
176
     0
290
     0
176
     0
290
     1
176
     0
290
     1
176
     0
290
     0
176
     0
290
     0
176
     0
290
     0
176
     0
290
     0
176
     0
290
     0
176
     0
290
     0
176
     0
 90
       50
176
     0
 40
0.0
176
     0
 40
1.0
176
     0
 90
        0
176
     0
 62
    18
420
        0
176
     0
 90
       50
176
     0
 90
        3
176
     0
 62
     5
420
      255
176
     0
290
     0
176
     0
 90
       50
176
     0
 90
       50
176
     0
 90
       50
176
     0
290
     0
176
     0
 90
       50
176
     0
 62
   256
176
     0
 40
1.0
176
     0
 90
        2
176
     0
  1
strokes_ogs.tif
176
     0
290
     0
176
     0
 40
1.0
176
     0
 40
1.0
176
     0
  0
VISUALSTYLE
  5
33
102
{ACAD_REACTORS
330
2A
102
}
330
2A
100
AcDbVisualStyle
  2
Realistic
 70
     8
177
     3
291
     0
 70
    58
 90
        2
176
     1
 90
        3
176
     1
 90
        0
176
     1
 90
        2
176
     1
 40
0.6
176
     1
 40
30.0
176
     1
 62
     7
420
 16777215
176
     1
 90
        0
176
     1
 90
        0
176
     1
 62
     7
176
     1
 62
   257
176
     1
 90
        1
176
     1
 90
        1
176
     1
 40
1.0
176
     1
 90
        8
176
     1
 62
   257
176
     1
 40
1.0
176
     1
 90
        1
176
     1
 90
        6
176
     1
 90
        2
176
     1
 62
     7
176
     1
 90
        3
176
     1
 90
        0
176
     1
 90
        0
176
     1
290
     0
176
     1
 90
       13
176
     1
 40
0.0
176
     1
 90
        0
176
     1
290
     0
176
     1
290
     1
176
     1
290
     1
176
     1
290
     0
176
     1
290
     0
176
     1
290
     0
176
     1
290
     0
176
     1
290
     0
176
     1
290
     0
176
     1
 90
       50
176
     1
 40
0.0
176
     1
 40
1.0
176
     1
 90
        0
176
     1
 62
    18
420
        0
176
     1
 90
       50
176
     1
 90
        3
176
     1
 62
     5
420
      255
176
     1
290
     0
176
     1
 90
       50
176
     1
 90
       50
176
     1
 90
       50
176
     1
290
     0
176
     1
 90
       50
176
     1
 62
   256
176
     0
 40
1.0
176
     0
 90
        2
176
     1
  1
strokes_ogs.tif
176
     1
290
     0
176
     1
 40
1.0
176
     1
 40
1.0
176
     1
  0
VISUALSTYLE
  5
42
102
{ACAD_REACTORS
330
2A
102
}
330
2A
100
AcDbVisualStyle
  2
Shaded
 70
    27
177
     3
291
     0
 70
    58
 90
        2
176
     1
 90
        2
176
     1
 90
        1
176
     1
 90
        2
176
     1
 40
0.6
176
     1
 40
30.0
176
     1
 62
     7
420
 16777215
176
     1
 90
        0
176
     1
 90
        4
176
     1
 62
     7
176
     1
 62
   257
176
     1
 90
        1
176
     1
 90
        1
176
     1
 40
1.0
176
     1
 90
        8
176
     1
 62
   257
176
     1
 40
1.0
176
     1
 90
        1
176
     1
 90
        6
176
     1
 90
        2
176
     1
 62
     8
420
  7895160
176
     1
 90
        3
176
     1
 90
        0
176
     1
 90
        0
176
     1
290
     0
176
     1
 90
        5
176
     1
 40
0.0
176
     1
 90
        0
176
     1
290
     0
176
     1
290
     1
176
     1
290
     1
176
     1
290
     0
176
     1
290
     0
176
     1
290
     0
176
     1
290
     0
176
     1
290
     0
176
     1
290
     0
176
     1
 90
       50
176
     1
 40
0.0
176
     1
 40
1.0
176
     1
 90
        0
176
     1
 62
    18
420
        0
176
     1
 90
       50
176
     1
 90
        3
176
     1
 62
     5
420
      255
176
     1
290
     0
176
     1
 90
       50
176
     1
 90
       50
176
     1
 90
       50
176
     1
290
     0
176
     1
 90
       50
176
     1
 62
   256
176
     0
 40
1.0
176
     0
 90
        2
176
     1
  1
strokes_ogs.tif
176
     1
290
     0
176
     1
 40
1.0
176
     1
 40
1.0
176
     1
  0
VISUALSTYLE
  5
41
102
{ACAD_REACTORS
330
2A
102
}
330
2A
100
AcDbVisualStyle
  2
Shaded with edges
 70
    26
177
     3
291
     0
 70
    58
 90
        2
176
     1
 90
        2
176
     1
 90
        1
176
     1
 90
        2
176
     1
 40
0.6
176
     1
 40
30.0
176
     1
 62
     7
420
 16777215
176
     1
 90
        1
176
     1
 90
       10
176
     1
 62
     7
176
     1
 62
   257
176
     1
 90
        2
176
     1
 90
        1
176
     1
 40
1.0
176
     1
 90
        8
176
     1
 62
   257
176
     1
 40
1.0
176
     1
 90
        1
176
     1
 90
        6
176
     1
 90
        2
176
     1
 62
     7
176
     1
 90
        3
176
     1
 90
        0
176
     1
 90
        0
176
     1
290
     0
176
     1
 90
        5
176
     1
 40
0.0
176
     1
 90
        0
176
     1
290
     0
176
     1
290
     1
176
     1
290
     1
176
     1
290
     0
176
     1
290
     0
176
     1
290
     0
176
     1
290
     0
176
     1
290
     0
176
     1
290
     0
176
     1
 90
       50
176
     1
 40
0.0
176
     1
 40
1.0
176
     1
 90
        0
176
     1
 62
    18
420
        0
176
     1
 90
       50
176
     1
 90
        3
176
     1
 62
     5
420
      255
176
     1
290
     0
176
     1
 90
       50
176
     1
 90
       50
176
     1
 90
       50
176
     1
290
     0
176
     1
 90
       50
176
     1
 62
   256
176
     0
 40
1.0
176
     0
 90
        2
176
     1
  1
strokes_ogs.tif
176
     1
290
     0
176
     1
 40
1.0
176
     1
 40
1.0
176
     1
  0
VISUALSTYLE
  5
3E
102
{ACAD_REACTORS
330
2A
102
}
330
2A
100
AcDbVisualStyle
  2
Shades of Gray
 70
    23
177
     3
291
     0
 70
    58
 90
        2
176
     1
 90
        2
176
     1
 90
        3
176
     1
 90
        0
176
     1
 40
0.6
176
     1
 40
30.0
176
     1
 62
     7
420
 16777215
176
     1
 90
        2
176
     1
 90
        2
176
     1
 62
     7
176
     1
 62
     7
176
     1
 90
        1
176
     1
 90
        1
176
     1
 40
40.0
176
     1
 90
        8
176
     1
 62
     7
176
     1
 40
1.0
176
     1
 90
        1
176
     1
 90
        6
176
     1
 90
        2
176
     1
 62
     7
176
     1
 90
        3
176
     1
 90
        0
176
     1
 90
        0
176
     1
290
     0
176
     1
 90
        1
176
     1
 40
0.0
176
     1
 90
        0
176
     1
290
     0
176
     1
290
     1
176
     1
290
     1
176
     1
290
     0
176
     1
290
     0
176
     1
290
     0
176
     1
290
     0
176
     1
290
     0
176
     1
290
     0
176
     1
 90
       50
176
     1
 40
0.0
176
     1
 40
1.0
176
     1
 90
        0
176
     1
 62
    18
420
        0
176
     1
 90
       50
176
     1
 90
        3
176
     1
 62
     5
420
      255
176
     1
290
     0
176
     1
 90
       50
176
     1
 90
       50
176
     1
 90
       50
176
     1
290
     0
176
     1
 90
       50
176
     1
 62
   256
176
     0
 40
1.0
176
     0
 90
        2
176
     1
  1
strokes_ogs.tif
176
     1
290
     0
176
     1
 40
1.0
176
     1
 40
1.0
176
     1
  0
VISUALSTYLE
  5
3F
102
{ACAD_REACTORS
330
2A
102
}
330
2A
100
AcDbVisualStyle
  2
Sketchy
 70
    24
177
     3
291
     0
 70
    58
 90
        1
176
     1
 90
        2
176
     1
 90
        2
176
     1
 90
        0
176
     1
 40
0.6
176
     1
 40
30.0
176
     1
 62
     7
420
 16777215
176
     1
 90
        2
176
     1
 90
        2
176
     1
 62
     7
176
     1
 62
     7
176
     1
 90
        1
176
     1
 90
        1
176
     1
 40
40.0
176
     1
 90
       11
176
     1
 62
     7
176
     1
 40
1.0
176
     1
 90
        1
176
     1
 90
        6
176
     1
 90
        2
176
     1
 62
     7
176
     1
 90
        6
176
     1
 90
        0
176
     1
 90
        0
176
     1
290
     0
176
     1
 90
        1
176
     1
 40
0.0
176
     1
 90
        0
176
     1
290
     0
176
     1
290
     1
176
     1
290
     1
176
     1
290
     0
176
     1
290
     0
176
     1
290
     0
176
     1
290
     0
176
     1
290
     0
176
     1
290
     0
176
     1
 90
       50
176
     1
 40
0.0
176
     1
 40
1.0
176
     1
 90
        0
176
     1
 62
    18
420
        0
176
     1
 90
       50
176
     1
 90
        3
176
     1
 62
     5
420
      255
176
     1
290
     0
176
     1
 90
       50
176
     1
 90
       50
176
     1
 90
       50
176
     1
290
     0
176
     1
 90
       50
176
     1
 62
   256
176
     0
 40
1.0
176
     0
 90
        2
176
     1
  1
strokes_ogs.tif
176
     1
290
     0
176
     1
 40
1.0
176
     1
 40
1.0
176
     1
  0
VISUALSTYLE
  5
37
102
{ACAD_REACTORS
330
2A
102
}
330
2A
100
AcDbVisualStyle
  2
Thicken
 70
    13
177
     3
291
     1
 70
    58
 90
        2
176
     1
 90
        2
176
     1
 90
        0
176
     1
 90
        0
176
     1
 40
0.6
176
     1
 40
30.0
176
     1
 62
     7
420
 16777215
176
     1
 90
        1
176
     1
 90
        4
176
     1
 62
     7
176
     1
 62
   257
176
     1
 90
        1
176
     1
 90
        1
176
     1
 40
1.0
176
     1
 90
       12
176
     1
 62
     7
176
     1
 40
1.0
176
     1
 90
        1
176
     1
 90
        6
176
     1
 90
        2
176
     1
 62
     7
176
     1
 90
        5
176
     1
 90
        0
176
     1
 90
        0
176
     1
290
     0
176
     1
 90
        1
176
     1
 40
0.0
176
     1
 90
        0
176
     1
290
     0
176
     1
290
     1
176
     1
290
     1
176
     1
290
     0
176
     1
290
     0
176
     1
290
     0
176
     1
290
     0
176
     1
290
     0
176
     1
290
     0
176
     1
 90
       50
176
     1
 40
0.0
176
     1
 40
1.0
176
     1
 90
        0
176
     1
 62
    18
420
        0
176
     1
 90
       50
176
     1
 90
        3
176
     1
 62
     5
420
      255
176
     1
290
     0
176
     1
 90
       50
176
     1
 90
       50
176
     1
 90
       50
176
     1
290
     0
176
     1
 90
       50
176
     1
 62
   256
176
     0
 40
1.0
176
     0
 90
        2
176
     1
  1
strokes_ogs.tif
176
     1
290
     0
176
     1
 40
1.0
176
     1
 40
1.0
176
     1
  0
VISUALSTYLE
  5
30
102
{ACAD_REACTORS
330
2A
102
}
330
2A
100
AcDbVisualStyle
  2
Wireframe
 70
     5
177
     3
291
     0
 70
    58
 90
        0
176
     1
 90
        2
176
     1
 90
        0
176
     1
 90
        0
176
     1
 40
0.6
176
     1
 40
30.0
176
     1
 62
     7
420
 16777215
176
     1
 90
        1
176
     1
 90
        4
176
     1
 62
     7
176
     1
 62
   257
176
     1
 90
        1
176
     1
 90
        1
176
     1
 40
1.0
176
     1
 90
        0
176
     1
 62
   257
176
     1
 40
1.0
176
     1
 90
        1
176
     1
 90
        6
176
     1
 90
        2
176
     1
 62
     7
176
     1
 90
        3
176
     1
 90
        0
176
     1
 90
        0
176
     1
290
     0
176
     1
 90
        1
176
     1
 40
0.0
176
     1
 90
        0
176
     1
290
     0
176
     1
290
     1
176
     1
290
     1
176
     1
290
     0
176
     1
290
     0
176
     1
290
     0
176
     1
290
     0
176
     1
290
     0
176
     1
290
     0
176
     1
 90
       50
176
     1
 40
0.0
176
     1
 40
1.0
176
     1
 90
        0
176
     1
 62
    18
420
        0
176
     1
 90
       50
176
     1
 90
        3
176
     1
 62
     5
420
      255
176
     1
290
     0
176
     1
 90
       50
176
     1
 90
       50
176
     1
 90
       50
176
     1
290
     0
176
     1
 90
       50
176
     1
 62
   256
176
     0
 40
1.0
176
     0
 90
        2
176
     1
  1
strokes_ogs.tif
176
     1
290
     0
176
     1
 40
1.0
176
     1
 40
1.0
176
     1
  0
VISUALSTYLE
  5
40
102
{ACAD_REACTORS
330
2A
102
}
330
2A
100
AcDbVisualStyle
  2
X-Ray
 70
    25
177
     3
291
     0
 70
    58
 90
        2
176
     1
 90
        2
176
     1
 90
        1
176
     1
 90
        1
176
     1
 40
0.5
176
     1
 40
30.0
176
     1
 62
     7
420
 16777215
176
     1
 90
        1
176
     1
 90
        0
176
     1
 62
     7
176
     1
 62
   257
176
     1
 90
        1
176
     1
 90
        1
176
     1
 40
1.0
176
     1
 90
        8
176
     1
 62
     7
176
     1
 40
1.0
176
     1
 90
        1
176
     1
 90
        6
176
     1
 90
        2
176
     1
 62
     7
176
     1
 90
        3
176
     1
 90
        0
176
     1
 90
        0
176
     1
290
     0
176
     1
 90
       13
176
     1
 40
0.0
176
     1
 90
        0
176
     1
290
     0
176
     1
290
     1
176
     1
290
     1
176
     1
290
     0
176
     1
290
     0
176
     1
290
     0
176
     1
290
     0
176
     1
290
     0
176
     1
290
     0
176
     1
 90
       50
176
     1
 40
0.0
176
     1
 40
1.0
176
     1
 90
        0
176
     1
 62
    18
420
        0
176
     1
 90
       50
176
     1
 90
        3
176
     1
 62
     5
420
      255
176
     1
290
     0
176
     1
 90
       50
176
     1
 90
       50
176
     1
 90
       50
176
     1
290
     0
176
     1
 90
       50
176
     1
 62
   256
176
     0
 40
1.0
176
     0
 90
        2
176
     1
  1
strokes_ogs.tif
176
     1
290
     0
176
     1
 40
1.0
176
     1
 40
1.0
176
     1
  0
DICTIONARYVAR
  5
9D
102
{ACAD_REACTORS
330
9C
102
}
330
9C
100
DictionaryVariables
280
     0
  1
1:1
  0
DICTIONARYVAR
  5
A5
102
{ACAD_REACTORS
330
9C
102
}
330
9C
100
DictionaryVariables
280
     0
  1
3.500000
  0
DICTIONARYVAR
  5
A6
102
{ACAD_REACTORS
330
9C
102
}
330
9C
100
DictionaryVariables
280
     0
  1
acadiso.lin
  0
DICTIONARYVAR
  5
A2
102
{ACAD_REACTORS
330
9C
102
}
330
9C
100
DictionaryVariables
280
     0
  1
Standard
  0
DICTIONARYVAR
  5
A1
102
{ACAD_REACTORS
330
9C
102
}
330
9C
100
DictionaryVariables
280
     0
  1
Standard
  0
DICTIONARY
  5
9E
330
5A
100
AcDbDictionary
280
     1
281
     1
  3
ACAD_ROUNDTRIP_2008_TABLESTYLE_CELLSTYLEMAP
360
9F
  0
CELLSTYLEMAP
  5
9F
102
{ACAD_REACTORS
330
9E
102
}
330
9E
100
AcDbCellStyleMap
 90
        3
300
CELLSTYLE
  1
TABLEFORMAT_BEGIN
 90
        5
170
     1
 91
        0
 92
    32768
 62
   257
 93
        1
300
CONTENTFORMAT
  1
CONTENTFORMAT_BEGIN
 90
        0
 91
        0
 92
        4
 93
        0
300

 40
0.0
140
1.0
 94
        5
 62
     0
340
11
144
6.0
309
CONTENTFORMAT_END
171
     1
301
MARGIN
  1
CELLMARGIN_BEGIN
 40
1.5
 40
1.5
 40
1.5
 40
1.5
 40
1.5
 40
1.5
309
CELLMARGIN_END
 94
        6
 95
        1
302
GRIDFORMAT
  1
GRIDFORMAT_BEGIN
 90
        0
 91
        1
 62
     0
 92
       -2
340
14
 93
        0
 40
0.045
309
GRIDFORMAT_END
 95
        2
302
GRIDFORMAT
  1
GRIDFORMAT_BEGIN
 90
        0
 91
        1
 62
     0
 92
       -2
340
14
 93
        0
 40
0.045
309
GRIDFORMAT_END
 95
        4
302
GRIDFORMAT
  1
GRIDFORMAT_BEGIN
 90
        0
 91
        1
 62
     0
 92
       -2
340
14
 93
        0
 40
0.045
309
GRIDFORMAT_END
 95
        8
302
GRIDFORMAT
  1
GRIDFORMAT_BEGIN
 90
        0
 91
        1
 62
     0
 92
       -2
340
14
 93
        0
 40
0.045
309
GRIDFORMAT_END
 95
       16
302
GRIDFORMAT
  1
GRIDFORMAT_BEGIN
 90
        0
 91
        1
 62
     0
 92
       -2
340
14
 93
        0
 40
0.045
309
GRIDFORMAT_END
 95
       32
302
GRIDFORMAT
  1
GRIDFORMAT_BEGIN
 90
        0
 91
        1
 62
     0
 92
       -2
340
14
 93
        0
 40
0.045
309
GRIDFORMAT_END
309
TABLEFORMAT_END
  1
CELLSTYLE_BEGIN
 90
        1
 91
        1
300
_TITLE
309
CELLSTYLE_END
300
CELLSTYLE
  1
TABLEFORMAT_BEGIN
 90
        5
170
     1
 91
        0
 92
        0
 62
   257
 93
        1
300
CONTENTFORMAT
  1
CONTENTFORMAT_BEGIN
 90
        0
 91
        0
 92
        4
 93
        0
300

 40
0.0
140
1.0
 94
        5
 62
     0
340
11
144
4.5
309
CONTENTFORMAT_END
171
     1
301
MARGIN
  1
CELLMARGIN_BEGIN
 40
1.5
 40
1.5
 40
1.5
 40
1.5
 40
1.5
 40
1.5
309
CELLMARGIN_END
 94
        6
 95
        1
302
GRIDFORMAT
  1
GRIDFORMAT_BEGIN
 90
        0
 91
        1
 62
     0
 92
       -2
340
14
 93
        0
 40
0.045
309
GRIDFORMAT_END
 95
        2
302
GRIDFORMAT
  1
GRIDFORMAT_BEGIN
 90
        0
 91
        1
 62
     0
 92
       -2
340
14
 93
        0
 40
0.045
309
GRIDFORMAT_END
 95
        4
302
GRIDFORMAT
  1
GRIDFORMAT_BEGIN
 90
        0
 91
        1
 62
     0
 92
       -2
340
14
 93
        0
 40
0.045
309
GRIDFORMAT_END
 95
        8
302
GRIDFORMAT
  1
GRIDFORMAT_BEGIN
 90
        0
 91
        1
 62
     0
 92
       -2
340
14
 93
        0
 40
0.045
309
GRIDFORMAT_END
 95
       16
302
GRIDFORMAT
  1
GRIDFORMAT_BEGIN
 90
        0
 91
        1
 62
     0
 92
       -2
340
14
 93
        0
 40
0.045
309
GRIDFORMAT_END
 95
       32
302
GRIDFORMAT
  1
GRIDFORMAT_BEGIN
 90
        0
 91
        1
 62
     0
 92
       -2
340
14
 93
        0
 40
0.045
309
GRIDFORMAT_END
309
TABLEFORMAT_END
  1
CELLSTYLE_BEGIN
 90
        2
 91
        1
300
_HEADER
309
CELLSTYLE_END
300
CELLSTYLE
  1
TABLEFORMAT_BEGIN
 90
        5
170
     1
 91
        0
 92
        0
 62
   257
 93
        1
300
CONTENTFORMAT
  1
CONTENTFORMAT_BEGIN
 90
        0
 91
        0
 92
        4
 93
        0
300

 40
0.0
140
1.0
 94
        2
 62
     0
340
11
144
4.5
309
CONTENTFORMAT_END
171
     1
301
MARGIN
  1
CELLMARGIN_BEGIN
 40
1.5
 40
1.5
 40
1.5
 40
1.5
 40
1.5
 40
1.5
309
CELLMARGIN_END
 94
        6
 95
        1
302
GRIDFORMAT
  1
GRIDFORMAT_BEGIN
 90
        0
 91
        1
 62
     0
 92
       -2
340
14
 93
        0
 40
0.045
309
GRIDFORMAT_END
 95
        2
302
GRIDFORMAT
  1
GRIDFORMAT_BEGIN
 90
        0
 91
        1
 62
     0
 92
       -2
340
14
 93
        0
 40
0.045
309
GRIDFORMAT_END
 95
        4
302
GRIDFORMAT
  1
GRIDFORMAT_BEGIN
 90
        0
 91
        1
 62
     0
 92
       -2
340
14
 93
        0
 40
0.045
309
GRIDFORMAT_END
 95
        8
302
GRIDFORMAT
  1
GRIDFORMAT_BEGIN
 90
        0
 91
        1
 62
     0
 92
       -2
340
14
 93
        0
 40
0.045
309
GRIDFORMAT_END
 95
       16
302
GRIDFORMAT
  1
GRIDFORMAT_BEGIN
 90
        0
 91
        1
 62
     0
 92
       -2
340
14
 93
        0
 40
0.045
309
GRIDFORMAT_END
 95
       32
302
GRIDFORMAT
  1
GRIDFORMAT_BEGIN
 90
        0
 91
        1
 62
     0
 92
       -2
340
14
 93
        0
 40
0.045
309
GRIDFORMAT_END
309
TABLEFORMAT_END
  1
CELLSTYLE_BEGIN
 90
        3
 91
        2
300
_DATA
309
CELLSTYLE_END
  0
ENDSEC
  0
EOF
