  0
SECTION
  2
HEADER
  9
$ACADVER
  1
AC1027
  9
$ACADMAINTVER
 70
   105
  9
$DWGCODEPAGE
  3
ANSI_932
  9
$LASTSAVEDBY
  1
a.yasuda
  9
$REQUIREDVERSIONS
160
                 0
  9
$INSBASE
 10
0.0
 20
0.0
 30
0.0
  9
$EXTMIN
 10
0.0
 20
0.0
 30
0.0
  9
$EXTMAX
 10
302.9997823349792
 20
216.0016055409748
 30
0.0
  9
$LIMMIN
 10
0.0
 20
0.0
  9
$LIMMAX
 10
302.9997823349792
 20
216.0016055409748
  9
$ORTHOMODE
 70
     0
  9
$REGENMODE
 70
     1
  9
$FILLMODE
 70
     1
  9
$QTEXTMODE
 70
     0
  9
$MIRRTEXT
 70
     1
  9
$LTSCALE
 40
1.0
  9
$ATTMODE
 70
     1
  9
$TEXTSIZE
 40
2.5
  9
$TRACEWID
 40
1.0
  9
$TEXTSTYLE
  7
Standard
  9
$CLAYER
  8
0
  9
$CELTYPE
  6
ByLayer
  9
$CECOLOR
 62
   256
  9
$CELTSCALE
 40
1.0
  9
$DISPSILH
 70
     0
  9
$DIMSCALE
 40
1.0
  9
$DIMASZ
 40
2.5
  9
$DIMEXO
 40
0.625
  9
$DIMDLI
 40
3.75
  9
$DIMRND
 40
0.0
  9
$DIMDLE
 40
0.0
  9
$DIMEXE
 40
1.25
  9
$DIMTP
 40
0.0
  9
$DIMTM
 40
0.0
  9
$DIMTXT
 40
2.5
  9
$DIMCEN
 40
2.5
  9
$DIMTSZ
 40
0.0
  9
$DIMTOL
 70
     0
  9
$DIMLIM
 70
     0
  9
$DIMTIH
 70
     0
  9
$DIMTOH
 70
     0
  9
$DIMSE1
 70
     0
  9
$DIMSE2
 70
     0
  9
$DIMTAD
 70
     1
  9
$DIMZIN
 70
     8
  9
$DIMBLK
  1

  9
$DIMASO
 70
     1
  9
$DIMSHO
 70
     1
  9
$DIMPOST
  1

  9
$DIMAPOST
  1

  9
$DIMALT
 70
     0
  9
$DIMALTD
 70
     3
  9
$DIMALTF
 40
0.03937007874016
  9
$DIMLFAC
 40
1.0
  9
$DIMTOFL
 70
     1
  9
$DIMTVP
 40
0.0
  9
$DIMTIX
 70
     0
  9
$DIMSOXD
 70
     0
  9
$DIMSAH
 70
     0
  9
$DIMBLK1
  1

  9
$DIMBLK2
  1

  9
$DIMSTYLE
  2
ISO-25
  9
$DIMCLRD
 70
     0
  9
$DIMCLRE
 70
     0
  9
$DIMCLRT
 70
     0
  9
$DIMTFAC
 40
1.0
  9
$DIMGAP
 40
0.625
  9
$DIMJUST
 70
     0
  9
$DIMSD1
 70
     0
  9
$DIMSD2
 70
     0
  9
$DIMTOLJ
 70
     0
  9
$DIMTZIN
 70
     8
  9
$DIMALTZ
 70
     0
  9
$DIMALTTZ
 70
     0
  9
$DIMUPT
 70
     0
  9
$DIMDEC
 70
     2
  9
$DIMTDEC
 70
     2
  9
$DIMALTU
 70
     2
  9
$DIMALTTD
 70
     3
  9
$DIMTXSTY
  7
Standard
  9
$DIMAUNIT
 70
     0
  9
$DIMADEC
 70
     0
  9
$DIMALTRND
 40
0.0
  9
$DIMAZIN
 70
     0
  9
$DIMDSEP
 70
    44
  9
$DIMATFIT
 70
     3
  9
$DIMFRAC
 70
     0
  9
$DIMLDRBLK
  1

  9
$DIMLUNIT
 70
     2
  9
$DIMLWD
 70
    -2
  9
$DIMLWE
 70
    -2
  9
$DIMTMOVE
 70
     0
  9
$DIMFXL
 40
1.0
  9
$DIMFXLON
 70
     0
  9
$DIMJOGANG
 40
0.7853981633974483
  9
$DIMTFILL
 70
     0
  9
$DIMTFILLCLR
 70
     0
  9
$DIMARCSYM
 70
     0
  9
$DIMLTYPE
  6

  9
$DIMLTEX1
  6

  9
$DIMLTEX2
  6

  9
$DIMTXTDIRECTION
 70
     0
  9
$LUNITS
 70
     2
  9
$LUPREC
 70
     4
  9
$SKETCHINC
 40
1.0
  9
$FILLETRAD
 40
0.0
  9
$AUNITS
 70
     0
  9
$AUPREC
 70
     0
  9
$MENU
  1
.
  9
$ELEVATION
 40
0.0
  9
$PELEVATION
 40
0.0
  9
$THICKNESS
 40
0.0
  9
$LIMCHECK
 70
     0
  9
$CHAMFERA
 40
0.0
  9
$CHAMFERB
 40
0.0
  9
$CHAMFERC
 40
0.0
  9
$CHAMFERD
 40
0.0
  9
$SKPOLY
 70
     0
  9
$TDCREATE
 40
2459866.621293449
  9
$TDUCREATE
 40
2459866.246293449
  9
$TDUPDATE
 40
2459866.621293495
  9
$TDUUPDATE
 40
2459866.246293495
  9
$TDINDWG
 40
0.0000000116
  9
$TDUSRTIMER
 40
0.0000000116
  9
$USRTIMER
 70
     1
  9
$ANGBASE
 50
0.0
  9
$ANGDIR
 70
     0
  9
$PDMODE
 70
     0
  9
$PDSIZE
 40
0.0
  9
$PLINEWID
 40
0.0
  9
$SPLFRAME
 70
     0
  9
$SPLINETYPE
 70
     6
  9
$SPLINESEGS
 70
     8
  9
$HANDSEED
  5
A9
  9
$SURFTAB1
 70
     6
  9
$SURFTAB2
 70
     6
  9
$SURFTYPE
 70
     6
  9
$SURFU
 70
     6
  9
$SURFV
 70
     6
  9
$UCSBASE
  2

  9
$UCSNAME
  2

  9
$UCSORG
 10
0.0
 20
0.0
 30
0.0
  9
$UCSXDIR
 10
1.0
 20
0.0
 30
0.0
  9
$UCSYDIR
 10
0.0
 20
1.0
 30
0.0
  9
$UCSORTHOREF
  2

  9
$UCSORTHOVIEW
 70
     0
  9
$UCSORGTOP
 10
0.0
 20
0.0
 30
0.0
  9
$UCSORGBOTTOM
 10
0.0
 20
0.0
 30
0.0
  9
$UCSORGLEFT
 10
0.0
 20
0.0
 30
0.0
  9
$UCSORGRIGHT
 10
0.0
 20
0.0
 30
0.0
  9
$UCSORGFRONT
 10
0.0
 20
0.0
 30
0.0
  9
$UCSORGBACK
 10
0.0
 20
0.0
 30
0.0
  9
$PUCSBASE
  2

  9
$PUCSNAME
  2

  9
$PUCSORG
 10
0.0
 20
0.0
 30
0.0
  9
$PUCSXDIR
 10
1.0
 20
0.0
 30
0.0
  9
$PUCSYDIR
 10
0.0
 20
1.0
 30
0.0
  9
$PUCSORTHOREF
  2

  9
$PUCSORTHOVIEW
 70
     0
  9
$PUCSORGTOP
 10
0.0
 20
0.0
 30
0.0
  9
$PUCSORGBOTTOM
 10
0.0
 20
0.0
 30
0.0
  9
$PUCSORGLEFT
 10
0.0
 20
0.0
 30
0.0
  9
$PUCSORGRIGHT
 10
0.0
 20
0.0
 30
0.0
  9
$PUCSORGFRONT
 10
0.0
 20
0.0
 30
0.0
  9
$PUCSORGBACK
 10
0.0
 20
0.0
 30
0.0
  9
$USERI1
 70
     0
  9
$USERI2
 70
     0
  9
$USERI3
 70
     0
  9
$USERI4
 70
     0
  9
$USERI5
 70
     0
  9
$USERR1
 40
0.0
  9
$USERR2
 40
0.0
  9
$USERR3
 40
0.0
  9
$USERR4
 40
0.0
  9
$USERR5
 40
0.0
  9
$WORLDVIEW
 70
     1
  9
$SHADEDGE
 70
     3
  9
$SHADEDIF
 70
    70
  9
$TILEMODE
 70
     1
  9
$MAXACTVP
 70
    64
  9
$PINSBASE
 10
0.0
 20
0.0
 30
0.0
  9
$PLIMCHECK
 70
     0
  9
$PEXTMIN
 10
1.000000000000000E+20
 20
1.000000000000000E+20
 30
1.000000000000000E+20
  9
$PEXTMAX
 10
-1.000000000000000E+20
 20
-1.000000000000000E+20
 30
-1.000000000000000E+20
  9
$PLIMMIN
 10
0.0
 20
0.0
  9
$PLIMMAX
 10
420.0
 20
297.0
  9
$UNITMODE
 70
     0
  9
$VISRETAIN
 70
     1
  9
$PLINEGEN
 70
     0
  9
$PSLTSCALE
 70
     1
  9
$TREEDEPTH
 70
  3020
  9
$CMLSTYLE
  2
Standard
  9
$CMLJUST
 70
     0
  9
$CMLSCALE
 40
20.0
  9
$PROXYGRAPHICS
 70
     1
  9
$MEASUREMENT
 70
     1
  9
$CELWEIGHT
370
    -1
  9
$ENDCAPS
280
     0
  9
$JOINSTYLE
280
     0
  9
$LWDISPLAY
290
     0
  9
$INSUNITS
 70
     4
  9
$HYPERLINKBASE
  1

  9
$STYLESHEET
  1

  9
$XEDIT
290
     1
  9
$CEPSNTYPE
380
     0
  9
$PSTYLEMODE
290
     1
  9
$FINGERPRINTGUID
  2
{2b35e496-4f3f-400b-bd29-91da8b81dab9}
  9
$VERSIONGUID
  2
{FAEB1C32-E019-11D5-929B-00C0DF256EC4}
  9
$EXTNAMES
290
     1
  9
$PSVPSCALE
 40
0.0
  9
$OLESTARTUP
290
     0
  9
$SORTENTS
280
   127
  9
$INDEXCTL
280
     0
  9
$HIDETEXT
280
     1
  9
$XCLIPFRAME
280
     2
  9
$HALOGAP
280
     0
  9
$OBSCOLOR
 70
   257
  9
$OBSLTYPE
280
     0
  9
$INTERSECTIONDISPLAY
280
     0
  9
$INTERSECTIONCOLOR
 70
   257
  9
$DIMASSOC
280
     2
  9
$PROJECTNAME
  1

  9
$CAMERADISPLAY
290
     0
  9
$LENSLENGTH
 40
50.0
  9
$CAMERAHEIGHT
 40
0.0
  9
$STEPSPERSEC
 40
2.0
  9
$STEPSIZE
 40
6.0
  9
$3DDWFPREC
 40
2.0
  9
$PSOLWIDTH
 40
5.0
  9
$PSOLHEIGHT
 40
80.0
  9
$LOFTANG1
 40
1.570796326794897
  9
$LOFTANG2
 40
1.570796326794897
  9
$LOFTMAG1
 40
0.0
  9
$LOFTMAG2
 40
0.0
  9
$LOFTPARAM
 70
     7
  9
$LOFTNORMALS
280
     1
  9
$LATITUDE
 40
37.795
  9
$LONGITUDE
 40
-122.394
  9
$NORTHDIRECTION
 40
0.0
  9
$TIMEZONE
 70
 -8000
  9
$LIGHTGLYPHDISPLAY
280
     1
  9
$TILEMODELIGHTSYNCH
280
     1
  9
$CMATERIAL
347
44
  9
$SOLIDHIST
280
     0
  9
$SHOWHIST
280
     1
  9
$DWFFRAME
280
     2
  9
$DGNFRAME
280
     2
  9
$REALWORLDSCALE
290
     1
  9
$INTERFERECOLOR
 62
   256
  9
$CSHADOW
280
     0
  9
$SHADOWPLANELOCATION
 40
0.0
  0
ENDSEC
  0
SECTION
  2
CLASSES
  0
CLASS
  1
ACDBDICTIONARYWDFLT
  2
AcDbDictionaryWithDefault
  3
ObjectDBX Classes
 90
        0
 91
        3
280
     0
281
     0
  0
CLASS
  1
VISUALSTYLE
  2
AcDbVisualStyle
  3
ObjectDBX Classes
 90
     4095
 91
        3
280
     0
281
     0
  0
CLASS
  1
MATERIAL
  2
AcDbMaterial
  3
ObjectDBX Classes
 90
     1153
 91
        3
280
     0
281
     0
  0
CLASS
  1
SCALE
  2
AcDbScale
  3
ObjectDBX Classes
 90
     1153
 91
        3
280
     0
281
     0
  0
CLASS
  1
TABLESTYLE
  2
AcDbTableStyle
  3
ObjectDBX Classes
 90
     4095
 91
        3
280
     0
281
     0
  0
CLASS
  1
MLEADERSTYLE
  2
AcDbMLeaderStyle
  3
ACDB_MLEADERSTYLE_CLASS
 90
     4095
 91
        3
280
     0
281
     0
  0
CLASS
  1
SUN
  2
AcDbSun
  3
SCENEOE
 90
     1153
 91
        3
280
     0
281
     0
  0
CLASS
  1
DICTIONARYVAR
  2
AcDbDictionaryVar
  3
ObjectDBX Classes
 90
        0
 91
        3
280
     0
281
     0
  0
CLASS
  1
CELLSTYLEMAP
  2
AcDbCellStyleMap
  3
ObjectDBX Classes
 90
     1152
 91
        3
280
     0
281
     0
  0
ENDSEC
  0
SECTION
  2
TABLES
  0
TABLE
  2
VPORT
  5
8
330
0
100
AcDbSymbolTable
 70
     1
  0
VPORT
  5
29
330
8
100
AcDbSymbolTableRecord
100
AcDbViewportTableRecord
  2
*Active
 70
     0
 10
0.0
 20
0.0
 11
1.0
 21
1.0
 12
151.4998911674896
 22
108.0008027704874
 13
0.0
 23
0.0
 14
10.0
 24
10.0
 15
10.0
 25
10.0
 16
0.0
 26
0.0
 36
1.0
 17
0.0
 27
0.0
 37
0.0
 40
237.6017660950723
 41
1.402766343222857
 42
50.0
 43
0.0
 44
0.0
 50
0.0
 51
0.0
 71
     0
 72
 10000
 73
     1
 74
     3
 75
     0
 76
     0
 77
     0
 78
     0
281
     0
 65
     1
110
0.0
120
0.0
130
0.0
111
1.0
121
0.0
131
0.0
112
0.0
122
1.0
132
0.0
 79
     0
146
0.0
348
2F
 60
     3
 61
     5
292
     1
282
     1
141
0.0
142
0.0
 63
   250
361
5D
  0
ENDTAB
  0
TABLE
  2
LTYPE
  5
5
330
0
100
AcDbSymbolTable
 70
     2
  0
LTYPE
  5
14
330
5
100
AcDbSymbolTableRecord
100
AcDbLinetypeTableRecord
  2
ByBlock
 70
     0
  3

 72
    65
 73
     0
 40
0.0
  0
LTYPE
  5
15
330
5
100
AcDbSymbolTableRecord
100
AcDbLinetypeTableRecord
  2
ByLayer
 70
     0
  3

 72
    65
 73
     0
 40
0.0
  0
LTYPE
  5
16
330
5
100
AcDbSymbolTableRecord
100
AcDbLinetypeTableRecord
  2
Continuous
 70
     0
  3
Solid line
 72
    65
 73
     0
 40
0.0
  0
LTYPE
  5
5F
330
5
100
AcDbSymbolTableRecord
100
AcDbLinetypeTableRecord
  2
UserDefined01
 70
     0
  3
----------------                
 72
    65
 73
     2
 40
0.7055555449591743
 49
0.3527777724795871
 74
     0
 49
-0.3527777724795871
 74
     0
  0
ENDTAB
  0
TABLE
  2
LAYER
  5
2
330
0
100
AcDbSymbolTable
 70
     4
  0
LAYER
  5
10
330
2
100
AcDbSymbolTableRecord
100
AcDbLayerTableRecord
  2
0
 70
     0
 62
     7
  6
Continuous
370
    -3
390
F
347
46
348
0
  0
LAYER
  5
60
330
2
100
AcDbSymbolTableRecord
100
AcDbLayerTableRecord
  2
外枠
 70
     0
 62
     7
  6
Continuous
370
    -3
390
F
347
46
348
0
  0
LAYER
  5
61
330
2
100
AcDbSymbolTableRecord
100
AcDbLayerTableRecord
  2
レイヤー2
 70
     0
 62
     7
  6
Continuous
370
    -3
390
F
347
46
348
0
  0
LAYER
  5
62
330
2
100
AcDbSymbolTableRecord
100
AcDbLayerTableRecord
  2
レイヤー3
 70
     0
 62
     7
  6
Continuous
370
    -3
390
F
347
46
348
0
  0
ENDTAB
  0
TABLE
  2
STYLE
  5
3
330
0
100
AcDbSymbolTable
 70
     2
  0
STYLE
  5
11
330
3
100
AcDbSymbolTableRecord
100
AcDbTextStyleTableRecord
  2
Standard
 70
     0
 40
0.0
 41
1.0
 50
0.0
 71
     0
 42
2.5
  3

  4

  0
STYLE
  5
5E
330
3
100
AcDbSymbolTableRecord
100
AcDbTextStyleTableRecord
  2
MS Gothic
 70
     0
 40
1.0
 41
1.0
 50
0.0
 71
     0
 42
2.5
  3
msgothic.ttc
  4

1001
ACAD
1000
MS Gothic
1071
    32817
  0
ENDTAB
  0
TABLE
  2
VIEW
  5
6
330
0
100
AcDbSymbolTable
 70
     0
  0
ENDTAB
  0
TABLE
  2
UCS
  5
7
330
0
100
AcDbSymbolTable
 70
     0
  0
ENDTAB
  0
TABLE
  2
APPID
  5
9
330
0
100
AcDbSymbolTable
 70
     1
  0
APPID
  5
12
330
9
100
AcDbSymbolTableRecord
100
AcDbRegAppTableRecord
  2
ACAD
 70
     0
  0
ENDTAB
  0
TABLE
  2
DIMSTYLE
  5
A
330
0
100
AcDbSymbolTable
 70
     1
100
AcDbDimStyleTable
  0
DIMSTYLE
105
27
330
A
100
AcDbSymbolTableRecord
100
AcDbDimStyleTableRecord
  2
ISO-25
 70
     0
 41
2.5
 42
0.625
 43
3.75
 44
1.25
 73
     0
 74
     0
 77
     1
 78
     8
140
2.5
141
2.5
143
0.03937007874016
147
0.625
171
     3
172
     1
178
     0
271
     2
272
     2
274
     3
278
    44
283
     0
284
     8
340
11
  0
ENDTAB
  0
TABLE
  2
BLOCK_RECORD
  5
1
330
0
100
AcDbSymbolTable
 70
     1
  0
BLOCK_RECORD
  5
1F
330
1
100
AcDbSymbolTableRecord
100
AcDbBlockTableRecord
  2
*Model_Space
340
22
 70
     0
280
     1
281
     0
  0
BLOCK_RECORD
  5
1B
330
1
100
AcDbSymbolTableRecord
100
AcDbBlockTableRecord
  2
*Paper_Space
340
1E
 70
     0
280
     1
281
     0
  0
BLOCK_RECORD
  5
23
330
1
100
AcDbSymbolTableRecord
100
AcDbBlockTableRecord
  2
*Paper_Space0
340
26
 70
     0
280
     1
281
     0
  0
ENDTAB
  0
ENDSEC
  0
SECTION
  2
BLOCKS
  0
BLOCK
  5
20
330
1F
100
AcDbEntity
  8
0
100
AcDbBlockBegin
  2
*Model_Space
 70
     0
 10
0.0
 20
0.0
 30
0.0
  3
*Model_Space
  1

  0
ENDBLK
  5
21
330
1F
100
AcDbEntity
  8
0
100
AcDbBlockEnd
  0
BLOCK
  5
1C
330
1B
100
AcDbEntity
 67
     1
  8
0
100
AcDbBlockBegin
  2
*Paper_Space
 70
     0
 10
0.0
 20
0.0
 30
0.0
  3
*Paper_Space
  1

  0
ENDBLK
  5
1D
330
1B
100
AcDbEntity
 67
     1
  8
0
100
AcDbBlockEnd
  0
BLOCK
  5
24
330
23
100
AcDbEntity
  8
0
100
AcDbBlockBegin
  2
*Paper_Space0
 70
     0
 10
0.0
 20
0.0
 30
0.0
  3
*Paper_Space0
  1

  0
ENDBLK
  5
25
330
23
100
AcDbEntity
  8
0
100
AcDbBlockEnd
  0
ENDSEC
  0
SECTION
  2
ENTITIES
  0
LWPOLYLINE
  5
63
330
1F
100
AcDbEntity
  8
外枠
  6
Continuous
 62
   250
420
  2367521
370
   100
100
AcDbPolyline
 90
        5
 70
     0
 43
0.0
 10
281.9999662644599
 20
13.29407825637392
 10
20.99981607051935
 20
13.29407825637392
 10
20.99981607051935
 20
193.0018900389566
 10
281.9999662644599
 20
193.0018900389566
 10
281.9999662644599
 20
13.29407825637392
  0
LINE
  5
64
330
1F
100
AcDbEntity
  8
外枠
  6
Continuous
 62
   250
420
  2367521
370
    25
100
AcDbLine
 10
223.3097080177524
 20
174.0786160074276
 30
0.0
 11
281.9999232007669
 21
174.0786160074276
 31
0.0
  0
LINE
  5
65
330
1F
100
AcDbEntity
  8
外枠
  6
Continuous
 62
   250
420
  2367521
370
    25
100
AcDbLine
 10
223.3097080177524
 20
50.37109023844297
 30
0.0
 11
281.9999232007669
 21
50.37109023844297
 31
0.0
  0
LINE
  5
66
330
1F
100
AcDbEntity
  8
外枠
  6
Continuous
 62
   250
420
  2367521
370
    25
100
AcDbLine
 10
223.3097080177524
 20
36.25997933925949
 30
0.0
 11
281.9999232007669
 21
36.25997933925949
 31
0.0
  0
LINE
  5
67
330
1F
100
AcDbEntity
  8
外枠
  6
Continuous
 62
   250
420
  2367521
370
    50
100
AcDbLine
 10
223.0158413772006
 20
193.3637327187979
 30
0.0
 11
223.0158413772006
 21
13.29396655992039
 31
0.0
  0
TEXT
  5
68
330
1F
100
AcDbEntity
  8
外枠
  6
Continuous
 62
   250
420
  2367521
100
AcDbText
 10
224.7190965599536
 20
186.6888051931772
 30
0.0
 40
2.688166626294454
  1
品名：
 41
0.974166170756022
  7
MS Gothic
100
AcDbText
  0
TEXT
  5
69
330
1F
100
AcDbEntity
  8
外枠
  6
Continuous
 62
   250
420
  2367521
100
AcDbText
 10
224.7190965599536
 20
168.1080059455944
 30
0.0
 40
2.688166626294454
  1
仕様：
 41
0.9978878657023111
  7
MS Gothic
100
AcDbText
  0
TEXT
  5
6A
330
1F
100
AcDbEntity
  8
外枠
  6
Continuous
 62
   250
420
  2367521
100
AcDbText
 10
224.7190965599536
 20
44.16660664327048
 30
0.0
 40
2.688166626294454
  1
縮尺：
 41
0.9939999262491861
  7
MS Gothic
100
AcDbText
  0
TEXT
  5
6B
330
1F
100
AcDbEntity
  8
外枠
  6
Continuous
 62
   250
420
  2367521
100
AcDbText
 10
250.2379519709696
 20
40.59738467878129
 30
0.0
 40
2.150533301035563
  1
1/1
 41
1.000003814697266
  7
MS Gothic
100
AcDbText
  0
TEXT
  5
6C
330
1F
100
AcDbEntity
  8
外枠
  6
Continuous
 62
   250
420
  2367521
100
AcDbText
 10
232.7757967427735
 20
181.9845273775436
 30
0.0
 40
2.688166626294454
  1
エッジカバー　EST-31
 41
1.009193801879883
  7
MS Gothic
100
AcDbText
  0
TEXT
  5
6D
330
1F
100
AcDbEntity
  8
外枠
  6
Continuous
 62
   250
420
  2367521
100
AcDbText
 10
226.1633020978884
 20
24.25683874973963
 30
0.0
 40
2.553758294979732
  1
ヤスダインテリアサプライ株式会社
 41
1.0194908945184
  7
MS Gothic
100
AcDbText
  0
TEXT
  5
6E
330
1F
100
AcDbEntity
  8
外枠
  6
Continuous
 62
   250
420
  2367521
100
AcDbText
 10
227.7635273953072
 20
161.7763665048245
 30
0.0
 40
2.150533301035563
  1
材質
 41
1.028502464294433
  7
MS Gothic
100
AcDbText
  0
TEXT
  5
6F
330
1F
100
AcDbEntity
  8
外枠
  6
Continuous
 62
   250
420
  2367521
100
AcDbText
 10
232.7757967427735
 20
156.199681315683
 30
0.0
 40
2.016124969720841
  1
 ステンレスSUS304（18.8CR）/HL仕上
 41
1.066277118757659
  7
MS Gothic
100
AcDbText
  0
LINE
  5
70
330
1F
100
AcDbEntity
  8
レイヤー2
  6
Continuous
 62
   250
420
  2367521
370
    13
100
AcDbLine
 10
132.3197529735585
 20
101.1545476344569
 30
0.0
 11
137.3249598753844
 21
101.1545476344569
 31
0.0
  0
LINE
  5
71
330
1F
100
AcDbEntity
  8
レイヤー2
  6
Continuous
 62
   250
420
  2367521
370
    13
100
AcDbLine
 10
132.3197529735585
 20
102.0585406764359
 30
0.0
 11
142.3298222676668
 21
102.0585406764359
 31
0.0
  0
LINE
  5
72
330
1F
100
AcDbEntity
  8
レイヤー2
  6
Continuous
 62
   250
420
  2367521
370
    13
100
AcDbLine
 10
136.83970741753
 20
101.1545476344569
 30
0.0
 11
136.83970741753
 21
103.623992041814
 31
0.0
  0
LINE
  5
73
330
1F
100
AcDbEntity
  8
レイヤー2
  6
Continuous
 62
   250
420
  2367521
370
    13
100
AcDbLine
 10
132.2756449860753
 20
104.8294309343004
 30
0.0
 11
142.3298115017436
 21
104.8294309343004
 31
0.0
  0
LINE
  5
74
330
1F
100
AcDbEntity
  8
レイヤー2
  6
Continuous
 62
   250
420
  2367521
370
    13
100
AcDbLine
 10
141.8226934538042
 20
102.0585406764359
 30
0.0
 11
141.8226934538042
 21
105.167567051184
 31
0.0
  0
LINE
  5
75
330
1F
100
AcDbEntity
  8
レイヤー2
  6
Continuous
 62
   250
420
  2367521
370
    13
100
AcDbLine
 10
130.1810269619778
 20
99.04613846269866
 30
0.0
 11
130.1810269619778
 21
89.08016639015032
 31
0.0
  0
LINE
  5
76
330
1F
100
AcDbEntity
  8
レイヤー2
  6
Continuous
 62
   250
420
  2367521
370
    13
100
AcDbLine
 10
104.3178342622963
 20
89.5872736721665
 30
0.0
 11
130.1810269619778
 21
89.5872736721665
 31
0.0
  0
LINE
  5
77
330
1F
100
AcDbEntity
  8
レイヤー2
  6
Continuous
 62
   250
420
  2367521
370
    13
100
AcDbLine
 10
104.3178342622963
 20
89.0801610071887
 30
0.0
 11
104.3178342622963
 21
99.1124565498103
 31
0.0
  0
LINE
  5
78
330
1F
100
AcDbEntity
  8
レイヤー2
  6
Continuous
 62
   250
420
  2367521
370
    13
100
AcDbLine
 10
102.0936698839432
 20
101.0963470534625
 30
0.0
 11
97.13256020367731
 21
101.0963470534625
 31
0.0
  0
LINE
  5
79
330
1F
100
AcDbEntity
  8
レイヤー2
  6
Continuous
 62
   250
420
  2367521
370
    13
100
AcDbLine
 10
97.66189911716842
 20
105.876406202729
 30
0.0
 11
97.66189911716842
 21
101.0962716919999
 31
0.0
  0
LINE
  5
7A
330
1F
100
AcDbEntity
  8
レイヤー2
  6
Continuous
 62
   250
420
  2367521
370
    13
100
AcDbLine
 10
97.13273245844903
 20
105.876406202729
 30
0.0
 11
102.0938421387149
 21
105.876406202729
 31
0.0
  0
LINE
  5
7B
330
1F
100
AcDbEntity
  8
レイヤー2
  6
Continuous
 62
   250
420
  2367521
370
    13
100
AcDbLine
 10
104.3178342622963
 20
108.4250878050767
 30
0.0
 11
104.3178342622963
 21
113.4521710629108
 31
0.0
  0
LINE
  5
7C
330
1F
100
AcDbEntity
  8
レイヤー2
  6
Continuous
 62
   250
420
  2367521
370
    13
100
AcDbLine
 10
111.241087281285
 20
112.9450530149714
 30
0.0
 11
104.3178234963731
 21
112.9450530149714
 31
0.0
  0
LINE
  5
7D
330
1F
100
AcDbEntity
  8
レイヤー2
  6
Continuous
 62
   250
420
  2367521
370
    13
100
AcDbLine
 10
111.241087281285
 20
113.4521710629108
 30
0.0
 11
111.241087281285
 21
108.4250878050767
 31
0.0
  0
HATCH
  5
7E
330
1F
100
AcDbEntity
  8
レイヤー2
  6
Continuous
 62
   250
420
  2367521
370
    13
100
AcDbHatch
 10
0.0
 20
0.0
 30
0.0
210
0.0
220
0.0
230
1.0
  2
SOLID
 70
     1
 71
     0
 91
        1
 92
        3
 72
     0
 73
     1
 93
       67
 10
111.241087281285
 20
112.6952835959795
 10
111.2666886467317
 20
112.6965647408441
 10
111.2915363975521
 20
112.7003543458219
 10
111.3155228745139
 20
112.7065124539109
 10
111.3385081206151
 20
112.7149206399554
 10
111.3603737107001
 20
112.7254281810302
 10
111.3810012196134
 20
112.7379381838263
 10
111.4002614562762
 20
112.7523214572648
 10
111.4180036977632
 20
112.7684380443437
 10
111.4341418166886
 20
112.7861802858307
 10
111.4485358560503
 20
112.8054082247238
 10
111.4610566247696
 20
112.8259926699441
 10
111.4715749317677
 20
112.8478259622595
 10
111.4799723518889
 20
112.870778910591
 10
111.4861412259011
 20
112.8947115579366
 10
111.4899200649557
 20
112.9195162450641
 10
111.4912119757436
 20
112.9450530149714
 10
111.4912119757436
 20
112.9450530149714
 10
111.4899308308789
 20
112.9706651463413
 10
111.4861304599779
 20
112.9955128971617
 10
111.4799831178122
 20
113.0194993741235
 10
111.4715749317677
 20
113.0424846202247
 10
111.4610566247696
 20
113.0643394443865
 10
111.4485358560503
 20
113.0849561873765
 10
111.4341418166886
 20
113.1042056581161
 10
111.4180036977632
 20
113.1219694314495
 10
111.4002506903529
 20
113.1380967844517
 10
111.3810012196134
 20
113.1524908238134
 10
111.3603737107001
 20
113.1650115925327
 10
111.3385081206151
 20
113.1755298995308
 10
111.3155228745139
 20
113.1839380855753
 10
111.2915363975521
 20
113.1900961936642
 10
111.2666886467317
 20
113.1938750327188
 10
111.241087281285
 20
113.1951669435067
 10
111.241087281285
 20
113.1951669435067
 10
111.215561277301
 20
113.1938642667956
 10
111.1907565901735
 20
113.190085427741
 10
111.1668239428279
 20
113.1839380855753
 10
111.1438709944964
 20
113.175540665454
 10
111.122037702181
 20
113.1650008266095
 10
111.1014424910374
 20
113.1524908238134
 10
111.0822145521444
 20
113.1380967844517
 10
111.0644830765806
 20
113.1219694314495
 10
111.0483557235784
 20
113.1042164240393
 10
111.0339832160632
 20
113.0849669532997
 10
111.0214732132671
 20
113.0643394443865
 10
111.0109441403458
 20
113.0424738543014
 10
111.0025467202245
 20
113.0194886082002
 10
110.9963886121356
 20
112.9955021312384
 10
110.992609773081
 20
112.970654380418
 10
110.9913178622931
 20
112.9450530149714
 10
110.9913178622931
 20
112.9450530149714
 10
110.9926205390042
 20
112.9195162450641
 10
110.9963886121356
 20
112.8947115579366
 10
111.0025467202245
 20
112.870778910591
 10
111.0109441403458
 20
112.8478259622595
 10
111.0214624473439
 20
112.8259926699441
 10
111.0339832160632
 20
112.8054082247238
 10
111.0483557235784
 20
112.7861802858307
 10
111.0644830765806
 20
112.7684380443437
 10
111.0822145521444
 20
112.7523106913415
 10
111.1014424910374
 20
112.7379381838263
 10
111.122037702181
 20
112.7254281810302
 10
111.1438709944964
 20
112.7149098740322
 10
111.1668131769046
 20
112.7065124539109
 10
111.1907565901735
 20
112.7003543458219
 10
111.2155505113777
 20
112.6965755067674
 97
        0
 75
     1
 76
     1
 98
        0
  0
LWPOLYLINE
  5
7F
330
1F
100
AcDbEntity
  8
レイヤー2
  6
Continuous
 62
   250
420
  2367521
370
    13
100
AcDbPolyline
 90
       68
 70
     0
 43
0.0
 10
111.241087281285
 20
112.6952835959795
 10
111.2666886467317
 20
112.6965647408441
 10
111.2915363975521
 20
112.7003543458219
 10
111.3155228745139
 20
112.7065124539109
 10
111.3385081206151
 20
112.7149206399554
 10
111.3603737107001
 20
112.7254281810302
 10
111.3810012196134
 20
112.7379381838263
 10
111.4002614562762
 20
112.7523214572648
 10
111.4180036977632
 20
112.7684380443437
 10
111.4341418166886
 20
112.7861802858307
 10
111.4485358560503
 20
112.8054082247238
 10
111.4610566247696
 20
112.8259926699441
 10
111.4715749317677
 20
112.8478259622595
 10
111.4799723518889
 20
112.870778910591
 10
111.4861412259011
 20
112.8947115579366
 10
111.4899200649557
 20
112.9195162450641
 10
111.4912119757436
 20
112.9450530149714
 10
111.4912119757436
 20
112.9450530149714
 10
111.4899308308789
 20
112.9706651463413
 10
111.4861304599779
 20
112.9955128971617
 10
111.4799831178122
 20
113.0194993741235
 10
111.4715749317677
 20
113.0424846202247
 10
111.4610566247696
 20
113.0643394443865
 10
111.4485358560503
 20
113.0849561873765
 10
111.4341418166886
 20
113.1042056581161
 10
111.4180036977632
 20
113.1219694314495
 10
111.4002506903529
 20
113.1380967844517
 10
111.3810012196134
 20
113.1524908238134
 10
111.3603737107001
 20
113.1650115925327
 10
111.3385081206151
 20
113.1755298995308
 10
111.3155228745139
 20
113.1839380855753
 10
111.2915363975521
 20
113.1900961936642
 10
111.2666886467317
 20
113.1938750327188
 10
111.241087281285
 20
113.1951669435067
 10
111.241087281285
 20
113.1951669435067
 10
111.215561277301
 20
113.1938642667956
 10
111.1907565901735
 20
113.190085427741
 10
111.1668239428279
 20
113.1839380855753
 10
111.1438709944964
 20
113.175540665454
 10
111.122037702181
 20
113.1650008266095
 10
111.1014424910374
 20
113.1524908238134
 10
111.0822145521444
 20
113.1380967844517
 10
111.0644830765806
 20
113.1219694314495
 10
111.0483557235784
 20
113.1042164240393
 10
111.0339832160632
 20
113.0849669532997
 10
111.0214732132671
 20
113.0643394443865
 10
111.0109441403458
 20
113.0424738543014
 10
111.0025467202245
 20
113.0194886082002
 10
110.9963886121356
 20
112.9955021312384
 10
110.992609773081
 20
112.970654380418
 10
110.9913178622931
 20
112.9450530149714
 10
110.9913178622931
 20
112.9450530149714
 10
110.9926205390042
 20
112.9195162450641
 10
110.9963886121356
 20
112.8947115579366
 10
111.0025467202245
 20
112.870778910591
 10
111.0109441403458
 20
112.8478259622595
 10
111.0214624473439
 20
112.8259926699441
 10
111.0339832160632
 20
112.8054082247238
 10
111.0483557235784
 20
112.7861802858307
 10
111.0644830765806
 20
112.7684380443437
 10
111.0822145521444
 20
112.7523106913415
 10
111.1014424910374
 20
112.7379381838263
 10
111.122037702181
 20
112.7254281810302
 10
111.1438709944964
 20
112.7149098740322
 10
111.1668131769046
 20
112.7065124539109
 10
111.1907565901735
 20
112.7003543458219
 10
111.2155505113777
 20
112.6965755067674
 10
111.241087281285
 20
112.6952835959795
  0
HATCH
  5
80
330
1F
100
AcDbEntity
  8
レイヤー2
  6
Continuous
 62
   250
420
  2367521
370
    13
100
AcDbHatch
 10
0.0
 20
0.0
 30
0.0
210
0.0
220
0.0
230
1.0
  2
SOLID
 70
     1
 71
     0
 91
        1
 92
        3
 72
     0
 73
     1
 93
       67
 10
104.3178342622963
 20
112.6952835959795
 10
104.3434248618198
 20
112.6965647408441
 10
104.3682833785634
 20
112.7003543458219
 10
104.3922698555252
 20
112.7065124539109
 10
104.4152658675496
 20
112.7149206399554
 10
104.4371206917115
 20
112.7254281810302
 10
104.4577482006247
 20
112.7379381838263
 10
104.4769976713643
 20
112.7523214572648
 10
104.4947506787745
 20
112.7684380443437
 10
104.5108887976999
 20
112.7861802858307
 10
104.5252828370616
 20
112.8054082247238
 10
104.5377928398577
 20
112.8259926699441
 10
104.548321912779
 20
112.8478259622595
 10
104.5567193329003
 20
112.870778910591
 10
104.5628774409892
 20
112.8947115579366
 10
104.566667045967
 20
112.9195162450641
 10
104.5679589567549
 20
112.9450530149714
 10
104.5679589567549
 20
112.9450530149714
 10
104.5666778118903
 20
112.9706651463413
 10
104.5628774409892
 20
112.9955128971617
 10
104.5567300988235
 20
113.0194993741235
 10
104.5483326787022
 20
113.0424846202247
 10
104.5377928398577
 20
113.0643394443865
 10
104.5252828370616
 20
113.0849561873765
 10
104.5108887976999
 20
113.1042056581161
 10
104.4947506787745
 20
113.1219694314495
 10
104.4769976713643
 20
113.1380967844517
 10
104.4577482006247
 20
113.1524908238134
 10
104.4371206917115
 20
113.1650115925327
 10
104.4152551016264
 20
113.1755298995308
 10
104.3922698555252
 20
113.1839380855753
 10
104.3682833785634
 20
113.1900961936642
 10
104.343435627743
 20
113.1938750327188
 10
104.3178342622963
 20
113.1951669435067
 10
104.3178342622963
 20
113.1951669435067
 10
104.2922974923891
 20
113.1938642667956
 10
104.2675035711848
 20
113.190085427741
 10
104.243560157916
 20
113.1839380855753
 10
104.2206179755077
 20
113.175540665454
 10
104.1987846831924
 20
113.1650008266095
 10
104.1781894720488
 20
113.1524908238134
 10
104.1589615331557
 20
113.1380967844517
 10
104.1412300575919
 20
113.1219694314495
 10
104.1251027045898
 20
113.1042164240393
 10
104.1107301970745
 20
113.0849669532997
 10
104.0982094283552
 20
113.0643394443865
 10
104.0876911213571
 20
113.0424738543014
 10
104.0792937012359
 20
113.0194886082002
 10
104.0731355931469
 20
112.9955021312384
 10
104.0693567540923
 20
112.970654380418
 10
104.0680648433045
 20
112.9450530149714
 10
104.0680648433045
 20
112.9450530149714
 10
104.0693567540923
 20
112.9195162450641
 10
104.0731355931469
 20
112.8947115579366
 10
104.0792937012359
 20
112.870778910591
 10
104.0877018872804
 20
112.8478259622595
 10
104.0982201942784
 20
112.8259926699441
 10
104.1107301970745
 20
112.8054082247238
 10
104.1251027045898
 20
112.7861802858307
 10
104.1412300575919
 20
112.7684380443437
 10
104.1589615331557
 20
112.7523106913415
 10
104.1781894720488
 20
112.7379381838263
 10
104.1987846831924
 20
112.7254281810302
 10
104.2206179755077
 20
112.7149098740322
 10
104.243560157916
 20
112.7065124539109
 10
104.2675035711848
 20
112.7003543458219
 10
104.2922974923891
 20
112.6965755067674
 97
        0
 75
     1
 76
     1
 98
        0
  0
LWPOLYLINE
  5
81
330
1F
100
AcDbEntity
  8
レイヤー2
  6
Continuous
 62
   250
420
  2367521
370
    13
100
AcDbPolyline
 90
       68
 70
     0
 43
0.0
 10
104.3178342622963
 20
112.6952835959795
 10
104.3434248618198
 20
112.6965647408441
 10
104.3682833785634
 20
112.7003543458219
 10
104.3922698555252
 20
112.7065124539109
 10
104.4152658675496
 20
112.7149206399554
 10
104.4371206917115
 20
112.7254281810302
 10
104.4577482006247
 20
112.7379381838263
 10
104.4769976713643
 20
112.7523214572648
 10
104.4947506787745
 20
112.7684380443437
 10
104.5108887976999
 20
112.7861802858307
 10
104.5252828370616
 20
112.8054082247238
 10
104.5377928398577
 20
112.8259926699441
 10
104.548321912779
 20
112.8478259622595
 10
104.5567193329003
 20
112.870778910591
 10
104.5628774409892
 20
112.8947115579366
 10
104.566667045967
 20
112.9195162450641
 10
104.5679589567549
 20
112.9450530149714
 10
104.5679589567549
 20
112.9450530149714
 10
104.5666778118903
 20
112.9706651463413
 10
104.5628774409892
 20
112.9955128971617
 10
104.5567300988235
 20
113.0194993741235
 10
104.5483326787022
 20
113.0424846202247
 10
104.5377928398577
 20
113.0643394443865
 10
104.5252828370616
 20
113.0849561873765
 10
104.5108887976999
 20
113.1042056581161
 10
104.4947506787745
 20
113.1219694314495
 10
104.4769976713643
 20
113.1380967844517
 10
104.4577482006247
 20
113.1524908238134
 10
104.4371206917115
 20
113.1650115925327
 10
104.4152551016264
 20
113.1755298995308
 10
104.3922698555252
 20
113.1839380855753
 10
104.3682833785634
 20
113.1900961936642
 10
104.343435627743
 20
113.1938750327188
 10
104.3178342622963
 20
113.1951669435067
 10
104.3178342622963
 20
113.1951669435067
 10
104.2922974923891
 20
113.1938642667956
 10
104.2675035711848
 20
113.190085427741
 10
104.243560157916
 20
113.1839380855753
 10
104.2206179755077
 20
113.175540665454
 10
104.1987846831924
 20
113.1650008266095
 10
104.1781894720488
 20
113.1524908238134
 10
104.1589615331557
 20
113.1380967844517
 10
104.1412300575919
 20
113.1219694314495
 10
104.1251027045898
 20
113.1042164240393
 10
104.1107301970745
 20
113.0849669532997
 10
104.0982094283552
 20
113.0643394443865
 10
104.0876911213571
 20
113.0424738543014
 10
104.0792937012359
 20
113.0194886082002
 10
104.0731355931469
 20
112.9955021312384
 10
104.0693567540923
 20
112.970654380418
 10
104.0680648433045
 20
112.9450530149714
 10
104.0680648433045
 20
112.9450530149714
 10
104.0693567540923
 20
112.9195162450641
 10
104.0731355931469
 20
112.8947115579366
 10
104.0792937012359
 20
112.870778910591
 10
104.0877018872804
 20
112.8478259622595
 10
104.0982201942784
 20
112.8259926699441
 10
104.1107301970745
 20
112.8054082247238
 10
104.1251027045898
 20
112.7861802858307
 10
104.1412300575919
 20
112.7684380443437
 10
104.1589615331557
 20
112.7523106913415
 10
104.1781894720488
 20
112.7379381838263
 10
104.1987846831924
 20
112.7254281810302
 10
104.2206179755077
 20
112.7149098740322
 10
104.243560157916
 20
112.7065124539109
 10
104.2675035711848
 20
112.7003543458219
 10
104.2922974923891
 20
112.6965755067674
 10
104.3178342622963
 20
112.6952835959795
  0
HATCH
  5
82
330
1F
100
AcDbEntity
  8
レイヤー2
  6
Continuous
 62
   250
420
  2367521
370
    13
100
AcDbHatch
 10
0.0
 20
0.0
 30
0.0
210
0.0
220
0.0
230
1.0
  2
SOLID
 70
     1
 71
     0
 91
        1
 92
        3
 72
     0
 73
     1
 93
       67
 10
97.66189911716842
 20
105.6266367837371
 10
97.68744665299891
 20
105.627928694525
 10
97.71225134012639
 20
105.6316967676564
 10
97.7362055193185
 20
105.6378333438988
 10
97.75916923357323
 20
105.6462199980969
 10
97.78103482365825
 20
105.6567167732485
 10
97.8016515666483
 20
105.6692052441981
 10
97.82091180331109
 20
105.6835562198669
 10
97.8386863425678
 20
105.6996620410225
 10
97.85484599333964
 20
105.7173827506631
 10
97.86925079862462
 20
105.7365999236329
 10
97.88179309919036
 20
105.7571951347766
 10
97.89234370395812
 20
105.7790391930151
 10
97.90076265592587
 20
105.8020029072698
 10
97.90693152993805
 20
105.8259678523852
 10
97.91073190083908
 20
105.8508156032056
 10
97.91202381162697
 20
105.876406202729
 10
97.91202381162697
 20
105.876406202729
 10
97.91073190083908
 20
105.9020075681757
 10
97.90693152993805
 20
105.9268445530728
 10
97.90076265592587
 20
105.9508094981882
 10
97.8923329380349
 20
105.9737732124429
 10
97.88179309919036
 20
105.9956172706815
 10
97.86925079862462
 20
106.0162017159018
 10
97.85483522741642
 20
106.0354296547949
 10
97.8386863425678
 20
106.0531503644355
 10
97.82091180331109
 20
106.0692454196679
 10
97.80166233257154
 20
106.08360716126
 10
97.78103482365825
 20
106.0960956322096
 10
97.75916923357323
 20
106.1065924073612
 10
97.7362055193185
 20
106.114968295636
 10
97.71225134012639
 20
106.1211048718784
 10
97.68743588707568
 20
106.124883710933
 10
97.66189911716842
 20
106.1261648557977
 10
97.66189911716842
 20
106.1261648557977
 10
97.63636234726113
 20
106.1248729450098
 10
97.61154689421042
 20
106.1211048718784
 10
97.58760348094155
 20
106.114968295636
 10
97.56461823484037
 20
106.1065924073612
 10
97.54276341067856
 20
106.0960956322096
 10
97.5221466676885
 20
106.0835963953367
 10
97.50288643102573
 20
106.0692454196679
 10
97.48511189176901
 20
106.0531395985122
 10
97.4689630069204
 20
106.0354188888717
 10
97.45454743571221
 20
106.0162017159018
 10
97.44200513514645
 20
105.9956065047582
 10
97.43146529630192
 20
105.9737732124429
 10
97.42303557841095
 20
105.9508094981882
 10
97.41686670439877
 20
105.9268445530728
 10
97.41306633349774
 20
105.9019968022524
 10
97.41177442270984
 20
105.876406202729
 10
97.41177442270984
 20
105.876406202729
 10
97.41307709942097
 20
105.8508048372823
 10
97.41686670439877
 20
105.8259786183084
 10
97.42304634433418
 20
105.8020029072698
 10
97.43145453037869
 20
105.7790391930151
 10
97.44200513514645
 20
105.7572059006998
 10
97.45454743571221
 20
105.7366106895562
 10
97.4689630069204
 20
105.7173827506631
 10
97.48511189176901
 20
105.6996620410225
 10
97.50288643102573
 20
105.6835562198669
 10
97.5221466676885
 20
105.6692052441981
 10
97.54276341067856
 20
105.6567167732485
 10
97.56462900076359
 20
105.6462199980969
 10
97.58760348094155
 20
105.6378333438988
 10
97.61154689421042
 20
105.6316967676564
 10
97.63636234726113
 20
105.6279179286018
 97
        0
 75
     1
 76
     1
 98
        0
  0
LWPOLYLINE
  5
83
330
1F
100
AcDbEntity
  8
レイヤー2
  6
Continuous
 62
   250
420
  2367521
370
    13
100
AcDbPolyline
 90
       68
 70
     0
 43
0.0
 10
97.66189911716842
 20
105.6266367837371
 10
97.68744665299891
 20
105.627928694525
 10
97.71225134012639
 20
105.6316967676564
 10
97.7362055193185
 20
105.6378333438988
 10
97.75916923357323
 20
105.6462199980969
 10
97.78103482365825
 20
105.6567167732485
 10
97.8016515666483
 20
105.6692052441981
 10
97.82091180331109
 20
105.6835562198669
 10
97.8386863425678
 20
105.6996620410225
 10
97.85484599333964
 20
105.7173827506631
 10
97.86925079862462
 20
105.7365999236329
 10
97.88179309919036
 20
105.7571951347766
 10
97.89234370395812
 20
105.7790391930151
 10
97.90076265592587
 20
105.8020029072698
 10
97.90693152993805
 20
105.8259678523852
 10
97.91073190083908
 20
105.8508156032056
 10
97.91202381162697
 20
105.876406202729
 10
97.91202381162697
 20
105.876406202729
 10
97.91073190083908
 20
105.9020075681757
 10
97.90693152993805
 20
105.9268445530728
 10
97.90076265592587
 20
105.9508094981882
 10
97.8923329380349
 20
105.9737732124429
 10
97.88179309919036
 20
105.9956172706815
 10
97.86925079862462
 20
106.0162017159018
 10
97.85483522741642
 20
106.0354296547949
 10
97.8386863425678
 20
106.0531503644355
 10
97.82091180331109
 20
106.0692454196679
 10
97.80166233257154
 20
106.08360716126
 10
97.78103482365825
 20
106.0960956322096
 10
97.75916923357323
 20
106.1065924073612
 10
97.7362055193185
 20
106.114968295636
 10
97.71225134012639
 20
106.1211048718784
 10
97.68743588707568
 20
106.124883710933
 10
97.66189911716842
 20
106.1261648557977
 10
97.66189911716842
 20
106.1261648557977
 10
97.63636234726113
 20
106.1248729450098
 10
97.61154689421042
 20
106.1211048718784
 10
97.58760348094155
 20
106.114968295636
 10
97.56461823484037
 20
106.1065924073612
 10
97.54276341067856
 20
106.0960956322096
 10
97.5221466676885
 20
106.0835963953367
 10
97.50288643102573
 20
106.0692454196679
 10
97.48511189176901
 20
106.0531395985122
 10
97.4689630069204
 20
106.0354188888717
 10
97.45454743571221
 20
106.0162017159018
 10
97.44200513514645
 20
105.9956065047582
 10
97.43146529630192
 20
105.9737732124429
 10
97.42303557841095
 20
105.9508094981882
 10
97.41686670439877
 20
105.9268445530728
 10
97.41306633349774
 20
105.9019968022524
 10
97.41177442270984
 20
105.876406202729
 10
97.41177442270984
 20
105.876406202729
 10
97.41307709942097
 20
105.8508048372823
 10
97.41686670439877
 20
105.8259786183084
 10
97.42304634433418
 20
105.8020029072698
 10
97.43145453037869
 20
105.7790391930151
 10
97.44200513514645
 20
105.7572059006998
 10
97.45454743571221
 20
105.7366106895562
 10
97.4689630069204
 20
105.7173827506631
 10
97.48511189176901
 20
105.6996620410225
 10
97.50288643102573
 20
105.6835562198669
 10
97.5221466676885
 20
105.6692052441981
 10
97.54276341067856
 20
105.6567167732485
 10
97.56462900076359
 20
105.6462199980969
 10
97.58760348094155
 20
105.6378333438988
 10
97.61154689421042
 20
105.6316967676564
 10
97.63636234726113
 20
105.6279179286018
 10
97.66189911716842
 20
105.6266367837371
  0
HATCH
  5
84
330
1F
100
AcDbEntity
  8
レイヤー2
  6
Continuous
 62
   250
420
  2367521
370
    13
100
AcDbHatch
 10
0.0
 20
0.0
 30
0.0
210
0.0
220
0.0
230
1.0
  2
SOLID
 70
     1
 71
     0
 91
        1
 92
        3
 72
     0
 73
     1
 93
       67
 10
97.66189911716842
 20
100.8462115930807
 10
97.68744665299891
 20
100.8475035038686
 10
97.71225134012639
 20
100.8513146406929
 10
97.7362055193185
 20
100.8574727487818
 10
97.75916923357323
 20
100.8658917007496
 10
97.78103482365825
 20
100.8764315395941
 10
97.8016515666483
 20
100.8889846060831
 10
97.82091180331109
 20
100.9033894113681
 10
97.8386863425678
 20
100.9195490621399
 10
97.85484599333964
 20
100.9373128354734
 10
97.86925079862462
 20
100.9565730721362
 10
97.88179309919036
 20
100.9772005810495
 10
97.89234370395812
 20
100.9990554052112
 10
97.90076265592587
 20
101.0220298853892
 10
97.90693152993805
 20
101.0459840645813
 10
97.91073190083908
 20
101.070799517632
 10
97.91202381162697
 20
101.0963362875393
 10
97.91202381162697
 20
101.0963362875393
 10
97.91073190083908
 20
101.1218730574466
 10
97.90693152993805
 20
101.1466885104973
 10
97.90076265592587
 20
101.1706426896894
 10
97.8923329380349
 20
101.1936064039441
 10
97.88179309919036
 20
101.2154612281059
 10
97.86925079862462
 20
101.2360887370192
 10
97.85483522741642
 20
101.255348973682
 10
97.8386863425678
 20
101.2731235129387
 10
97.82091180331109
 20
101.2892723977873
 10
97.80166233257154
 20
101.3036772030723
 10
97.78103482365825
 20
101.316219503638
 10
97.75916923357323
 20
101.3267701084058
 10
97.7362055193185
 20
101.3351890603735
 10
97.71225134012639
 20
101.3413579343857
 10
97.68743588707568
 20
101.3451583052867
 10
97.66189911716842
 20
101.3464502160746
 10
97.66189911716842
 20
101.3464502160746
 10
97.63636234726113
 20
101.3451583052867
 10
97.61154689421042
 20
101.3413687003089
 10
97.58760348094155
 20
101.3351998262968
 10
97.56461823484037
 20
101.3267701084058
 10
97.54276341067856
 20
101.316219503638
 10
97.5221466676885
 20
101.3036772030723
 10
97.50288643102573
 20
101.2892616318641
 10
97.48511189176901
 20
101.2731235129387
 10
97.4689630069204
 20
101.255348973682
 10
97.45454743571221
 20
101.2360887370192
 10
97.44200513514645
 20
101.2154612281059
 10
97.43146529630192
 20
101.1936064039441
 10
97.42303557841095
 20
101.1706426896894
 10
97.41686670439877
 20
101.1466885104973
 10
97.41306633349774
 20
101.1218730574466
 10
97.41177442270984
 20
101.0963362875393
 10
97.41177442270984
 20
101.0963362875393
 10
97.41307709942097
 20
101.070799517632
 10
97.41686670439877
 20
101.0459732986581
 10
97.42304634433418
 20
101.022019119466
 10
97.43145453037869
 20
100.9990661711345
 10
97.44200513514645
 20
100.9772005810495
 10
97.45454743571221
 20
100.9565730721362
 10
97.4689630069204
 20
100.9373128354734
 10
97.48511189176901
 20
100.9195490621399
 10
97.50288643102573
 20
100.9033894113681
 10
97.5221466676885
 20
100.8889846060831
 10
97.54276341067856
 20
100.8764423055173
 10
97.56462900076359
 20
100.8658917007496
 10
97.58760348094155
 20
100.8574727487818
 10
97.61154689421042
 20
100.8513038747697
 10
97.63636234726113
 20
100.8475035038686
 97
        0
 75
     1
 76
     1
 98
        0
  0
LWPOLYLINE
  5
85
330
1F
100
AcDbEntity
  8
レイヤー2
  6
Continuous
 62
   250
420
  2367521
370
    13
100
AcDbPolyline
 90
       68
 70
     0
 43
0.0
 10
97.66189911716842
 20
100.8462115930807
 10
97.68744665299891
 20
100.8475035038686
 10
97.71225134012639
 20
100.8513146406929
 10
97.7362055193185
 20
100.8574727487818
 10
97.75916923357323
 20
100.8658917007496
 10
97.78103482365825
 20
100.8764315395941
 10
97.8016515666483
 20
100.8889846060831
 10
97.82091180331109
 20
100.9033894113681
 10
97.8386863425678
 20
100.9195490621399
 10
97.85484599333964
 20
100.9373128354734
 10
97.86925079862462
 20
100.9565730721362
 10
97.88179309919036
 20
100.9772005810495
 10
97.89234370395812
 20
100.9990554052112
 10
97.90076265592587
 20
101.0220298853892
 10
97.90693152993805
 20
101.0459840645813
 10
97.91073190083908
 20
101.070799517632
 10
97.91202381162697
 20
101.0963362875393
 10
97.91202381162697
 20
101.0963362875393
 10
97.91073190083908
 20
101.1218730574466
 10
97.90693152993805
 20
101.1466885104973
 10
97.90076265592587
 20
101.1706426896894
 10
97.8923329380349
 20
101.1936064039441
 10
97.88179309919036
 20
101.2154612281059
 10
97.86925079862462
 20
101.2360887370192
 10
97.85483522741642
 20
101.255348973682
 10
97.8386863425678
 20
101.2731235129387
 10
97.82091180331109
 20
101.2892723977873
 10
97.80166233257154
 20
101.3036772030723
 10
97.78103482365825
 20
101.316219503638
 10
97.75916923357323
 20
101.3267701084058
 10
97.7362055193185
 20
101.3351890603735
 10
97.71225134012639
 20
101.3413579343857
 10
97.68743588707568
 20
101.3451583052867
 10
97.66189911716842
 20
101.3464502160746
 10
97.66189911716842
 20
101.3464502160746
 10
97.63636234726113
 20
101.3451583052867
 10
97.61154689421042
 20
101.3413687003089
 10
97.58760348094155
 20
101.3351998262968
 10
97.56461823484037
 20
101.3267701084058
 10
97.54276341067856
 20
101.316219503638
 10
97.5221466676885
 20
101.3036772030723
 10
97.50288643102573
 20
101.2892616318641
 10
97.48511189176901
 20
101.2731235129387
 10
97.4689630069204
 20
101.255348973682
 10
97.45454743571221
 20
101.2360887370192
 10
97.44200513514645
 20
101.2154612281059
 10
97.43146529630192
 20
101.1936064039441
 10
97.42303557841095
 20
101.1706426896894
 10
97.41686670439877
 20
101.1466885104973
 10
97.41306633349774
 20
101.1218730574466
 10
97.41177442270984
 20
101.0963362875393
 10
97.41177442270984
 20
101.0963362875393
 10
97.41307709942097
 20
101.070799517632
 10
97.41686670439877
 20
101.0459732986581
 10
97.42304634433418
 20
101.022019119466
 10
97.43145453037869
 20
100.9990661711345
 10
97.44200513514645
 20
100.9772005810495
 10
97.45454743571221
 20
100.9565730721362
 10
97.4689630069204
 20
100.9373128354734
 10
97.48511189176901
 20
100.9195490621399
 10
97.50288643102573
 20
100.9033894113681
 10
97.5221466676885
 20
100.8889846060831
 10
97.54276341067856
 20
100.8764423055173
 10
97.56462900076359
 20
100.8658917007496
 10
97.58760348094155
 20
100.8574727487818
 10
97.61154689421042
 20
100.8513038747697
 10
97.63636234726113
 20
100.8475035038686
 10
97.66189911716842
 20
100.8462115930807
  0
HATCH
  5
86
330
1F
100
AcDbEntity
  8
レイヤー2
  6
Continuous
 62
   250
420
  2367521
370
    13
100
AcDbHatch
 10
0.0
 20
0.0
 30
0.0
210
0.0
220
0.0
230
1.0
  2
SOLID
 70
     1
 71
     0
 91
        1
 92
        3
 72
     0
 73
     1
 93
       67
 10
104.3178342622963
 20
89.33719742436247
 10
104.3433710322036
 20
89.33848395218875
 10
104.3681757193311
 20
89.34228432308979
 10
104.3921406644464
 20
89.3484639630252
 10
104.4151151446244
 20
89.35688291499295
 10
104.4369699687862
 20
89.36742275383747
 10
104.4575867117762
 20
89.37996505440323
 10
104.4768577143623
 20
89.3943752426498
 10
104.4946214876957
 20
89.41052951046004
 10
104.5107703725444
 20
89.42829866675513
 10
104.5251859437525
 20
89.4475589034179
 10
104.5377282443183
 20
89.46818102936959
 10
104.5482680831628
 20
89.4900466194546
 10
104.5566978010538
 20
89.51301033370933
 10
104.562866675066
 20
89.53696451290145
 10
104.566667045967
 20
89.56177458299054
 10
104.5679589567549
 20
89.58731673585943
 10
104.5679589567549
 20
89.58731673585943
 10
104.566667045967
 20
89.61285888872831
 10
104.562866675066
 20
89.63766357585578
 10
104.5566978010538
 20
89.6616177550479
 10
104.5482680831628
 20
89.68459223522586
 10
104.5377282443183
 20
89.70645244234927
 10
104.5251967096758
 20
89.72707456830095
 10
104.5107703725444
 20
89.74633480496374
 10
104.4946214876957
 20
89.76410396125883
 10
104.476846948439
 20
89.78025822906906
 10
104.4575867117762
 20
89.79466841731563
 10
104.4369699687862
 20
89.80721071788139
 10
104.4151043787012
 20
89.81775055672591
 10
104.3921406644464
 20
89.82617489165528
 10
104.3681864852543
 20
89.83234376566745
 10
104.3433710322036
 20
89.83614413656849
 10
104.3178342622963
 20
89.83743604735638
 10
104.3178342622963
 20
89.83743604735638
 10
104.2922867264658
 20
89.83613875360687
 10
104.2674820393384
 20
89.83234376566745
 10
104.2435278601463
 20
89.82618027461689
 10
104.2205533799683
 20
89.81775055672591
 10
104.1986985558065
 20
89.80721071788139
 10
104.1780818128164
 20
89.79466303435402
 10
104.1588215761537
 20
89.78025822906906
 10
104.141047036897
 20
89.76410396125883
 10
104.1248873861251
 20
89.74633480496374
 10
104.1104825808401
 20
89.72707456830095
 10
104.0979402802744
 20
89.70645244234927
 10
104.0874004414299
 20
89.68459223522586
 10
104.0789707235389
 20
89.66162313800952
 10
104.0728018495267
 20
89.63766895881741
 10
104.0690014786257
 20
89.61285888872831
 10
104.0677095678378
 20
89.58731673585943
 10
104.0677095678378
 20
89.58731673585943
 10
104.0690122445489
 20
89.56177458299054
 10
104.0728018495267
 20
89.53696451290145
 10
104.0789707235389
 20
89.51301033370933
 10
104.0874004414299
 20
89.490041236493
 10
104.0979402802744
 20
89.4681864123312
 10
104.1104825808401
 20
89.4475589034179
 10
104.1248873861251
 20
89.42829866675513
 10
104.141047036897
 20
89.41052951046004
 10
104.1588215761537
 20
89.3943752426498
 10
104.1780818128164
 20
89.37996505440323
 10
104.1986985558065
 20
89.36742275383747
 10
104.2205641458915
 20
89.35687753203132
 10
104.2435278601463
 20
89.34845858006358
 10
104.2674820393384
 20
89.34228432308979
 10
104.2922974923891
 20
89.33848933515037
 97
        0
 75
     1
 76
     1
 98
        0
  0
LWPOLYLINE
  5
87
330
1F
100
AcDbEntity
  8
レイヤー2
  6
Continuous
 62
   250
420
  2367521
370
    13
100
AcDbPolyline
 90
       68
 70
     0
 43
0.0
 10
104.3178342622963
 20
89.33719742436247
 10
104.3433710322036
 20
89.33848395218875
 10
104.3681757193311
 20
89.34228432308979
 10
104.3921406644464
 20
89.3484639630252
 10
104.4151151446244
 20
89.35688291499295
 10
104.4369699687862
 20
89.36742275383747
 10
104.4575867117762
 20
89.37996505440323
 10
104.4768577143623
 20
89.3943752426498
 10
104.4946214876957
 20
89.41052951046004
 10
104.5107703725444
 20
89.42829866675513
 10
104.5251859437525
 20
89.4475589034179
 10
104.5377282443183
 20
89.46818102936959
 10
104.5482680831628
 20
89.4900466194546
 10
104.5566978010538
 20
89.51301033370933
 10
104.562866675066
 20
89.53696451290145
 10
104.566667045967
 20
89.56177458299054
 10
104.5679589567549
 20
89.58731673585943
 10
104.5679589567549
 20
89.58731673585943
 10
104.566667045967
 20
89.61285888872831
 10
104.562866675066
 20
89.63766357585578
 10
104.5566978010538
 20
89.6616177550479
 10
104.5482680831628
 20
89.68459223522586
 10
104.5377282443183
 20
89.70645244234927
 10
104.5251967096758
 20
89.72707456830095
 10
104.5107703725444
 20
89.74633480496374
 10
104.4946214876957
 20
89.76410396125883
 10
104.476846948439
 20
89.78025822906906
 10
104.4575867117762
 20
89.79466841731563
 10
104.4369699687862
 20
89.80721071788139
 10
104.4151043787012
 20
89.81775055672591
 10
104.3921406644464
 20
89.82617489165528
 10
104.3681864852543
 20
89.83234376566745
 10
104.3433710322036
 20
89.83614413656849
 10
104.3178342622963
 20
89.83743604735638
 10
104.3178342622963
 20
89.83743604735638
 10
104.2922867264658
 20
89.83613875360687
 10
104.2674820393384
 20
89.83234376566745
 10
104.2435278601463
 20
89.82618027461689
 10
104.2205533799683
 20
89.81775055672591
 10
104.1986985558065
 20
89.80721071788139
 10
104.1780818128164
 20
89.79466303435402
 10
104.1588215761537
 20
89.78025822906906
 10
104.141047036897
 20
89.76410396125883
 10
104.1248873861251
 20
89.74633480496374
 10
104.1104825808401
 20
89.72707456830095
 10
104.0979402802744
 20
89.70645244234927
 10
104.0874004414299
 20
89.68459223522586
 10
104.0789707235389
 20
89.66162313800952
 10
104.0728018495267
 20
89.63766895881741
 10
104.0690014786257
 20
89.61285888872831
 10
104.0677095678378
 20
89.58731673585943
 10
104.0677095678378
 20
89.58731673585943
 10
104.0690122445489
 20
89.56177458299054
 10
104.0728018495267
 20
89.53696451290145
 10
104.0789707235389
 20
89.51301033370933
 10
104.0874004414299
 20
89.490041236493
 10
104.0979402802744
 20
89.4681864123312
 10
104.1104825808401
 20
89.4475589034179
 10
104.1248873861251
 20
89.42829866675513
 10
104.141047036897
 20
89.41052951046004
 10
104.1588215761537
 20
89.3943752426498
 10
104.1780818128164
 20
89.37996505440323
 10
104.1986985558065
 20
89.36742275383747
 10
104.2205641458915
 20
89.35687753203132
 10
104.2435278601463
 20
89.34845858006358
 10
104.2674820393384
 20
89.34228432308979
 10
104.2922974923891
 20
89.33848933515037
 10
104.3178342622963
 20
89.33719742436247
  0
HATCH
  5
88
330
1F
100
AcDbEntity
  8
レイヤー2
  6
Continuous
 62
   250
420
  2367521
370
    13
100
AcDbHatch
 10
0.0
 20
0.0
 30
0.0
210
0.0
220
0.0
230
1.0
  2
SOLID
 70
     1
 71
     0
 91
        1
 92
        3
 72
     0
 73
     1
 93
       67
 10
130.1810269619778
 20
89.33719742436247
 10
130.2065637318851
 20
89.33848395218875
 10
130.2313684190125
 20
89.34228432308979
 10
130.2553333641279
 20
89.3484639630252
 10
130.2782970783826
 20
89.35688291499295
 10
130.3001519025444
 20
89.36742275383747
 10
130.320790177381
 20
89.37996505440323
 10
130.3400396481205
 20
89.3943752426498
 10
130.3578141873772
 20
89.41052951046004
 10
130.373973838149
 20
89.42829866675513
 10
130.388378643434
 20
89.4475589034179
 10
130.4009209439998
 20
89.46818102936959
 10
130.4114715487675
 20
89.4900466194546
 10
130.4198905007353
 20
89.51301033370933
 10
130.4260593747474
 20
89.53696451290145
 10
130.4298597456485
 20
89.56177458299054
 10
130.4311516564364
 20
89.58731673585943
 10
130.4311516564364
 20
89.58731673585943
 10
130.4298597456485
 20
89.61285888872831
 10
130.4260593747474
 20
89.63766357585578
 10
130.4198905007353
 20
89.6616177550479
 10
130.4114607828443
 20
89.68459223522586
 10
130.4009209439998
 20
89.70645244234927
 10
130.388378643434
 20
89.72707456830095
 10
130.373973838149
 20
89.74633480496374
 10
130.3578141873772
 20
89.76410396125883
 10
130.3400504140437
 20
89.78025822906906
 10
130.320790177381
 20
89.79466841731563
 10
130.3001626684676
 20
89.80721071788139
 10
130.2782970783826
 20
89.81775055672591
 10
130.2553333641279
 20
89.82617489165528
 10
130.2313791849358
 20
89.83234376566745
 10
130.2065637318851
 20
89.83614413656849
 10
130.1810269619778
 20
89.83743604735638
 10
130.1810269619778
 20
89.83743604735638
 10
130.1554794261473
 20
89.83613875360687
 10
130.1306747390198
 20
89.83234376566745
 10
130.106731325751
 20
89.82618027461689
 10
130.083756845573
 20
89.81775055672591
 10
130.061891255488
 20
89.80721071788139
 10
130.0412637465747
 20
89.79466303435402
 10
130.0220035099119
 20
89.78025822906906
 10
130.0042397365784
 20
89.76410396125883
 10
129.9880908517298
 20
89.74633480496374
 10
129.9736752805216
 20
89.72707456830095
 10
129.9611329799558
 20
89.70645244234927
 10
129.9505823751881
 20
89.68459223522586
 10
129.9421634232203
 20
89.66162313800952
 10
129.9359945492081
 20
89.63766895881741
 10
129.9321941783071
 20
89.61285888872831
 10
129.9309022675192
 20
89.58731673585943
 10
129.9309022675192
 20
89.58731673585943
 10
129.9321941783071
 20
89.56177458299054
 10
129.9359837832849
 20
89.53696451290145
 10
129.9421634232203
 20
89.51301033370933
 10
129.9505931411113
 20
89.490041236493
 10
129.9611329799558
 20
89.4681864123312
 10
129.9736752805216
 20
89.4475589034179
 10
129.9880908517298
 20
89.42829866675513
 10
130.0042397365784
 20
89.41052951046004
 10
130.0220142758351
 20
89.3943752426498
 10
130.0412745124979
 20
89.37996505440323
 10
130.061891255488
 20
89.36742275383747
 10
130.083756845573
 20
89.35687753203132
 10
130.1067205598277
 20
89.34845858006358
 10
130.1306747390198
 20
89.34228432308979
 10
130.1554901920705
 20
89.33848933515037
 97
        0
 75
     1
 76
     1
 98
        0
  0
LWPOLYLINE
  5
89
330
1F
100
AcDbEntity
  8
レイヤー2
  6
Continuous
 62
   250
420
  2367521
370
    13
100
AcDbPolyline
 90
       68
 70
     0
 43
0.0
 10
130.1810269619778
 20
89.33719742436247
 10
130.2065637318851
 20
89.33848395218875
 10
130.2313684190125
 20
89.34228432308979
 10
130.2553333641279
 20
89.3484639630252
 10
130.2782970783826
 20
89.35688291499295
 10
130.3001519025444
 20
89.36742275383747
 10
130.320790177381
 20
89.37996505440323
 10
130.3400396481205
 20
89.3943752426498
 10
130.3578141873772
 20
89.41052951046004
 10
130.373973838149
 20
89.42829866675513
 10
130.388378643434
 20
89.4475589034179
 10
130.4009209439998
 20
89.46818102936959
 10
130.4114715487675
 20
89.4900466194546
 10
130.4198905007353
 20
89.51301033370933
 10
130.4260593747474
 20
89.53696451290145
 10
130.4298597456485
 20
89.56177458299054
 10
130.4311516564364
 20
89.58731673585943
 10
130.4311516564364
 20
89.58731673585943
 10
130.4298597456485
 20
89.61285888872831
 10
130.4260593747474
 20
89.63766357585578
 10
130.4198905007353
 20
89.6616177550479
 10
130.4114607828443
 20
89.68459223522586
 10
130.4009209439998
 20
89.70645244234927
 10
130.388378643434
 20
89.72707456830095
 10
130.373973838149
 20
89.74633480496374
 10
130.3578141873772
 20
89.76410396125883
 10
130.3400504140437
 20
89.78025822906906
 10
130.320790177381
 20
89.79466841731563
 10
130.3001626684676
 20
89.80721071788139
 10
130.2782970783826
 20
89.81775055672591
 10
130.2553333641279
 20
89.82617489165528
 10
130.2313791849358
 20
89.83234376566745
 10
130.2065637318851
 20
89.83614413656849
 10
130.1810269619778
 20
89.83743604735638
 10
130.1810269619778
 20
89.83743604735638
 10
130.1554794261473
 20
89.83613875360687
 10
130.1306747390198
 20
89.83234376566745
 10
130.106731325751
 20
89.82618027461689
 10
130.083756845573
 20
89.81775055672591
 10
130.061891255488
 20
89.80721071788139
 10
130.0412637465747
 20
89.79466303435402
 10
130.0220035099119
 20
89.78025822906906
 10
130.0042397365784
 20
89.76410396125883
 10
129.9880908517298
 20
89.74633480496374
 10
129.9736752805216
 20
89.72707456830095
 10
129.9611329799558
 20
89.70645244234927
 10
129.9505823751881
 20
89.68459223522586
 10
129.9421634232203
 20
89.66162313800952
 10
129.9359945492081
 20
89.63766895881741
 10
129.9321941783071
 20
89.61285888872831
 10
129.9309022675192
 20
89.58731673585943
 10
129.9309022675192
 20
89.58731673585943
 10
129.9321941783071
 20
89.56177458299054
 10
129.9359837832849
 20
89.53696451290145
 10
129.9421634232203
 20
89.51301033370933
 10
129.9505931411113
 20
89.490041236493
 10
129.9611329799558
 20
89.4681864123312
 10
129.9736752805216
 20
89.4475589034179
 10
129.9880908517298
 20
89.42829866675513
 10
130.0042397365784
 20
89.41052951046004
 10
130.0220142758351
 20
89.3943752426498
 10
130.0412745124979
 20
89.37996505440323
 10
130.061891255488
 20
89.36742275383747
 10
130.083756845573
 20
89.35687753203132
 10
130.1067205598277
 20
89.34845858006358
 10
130.1306747390198
 20
89.34228432308979
 10
130.1554901920705
 20
89.33848933515037
 10
130.1810269619778
 20
89.33719742436247
  0
HATCH
  5
8A
330
1F
100
AcDbEntity
  8
レイヤー2
  6
Continuous
 62
   250
420
  2367521
370
    13
100
AcDbHatch
 10
0.0
 20
0.0
 30
0.0
210
0.0
220
0.0
230
1.0
  2
SOLID
 70
     1
 71
     0
 91
        1
 92
        3
 72
     0
 73
     1
 93
       67
 10
136.83970741753
 20
100.9044229399984
 10
136.8652441874373
 20
100.9057256167095
 10
136.8900488745647
 20
100.9095044557641
 10
136.9140138196801
 20
100.9156733297762
 10
136.9369775339348
 20
100.9241138135904
 10
136.9588323580966
 20
100.9346428865117
 10
136.9794706329332
 20
100.9471851870775
 10
136.9987201036727
 20
100.9616007582857
 10
137.0164946429294
 20
100.9777496431343
 10
137.0326542937012
 20
100.995524182391
 10
137.0470590989862
 20
101.0147844190538
 10
137.0596121654752
 20
101.0354119279671
 10
137.0701520043197
 20
101.0572667521289
 10
137.0785709562875
 20
101.0802412323068
 10
137.0847398302996
 20
101.1041954114989
 10
137.0885402012007
 20
101.1290108645497
 10
137.0898321119886
 20
101.1545476344569
 10
137.0898321119886
 20
101.1545476344569
 10
137.0885402012007
 20
101.1800951702874
 10
137.0847290643764
 20
101.2049106233381
 10
137.0785709562875
 20
101.2288432706838
 10
137.0701412383965
 20
101.2518069849385
 10
137.059601399552
 20
101.2736725750235
 10
137.0470698649094
 20
101.2943000839368
 10
137.0326542937012
 20
101.3135710865228
 10
137.0164946429294
 20
101.3313240939331
 10
136.9987308695959
 20
101.3474837447049
 10
136.9794706329332
 20
101.3618885499899
 10
136.9588431240198
 20
101.3744308505557
 10
136.9369775339348
 20
101.3849814553234
 10
136.9140138196801
 20
101.3934004072912
 10
136.890059640488
 20
101.3995692813033
 10
136.8652441874373
 20
101.4033696522044
 10
136.83970741753
 20
101.4046615629923
 10
136.83970741753
 20
101.4046615629923
 10
136.8141598816995
 20
101.4033696522044
 10
136.789355194572
 20
101.3995692813033
 10
136.7654117813032
 20
101.3933896413679
 10
136.7424373011252
 20
101.3849814553234
 10
136.7205717110402
 20
101.3744308505557
 10
136.6999549680501
 20
101.3618885499899
 10
136.6806839654641
 20
101.3474837447049
 10
136.6629201921306
 20
101.3313240939331
 10
136.646771307282
 20
101.3135603205996
 10
136.6323557360738
 20
101.2943000839368
 10
136.6198026695848
 20
101.2736725750235
 10
136.6092628307403
 20
101.2518177508617
 10
136.6008438787725
 20
101.2288432706838
 10
136.5946750047604
 20
101.2048998574149
 10
136.5908746338593
 20
101.1800844043642
 10
136.5895827230714
 20
101.1545476344569
 10
136.5895827230714
 20
101.1545476344569
 10
136.5908746338593
 20
101.1290000986264
 10
136.5946642388371
 20
101.1041954114989
 10
136.6008438787725
 20
101.0802412323068
 10
136.6092735966635
 20
101.0572667521289
 10
136.619813435508
 20
101.0354119279671
 10
136.6323557360738
 20
101.0147844190538
 10
136.646771307282
 20
100.995524182391
 10
136.6629201921306
 20
100.9777496431343
 10
136.6806947313873
 20
100.9616007582857
 10
136.6999549680501
 20
100.9471959530007
 10
136.7205717110402
 20
100.934653652435
 10
136.7424373011252
 20
100.9241030476672
 10
136.7654010153799
 20
100.9156840956995
 10
136.789355194572
 20
100.9095152216873
 10
136.8141706476227
 20
100.9057148507863
 97
        0
 75
     1
 76
     1
 98
        0
  0
LWPOLYLINE
  5
8B
330
1F
100
AcDbEntity
  8
レイヤー2
  6
Continuous
 62
   250
420
  2367521
370
    13
100
AcDbPolyline
 90
       68
 70
     0
 43
0.0
 10
136.83970741753
 20
100.9044229399984
 10
136.8652441874373
 20
100.9057256167095
 10
136.8900488745647
 20
100.9095044557641
 10
136.9140138196801
 20
100.9156733297762
 10
136.9369775339348
 20
100.9241138135904
 10
136.9588323580966
 20
100.9346428865117
 10
136.9794706329332
 20
100.9471851870775
 10
136.9987201036727
 20
100.9616007582857
 10
137.0164946429294
 20
100.9777496431343
 10
137.0326542937012
 20
100.995524182391
 10
137.0470590989862
 20
101.0147844190538
 10
137.0596121654752
 20
101.0354119279671
 10
137.0701520043197
 20
101.0572667521289
 10
137.0785709562875
 20
101.0802412323068
 10
137.0847398302996
 20
101.1041954114989
 10
137.0885402012007
 20
101.1290108645497
 10
137.0898321119886
 20
101.1545476344569
 10
137.0898321119886
 20
101.1545476344569
 10
137.0885402012007
 20
101.1800951702874
 10
137.0847290643764
 20
101.2049106233381
 10
137.0785709562875
 20
101.2288432706838
 10
137.0701412383965
 20
101.2518069849385
 10
137.059601399552
 20
101.2736725750235
 10
137.0470698649094
 20
101.2943000839368
 10
137.0326542937012
 20
101.3135710865228
 10
137.0164946429294
 20
101.3313240939331
 10
136.9987308695959
 20
101.3474837447049
 10
136.9794706329332
 20
101.3618885499899
 10
136.9588431240198
 20
101.3744308505557
 10
136.9369775339348
 20
101.3849814553234
 10
136.9140138196801
 20
101.3934004072912
 10
136.890059640488
 20
101.3995692813033
 10
136.8652441874373
 20
101.4033696522044
 10
136.83970741753
 20
101.4046615629923
 10
136.83970741753
 20
101.4046615629923
 10
136.8141598816995
 20
101.4033696522044
 10
136.789355194572
 20
101.3995692813033
 10
136.7654117813032
 20
101.3933896413679
 10
136.7424373011252
 20
101.3849814553234
 10
136.7205717110402
 20
101.3744308505557
 10
136.6999549680501
 20
101.3618885499899
 10
136.6806839654641
 20
101.3474837447049
 10
136.6629201921306
 20
101.3313240939331
 10
136.646771307282
 20
101.3135603205996
 10
136.6323557360738
 20
101.2943000839368
 10
136.6198026695848
 20
101.2736725750235
 10
136.6092628307403
 20
101.2518177508617
 10
136.6008438787725
 20
101.2288432706838
 10
136.5946750047604
 20
101.2048998574149
 10
136.5908746338593
 20
101.1800844043642
 10
136.5895827230714
 20
101.1545476344569
 10
136.5895827230714
 20
101.1545476344569
 10
136.5908746338593
 20
101.1290000986264
 10
136.5946642388371
 20
101.1041954114989
 10
136.6008438787725
 20
101.0802412323068
 10
136.6092735966635
 20
101.0572667521289
 10
136.619813435508
 20
101.0354119279671
 10
136.6323557360738
 20
101.0147844190538
 10
136.646771307282
 20
100.995524182391
 10
136.6629201921306
 20
100.9777496431343
 10
136.6806947313873
 20
100.9616007582857
 10
136.6999549680501
 20
100.9471959530007
 10
136.7205717110402
 20
100.934653652435
 10
136.7424373011252
 20
100.9241030476672
 10
136.7654010153799
 20
100.9156840956995
 10
136.789355194572
 20
100.9095152216873
 10
136.8141706476227
 20
100.9057148507863
 10
136.83970741753
 20
100.9044229399984
  0
HATCH
  5
8C
330
1F
100
AcDbEntity
  8
レイヤー2
  6
Continuous
 62
   250
420
  2367521
370
    13
100
AcDbHatch
 10
0.0
 20
0.0
 30
0.0
210
0.0
220
0.0
230
1.0
  2
SOLID
 70
     1
 71
     0
 91
        1
 92
        3
 72
     0
 73
     1
 93
       67
 10
136.83970741753
 20
101.8084159819773
 10
136.8652441874373
 20
101.8097078927652
 10
136.8900488745647
 20
101.8134867318198
 10
136.9140138196801
 20
101.8196448399087
 10
136.9369775339348
 20
101.82804226003
 10
136.9588323580966
 20
101.8385713329513
 10
136.9794706329332
 20
101.8510921016706
 10
136.9987201036727
 20
101.8654861410323
 10
137.0164946429294
 20
101.8816134940345
 10
137.0326542937012
 20
101.8993665014447
 10
137.0470590989862
 20
101.9186159721842
 10
137.0596121654752
 20
101.9392434810975
 10
137.0701520043197
 20
101.9611090711826
 10
137.0785709562875
 20
101.984105083207
 10
137.0847398302996
 20
102.0080915601688
 10
137.0885402012007
 20
102.0329393109892
 10
137.0898321119886
 20
102.0585406764359
 10
137.0898321119886
 20
102.0585406764359
 10
137.0885402012007
 20
102.0840774463431
 10
137.0847290643764
 20
102.1088713675474
 10
137.0785709562875
 20
102.1328147808163
 10
137.0701412383965
 20
102.1557569632245
 10
137.059601399552
 20
102.1775902555398
 10
137.0470698649094
 20
102.1981747007602
 10
137.0326542937012
 20
102.2174026396533
 10
137.0164946429294
 20
102.2351448811403
 10
136.9987308695959
 20
102.2512614682192
 10
136.9794706329332
 20
102.2656447416577
 10
136.9588431240198
 20
102.2781547444538
 10
136.9369775339348
 20
102.2886730514519
 10
136.9140138196801
 20
102.2970704715731
 10
136.890059640488
 20
102.3032285796621
 10
136.8652441874373
 20
102.3070074187166
 10
136.83970741753
 20
102.3082993295045
 10
136.83970741753
 20
102.3082993295045
 10
136.8141598816995
 20
102.3070074187166
 10
136.789355194572
 20
102.3032178137388
 10
136.7654117813032
 20
102.2970812374964
 10
136.7424373011252
 20
102.2886730514519
 10
136.7205717110402
 20
102.2781547444538
 10
136.6999549680501
 20
102.2656447416577
 10
136.6806839654641
 20
102.2512722341425
 10
136.6629201921306
 20
102.2351448811403
 10
136.646771307282
 20
102.2174026396533
 10
136.6323557360738
 20
102.1981747007602
 10
136.6198026695848
 20
102.1775902555398
 10
136.6092628307403
 20
102.1557569632245
 10
136.6008438787725
 20
102.132804014893
 10
136.5946750047604
 20
102.1088713675474
 10
136.5908746338593
 20
102.0840774463431
 10
136.5895827230714
 20
102.0585406764359
 10
136.5895827230714
 20
102.0585406764359
 10
136.5908746338593
 20
102.0329393109892
 10
136.5946642388371
 20
102.0080915601688
 10
136.6008438787725
 20
101.984105083207
 10
136.6092735966635
 20
101.9611090711826
 10
136.619813435508
 20
101.9392434810975
 10
136.6323557360738
 20
101.9186267381075
 10
136.646771307282
 20
101.8993665014447
 10
136.6629201921306
 20
101.8816134940345
 10
136.6806947313873
 20
101.8654753751091
 10
136.6999549680501
 20
101.8510921016706
 10
136.7205717110402
 20
101.8385713329513
 10
136.7424373011252
 20
101.8280530259532
 10
136.7654010153799
 20
101.8196448399087
 10
136.789355194572
 20
101.813497497743
 10
136.8141706476227
 20
101.8097078927652
 97
        0
 75
     1
 76
     1
 98
        0
  0
LWPOLYLINE
  5
8D
330
1F
100
AcDbEntity
  8
レイヤー2
  6
Continuous
 62
   250
420
  2367521
370
    13
100
AcDbPolyline
 90
       68
 70
     0
 43
0.0
 10
136.83970741753
 20
101.8084159819773
 10
136.8652441874373
 20
101.8097078927652
 10
136.8900488745647
 20
101.8134867318198
 10
136.9140138196801
 20
101.8196448399087
 10
136.9369775339348
 20
101.82804226003
 10
136.9588323580966
 20
101.8385713329513
 10
136.9794706329332
 20
101.8510921016706
 10
136.9987201036727
 20
101.8654861410323
 10
137.0164946429294
 20
101.8816134940345
 10
137.0326542937012
 20
101.8993665014447
 10
137.0470590989862
 20
101.9186159721842
 10
137.0596121654752
 20
101.9392434810975
 10
137.0701520043197
 20
101.9611090711826
 10
137.0785709562875
 20
101.984105083207
 10
137.0847398302996
 20
102.0080915601688
 10
137.0885402012007
 20
102.0329393109892
 10
137.0898321119886
 20
102.0585406764359
 10
137.0898321119886
 20
102.0585406764359
 10
137.0885402012007
 20
102.0840774463431
 10
137.0847290643764
 20
102.1088713675474
 10
137.0785709562875
 20
102.1328147808163
 10
137.0701412383965
 20
102.1557569632245
 10
137.059601399552
 20
102.1775902555398
 10
137.0470698649094
 20
102.1981747007602
 10
137.0326542937012
 20
102.2174026396533
 10
137.0164946429294
 20
102.2351448811403
 10
136.9987308695959
 20
102.2512614682192
 10
136.9794706329332
 20
102.2656447416577
 10
136.9588431240198
 20
102.2781547444538
 10
136.9369775339348
 20
102.2886730514519
 10
136.9140138196801
 20
102.2970704715731
 10
136.890059640488
 20
102.3032285796621
 10
136.8652441874373
 20
102.3070074187166
 10
136.83970741753
 20
102.3082993295045
 10
136.83970741753
 20
102.3082993295045
 10
136.8141598816995
 20
102.3070074187166
 10
136.789355194572
 20
102.3032178137388
 10
136.7654117813032
 20
102.2970812374964
 10
136.7424373011252
 20
102.2886730514519
 10
136.7205717110402
 20
102.2781547444538
 10
136.6999549680501
 20
102.2656447416577
 10
136.6806839654641
 20
102.2512722341425
 10
136.6629201921306
 20
102.2351448811403
 10
136.646771307282
 20
102.2174026396533
 10
136.6323557360738
 20
102.1981747007602
 10
136.6198026695848
 20
102.1775902555398
 10
136.6092628307403
 20
102.1557569632245
 10
136.6008438787725
 20
102.132804014893
 10
136.5946750047604
 20
102.1088713675474
 10
136.5908746338593
 20
102.0840774463431
 10
136.5895827230714
 20
102.0585406764359
 10
136.5895827230714
 20
102.0585406764359
 10
136.5908746338593
 20
102.0329393109892
 10
136.5946642388371
 20
102.0080915601688
 10
136.6008438787725
 20
101.984105083207
 10
136.6092735966635
 20
101.9611090711826
 10
136.619813435508
 20
101.9392434810975
 10
136.6323557360738
 20
101.9186267381075
 10
136.646771307282
 20
101.8993665014447
 10
136.6629201921306
 20
101.8816134940345
 10
136.6806947313873
 20
101.8654753751091
 10
136.6999549680501
 20
101.8510921016706
 10
136.7205717110402
 20
101.8385713329513
 10
136.7424373011252
 20
101.8280530259532
 10
136.7654010153799
 20
101.8196448399087
 10
136.789355194572
 20
101.813497497743
 10
136.8141706476227
 20
101.8097078927652
 10
136.83970741753
 20
101.8084159819773
  0
HATCH
  5
8E
330
1F
100
AcDbEntity
  8
レイヤー2
  6
Continuous
 62
   250
420
  2367521
370
    13
100
AcDbHatch
 10
0.0
 20
0.0
 30
0.0
210
0.0
220
0.0
230
1.0
  2
SOLID
 70
     1
 71
     0
 91
        1
 92
        3
 72
     0
 73
     1
 93
       67
 10
141.8226934538042
 20
101.8084159819773
 10
141.8482302237115
 20
101.8097078927652
 10
141.8730349108389
 20
101.8134867318198
 10
141.8969998559543
 20
101.8196448399087
 10
141.919963570209
 20
101.82804226003
 10
141.9418183943708
 20
101.8385713329513
 10
141.9624566692073
 20
101.8510921016706
 10
141.9817061399469
 20
101.8654861410323
 10
141.9994806792036
 20
101.8816134940345
 10
142.0156403299754
 20
101.8993665014447
 10
142.0300451352604
 20
101.9186159721842
 10
142.0425982017494
 20
101.9392434810975
 10
142.0531380405939
 20
101.9611090711826
 10
142.0615569925616
 20
101.984105083207
 10
142.0677258665738
 20
102.0080915601688
 10
142.0715262374749
 20
102.0329393109892
 10
142.0728181482627
 20
102.0585406764359
 10
142.0728181482627
 20
102.0585406764359
 10
142.0715262374749
 20
102.0840774463431
 10
142.0677151006506
 20
102.1088713675474
 10
142.0615569925616
 20
102.1328147808163
 10
142.0531272746707
 20
102.1557569632245
 10
142.0425874358261
 20
102.1775902555398
 10
142.0300559011836
 20
102.1981747007602
 10
142.0156403299754
 20
102.2174026396533
 10
141.9994806792036
 20
102.2351448811403
 10
141.9817169058701
 20
102.2512614682192
 10
141.9624566692073
 20
102.2656447416577
 10
141.941829160294
 20
102.2781547444538
 10
141.919963570209
 20
102.2886730514519
 10
141.8969998559543
 20
102.2970704715731
 10
141.8730456767622
 20
102.3032285796621
 10
141.8482302237115
 20
102.3070074187166
 10
141.8226934538042
 20
102.3082993295045
 10
141.8226934538042
 20
102.3082993295045
 10
141.7971459179737
 20
102.3070074187166
 10
141.7723412308462
 20
102.3032178137388
 10
141.7483978175773
 20
102.2970812374964
 10
141.7254233373994
 20
102.2886730514519
 10
141.7035577473143
 20
102.2781547444538
 10
141.6829410043243
 20
102.2656447416577
 10
141.6636700017382
 20
102.2512722341425
 10
141.6459062284048
 20
102.2351448811403
 10
141.6297573435562
 20
102.2174026396533
 10
141.615341772348
 20
102.1981747007602
 10
141.602788705859
 20
102.1775902555398
 10
141.5922488670145
 20
102.1557569632245
 10
141.5838299150467
 20
102.132804014893
 10
141.5776610410346
 20
102.1088713675474
 10
141.5738606701335
 20
102.0840774463431
 10
141.5725687593456
 20
102.0585406764359
 10
141.5725687593456
 20
102.0585406764359
 10
141.5738606701335
 20
102.0329393109892
 10
141.5776502751113
 20
102.0080915601688
 10
141.5838299150467
 20
101.984105083207
 10
141.5922596329377
 20
101.9611090711826
 10
141.6027994717822
 20
101.9392434810975
 10
141.615341772348
 20
101.9186267381075
 10
141.6297573435562
 20
101.8993665014447
 10
141.6459062284048
 20
101.8816134940345
 10
141.6636807676615
 20
101.8654753751091
 10
141.6829410043243
 20
101.8510921016706
 10
141.7035577473143
 20
101.8385713329513
 10
141.7254233373994
 20
101.8280530259532
 10
141.7483870516541
 20
101.8196448399087
 10
141.7723412308462
 20
101.813497497743
 10
141.7971566838969
 20
101.8097078927652
 97
        0
 75
     1
 76
     1
 98
        0
  0
LWPOLYLINE
  5
8F
330
1F
100
AcDbEntity
  8
レイヤー2
  6
Continuous
 62
   250
420
  2367521
370
    13
100
AcDbPolyline
 90
       68
 70
     0
 43
0.0
 10
141.8226934538042
 20
101.8084159819773
 10
141.8482302237115
 20
101.8097078927652
 10
141.8730349108389
 20
101.8134867318198
 10
141.8969998559543
 20
101.8196448399087
 10
141.919963570209
 20
101.82804226003
 10
141.9418183943708
 20
101.8385713329513
 10
141.9624566692073
 20
101.8510921016706
 10
141.9817061399469
 20
101.8654861410323
 10
141.9994806792036
 20
101.8816134940345
 10
142.0156403299754
 20
101.8993665014447
 10
142.0300451352604
 20
101.9186159721842
 10
142.0425982017494
 20
101.9392434810975
 10
142.0531380405939
 20
101.9611090711826
 10
142.0615569925616
 20
101.984105083207
 10
142.0677258665738
 20
102.0080915601688
 10
142.0715262374749
 20
102.0329393109892
 10
142.0728181482627
 20
102.0585406764359
 10
142.0728181482627
 20
102.0585406764359
 10
142.0715262374749
 20
102.0840774463431
 10
142.0677151006506
 20
102.1088713675474
 10
142.0615569925616
 20
102.1328147808163
 10
142.0531272746707
 20
102.1557569632245
 10
142.0425874358261
 20
102.1775902555398
 10
142.0300559011836
 20
102.1981747007602
 10
142.0156403299754
 20
102.2174026396533
 10
141.9994806792036
 20
102.2351448811403
 10
141.9817169058701
 20
102.2512614682192
 10
141.9624566692073
 20
102.2656447416577
 10
141.941829160294
 20
102.2781547444538
 10
141.919963570209
 20
102.2886730514519
 10
141.8969998559543
 20
102.2970704715731
 10
141.8730456767622
 20
102.3032285796621
 10
141.8482302237115
 20
102.3070074187166
 10
141.8226934538042
 20
102.3082993295045
 10
141.8226934538042
 20
102.3082993295045
 10
141.7971459179737
 20
102.3070074187166
 10
141.7723412308462
 20
102.3032178137388
 10
141.7483978175773
 20
102.2970812374964
 10
141.7254233373994
 20
102.2886730514519
 10
141.7035577473143
 20
102.2781547444538
 10
141.6829410043243
 20
102.2656447416577
 10
141.6636700017382
 20
102.2512722341425
 10
141.6459062284048
 20
102.2351448811403
 10
141.6297573435562
 20
102.2174026396533
 10
141.615341772348
 20
102.1981747007602
 10
141.602788705859
 20
102.1775902555398
 10
141.5922488670145
 20
102.1557569632245
 10
141.5838299150467
 20
102.132804014893
 10
141.5776610410346
 20
102.1088713675474
 10
141.5738606701335
 20
102.0840774463431
 10
141.5725687593456
 20
102.0585406764359
 10
141.5725687593456
 20
102.0585406764359
 10
141.5738606701335
 20
102.0329393109892
 10
141.5776502751113
 20
102.0080915601688
 10
141.5838299150467
 20
101.984105083207
 10
141.5922596329377
 20
101.9611090711826
 10
141.6027994717822
 20
101.9392434810975
 10
141.615341772348
 20
101.9186267381075
 10
141.6297573435562
 20
101.8993665014447
 10
141.6459062284048
 20
101.8816134940345
 10
141.6636807676615
 20
101.8654753751091
 10
141.6829410043243
 20
101.8510921016706
 10
141.7035577473143
 20
101.8385713329513
 10
141.7254233373994
 20
101.8280530259532
 10
141.7483870516541
 20
101.8196448399087
 10
141.7723412308462
 20
101.813497497743
 10
141.7971566838969
 20
101.8097078927652
 10
141.8226934538042
 20
101.8084159819773
  0
HATCH
  5
90
330
1F
100
AcDbEntity
  8
レイヤー2
  6
Continuous
 62
   250
420
  2367521
370
    13
100
AcDbHatch
 10
0.0
 20
0.0
 30
0.0
210
0.0
220
0.0
230
1.0
  2
SOLID
 70
     1
 71
     0
 91
        1
 92
        3
 72
     0
 73
     1
 93
       67
 10
141.7751403708866
 20
104.5793170057651
 10
141.8006879067171
 20
104.5805981506298
 10
141.8254925938446
 20
104.5843985215308
 10
141.8494360071135
 20
104.5905566296197
 10
141.8724212532147
 20
104.598954049741
 10
141.8942760773764
 20
104.6094723567391
 10
141.9149035862898
 20
104.6219931254584
 10
141.9341638229525
 20
104.6363763988969
 10
141.951927596286
 20
104.6525145178223
 10
141.9680872470579
 20
104.6702782911557
 10
141.9824920523428
 20
104.6895277618953
 10
141.9950343529086
 20
104.7101445048853
 10
142.0055741917531
 20
104.7320100949704
 10
142.0140039096441
 20
104.7550061069948
 10
142.0201727836563
 20
104.7789925839566
 10
142.0239731545573
 20
104.803840334777
 10
142.0252650653452
 20
104.8294417002237
 10
142.0252650653452
 20
104.8294417002237
 10
142.0239623886341
 20
104.8549784701309
 10
142.020162017733
 20
104.8797723913352
 10
142.0140039096441
 20
104.9037050386808
 10
142.0055741917531
 20
104.9266687529356
 10
141.9950343529086
 20
104.9484912793277
 10
141.9824920523428
 20
104.969075724548
 10
141.9680764811346
 20
104.9883036634411
 10
141.951927596286
 20
105.0060459049281
 10
141.9341638229525
 20
105.022162492007
 10
141.9148928203665
 20
105.0365457654455
 10
141.8942760773764
 20
105.0490557682416
 10
141.8724104872915
 20
105.0595740752397
 10
141.8494467730367
 20
105.0679714953609
 10
141.8254925938446
 20
105.0741296034499
 10
141.8006771407939
 20
105.0779084425045
 10
141.7751403708866
 20
105.0792003532923
 10
141.7751403708866
 20
105.0792003532923
 10
141.7495928350561
 20
105.0778976765812
 10
141.7247881479286
 20
105.0741296034499
 10
141.7008339687365
 20
105.0679714953609
 10
141.6778702544818
 20
105.0595740752397
 10
141.6560046643968
 20
105.0490557682416
 10
141.6353771554835
 20
105.0365457654455
 10
141.6161169188207
 20
105.022162492007
 10
141.5983531454872
 20
105.0060459049281
 10
141.5822042606386
 20
104.9883144293643
 10
141.5677886894304
 20
104.9690864904712
 10
141.5552463888646
 20
104.9484912793277
 10
141.5446957840969
 20
104.9266579870123
 10
141.5362768321291
 20
104.9037050386808
 10
141.530107958117
 20
104.8797723913352
 10
141.526307587216
 20
104.8549784701309
 10
141.525015676428
 20
104.8294417002237
 10
141.525015676428
 20
104.8294417002237
 10
141.5263183531392
 20
104.803840334777
 10
141.5300971921938
 20
104.7789818180334
 10
141.5362875980524
 20
104.7549953410716
 10
141.5447065500201
 20
104.7320208608936
 10
141.5552463888646
 20
104.7101445048853
 10
141.5677886894304
 20
104.689516995972
 10
141.5821934947154
 20
104.6702782911557
 10
141.5983531454872
 20
104.6525145178223
 10
141.616127684744
 20
104.6363871648201
 10
141.6353771554835
 20
104.6219931254584
 10
141.65601543032
 20
104.6094723567391
 10
141.6778702544818
 20
104.598954049741
 10
141.7008339687365
 20
104.5905458636965
 10
141.7247881479286
 20
104.5843985215308
 10
141.7496036009794
 20
104.580608916553
 97
        0
 75
     1
 76
     1
 98
        0
  0
LWPOLYLINE
  5
91
330
1F
100
AcDbEntity
  8
レイヤー2
  6
Continuous
 62
   250
420
  2367521
370
    13
100
AcDbPolyline
 90
       68
 70
     0
 43
0.0
 10
141.7751403708866
 20
104.5793170057651
 10
141.8006879067171
 20
104.5805981506298
 10
141.8254925938446
 20
104.5843985215308
 10
141.8494360071135
 20
104.5905566296197
 10
141.8724212532147
 20
104.598954049741
 10
141.8942760773764
 20
104.6094723567391
 10
141.9149035862898
 20
104.6219931254584
 10
141.9341638229525
 20
104.6363763988969
 10
141.951927596286
 20
104.6525145178223
 10
141.9680872470579
 20
104.6702782911557
 10
141.9824920523428
 20
104.6895277618953
 10
141.9950343529086
 20
104.7101445048853
 10
142.0055741917531
 20
104.7320100949704
 10
142.0140039096441
 20
104.7550061069948
 10
142.0201727836563
 20
104.7789925839566
 10
142.0239731545573
 20
104.803840334777
 10
142.0252650653452
 20
104.8294417002237
 10
142.0252650653452
 20
104.8294417002237
 10
142.0239623886341
 20
104.8549784701309
 10
142.020162017733
 20
104.8797723913352
 10
142.0140039096441
 20
104.9037050386808
 10
142.0055741917531
 20
104.9266687529356
 10
141.9950343529086
 20
104.9484912793277
 10
141.9824920523428
 20
104.969075724548
 10
141.9680764811346
 20
104.9883036634411
 10
141.951927596286
 20
105.0060459049281
 10
141.9341638229525
 20
105.022162492007
 10
141.9148928203665
 20
105.0365457654455
 10
141.8942760773764
 20
105.0490557682416
 10
141.8724104872915
 20
105.0595740752397
 10
141.8494467730367
 20
105.0679714953609
 10
141.8254925938446
 20
105.0741296034499
 10
141.8006771407939
 20
105.0779084425045
 10
141.7751403708866
 20
105.0792003532923
 10
141.7751403708866
 20
105.0792003532923
 10
141.7495928350561
 20
105.0778976765812
 10
141.7247881479286
 20
105.0741296034499
 10
141.7008339687365
 20
105.0679714953609
 10
141.6778702544818
 20
105.0595740752397
 10
141.6560046643968
 20
105.0490557682416
 10
141.6353771554835
 20
105.0365457654455
 10
141.6161169188207
 20
105.022162492007
 10
141.5983531454872
 20
105.0060459049281
 10
141.5822042606386
 20
104.9883144293643
 10
141.5677886894304
 20
104.9690864904712
 10
141.5552463888646
 20
104.9484912793277
 10
141.5446957840969
 20
104.9266579870123
 10
141.5362768321291
 20
104.9037050386808
 10
141.530107958117
 20
104.8797723913352
 10
141.526307587216
 20
104.8549784701309
 10
141.525015676428
 20
104.8294417002237
 10
141.525015676428
 20
104.8294417002237
 10
141.5263183531392
 20
104.803840334777
 10
141.5300971921938
 20
104.7789818180334
 10
141.5362875980524
 20
104.7549953410716
 10
141.5447065500201
 20
104.7320208608936
 10
141.5552463888646
 20
104.7101445048853
 10
141.5677886894304
 20
104.689516995972
 10
141.5821934947154
 20
104.6702782911557
 10
141.5983531454872
 20
104.6525145178223
 10
141.616127684744
 20
104.6363871648201
 10
141.6353771554835
 20
104.6219931254584
 10
141.65601543032
 20
104.6094723567391
 10
141.6778702544818
 20
104.598954049741
 10
141.7008339687365
 20
104.5905458636965
 10
141.7247881479286
 20
104.5843985215308
 10
141.7496036009794
 20
104.580608916553
 10
141.7751403708866
 20
104.5793170057651
  0
TEXT
  5
92
330
1F
100
AcDbEntity
  8
レイヤー2
  6
Continuous
 62
   250
420
  2367521
100
AcDbText
 10
107.1844981732364
 20
114.0495646499946
 30
0.0
 40
2.150533301035563
  1
7
 41
1.024999618530273
  7
MS Gothic
100
AcDbText
  0
TEXT
  5
93
330
1F
100
AcDbEntity
  8
レイヤー2
  6
Continuous
 62
   250
420
  2367521
100
AcDbText
 10
96.60250746641219
 20
101.8459890366642
 30
0.0
 40
2.150533301035563
  1
4.7
 50
90.00000250447816
 41
0.9908901055653889
  7
MS Gothic
100
AcDbText
  0
TEXT
  5
94
330
1F
100
AcDbEntity
  8
レイヤー2
  6
Continuous
 62
   250
420
  2367521
100
AcDbText
 10
115.8275535989863
 20
91.02219149119237
 30
0.0
 40
2.150533301035563
  1
26
 41
0.9480018615722654
  7
MS Gothic
100
AcDbText
  0
TEXT
  5
95
330
1F
100
AcDbEntity
  8
レイヤー2
  6
Continuous
 62
   250
420
  2367521
100
AcDbText
 10
137.566264005875
 20
104.946897905295
 30
0.0
 40
2.150533301035563
  1
0.8
 50
90.00000250447816
 41
0.7733332316080729
  7
MS Gothic
100
AcDbText
  0
TEXT
  5
96
330
1F
100
AcDbEntity
  8
レイヤー2
  6
Continuous
 62
   250
420
  2367521
100
AcDbText
 10
142.5503051026259
 20
106.1378781628803
 30
0.0
 40
2.150533301035563
  1
3.1
 50
90.00000250447816
 41
0.7770004272460936
  7
MS Gothic
100
AcDbText
  0
LINE
  5
97
330
1F
100
AcDbEntity
  8
レイヤー3
  6
UserDefined01
 62
   140
420
    44526
370
    13
100
AcDbLine
 10
122.1580887144147
 20
97.26020098952075
 30
0.0
 11
130.2719774814452
 21
97.26020098952075
 31
0.0
  0
TEXT
  5
98
330
1F
100
AcDbEntity
  8
レイヤー3
  6
Continuous
 62
   140
420
    44526
100
AcDbText
 10
125.3179194808965
 20
97.9611704234377
 30
0.0
 40
1.881716638406118
  1
8
 41
1.097499302455357
  7
MS Gothic
100
AcDbText
  0
HATCH
  5
99
330
1F
100
AcDbEntity
  8
レイヤー3
  6
Continuous
 62
   140
420
    44526
370
    13
100
AcDbHatch
 10
0.0
 20
0.0
 30
0.0
210
0.0
220
0.0
230
1.0
  2
SOLID
 70
     1
 71
     0
 91
        1
 92
        3
 72
     0
 73
     1
 93
        3
 10
121.1590218043703
 20
105.1973778926145
 10
122.8911619591559
 20
105.1966673416812
 10
122.0257970497348
 20
103.6984276350429
 97
        0
 75
     1
 76
     1
 98
        0
  0
LWPOLYLINE
  5
9A
330
1F
100
AcDbEntity
  8
レイヤー3
  6
Continuous
 62
   140
420
    44526
370
    13
100
AcDbPolyline
 90
        4
 70
     0
 43
0.0
 10
121.1590218043703
 20
105.1973778926145
 10
122.8911619591559
 20
105.1966673416812
 10
122.0257970497348
 20
103.6984276350429
 10
121.1590218043703
 20
105.1973778926145
  0
HATCH
  5
9B
330
1F
100
AcDbEntity
  8
レイヤー3
  6
Continuous
 62
     7
420
 16777215
370
    13
100
AcDbHatch
 10
0.0
 20
0.0
 30
0.0
210
0.0
220
0.0
230
1.0
  2
SOLID
 70
     1
 71
     0
 91
        1
 92
        3
 72
     0
 73
     1
 93
       72
 10
105.2769595971485
 20
101.1655934716934
 10
105.1748232834426
 20
101.1707395829985
 10
105.0756475986257
 20
101.18586570514
 10
104.9799385410895
 20
101.2104443078796
 10
104.8882021092262
 20
101.2439801587485
 10
104.800922769581
 20
101.2859995571247
 10
104.7186172864692
 20
101.3359642068463
 10
104.6417593605131
 20
101.3933896413679
 10
104.5708765219509
 20
101.457780628221
 10
104.5064640032514
 20
101.5286204030902
 10
104.44900627096
 20
101.6054244994302
 10
104.3990308553152
 20
101.6876869188491
 10
104.3570114569391
 20
101.7748908970316
 10
104.3234540742237
 20
101.8665627333555
 10
104.2988647055608
 20
101.9621748975826
 10
104.2837493493425
 20
102.061232157244
 10
104.2786032380375
 20
102.1632500457943
 10
104.2786032380375
 20
104.8785773738564
 10
104.2837493493425
 20
104.9807675171784
 10
104.2988647055608
 20
105.0799754997651
 10
104.3234540742237
 20
105.1756845573012
 10
104.3570114569391
 20
105.2674317550878
 10
104.3990308553152
 20
105.3547003288097
 10
104.4490170368833
 20
105.4369735141518
 10
104.5064532373282
 20
105.5137776104918
 10
104.5708765219509
 20
105.584617385361
 10
104.6417593605131
 20
105.6489868403676
 10
104.718606520546
 20
105.7063799771196
 10
104.800922769581
 20
105.7563230949947
 10
104.8882021092262
 20
105.7982886637546
 10
104.9799493070128
 20
105.8318029827771
 10
105.0756475986257
 20
105.856349287747
 10
105.1748232834426
 20
105.8714431121189
 10
105.2769595971485
 20
105.8765892234239
 10
111.2907612510793
 20
105.8765892234239
 10
111.2907612510793
 20
105.0207521560636
 10
105.615978519737
 20
105.0207521560636
 10
105.5648511503063
 20
105.0159290224555
 10
105.5152094782817
 20
105.002008683716
 10
105.4673118858207
 20
104.9798524137037
 10
105.4214059891577
 20
104.9502568907378
 10
105.3777286386038
 20
104.9141049205233
 10
105.3365489822398
 20
104.8722254791493
 10
105.2980931044537
 20
104.8254367767812
 10
105.2626301533261
 20
104.7746000872778
 10
105.2304077450915
 20
104.7205443867279
 10
105.2016734959842
 20
104.6641094171436
 10
105.1766750222386
 20
104.6061456864603
 10
105.1556599400889
 20
104.5474714048436
 10
105.1388758657696
 20
104.4889478461523
 10
105.1265811814382
 20
104.431403986475
 10
105.119023503329
 20
104.3756688019009
 10
105.1164504476765
 20
104.3226035662883
 10
105.1164504476765
 20
102.5202588261042
 10
105.119023503329
 20
102.4691314566735
 10
105.1265919473614
 20
102.4194897846489
 10
105.1388758657696
 20
102.3715921921879
 10
105.1556599400889
 20
102.3256862955249
 10
105.1766750222386
 20
102.282008944971
 10
105.2016734959842
 20
102.2408185226838
 10
105.2304077450915
 20
102.2023734108209
 10
105.2626301533261
 20
102.1669104596933
 10
105.2980931044537
 20
102.1346880514587
 10
105.3365382163166
 20
102.1059538023514
 10
105.3777286386038
 20
102.0809553286057
 10
105.4213952232345
 20
102.0599402464561
 10
105.4673118858207
 20
102.0431561721368
 10
105.5152094782817
 20
102.0308614878053
 10
105.5648511503063
 20
102.0233038096962
 10
105.615978519737
 20
102.0207307540437
 10
130.2204625387781
 20
102.0207307540437
 10
130.2204625387781
 20
101.1655934716934
 97
        0
 75
     1
 76
     1
 98
        0
  0
LWPOLYLINE
  5
9C
330
1F
100
AcDbEntity
  8
レイヤー3
  6
Continuous
 62
     7
420
 16777215
370
    13
100
AcDbPolyline
 90
       73
 70
     0
 43
0.0
 10
105.2769595971485
 20
101.1655934716934
 10
105.1748232834426
 20
101.1707395829985
 10
105.0756475986257
 20
101.18586570514
 10
104.9799385410895
 20
101.2104443078796
 10
104.8882021092262
 20
101.2439801587485
 10
104.800922769581
 20
101.2859995571247
 10
104.7186172864692
 20
101.3359642068463
 10
104.6417593605131
 20
101.3933896413679
 10
104.5708765219509
 20
101.457780628221
 10
104.5064640032514
 20
101.5286204030902
 10
104.44900627096
 20
101.6054244994302
 10
104.3990308553152
 20
101.6876869188491
 10
104.3570114569391
 20
101.7748908970316
 10
104.3234540742237
 20
101.8665627333555
 10
104.2988647055608
 20
101.9621748975826
 10
104.2837493493425
 20
102.061232157244
 10
104.2786032380375
 20
102.1632500457943
 10
104.2786032380375
 20
104.8785773738564
 10
104.2837493493425
 20
104.9807675171784
 10
104.2988647055608
 20
105.0799754997651
 10
104.3234540742237
 20
105.1756845573012
 10
104.3570114569391
 20
105.2674317550878
 10
104.3990308553152
 20
105.3547003288097
 10
104.4490170368833
 20
105.4369735141518
 10
104.5064532373282
 20
105.5137776104918
 10
104.5708765219509
 20
105.584617385361
 10
104.6417593605131
 20
105.6489868403676
 10
104.718606520546
 20
105.7063799771196
 10
104.800922769581
 20
105.7563230949947
 10
104.8882021092262
 20
105.7982886637546
 10
104.9799493070128
 20
105.8318029827771
 10
105.0756475986257
 20
105.856349287747
 10
105.1748232834426
 20
105.8714431121189
 10
105.2769595971485
 20
105.8765892234239
 10
111.2907612510793
 20
105.8765892234239
 10
111.2907612510793
 20
105.0207521560636
 10
105.615978519737
 20
105.0207521560636
 10
105.5648511503063
 20
105.0159290224555
 10
105.5152094782817
 20
105.002008683716
 10
105.4673118858207
 20
104.9798524137037
 10
105.4214059891577
 20
104.9502568907378
 10
105.3777286386038
 20
104.9141049205233
 10
105.3365489822398
 20
104.8722254791493
 10
105.2980931044537
 20
104.8254367767812
 10
105.2626301533261
 20
104.7746000872778
 10
105.2304077450915
 20
104.7205443867279
 10
105.2016734959842
 20
104.6641094171436
 10
105.1766750222386
 20
104.6061456864603
 10
105.1556599400889
 20
104.5474714048436
 10
105.1388758657696
 20
104.4889478461523
 10
105.1265811814382
 20
104.431403986475
 10
105.119023503329
 20
104.3756688019009
 10
105.1164504476765
 20
104.3226035662883
 10
105.1164504476765
 20
102.5202588261042
 10
105.119023503329
 20
102.4691314566735
 10
105.1265919473614
 20
102.4194897846489
 10
105.1388758657696
 20
102.3715921921879
 10
105.1556599400889
 20
102.3256862955249
 10
105.1766750222386
 20
102.282008944971
 10
105.2016734959842
 20
102.2408185226838
 10
105.2304077450915
 20
102.2023734108209
 10
105.2626301533261
 20
102.1669104596933
 10
105.2980931044537
 20
102.1346880514587
 10
105.3365382163166
 20
102.1059538023514
 10
105.3777286386038
 20
102.0809553286057
 10
105.4213952232345
 20
102.0599402464561
 10
105.4673118858207
 20
102.0431561721368
 10
105.5152094782817
 20
102.0308614878053
 10
105.5648511503063
 20
102.0233038096962
 10
105.615978519737
 20
102.0207307540437
 10
130.2204625387781
 20
102.0207307540437
 10
130.2204625387781
 20
101.1655934716934
 10
105.2769595971485
 20
101.1655934716934
  0
LWPOLYLINE
  5
9D
330
1F
100
AcDbEntity
  8
レイヤー3
  6
Continuous
 62
   250
420
  2367521
370
    25
100
AcDbPolyline
 90
       73
 70
     0
 43
0.0
 10
105.2769595971485
 20
101.1655934716934
 10
105.1748232834426
 20
101.1707395829985
 10
105.0756475986257
 20
101.18586570514
 10
104.9799385410895
 20
101.2104443078796
 10
104.8882021092262
 20
101.2439801587485
 10
104.800922769581
 20
101.2859995571247
 10
104.7186172864692
 20
101.3359642068463
 10
104.6417593605131
 20
101.3933896413679
 10
104.5708765219509
 20
101.457780628221
 10
104.5064640032514
 20
101.5286204030902
 10
104.44900627096
 20
101.6054244994302
 10
104.3990308553152
 20
101.6876869188491
 10
104.3570114569391
 20
101.7748908970316
 10
104.3234540742237
 20
101.8665627333555
 10
104.2988647055608
 20
101.9621748975826
 10
104.2837493493425
 20
102.061232157244
 10
104.2786032380375
 20
102.1632500457943
 10
104.2786032380375
 20
104.8785773738564
 10
104.2837493493425
 20
104.9807675171784
 10
104.2988647055608
 20
105.0799754997651
 10
104.3234540742237
 20
105.1756845573012
 10
104.3570114569391
 20
105.2674317550878
 10
104.3990308553152
 20
105.3547003288097
 10
104.4490170368833
 20
105.4369735141518
 10
104.5064532373282
 20
105.5137776104918
 10
104.5708765219509
 20
105.584617385361
 10
104.6417593605131
 20
105.6489868403676
 10
104.718606520546
 20
105.7063799771196
 10
104.800922769581
 20
105.7563230949947
 10
104.8882021092262
 20
105.7982886637546
 10
104.9799493070128
 20
105.8318029827771
 10
105.0756475986257
 20
105.856349287747
 10
105.1748232834426
 20
105.8714431121189
 10
105.2769595971485
 20
105.8765892234239
 10
111.2907612510793
 20
105.8765892234239
 10
111.2907612510793
 20
105.0207521560636
 10
105.615978519737
 20
105.0207521560636
 10
105.5648511503063
 20
105.0159290224555
 10
105.5152094782817
 20
105.002008683716
 10
105.4673118858207
 20
104.9798524137037
 10
105.4214059891577
 20
104.9502568907378
 10
105.3777286386038
 20
104.9141049205233
 10
105.3365489822398
 20
104.8722254791493
 10
105.2980931044537
 20
104.8254367767812
 10
105.2626301533261
 20
104.7746000872778
 10
105.2304077450915
 20
104.7205443867279
 10
105.2016734959842
 20
104.6641094171436
 10
105.1766750222386
 20
104.6061456864603
 10
105.1556599400889
 20
104.5474714048436
 10
105.1388758657696
 20
104.4889478461523
 10
105.1265811814382
 20
104.431403986475
 10
105.119023503329
 20
104.3756688019009
 10
105.1164504476765
 20
104.3226035662883
 10
105.1164504476765
 20
102.5202588261042
 10
105.119023503329
 20
102.4691314566735
 10
105.1265919473614
 20
102.4194897846489
 10
105.1388758657696
 20
102.3715921921879
 10
105.1556599400889
 20
102.3256862955249
 10
105.1766750222386
 20
102.282008944971
 10
105.2016734959842
 20
102.2408185226838
 10
105.2304077450915
 20
102.2023734108209
 10
105.2626301533261
 20
102.1669104596933
 10
105.2980931044537
 20
102.1346880514587
 10
105.3365382163166
 20
102.1059538023514
 10
105.3777286386038
 20
102.0809553286057
 10
105.4213952232345
 20
102.0599402464561
 10
105.4673118858207
 20
102.0431561721368
 10
105.5152094782817
 20
102.0308614878053
 10
105.5648511503063
 20
102.0233038096962
 10
105.615978519737
 20
102.0207307540437
 10
130.2204625387781
 20
102.0207307540437
 10
130.2204625387781
 20
101.1655934716934
 10
105.2769595971485
 20
101.1655934716934
  0
ENDSEC
  0
SECTION
  2
OBJECTS
  0
DICTIONARY
  5
C
330
0
100
AcDbDictionary
281
     1
  3
ACAD_DETAILVIEWSTYLE
350
A5
  3
ACAD_GROUP
350
D
  3
ACAD_LAYOUT
350
1A
  3
ACAD_MATERIAL
350
43
  3
ACAD_MLEADERSTYLE
350
5B
  3
ACAD_MLINESTYLE
350
17
  3
ACAD_PLOTSETTINGS
350
19
  3
ACAD_PLOTSTYLENAME
350
E
  3
ACAD_SCALELIST
350
47
  3
ACAD_SECTIONVIEWSTYLE
350
A6
  3
ACAD_TABLESTYLE
350
59
  3
ACAD_VISUALSTYLE
350
2A
  3
ACDB_RECOMPOSE_DATA
350
A2
  3
AcDbVariableDictionary
350
9E
  0
SUN
  5
5D
330
29
100
AcDbSun
 90
        1
290
     0
 63
     7
421
 16777215
 40
1.0
291
     1
 91
  2455826
 92
 54000000
292
     0
 70
     2
 71
   256
280
     1
  0
DICTIONARY
  5
A5
102
{ACAD_REACTORS
330
C
102
}
330
C
100
AcDbDictionary
281
     1
  0
DICTIONARY
  5
D
102
{ACAD_REACTORS
330
C
102
}
330
C
100
AcDbDictionary
281
     1
  0
DICTIONARY
  5
1A
102
{ACAD_REACTORS
330
C
102
}
330
C
100
AcDbDictionary
281
     1
  3
Layout1
350
1E
  3
Layout2
350
26
  3
Model
350
22
  0
DICTIONARY
  5
43
102
{ACAD_REACTORS
330
C
102
}
330
C
100
AcDbDictionary
281
     1
  3
ByBlock
350
45
  3
ByLayer
350
44
  3
Global
350
46
  0
DICTIONARY
  5
5B
102
{ACAD_REACTORS
330
C
102
}
330
C
100
AcDbDictionary
281
     1
  3
Standard
350
5C
  0
DICTIONARY
  5
17
102
{ACAD_REACTORS
330
C
102
}
330
C
100
AcDbDictionary
281
     1
  3
Standard
350
18
  0
DICTIONARY
  5
19
102
{ACAD_REACTORS
330
C
102
}
330
C
100
AcDbDictionary
281
     1
  0
ACDBDICTIONARYWDFLT
  5
E
102
{ACAD_REACTORS
330
C
102
}
330
C
100
AcDbDictionary
281
     1
  3
Normal
350
F
100
AcDbDictionaryWithDefault
340
F
  0
DICTIONARY
  5
47
102
{ACAD_REACTORS
330
C
102
}
330
C
100
AcDbDictionary
281
     1
  3
A0
350
48
  3
A1
350
49
  3
A2
350
4A
  3
A3
350
4B
  3
A4
350
4C
  3
A5
350
4D
  3
A6
350
4E
  3
A7
350
4F
  3
A8
350
50
  3
A9
350
51
  3
B0
350
52
  3
B1
350
53
  3
B2
350
54
  3
B3
350
55
  3
B4
350
56
  3
B5
350
57
  3
B6
350
58
  0
DICTIONARY
  5
A6
102
{ACAD_REACTORS
330
C
102
}
330
C
100
AcDbDictionary
281
     1
  0
DICTIONARY
  5
59
102
{ACAD_REACTORS
330
C
102
}
330
C
100
AcDbDictionary
281
     1
  3
Standard
350
5A
  0
DICTIONARY
  5
2A
102
{ACAD_REACTORS
330
C
102
}
330
C
100
AcDbDictionary
281
     1
  3
2dWireframe
350
2F
  3
Basic
350
32
  3
Brighten
350
36
  3
ColorChange
350
3A
  3
Conceptual
350
34
  3
Dim
350
35
  3
EdgeColorOff
350
3D
  3
Facepattern
350
39
  3
Flat
350
2B
  3
FlatWithEdges
350
2C
  3
Gouraud
350
2D
  3
GouraudWithEdges
350
2E
  3
Hidden
350
31
  3
JitterOff
350
3B
  3
Linepattern
350
38
  3
OverhangOff
350
3C
  3
Realistic
350
33
  3
Shaded
350
42
  3
Shaded with edges
350
41
  3
Shades of Gray
350
3E
  3
Sketchy
350
3F
  3
Thicken
350
37
  3
Wireframe
350
30
  3
X-Ray
350
40
  0
XRECORD
  5
A2
102
{ACAD_REACTORS
330
C
102
}
330
C
100
AcDbXrecord
280
     1
 90
        1
330
5A
  0
DICTIONARY
  5
9E
102
{ACAD_REACTORS
330
C
102
}
330
C
100
AcDbDictionary
281
     1
  3
CANNOSCALE
350
9F
  3
CENTEREXE
350
A7
  3
CENTERLTYPEFILE
350
A8
  3
CMLEADERSTYLE
350
A4
  3
CTABLESTYLE
350
A3
  0
LAYOUT
  5
1E
102
{ACAD_REACTORS
330
1A
102
}
330
1A
100
AcDbPlotSettings
  1

  2
none_device
  4

  6

 40
0.0
 41
0.0
 42
0.0
 43
0.0
 44
0.0
 45
0.0
 46
0.0
 47
0.0
 48
0.0
 49
0.0
140
0.0
141
0.0
142
1.0
143
1.0
 70
   688
 72
     1
 73
     0
 74
     5
  7

 75
    16
 76
     0
 77
     5
 78
   300
147
1.0
148
0.0
149
0.0
100
AcDbLayout
  1
Layout1
 70
     1
 71
     1
 10
0.0
 20
0.0
 11
420.0
 21
297.0
 12
0.0
 22
0.0
 32
0.0
 14
1.000000000000000E+20
 24
1.000000000000000E+20
 34
1.000000000000000E+20
 15
-1.000000000000000E+20
 25
-1.000000000000000E+20
 35
-1.000000000000000E+20
146
0.0
 13
0.0
 23
0.0
 33
0.0
 16
1.0
 26
0.0
 36
0.0
 17
0.0
 27
1.0
 37
0.0
 76
     0
330
1B
  0
LAYOUT
  5
26
102
{ACAD_REACTORS
330
1A
102
}
330
1A
100
AcDbPlotSettings
  1

  2
none_device
  4

  6

 40
0.0
 41
0.0
 42
0.0
 43
0.0
 44
0.0
 45
0.0
 46
0.0
 47
0.0
 48
0.0
 49
0.0
140
0.0
141
0.0
142
1.0
143
1.0
 70
   688
 72
     1
 73
     0
 74
     5
  7

 75
    16
 76
     0
 77
     5
 78
   300
147
1.0
148
0.0
149
0.0
100
AcDbLayout
  1
Layout2
 70
     1
 71
     2
 10
0.0
 20
0.0
 11
0.0
 21
0.0
 12
0.0
 22
0.0
 32
0.0
 14
0.0
 24
0.0
 34
0.0
 15
0.0
 25
0.0
 35
0.0
146
0.0
 13
0.0
 23
0.0
 33
0.0
 16
1.0
 26
0.0
 36
0.0
 17
0.0
 27
1.0
 37
0.0
 76
     0
330
23
  0
LAYOUT
  5
22
102
{ACAD_REACTORS
330
1A
102
}
330
1A
100
AcDbPlotSettings
  1

  2
none_device
  4
Letter_(8.50_x_11.00_Inches)
  6

 40
6.35
 41
6.35
 42
6.35000508
 43
6.35000508
 44
215.9
 45
279.4
 46
0.0
 47
0.0
 48
0.0
 49
0.0
140
0.0
141
0.0
142
1.0
143
1.0
 70
  1712
 72
     1
 73
     0
 74
     0
  7

 75
     0
 76
     0
 77
     5
 78
   300
147
1.0
148
0.0
149
0.0
100
AcDbLayout
  1
Model
 70
     1
 71
     0
 10
0.0
 20
0.0
 11
302.9997823349792
 21
216.0016055409748
 12
0.0
 22
0.0
 32
0.0
 14
0.0
 24
0.0
 34
0.0
 15
302.9997823349792
 25
216.0016055409748
 35
0.0
146
0.0
 13
0.0
 23
0.0
 33
0.0
 16
1.0
 26
0.0
 36
0.0
 17
0.0
 27
1.0
 37
0.0
 76
     0
330
1F
331
29
  0
MATERIAL
  5
45
102
{ACAD_REACTORS
330
43
102
}
330
43
100
AcDbMaterial
  1
ByBlock
 72
     1
 94
      127
  0
MATERIAL
  5
44
102
{ACAD_REACTORS
330
43
102
}
330
43
100
AcDbMaterial
  1
ByLayer
 72
     1
 94
      127
  0
MATERIAL
  5
46
102
{ACAD_REACTORS
330
43
102
}
330
43
100
AcDbMaterial
  1
Global
 72
     1
 94
      127
  0
MLEADERSTYLE
  5
5C
102
{ACAD_REACTORS
330
5B
102
}
330
5B
100
AcDbMLeaderStyle
179
     2
170
     2
171
     1
172
     0
 90
        2
 40
0.0
 41
0.0
173
     1
 91
-1056964608
340
14
 92
       -2
290
     1
 42
2.0
291
     1
 43
8.0
  3
Standard
341
0
 44
4.0
300

342
11
174
     1
178
     6
175
     1
176
     0
 93
-1056964608
 45
4.0
292
     0
297
     0
 46
4.0
343
0
 94
-1056964608
 47
1.0
 49
1.0
140
1.0
293
     1
141
0.0
294
     1
177
     0
142
1.0
295
     0
296
     0
143
3.75
271
     0
272
     9
273
     9
298
     0
  0
MLINESTYLE
  5
18
102
{ACAD_REACTORS
330
17
102
}
330
17
100
AcDbMlineStyle
  2
Standard
 70
     0
  3

 62
   256
 51
90.0
 52
90.0
 71
     2
 49
0.5
 62
   256
  6
BYLAYER
 49
-0.5
 62
   256
  6
BYLAYER
  0
ACDBPLACEHOLDER
  5
F
102
{ACAD_REACTORS
330
E
102
}
330
E
  0
SCALE
  5
48
102
{ACAD_REACTORS
330
47
102
}
330
47
100
AcDbScale
 70
     0
300
1:1
140
1.0
141
1.0
290
     1
  0
SCALE
  5
49
102
{ACAD_REACTORS
330
47
102
}
330
47
100
AcDbScale
 70
     0
300
1:2
140
1.0
141
2.0
290
     0
  0
SCALE
  5
4A
102
{ACAD_REACTORS
330
47
102
}
330
47
100
AcDbScale
 70
     0
300
1:4
140
1.0
141
4.0
290
     0
  0
SCALE
  5
4B
102
{ACAD_REACTORS
330
47
102
}
330
47
100
AcDbScale
 70
     0
300
1:5
140
1.0
141
5.0
290
     0
  0
SCALE
  5
4C
102
{ACAD_REACTORS
330
47
102
}
330
47
100
AcDbScale
 70
     0
300
1:8
140
1.0
141
8.0
290
     0
  0
SCALE
  5
4D
102
{ACAD_REACTORS
330
47
102
}
330
47
100
AcDbScale
 70
     0
300
1:10
140
1.0
141
10.0
290
     0
  0
SCALE
  5
4E
102
{ACAD_REACTORS
330
47
102
}
330
47
100
AcDbScale
 70
     0
300
1:16
140
1.0
141
16.0
290
     0
  0
SCALE
  5
4F
102
{ACAD_REACTORS
330
47
102
}
330
47
100
AcDbScale
 70
     0
300
1:20
140
1.0
141
20.0
290
     0
  0
SCALE
  5
50
102
{ACAD_REACTORS
330
47
102
}
330
47
100
AcDbScale
 70
     0
300
1:30
140
1.0
141
30.0
290
     0
  0
SCALE
  5
51
102
{ACAD_REACTORS
330
47
102
}
330
47
100
AcDbScale
 70
     0
300
1:40
140
1.0
141
40.0
290
     0
  0
SCALE
  5
52
102
{ACAD_REACTORS
330
47
102
}
330
47
100
AcDbScale
 70
     0
300
1:50
140
1.0
141
50.0
290
     0
  0
SCALE
  5
53
102
{ACAD_REACTORS
330
47
102
}
330
47
100
AcDbScale
 70
     0
300
1:100
140
1.0
141
100.0
290
     0
  0
SCALE
  5
54
102
{ACAD_REACTORS
330
47
102
}
330
47
100
AcDbScale
 70
     0
300
2:1
140
2.0
141
1.0
290
     0
  0
SCALE
  5
55
102
{ACAD_REACTORS
330
47
102
}
330
47
100
AcDbScale
 70
     0
300
4:1
140
4.0
141
1.0
290
     0
  0
SCALE
  5
56
102
{ACAD_REACTORS
330
47
102
}
330
47
100
AcDbScale
 70
     0
300
8:1
140
8.0
141
1.0
290
     0
  0
SCALE
  5
57
102
{ACAD_REACTORS
330
47
102
}
330
47
100
AcDbScale
 70
     0
300
10:1
140
10.0
141
1.0
290
     0
  0
SCALE
  5
58
102
{ACAD_REACTORS
330
47
102
}
330
47
100
AcDbScale
 70
     0
300
100:1
140
100.0
141
1.0
290
     0
  0
TABLESTYLE
  5
5A
102
{ACAD_REACTORS
330
59
102
}
102
{ACAD_XDICTIONARY
360
A0
102
}
330
59
100
AcDbTableStyle
  3
Standard
 70
     0
 71
     0
 40
0.06
 41
0.06
280
     0
281
     0
  7
Standard
140
4.5
170
     2
 62
     0
 63
   257
283
     0
 90
        4
 91
        0
  1

274
    -2
284
     1
 64
     0
275
    -2
285
     1
 65
     0
276
    -2
286
     1
 66
     0
277
    -2
287
     1
 67
     0
278
    -2
288
     1
 68
     0
279
    -2
289
     1
 69
     0
  7
Standard
140
6.0
170
     5
 62
     0
 63
   257
283
     0
 90
        4
 91
        0
  1

274
    -2
284
     1
 64
     0
275
    -2
285
     1
 65
     0
276
    -2
286
     1
 66
     0
277
    -2
287
     1
 67
     0
278
    -2
288
     1
 68
     0
279
    -2
289
     1
 69
     0
  7
Standard
140
4.5
170
     5
 62
     0
 63
   257
283
     0
 90
        4
 91
        0
  1

274
    -2
284
     1
 64
     0
275
    -2
285
     1
 65
     0
276
    -2
286
     1
 66
     0
277
    -2
287
     1
 67
     0
278
    -2
288
     1
 68
     0
279
    -2
289
     1
 69
     0
  0
VISUALSTYLE
  5
2F
102
{ACAD_REACTORS
330
2A
102
}
330
2A
100
AcDbVisualStyle
  2
2dWireframe
 70
     4
177
     3
291
     0
 70
    58
 90
        0
176
     1
 90
        2
176
     1
 90
        0
176
     1
 90
        0
176
     1
 40
0.6
176
     1
 40
30.0
176
     1
 62
     7
420
 16777215
176
     1
 90
        1
176
     1
 90
        4
176
     1
 62
     7
176
     1
 62
   257
176
     1
 90
        1
176
     1
 90
        1
176
     1
 40
1.0
176
     1
 90
        0
176
     1
 62
   257
176
     1
 40
1.0
176
     1
 90
        1
176
     1
 90
        6
176
     1
 90
        2
176
     1
 62
     7
176
     1
 90
        5
176
     1
 90
        0
176
     1
 90
        0
176
     1
290
     0
176
     1
 90
        1
176
     1
 40
0.0
176
     1
 90
        0
176
     1
290
     1
176
     1
290
     1
176
     1
290
     0
176
     1
290
     0
176
     1
290
     0
176
     1
290
     0
176
     1
290
     0
176
     1
290
     0
176
     1
290
     0
176
     1
 90
       50
176
     1
 40
0.0
176
     1
 40
1.0
176
     1
 90
        0
176
     1
 62
    18
420
        0
176
     1
 90
       50
176
     1
 90
        3
176
     1
 62
     5
420
      255
176
     1
290
     0
176
     1
 90
       50
176
     1
 90
       50
176
     1
 90
       50
176
     1
290
     0
176
     1
 90
       50
176
     1
 62
   256
176
     0
 40
1.0
176
     0
 90
        2
176
     1
  1
strokes_ogs.tif
176
     1
290
     0
176
     1
 40
1.0
176
     1
 40
1.0
176
     1
  0
VISUALSTYLE
  5
32
102
{ACAD_REACTORS
330
2A
102
}
330
2A
100
AcDbVisualStyle
  2
Basic
 70
     7
177
     3
291
     1
 70
    58
 90
        1
176
     1
 90
        0
176
     1
 90
        1
176
     1
 90
        0
176
     1
 40
0.6
176
     1
 40
30.0
176
     1
 62
     7
420
 16777215
176
     1
 90
        0
176
     1
 90
        4
176
     1
 62
     7
176
     1
 62
   257
176
     1
 90
        1
176
     1
 90
        1
176
     1
 40
1.0
176
     1
 90
        8
176
     1
 62
     7
176
     1
 40
1.0
176
     1
 90
        1
176
     1
 90
        6
176
     1
 90
        2
176
     1
 62
     7
176
     1
 90
        5
176
     1
 90
        0
176
     1
 90
        0
176
     1
290
     0
176
     1
 90
        1
176
     1
 40
0.0
176
     1
 90
        0
176
     1
290
     0
176
     1
290
     1
176
     1
290
     1
176
     1
290
     0
176
     1
290
     0
176
     1
290
     0
176
     1
290
     0
176
     1
290
     0
176
     1
290
     0
176
     1
 90
       50
176
     1
 40
0.0
176
     1
 40
1.0
176
     1
 90
        0
176
     1
 62
    18
420
        0
176
     1
 90
       50
176
     1
 90
        3
176
     1
 62
     5
420
      255
176
     1
290
     0
176
     1
 90
       50
176
     1
 90
       50
176
     1
 90
       50
176
     1
290
     0
176
     1
 90
       50
176
     1
 62
   256
176
     0
 40
1.0
176
     0
 90
        2
176
     1
  1
strokes_ogs.tif
176
     1
290
     0
176
     1
 40
1.0
176
     1
 40
1.0
176
     1
  0
VISUALSTYLE
  5
36
102
{ACAD_REACTORS
330
2A
102
}
330
2A
100
AcDbVisualStyle
  2
Brighten
 70
    12
177
     3
291
     1
 70
    58
 90
        2
176
     1
 90
        2
176
     1
 90
        0
176
     1
 90
        0
176
     1
 40
0.6
176
     1
 40
30.0
176
     1
 62
     7
420
 16777215
176
     1
 90
        1
176
     1
 90
        4
176
     1
 62
     7
176
     1
 62
   257
176
     1
 90
        1
176
     1
 90
        1
176
     1
 40
1.0
176
     1
 90
        8
176
     1
 62
     7
176
     1
 40
1.0
176
     1
 90
        1
176
     1
 90
        6
176
     1
 90
        2
176
     1
 62
     7
176
     1
 90
        5
176
     1
 90
        0
176
     1
 90
        0
176
     1
290
     0
176
     1
 90
        1
176
     1
 40
50.0
176
     1
 90
        0
176
     1
290
     0
176
     1
290
     1
176
     1
290
     1
176
     1
290
     0
176
     1
290
     0
176
     1
290
     0
176
     1
290
     0
176
     1
290
     0
176
     1
290
     0
176
     1
 90
       50
176
     1
 40
0.0
176
     1
 40
1.0
176
     1
 90
        0
176
     1
 62
    18
420
        0
176
     1
 90
       50
176
     1
 90
        3
176
     1
 62
     5
420
      255
176
     1
290
     0
176
     1
 90
       50
176
     1
 90
       50
176
     1
 90
       50
176
     1
290
     0
176
     1
 90
       50
176
     1
 62
   256
176
     0
 40
1.0
176
     0
 90
        2
176
     1
  1
strokes_ogs.tif
176
     1
290
     0
176
     1
 40
1.0
176
     1
 40
1.0
176
     1
  0
VISUALSTYLE
  5
3A
102
{ACAD_REACTORS
330
2A
102
}
330
2A
100
AcDbVisualStyle
  2
ColorChange
 70
    16
177
     3
291
     1
 70
    58
 90
        2
176
     1
 90
        2
176
     1
 90
        3
176
     1
 90
        0
176
     1
 40
0.6
176
     1
 40
30.0
176
     1
 62
     8
420
  8421504
176
     1
 90
        1
176
     1
 90
        4
176
     1
 62
     7
176
     1
 62
   257
176
     1
 90
        1
176
     1
 90
        1
176
     1
 40
1.0
176
     1
 90
        8
176
     1
 62
     8
420
  8421504
176
     1
 40
1.0
176
     1
 90
        1
176
     1
 90
        6
176
     1
 90
        2
176
     1
 62
     7
176
     1
 90
        5
176
     1
 90
        0
176
     1
 90
        0
176
     1
290
     0
176
     1
 90
        1
176
     1
 40
0.0
176
     1
 90
        0
176
     1
290
     0
176
     1
290
     1
176
     1
290
     1
176
     1
290
     0
176
     1
290
     0
176
     1
290
     0
176
     1
290
     0
176
     1
290
     0
176
     1
290
     0
176
     1
 90
       50
176
     1
 40
0.0
176
     1
 40
1.0
176
     1
 90
        0
176
     1
 62
    18
420
        0
176
     1
 90
       50
176
     1
 90
        3
176
     1
 62
     5
420
      255
176
     1
290
     0
176
     1
 90
       50
176
     1
 90
       50
176
     1
 90
       50
176
     1
290
     0
176
     1
 90
       50
176
     1
 62
   256
176
     0
 40
1.0
176
     0
 90
        2
176
     1
  1
strokes_ogs.tif
176
     1
290
     0
176
     1
 40
1.0
176
     1
 40
1.0
176
     1
  0
VISUALSTYLE
  5
34
102
{ACAD_REACTORS
330
2A
102
}
330
2A
100
AcDbVisualStyle
  2
Conceptual
 70
     9
177
     3
291
     0
 70
    58
 90
        3
176
     1
 90
        2
176
     1
 90
        0
176
     1
 90
        0
176
     1
 40
0.6
176
     1
 40
30.0
176
     1
 62
     7
420
 16777215
176
     1
 90
        2
176
     1
 90
        2
176
     1
 62
     7
176
     1
 62
   257
176
     1
 90
        1
176
     1
 90
        1
176
     1
 40
179.0
176
     1
 90
        8
176
     1
 62
     7
176
     1
 40
1.0
176
     1
 90
        1
176
     1
 90
        6
176
     1
 90
        2
176
     1
 62
     7
176
     1
 90
        3
176
     1
 90
        0
176
     1
 90
        0
176
     1
290
     0
176
     1
 90
        1
176
     1
 40
0.0
176
     1
 90
        0
176
     1
290
     0
176
     1
290
     1
176
     1
290
     1
176
     1
290
     0
176
     1
290
     0
176
     1
290
     0
176
     1
290
     0
176
     1
290
     0
176
     1
290
     0
176
     1
 90
       50
176
     1
 40
0.0
176
     1
 40
1.0
176
     1
 90
        0
176
     1
 62
    18
420
        0
176
     1
 90
       50
176
     1
 90
        3
176
     1
 62
     5
420
      255
176
     1
290
     0
176
     1
 90
       50
176
     1
 90
       50
176
     1
 90
       50
176
     1
290
     0
176
     1
 90
       50
176
     1
 62
   256
176
     0
 40
1.0
176
     0
 90
        2
176
     1
  1
strokes_ogs.tif
176
     1
290
     0
176
     1
 40
1.0
176
     1
 40
1.0
176
     1
  0
VISUALSTYLE
  5
35
102
{ACAD_REACTORS
330
2A
102
}
330
2A
100
AcDbVisualStyle
  2
Dim
 70
    11
177
     3
291
     1
 70
    58
 90
        2
176
     1
 90
        2
176
     1
 90
        0
176
     1
 90
        0
176
     1
 40
0.6
176
     1
 40
30.0
176
     1
 62
     7
420
 16777215
176
     1
 90
        1
176
     1
 90
        4
176
     1
 62
     7
176
     1
 62
   257
176
     1
 90
        1
176
     1
 90
        1
176
     1
 40
1.0
176
     1
 90
        8
176
     1
 62
     7
176
     1
 40
1.0
176
     1
 90
        1
176
     1
 90
        6
176
     1
 90
        2
176
     1
 62
     7
176
     1
 90
        5
176
     1
 90
        0
176
     1
 90
        0
176
     1
290
     0
176
     1
 90
        1
176
     1
 40
-50.0
176
     1
 90
        0
176
     1
290
     0
176
     1
290
     1
176
     1
290
     1
176
     1
290
     0
176
     1
290
     0
176
     1
290
     0
176
     1
290
     0
176
     1
290
     0
176
     1
290
     0
176
     1
 90
       50
176
     1
 40
0.0
176
     1
 40
1.0
176
     1
 90
        0
176
     1
 62
    18
420
        0
176
     1
 90
       50
176
     1
 90
        3
176
     1
 62
     5
420
      255
176
     1
290
     0
176
     1
 90
       50
176
     1
 90
       50
176
     1
 90
       50
176
     1
290
     0
176
     1
 90
       50
176
     1
 62
   256
176
     0
 40
1.0
176
     0
 90
        2
176
     1
  1
strokes_ogs.tif
176
     1
290
     0
176
     1
 40
1.0
176
     1
 40
1.0
176
     1
  0
VISUALSTYLE
  5
3D
102
{ACAD_REACTORS
330
2A
102
}
330
2A
100
AcDbVisualStyle
  2
EdgeColorOff
 70
    22
177
     3
291
     1
 70
    58
 90
        2
176
     0
 90
        2
176
     0
 90
        0
176
     0
 90
        0
176
     0
 40
0.6
176
     0
 40
30.0
176
     0
 62
     7
420
 16777215
176
     0
 90
        1
176
     0
 90
        4
176
     0
 62
     7
176
     0
 62
   257
176
     0
 90
        1
176
     0
 90
        1
176
     0
 40
1.0
176
     0
 90
        8
176
     2
 62
     7
176
     0
 40
1.0
176
     0
 90
        1
176
     0
 90
        6
176
     0
 90
        2
176
     0
 62
     7
176
     0
 90
        5
176
     0
 90
        0
176
     0
 90
        0
176
     0
290
     0
176
     0
 90
        1
176
     0
 40
0.0
176
     0
 90
        0
176
     0
290
     0
176
     0
290
     1
176
     0
290
     1
176
     0
290
     0
176
     0
290
     0
176
     0
290
     0
176
     0
290
     0
176
     0
290
     0
176
     0
290
     0
176
     0
 90
       50
176
     0
 40
0.0
176
     0
 40
1.0
176
     0
 90
        0
176
     0
 62
    18
420
        0
176
     0
 90
       50
176
     0
 90
        3
176
     0
 62
     5
420
      255
176
     0
290
     0
176
     0
 90
       50
176
     0
 90
       50
176
     0
 90
       50
176
     0
290
     0
176
     0
 90
       50
176
     0
 62
   256
176
     0
 40
1.0
176
     0
 90
        2
176
     0
  1
strokes_ogs.tif
176
     0
290
     0
176
     0
 40
1.0
176
     0
 40
1.0
176
     0
  0
VISUALSTYLE
  5
39
102
{ACAD_REACTORS
330
2A
102
}
330
2A
100
AcDbVisualStyle
  2
Facepattern
 70
    15
177
     3
291
     1
 70
    58
 90
        2
176
     1
 90
        2
176
     1
 90
        0
176
     1
 90
        0
176
     1
 40
0.6
176
     1
 40
30.0
176
     1
 62
     7
420
 16777215
176
     1
 90
        1
176
     1
 90
        4
176
     1
 62
     7
176
     1
 62
   257
176
     1
 90
        1
176
     1
 90
        1
176
     1
 40
1.0
176
     1
 90
        8
176
     1
 62
     7
176
     1
 40
1.0
176
     1
 90
        1
176
     1
 90
        6
176
     1
 90
        2
176
     1
 62
     7
176
     1
 90
        5
176
     1
 90
        0
176
     1
 90
        0
176
     1
290
     0
176
     1
 90
        1
176
     1
 40
0.0
176
     1
 90
        0
176
     1
290
     0
176
     1
290
     1
176
     1
290
     1
176
     1
290
     0
176
     1
290
     0
176
     1
290
     0
176
     1
290
     0
176
     1
290
     0
176
     1
290
     0
176
     1
 90
       50
176
     1
 40
0.0
176
     1
 40
1.0
176
     1
 90
        0
176
     1
 62
    18
420
        0
176
     1
 90
       50
176
     1
 90
        3
176
     1
 62
     5
420
      255
176
     1
290
     0
176
     1
 90
       50
176
     1
 90
       50
176
     1
 90
       50
176
     1
290
     0
176
     1
 90
       50
176
     1
 62
   256
176
     0
 40
1.0
176
     0
 90
        2
176
     1
  1
strokes_ogs.tif
176
     1
290
     0
176
     1
 40
1.0
176
     1
 40
1.0
176
     1
  0
VISUALSTYLE
  5
2B
102
{ACAD_REACTORS
330
2A
102
}
330
2A
100
AcDbVisualStyle
  2
Flat
 70
     0
177
     3
291
     1
 70
    58
 90
        2
176
     1
 90
        1
176
     1
 90
        1
176
     1
 90
        2
176
     1
 40
0.6
176
     1
 40
30.0
176
     1
 62
     7
420
 16777215
176
     1
 90
        0
176
     1
 90
        0
176
     1
 62
     7
176
     1
 62
   257
176
     1
 90
        1
176
     1
 90
        1
176
     1
 40
1.0
176
     1
 90
        8
176
     1
 62
     7
176
     1
 40
1.0
176
     1
 90
        1
176
     1
 90
        6
176
     1
 90
        2
176
     1
 62
     7
176
     1
 90
        5
176
     1
 90
        0
176
     1
 90
        0
176
     1
290
     0
176
     1
 90
       13
176
     1
 40
0.0
176
     1
 90
        0
176
     1
290
     0
176
     1
290
     1
176
     1
290
     1
176
     1
290
     0
176
     1
290
     0
176
     1
290
     0
176
     1
290
     0
176
     1
290
     0
176
     1
290
     0
176
     1
 90
       50
176
     1
 40
0.0
176
     1
 40
1.0
176
     1
 90
        0
176
     1
 62
    18
420
        0
176
     1
 90
       50
176
     1
 90
        3
176
     1
 62
     5
420
      255
176
     1
290
     0
176
     1
 90
       50
176
     1
 90
       50
176
     1
 90
       50
176
     1
290
     0
176
     1
 90
       50
176
     1
 62
   256
176
     0
 40
1.0
176
     0
 90
        2
176
     1
  1
strokes_ogs.tif
176
     1
290
     0
176
     1
 40
1.0
176
     1
 40
1.0
176
     1
  0
VISUALSTYLE
  5
2C
102
{ACAD_REACTORS
330
2A
102
}
330
2A
100
AcDbVisualStyle
  2
FlatWithEdges
 70
     1
177
     3
291
     1
 70
    58
 90
        2
176
     1
 90
        1
176
     1
 90
        1
176
     1
 90
        2
176
     1
 40
0.6
176
     1
 40
30.0
176
     1
 62
     7
420
 16777215
176
     1
 90
        1
176
     1
 90
        0
176
     1
 62
     7
176
     1
 62
   257
176
     1
 90
        1
176
     1
 90
        1
176
     1
 40
1.0
176
     1
 90
        0
176
     1
 62
   257
176
     1
 40
1.0
176
     1
 90
        1
176
     1
 90
        6
176
     1
 90
        2
176
     1
 62
     7
176
     1
 90
        5
176
     1
 90
        0
176
     1
 90
        0
176
     1
290
     0
176
     1
 90
       13
176
     1
 40
0.0
176
     1
 90
        0
176
     1
290
     0
176
     1
290
     1
176
     1
290
     1
176
     1
290
     0
176
     1
290
     0
176
     1
290
     0
176
     1
290
     0
176
     1
290
     0
176
     1
290
     0
176
     1
 90
       50
176
     1
 40
0.0
176
     1
 40
1.0
176
     1
 90
        0
176
     1
 62
    18
420
        0
176
     1
 90
       50
176
     1
 90
        3
176
     1
 62
     5
420
      255
176
     1
290
     0
176
     1
 90
       50
176
     1
 90
       50
176
     1
 90
       50
176
     1
290
     0
176
     1
 90
       50
176
     1
 62
   256
176
     0
 40
1.0
176
     0
 90
        2
176
     1
  1
strokes_ogs.tif
176
     1
290
     0
176
     1
 40
1.0
176
     1
 40
1.0
176
     1
  0
VISUALSTYLE
  5
2D
102
{ACAD_REACTORS
330
2A
102
}
330
2A
100
AcDbVisualStyle
  2
Gouraud
 70
     2
177
     3
291
     1
 70
    58
 90
        2
176
     1
 90
        2
176
     1
 90
        1
176
     1
 90
        2
176
     1
 40
0.6
176
     1
 40
30.0
176
     1
 62
     7
420
 16777215
176
     1
 90
        0
176
     1
 90
        0
176
     1
 62
     7
176
     1
 62
   257
176
     1
 90
        1
176
     1
 90
        1
176
     1
 40
1.0
176
     1
 90
        0
176
     1
 62
     7
176
     1
 40
1.0
176
     1
 90
        1
176
     1
 90
        6
176
     1
 90
        2
176
     1
 62
     7
176
     1
 90
        5
176
     1
 90
        0
176
     1
 90
        0
176
     1
290
     0
176
     1
 90
       13
176
     1
 40
0.0
176
     1
 90
        0
176
     1
290
     0
176
     1
290
     1
176
     1
290
     1
176
     1
290
     0
176
     1
290
     0
176
     1
290
     0
176
     1
290
     0
176
     1
290
     0
176
     1
290
     0
176
     1
 90
       50
176
     1
 40
0.0
176
     1
 40
1.0
176
     1
 90
        0
176
     1
 62
    18
420
        0
176
     1
 90
       50
176
     1
 90
        3
176
     1
 62
     5
420
      255
176
     1
290
     0
176
     1
 90
       50
176
     1
 90
       50
176
     1
 90
       50
176
     1
290
     0
176
     1
 90
       50
176
     1
 62
   256
176
     0
 40
1.0
176
     0
 90
        2
176
     1
  1
strokes_ogs.tif
176
     1
290
     0
176
     1
 40
1.0
176
     1
 40
1.0
176
     1
  0
VISUALSTYLE
  5
2E
102
{ACAD_REACTORS
330
2A
102
}
330
2A
100
AcDbVisualStyle
  2
GouraudWithEdges
 70
     3
177
     3
291
     1
 70
    58
 90
        2
176
     1
 90
        2
176
     1
 90
        1
176
     1
 90
        2
176
     1
 40
0.6
176
     1
 40
30.0
176
     1
 62
     7
420
 16777215
176
     1
 90
        1
176
     1
 90
        0
176
     1
 62
     7
176
     1
 62
   257
176
     1
 90
        1
176
     1
 90
        1
176
     1
 40
1.0
176
     1
 90
        0
176
     1
 62
   257
176
     1
 40
1.0
176
     1
 90
        1
176
     1
 90
        6
176
     1
 90
        2
176
     1
 62
     7
176
     1
 90
        5
176
     1
 90
        0
176
     1
 90
        0
176
     1
290
     0
176
     1
 90
       13
176
     1
 40
0.0
176
     1
 90
        0
176
     1
290
     0
176
     1
290
     1
176
     1
290
     1
176
     1
290
     0
176
     1
290
     0
176
     1
290
     0
176
     1
290
     0
176
     1
290
     0
176
     1
290
     0
176
     1
 90
       50
176
     1
 40
0.0
176
     1
 40
1.0
176
     1
 90
        0
176
     1
 62
    18
420
        0
176
     1
 90
       50
176
     1
 90
        3
176
     1
 62
     5
420
      255
176
     1
290
     0
176
     1
 90
       50
176
     1
 90
       50
176
     1
 90
       50
176
     1
290
     0
176
     1
 90
       50
176
     1
 62
   256
176
     0
 40
1.0
176
     0
 90
        2
176
     1
  1
strokes_ogs.tif
176
     1
290
     0
176
     1
 40
1.0
176
     1
 40
1.0
176
     1
  0
VISUALSTYLE
  5
31
102
{ACAD_REACTORS
330
2A
102
}
330
2A
100
AcDbVisualStyle
  2
Hidden
 70
     6
177
     3
291
     0
 70
    58
 90
        1
176
     1
 90
        2
176
     1
 90
        2
176
     1
 90
        0
176
     1
 40
0.6
176
     1
 40
30.0
176
     1
 62
     7
420
 16777215
176
     1
 90
        2
176
     1
 90
        2
176
     1
 62
     7
176
     1
 62
   257
176
     1
 90
        2
176
     1
 90
        1
176
     1
 40
40.0
176
     1
 90
        0
176
     1
 62
   257
176
     1
 40
1.0
176
     1
 90
        1
176
     1
 90
        6
176
     1
 90
        2
176
     1
 62
     7
176
     1
 90
        3
176
     1
 90
        0
176
     1
 90
        0
176
     1
290
     0
176
     1
 90
        1
176
     1
 40
0.0
176
     1
 90
        0
176
     1
290
     0
176
     1
290
     1
176
     1
290
     1
176
     1
290
     0
176
     1
290
     0
176
     1
290
     0
176
     1
290
     0
176
     1
290
     0
176
     1
290
     0
176
     1
 90
       50
176
     1
 40
0.0
176
     1
 40
1.0
176
     1
 90
        0
176
     1
 62
    18
420
        0
176
     1
 90
       50
176
     1
 90
        3
176
     1
 62
     5
420
      255
176
     1
290
     0
176
     1
 90
       50
176
     1
 90
       50
176
     1
 90
       50
176
     1
290
     0
176
     1
 90
       50
176
     1
 62
   256
176
     0
 40
1.0
176
     0
 90
        2
176
     1
  1
strokes_ogs.tif
176
     1
290
     0
176
     1
 40
1.0
176
     1
 40
1.0
176
     1
  0
VISUALSTYLE
  5
3B
102
{ACAD_REACTORS
330
2A
102
}
330
2A
100
AcDbVisualStyle
  2
JitterOff
 70
    20
177
     3
291
     1
 70
    58
 90
        2
176
     0
 90
        2
176
     0
 90
        0
176
     0
 90
        0
176
     0
 40
0.6
176
     0
 40
30.0
176
     0
 62
     7
420
 16777215
176
     0
 90
        1
176
     0
 90
        4
176
     0
 62
     7
176
     0
 62
   257
176
     0
 90
        1
176
     0
 90
        1
176
     0
 40
1.0
176
     0
 90
       10
176
     2
 62
     7
176
     0
 40
1.0
176
     0
 90
        1
176
     0
 90
        6
176
     0
 90
        2
176
     0
 62
     7
176
     0
 90
        5
176
     0
 90
        0
176
     0
 90
        0
176
     0
290
     0
176
     0
 90
        1
176
     0
 40
0.0
176
     0
 90
        0
176
     0
290
     0
176
     0
290
     1
176
     0
290
     1
176
     0
290
     0
176
     0
290
     0
176
     0
290
     0
176
     0
290
     0
176
     0
290
     0
176
     0
290
     0
176
     0
 90
       50
176
     0
 40
0.0
176
     0
 40
1.0
176
     0
 90
        0
176
     0
 62
    18
420
        0
176
     0
 90
       50
176
     0
 90
        3
176
     0
 62
     5
420
      255
176
     0
290
     0
176
     0
 90
       50
176
     0
 90
       50
176
     0
 90
       50
176
     0
290
     0
176
     0
 90
       50
176
     0
 62
   256
176
     0
 40
1.0
176
     0
 90
        2
176
     0
  1
strokes_ogs.tif
176
     0
290
     0
176
     0
 40
1.0
176
     0
 40
1.0
176
     0
  0
VISUALSTYLE
  5
38
102
{ACAD_REACTORS
330
2A
102
}
330
2A
100
AcDbVisualStyle
  2
Linepattern
 70
    14
177
     3
291
     1
 70
    58
 90
        2
176
     1
 90
        2
176
     1
 90
        0
176
     1
 90
        0
176
     1
 40
0.6
176
     1
 40
30.0
176
     1
 62
     7
420
 16777215
176
     1
 90
        1
176
     1
 90
        4
176
     1
 62
     7
176
     1
 62
   257
176
     1
 90
        7
176
     1
 90
        7
176
     1
 40
1.0
176
     1
 90
        8
176
     1
 62
     7
176
     1
 40
1.0
176
     1
 90
        1
176
     1
 90
        6
176
     1
 90
        2
176
     1
 62
     7
176
     1
 90
        5
176
     1
 90
        0
176
     1
 90
        0
176
     1
290
     0
176
     1
 90
        1
176
     1
 40
0.0
176
     1
 90
        0
176
     1
290
     0
176
     1
290
     1
176
     1
290
     1
176
     1
290
     0
176
     1
290
     0
176
     1
290
     0
176
     1
290
     0
176
     1
290
     0
176
     1
290
     0
176
     1
 90
       50
176
     1
 40
0.0
176
     1
 40
1.0
176
     1
 90
        0
176
     1
 62
    18
420
        0
176
     1
 90
       50
176
     1
 90
        3
176
     1
 62
     5
420
      255
176
     1
290
     0
176
     1
 90
       50
176
     1
 90
       50
176
     1
 90
       50
176
     1
290
     0
176
     1
 90
       50
176
     1
 62
   256
176
     0
 40
1.0
176
     0
 90
        2
176
     1
  1
strokes_ogs.tif
176
     1
290
     0
176
     1
 40
1.0
176
     1
 40
1.0
176
     1
  0
VISUALSTYLE
  5
3C
102
{ACAD_REACTORS
330
2A
102
}
330
2A
100
AcDbVisualStyle
  2
OverhangOff
 70
    21
177
     3
291
     1
 70
    58
 90
        2
176
     0
 90
        2
176
     0
 90
        0
176
     0
 90
        0
176
     0
 40
0.6
176
     0
 40
30.0
176
     0
 62
     7
420
 16777215
176
     0
 90
        1
176
     0
 90
        4
176
     0
 62
     7
176
     0
 62
   257
176
     0
 90
        1
176
     0
 90
        1
176
     0
 40
1.0
176
     0
 90
        9
176
     2
 62
     7
176
     0
 40
1.0
176
     0
 90
        1
176
     0
 90
        6
176
     0
 90
        2
176
     0
 62
     7
176
     0
 90
        5
176
     0
 90
        0
176
     0
 90
        0
176
     0
290
     0
176
     0
 90
        1
176
     0
 40
0.0
176
     0
 90
        0
176
     0
290
     0
176
     0
290
     1
176
     0
290
     1
176
     0
290
     0
176
     0
290
     0
176
     0
290
     0
176
     0
290
     0
176
     0
290
     0
176
     0
290
     0
176
     0
 90
       50
176
     0
 40
0.0
176
     0
 40
1.0
176
     0
 90
        0
176
     0
 62
    18
420
        0
176
     0
 90
       50
176
     0
 90
        3
176
     0
 62
     5
420
      255
176
     0
290
     0
176
     0
 90
       50
176
     0
 90
       50
176
     0
 90
       50
176
     0
290
     0
176
     0
 90
       50
176
     0
 62
   256
176
     0
 40
1.0
176
     0
 90
        2
176
     0
  1
strokes_ogs.tif
176
     0
290
     0
176
     0
 40
1.0
176
     0
 40
1.0
176
     0
  0
VISUALSTYLE
  5
33
102
{ACAD_REACTORS
330
2A
102
}
330
2A
100
AcDbVisualStyle
  2
Realistic
 70
     8
177
     3
291
     0
 70
    58
 90
        2
176
     1
 90
        3
176
     1
 90
        0
176
     1
 90
        2
176
     1
 40
0.6
176
     1
 40
30.0
176
     1
 62
     7
420
 16777215
176
     1
 90
        0
176
     1
 90
        0
176
     1
 62
     7
176
     1
 62
   257
176
     1
 90
        1
176
     1
 90
        1
176
     1
 40
1.0
176
     1
 90
        8
176
     1
 62
   257
176
     1
 40
1.0
176
     1
 90
        1
176
     1
 90
        6
176
     1
 90
        2
176
     1
 62
     7
176
     1
 90
        3
176
     1
 90
        0
176
     1
 90
        0
176
     1
290
     0
176
     1
 90
       13
176
     1
 40
0.0
176
     1
 90
        0
176
     1
290
     0
176
     1
290
     1
176
     1
290
     1
176
     1
290
     0
176
     1
290
     0
176
     1
290
     0
176
     1
290
     0
176
     1
290
     0
176
     1
290
     0
176
     1
 90
       50
176
     1
 40
0.0
176
     1
 40
1.0
176
     1
 90
        0
176
     1
 62
    18
420
        0
176
     1
 90
       50
176
     1
 90
        3
176
     1
 62
     5
420
      255
176
     1
290
     0
176
     1
 90
       50
176
     1
 90
       50
176
     1
 90
       50
176
     1
290
     0
176
     1
 90
       50
176
     1
 62
   256
176
     0
 40
1.0
176
     0
 90
        2
176
     1
  1
strokes_ogs.tif
176
     1
290
     0
176
     1
 40
1.0
176
     1
 40
1.0
176
     1
  0
VISUALSTYLE
  5
42
102
{ACAD_REACTORS
330
2A
102
}
330
2A
100
AcDbVisualStyle
  2
Shaded
 70
    27
177
     3
291
     0
 70
    58
 90
        2
176
     1
 90
        2
176
     1
 90
        1
176
     1
 90
        2
176
     1
 40
0.6
176
     1
 40
30.0
176
     1
 62
     7
420
 16777215
176
     1
 90
        0
176
     1
 90
        4
176
     1
 62
     7
176
     1
 62
   257
176
     1
 90
        1
176
     1
 90
        1
176
     1
 40
1.0
176
     1
 90
        8
176
     1
 62
   257
176
     1
 40
1.0
176
     1
 90
        1
176
     1
 90
        6
176
     1
 90
        2
176
     1
 62
     8
420
  7895160
176
     1
 90
        3
176
     1
 90
        0
176
     1
 90
        0
176
     1
290
     0
176
     1
 90
        5
176
     1
 40
0.0
176
     1
 90
        0
176
     1
290
     0
176
     1
290
     1
176
     1
290
     1
176
     1
290
     0
176
     1
290
     0
176
     1
290
     0
176
     1
290
     0
176
     1
290
     0
176
     1
290
     0
176
     1
 90
       50
176
     1
 40
0.0
176
     1
 40
1.0
176
     1
 90
        0
176
     1
 62
    18
420
        0
176
     1
 90
       50
176
     1
 90
        3
176
     1
 62
     5
420
      255
176
     1
290
     0
176
     1
 90
       50
176
     1
 90
       50
176
     1
 90
       50
176
     1
290
     0
176
     1
 90
       50
176
     1
 62
   256
176
     0
 40
1.0
176
     0
 90
        2
176
     1
  1
strokes_ogs.tif
176
     1
290
     0
176
     1
 40
1.0
176
     1
 40
1.0
176
     1
  0
VISUALSTYLE
  5
41
102
{ACAD_REACTORS
330
2A
102
}
330
2A
100
AcDbVisualStyle
  2
Shaded with edges
 70
    26
177
     3
291
     0
 70
    58
 90
        2
176
     1
 90
        2
176
     1
 90
        1
176
     1
 90
        2
176
     1
 40
0.6
176
     1
 40
30.0
176
     1
 62
     7
420
 16777215
176
     1
 90
        1
176
     1
 90
       10
176
     1
 62
     7
176
     1
 62
   257
176
     1
 90
        2
176
     1
 90
        1
176
     1
 40
1.0
176
     1
 90
        8
176
     1
 62
   257
176
     1
 40
1.0
176
     1
 90
        1
176
     1
 90
        6
176
     1
 90
        2
176
     1
 62
     7
176
     1
 90
        3
176
     1
 90
        0
176
     1
 90
        0
176
     1
290
     0
176
     1
 90
        5
176
     1
 40
0.0
176
     1
 90
        0
176
     1
290
     0
176
     1
290
     1
176
     1
290
     1
176
     1
290
     0
176
     1
290
     0
176
     1
290
     0
176
     1
290
     0
176
     1
290
     0
176
     1
290
     0
176
     1
 90
       50
176
     1
 40
0.0
176
     1
 40
1.0
176
     1
 90
        0
176
     1
 62
    18
420
        0
176
     1
 90
       50
176
     1
 90
        3
176
     1
 62
     5
420
      255
176
     1
290
     0
176
     1
 90
       50
176
     1
 90
       50
176
     1
 90
       50
176
     1
290
     0
176
     1
 90
       50
176
     1
 62
   256
176
     0
 40
1.0
176
     0
 90
        2
176
     1
  1
strokes_ogs.tif
176
     1
290
     0
176
     1
 40
1.0
176
     1
 40
1.0
176
     1
  0
VISUALSTYLE
  5
3E
102
{ACAD_REACTORS
330
2A
102
}
330
2A
100
AcDbVisualStyle
  2
Shades of Gray
 70
    23
177
     3
291
     0
 70
    58
 90
        2
176
     1
 90
        2
176
     1
 90
        3
176
     1
 90
        0
176
     1
 40
0.6
176
     1
 40
30.0
176
     1
 62
     7
420
 16777215
176
     1
 90
        2
176
     1
 90
        2
176
     1
 62
     7
176
     1
 62
     7
176
     1
 90
        1
176
     1
 90
        1
176
     1
 40
40.0
176
     1
 90
        8
176
     1
 62
     7
176
     1
 40
1.0
176
     1
 90
        1
176
     1
 90
        6
176
     1
 90
        2
176
     1
 62
     7
176
     1
 90
        3
176
     1
 90
        0
176
     1
 90
        0
176
     1
290
     0
176
     1
 90
        1
176
     1
 40
0.0
176
     1
 90
        0
176
     1
290
     0
176
     1
290
     1
176
     1
290
     1
176
     1
290
     0
176
     1
290
     0
176
     1
290
     0
176
     1
290
     0
176
     1
290
     0
176
     1
290
     0
176
     1
 90
       50
176
     1
 40
0.0
176
     1
 40
1.0
176
     1
 90
        0
176
     1
 62
    18
420
        0
176
     1
 90
       50
176
     1
 90
        3
176
     1
 62
     5
420
      255
176
     1
290
     0
176
     1
 90
       50
176
     1
 90
       50
176
     1
 90
       50
176
     1
290
     0
176
     1
 90
       50
176
     1
 62
   256
176
     0
 40
1.0
176
     0
 90
        2
176
     1
  1
strokes_ogs.tif
176
     1
290
     0
176
     1
 40
1.0
176
     1
 40
1.0
176
     1
  0
VISUALSTYLE
  5
3F
102
{ACAD_REACTORS
330
2A
102
}
330
2A
100
AcDbVisualStyle
  2
Sketchy
 70
    24
177
     3
291
     0
 70
    58
 90
        1
176
     1
 90
        2
176
     1
 90
        2
176
     1
 90
        0
176
     1
 40
0.6
176
     1
 40
30.0
176
     1
 62
     7
420
 16777215
176
     1
 90
        2
176
     1
 90
        2
176
     1
 62
     7
176
     1
 62
     7
176
     1
 90
        1
176
     1
 90
        1
176
     1
 40
40.0
176
     1
 90
       11
176
     1
 62
     7
176
     1
 40
1.0
176
     1
 90
        1
176
     1
 90
        6
176
     1
 90
        2
176
     1
 62
     7
176
     1
 90
        6
176
     1
 90
        0
176
     1
 90
        0
176
     1
290
     0
176
     1
 90
        1
176
     1
 40
0.0
176
     1
 90
        0
176
     1
290
     0
176
     1
290
     1
176
     1
290
     1
176
     1
290
     0
176
     1
290
     0
176
     1
290
     0
176
     1
290
     0
176
     1
290
     0
176
     1
290
     0
176
     1
 90
       50
176
     1
 40
0.0
176
     1
 40
1.0
176
     1
 90
        0
176
     1
 62
    18
420
        0
176
     1
 90
       50
176
     1
 90
        3
176
     1
 62
     5
420
      255
176
     1
290
     0
176
     1
 90
       50
176
     1
 90
       50
176
     1
 90
       50
176
     1
290
     0
176
     1
 90
       50
176
     1
 62
   256
176
     0
 40
1.0
176
     0
 90
        2
176
     1
  1
strokes_ogs.tif
176
     1
290
     0
176
     1
 40
1.0
176
     1
 40
1.0
176
     1
  0
VISUALSTYLE
  5
37
102
{ACAD_REACTORS
330
2A
102
}
330
2A
100
AcDbVisualStyle
  2
Thicken
 70
    13
177
     3
291
     1
 70
    58
 90
        2
176
     1
 90
        2
176
     1
 90
        0
176
     1
 90
        0
176
     1
 40
0.6
176
     1
 40
30.0
176
     1
 62
     7
420
 16777215
176
     1
 90
        1
176
     1
 90
        4
176
     1
 62
     7
176
     1
 62
   257
176
     1
 90
        1
176
     1
 90
        1
176
     1
 40
1.0
176
     1
 90
       12
176
     1
 62
     7
176
     1
 40
1.0
176
     1
 90
        1
176
     1
 90
        6
176
     1
 90
        2
176
     1
 62
     7
176
     1
 90
        5
176
     1
 90
        0
176
     1
 90
        0
176
     1
290
     0
176
     1
 90
        1
176
     1
 40
0.0
176
     1
 90
        0
176
     1
290
     0
176
     1
290
     1
176
     1
290
     1
176
     1
290
     0
176
     1
290
     0
176
     1
290
     0
176
     1
290
     0
176
     1
290
     0
176
     1
290
     0
176
     1
 90
       50
176
     1
 40
0.0
176
     1
 40
1.0
176
     1
 90
        0
176
     1
 62
    18
420
        0
176
     1
 90
       50
176
     1
 90
        3
176
     1
 62
     5
420
      255
176
     1
290
     0
176
     1
 90
       50
176
     1
 90
       50
176
     1
 90
       50
176
     1
290
     0
176
     1
 90
       50
176
     1
 62
   256
176
     0
 40
1.0
176
     0
 90
        2
176
     1
  1
strokes_ogs.tif
176
     1
290
     0
176
     1
 40
1.0
176
     1
 40
1.0
176
     1
  0
VISUALSTYLE
  5
30
102
{ACAD_REACTORS
330
2A
102
}
330
2A
100
AcDbVisualStyle
  2
Wireframe
 70
     5
177
     3
291
     0
 70
    58
 90
        0
176
     1
 90
        2
176
     1
 90
        0
176
     1
 90
        0
176
     1
 40
0.6
176
     1
 40
30.0
176
     1
 62
     7
420
 16777215
176
     1
 90
        1
176
     1
 90
        4
176
     1
 62
     7
176
     1
 62
   257
176
     1
 90
        1
176
     1
 90
        1
176
     1
 40
1.0
176
     1
 90
        0
176
     1
 62
   257
176
     1
 40
1.0
176
     1
 90
        1
176
     1
 90
        6
176
     1
 90
        2
176
     1
 62
     7
176
     1
 90
        3
176
     1
 90
        0
176
     1
 90
        0
176
     1
290
     0
176
     1
 90
        1
176
     1
 40
0.0
176
     1
 90
        0
176
     1
290
     0
176
     1
290
     1
176
     1
290
     1
176
     1
290
     0
176
     1
290
     0
176
     1
290
     0
176
     1
290
     0
176
     1
290
     0
176
     1
290
     0
176
     1
 90
       50
176
     1
 40
0.0
176
     1
 40
1.0
176
     1
 90
        0
176
     1
 62
    18
420
        0
176
     1
 90
       50
176
     1
 90
        3
176
     1
 62
     5
420
      255
176
     1
290
     0
176
     1
 90
       50
176
     1
 90
       50
176
     1
 90
       50
176
     1
290
     0
176
     1
 90
       50
176
     1
 62
   256
176
     0
 40
1.0
176
     0
 90
        2
176
     1
  1
strokes_ogs.tif
176
     1
290
     0
176
     1
 40
1.0
176
     1
 40
1.0
176
     1
  0
VISUALSTYLE
  5
40
102
{ACAD_REACTORS
330
2A
102
}
330
2A
100
AcDbVisualStyle
  2
X-Ray
 70
    25
177
     3
291
     0
 70
    58
 90
        2
176
     1
 90
        2
176
     1
 90
        1
176
     1
 90
        1
176
     1
 40
0.5
176
     1
 40
30.0
176
     1
 62
     7
420
 16777215
176
     1
 90
        1
176
     1
 90
        0
176
     1
 62
     7
176
     1
 62
   257
176
     1
 90
        1
176
     1
 90
        1
176
     1
 40
1.0
176
     1
 90
        8
176
     1
 62
     7
176
     1
 40
1.0
176
     1
 90
        1
176
     1
 90
        6
176
     1
 90
        2
176
     1
 62
     7
176
     1
 90
        3
176
     1
 90
        0
176
     1
 90
        0
176
     1
290
     0
176
     1
 90
       13
176
     1
 40
0.0
176
     1
 90
        0
176
     1
290
     0
176
     1
290
     1
176
     1
290
     1
176
     1
290
     0
176
     1
290
     0
176
     1
290
     0
176
     1
290
     0
176
     1
290
     0
176
     1
290
     0
176
     1
 90
       50
176
     1
 40
0.0
176
     1
 40
1.0
176
     1
 90
        0
176
     1
 62
    18
420
        0
176
     1
 90
       50
176
     1
 90
        3
176
     1
 62
     5
420
      255
176
     1
290
     0
176
     1
 90
       50
176
     1
 90
       50
176
     1
 90
       50
176
     1
290
     0
176
     1
 90
       50
176
     1
 62
   256
176
     0
 40
1.0
176
     0
 90
        2
176
     1
  1
strokes_ogs.tif
176
     1
290
     0
176
     1
 40
1.0
176
     1
 40
1.0
176
     1
  0
DICTIONARYVAR
  5
9F
102
{ACAD_REACTORS
330
9E
102
}
330
9E
100
DictionaryVariables
280
     0
  1
1:1
  0
DICTIONARYVAR
  5
A7
102
{ACAD_REACTORS
330
9E
102
}
330
9E
100
DictionaryVariables
280
     0
  1
3.500000
  0
DICTIONARYVAR
  5
A8
102
{ACAD_REACTORS
330
9E
102
}
330
9E
100
DictionaryVariables
280
     0
  1
acadiso.lin
  0
DICTIONARYVAR
  5
A4
102
{ACAD_REACTORS
330
9E
102
}
330
9E
100
DictionaryVariables
280
     0
  1
Standard
  0
DICTIONARYVAR
  5
A3
102
{ACAD_REACTORS
330
9E
102
}
330
9E
100
DictionaryVariables
280
     0
  1
Standard
  0
DICTIONARY
  5
A0
330
5A
100
AcDbDictionary
280
     1
281
     1
  3
ACAD_ROUNDTRIP_2008_TABLESTYLE_CELLSTYLEMAP
360
A1
  0
CELLSTYLEMAP
  5
A1
102
{ACAD_REACTORS
330
A0
102
}
330
A0
100
AcDbCellStyleMap
 90
        3
300
CELLSTYLE
  1
TABLEFORMAT_BEGIN
 90
        5
170
     1
 91
        0
 92
    32768
 62
   257
 93
        1
300
CONTENTFORMAT
  1
CONTENTFORMAT_BEGIN
 90
        0
 91
        0
 92
        4
 93
        0
300

 40
0.0
140
1.0
 94
        5
 62
     0
340
11
144
6.0
309
CONTENTFORMAT_END
171
     1
301
MARGIN
  1
CELLMARGIN_BEGIN
 40
1.5
 40
1.5
 40
1.5
 40
1.5
 40
1.5
 40
1.5
309
CELLMARGIN_END
 94
        6
 95
        1
302
GRIDFORMAT
  1
GRIDFORMAT_BEGIN
 90
        0
 91
        1
 62
     0
 92
       -2
340
14
 93
        0
 40
0.045
309
GRIDFORMAT_END
 95
        2
302
GRIDFORMAT
  1
GRIDFORMAT_BEGIN
 90
        0
 91
        1
 62
     0
 92
       -2
340
14
 93
        0
 40
0.045
309
GRIDFORMAT_END
 95
        4
302
GRIDFORMAT
  1
GRIDFORMAT_BEGIN
 90
        0
 91
        1
 62
     0
 92
       -2
340
14
 93
        0
 40
0.045
309
GRIDFORMAT_END
 95
        8
302
GRIDFORMAT
  1
GRIDFORMAT_BEGIN
 90
        0
 91
        1
 62
     0
 92
       -2
340
14
 93
        0
 40
0.045
309
GRIDFORMAT_END
 95
       16
302
GRIDFORMAT
  1
GRIDFORMAT_BEGIN
 90
        0
 91
        1
 62
     0
 92
       -2
340
14
 93
        0
 40
0.045
309
GRIDFORMAT_END
 95
       32
302
GRIDFORMAT
  1
GRIDFORMAT_BEGIN
 90
        0
 91
        1
 62
     0
 92
       -2
340
14
 93
        0
 40
0.045
309
GRIDFORMAT_END
309
TABLEFORMAT_END
  1
CELLSTYLE_BEGIN
 90
        1
 91
        1
300
_TITLE
309
CELLSTYLE_END
300
CELLSTYLE
  1
TABLEFORMAT_BEGIN
 90
        5
170
     1
 91
        0
 92
        0
 62
   257
 93
        1
300
CONTENTFORMAT
  1
CONTENTFORMAT_BEGIN
 90
        0
 91
        0
 92
        4
 93
        0
300

 40
0.0
140
1.0
 94
        5
 62
     0
340
11
144
4.5
309
CONTENTFORMAT_END
171
     1
301
MARGIN
  1
CELLMARGIN_BEGIN
 40
1.5
 40
1.5
 40
1.5
 40
1.5
 40
1.5
 40
1.5
309
CELLMARGIN_END
 94
        6
 95
        1
302
GRIDFORMAT
  1
GRIDFORMAT_BEGIN
 90
        0
 91
        1
 62
     0
 92
       -2
340
14
 93
        0
 40
0.045
309
GRIDFORMAT_END
 95
        2
302
GRIDFORMAT
  1
GRIDFORMAT_BEGIN
 90
        0
 91
        1
 62
     0
 92
       -2
340
14
 93
        0
 40
0.045
309
GRIDFORMAT_END
 95
        4
302
GRIDFORMAT
  1
GRIDFORMAT_BEGIN
 90
        0
 91
        1
 62
     0
 92
       -2
340
14
 93
        0
 40
0.045
309
GRIDFORMAT_END
 95
        8
302
GRIDFORMAT
  1
GRIDFORMAT_BEGIN
 90
        0
 91
        1
 62
     0
 92
       -2
340
14
 93
        0
 40
0.045
309
GRIDFORMAT_END
 95
       16
302
GRIDFORMAT
  1
GRIDFORMAT_BEGIN
 90
        0
 91
        1
 62
     0
 92
       -2
340
14
 93
        0
 40
0.045
309
GRIDFORMAT_END
 95
       32
302
GRIDFORMAT
  1
GRIDFORMAT_BEGIN
 90
        0
 91
        1
 62
     0
 92
       -2
340
14
 93
        0
 40
0.045
309
GRIDFORMAT_END
309
TABLEFORMAT_END
  1
CELLSTYLE_BEGIN
 90
        2
 91
        1
300
_HEADER
309
CELLSTYLE_END
300
CELLSTYLE
  1
TABLEFORMAT_BEGIN
 90
        5
170
     1
 91
        0
 92
        0
 62
   257
 93
        1
300
CONTENTFORMAT
  1
CONTENTFORMAT_BEGIN
 90
        0
 91
        0
 92
        4
 93
        0
300

 40
0.0
140
1.0
 94
        2
 62
     0
340
11
144
4.5
309
CONTENTFORMAT_END
171
     1
301
MARGIN
  1
CELLMARGIN_BEGIN
 40
1.5
 40
1.5
 40
1.5
 40
1.5
 40
1.5
 40
1.5
309
CELLMARGIN_END
 94
        6
 95
        1
302
GRIDFORMAT
  1
GRIDFORMAT_BEGIN
 90
        0
 91
        1
 62
     0
 92
       -2
340
14
 93
        0
 40
0.045
309
GRIDFORMAT_END
 95
        2
302
GRIDFORMAT
  1
GRIDFORMAT_BEGIN
 90
        0
 91
        1
 62
     0
 92
       -2
340
14
 93
        0
 40
0.045
309
GRIDFORMAT_END
 95
        4
302
GRIDFORMAT
  1
GRIDFORMAT_BEGIN
 90
        0
 91
        1
 62
     0
 92
       -2
340
14
 93
        0
 40
0.045
309
GRIDFORMAT_END
 95
        8
302
GRIDFORMAT
  1
GRIDFORMAT_BEGIN
 90
        0
 91
        1
 62
     0
 92
       -2
340
14
 93
        0
 40
0.045
309
GRIDFORMAT_END
 95
       16
302
GRIDFORMAT
  1
GRIDFORMAT_BEGIN
 90
        0
 91
        1
 62
     0
 92
       -2
340
14
 93
        0
 40
0.045
309
GRIDFORMAT_END
 95
       32
302
GRIDFORMAT
  1
GRIDFORMAT_BEGIN
 90
        0
 91
        1
 62
     0
 92
       -2
340
14
 93
        0
 40
0.045
309
GRIDFORMAT_END
309
TABLEFORMAT_END
  1
CELLSTYLE_BEGIN
 90
        3
 91
        2
300
_DATA
309
CELLSTYLE_END
  0
ENDSEC
  0
EOF
