  0
SECTION
  2
HEADER
  9
$ACADVER
  1
AC1027
  9
$ACADMAINTVER
 70
   105
  9
$DWGCODEPAGE
  3
ANSI_932
  9
$LASTSAVEDBY
  1
a.yasuda
  9
$REQUIREDVERSIONS
160
                 0
  9
$INSBASE
 10
0.0
 20
0.0
 30
0.0
  9
$EXTMIN
 10
0.0
 20
0.0
 30
0.0
  9
$EXTMAX
 10
302.9997823349792
 20
216.0016055409748
 30
0.0
  9
$LIMMIN
 10
0.0
 20
0.0
  9
$LIMMAX
 10
302.9997823349792
 20
216.0016055409748
  9
$ORTHOMODE
 70
     0
  9
$REGENMODE
 70
     1
  9
$FILLMODE
 70
     1
  9
$QTEXTMODE
 70
     0
  9
$MIRRTEXT
 70
     1
  9
$LTSCALE
 40
1.0
  9
$ATTMODE
 70
     1
  9
$TEXTSIZE
 40
2.5
  9
$TRACEWID
 40
1.0
  9
$TEXTSTYLE
  7
Standard
  9
$CLAYER
  8
0
  9
$CELTYPE
  6
ByLayer
  9
$CECOLOR
 62
   256
  9
$CELTSCALE
 40
1.0
  9
$DISPSILH
 70
     0
  9
$DIMSCALE
 40
1.0
  9
$DIMASZ
 40
2.5
  9
$DIMEXO
 40
0.625
  9
$DIMDLI
 40
3.75
  9
$DIMRND
 40
0.0
  9
$DIMDLE
 40
0.0
  9
$DIMEXE
 40
1.25
  9
$DIMTP
 40
0.0
  9
$DIMTM
 40
0.0
  9
$DIMTXT
 40
2.5
  9
$DIMCEN
 40
2.5
  9
$DIMTSZ
 40
0.0
  9
$DIMTOL
 70
     0
  9
$DIMLIM
 70
     0
  9
$DIMTIH
 70
     0
  9
$DIMTOH
 70
     0
  9
$DIMSE1
 70
     0
  9
$DIMSE2
 70
     0
  9
$DIMTAD
 70
     1
  9
$DIMZIN
 70
     8
  9
$DIMBLK
  1

  9
$DIMASO
 70
     1
  9
$DIMSHO
 70
     1
  9
$DIMPOST
  1

  9
$DIMAPOST
  1

  9
$DIMALT
 70
     0
  9
$DIMALTD
 70
     3
  9
$DIMALTF
 40
0.03937007874016
  9
$DIMLFAC
 40
1.0
  9
$DIMTOFL
 70
     1
  9
$DIMTVP
 40
0.0
  9
$DIMTIX
 70
     0
  9
$DIMSOXD
 70
     0
  9
$DIMSAH
 70
     0
  9
$DIMBLK1
  1

  9
$DIMBLK2
  1

  9
$DIMSTYLE
  2
ISO-25
  9
$DIMCLRD
 70
     0
  9
$DIMCLRE
 70
     0
  9
$DIMCLRT
 70
     0
  9
$DIMTFAC
 40
1.0
  9
$DIMGAP
 40
0.625
  9
$DIMJUST
 70
     0
  9
$DIMSD1
 70
     0
  9
$DIMSD2
 70
     0
  9
$DIMTOLJ
 70
     0
  9
$DIMTZIN
 70
     8
  9
$DIMALTZ
 70
     0
  9
$DIMALTTZ
 70
     0
  9
$DIMUPT
 70
     0
  9
$DIMDEC
 70
     2
  9
$DIMTDEC
 70
     2
  9
$DIMALTU
 70
     2
  9
$DIMALTTD
 70
     3
  9
$DIMTXSTY
  7
Standard
  9
$DIMAUNIT
 70
     0
  9
$DIMADEC
 70
     0
  9
$DIMALTRND
 40
0.0
  9
$DIMAZIN
 70
     0
  9
$DIMDSEP
 70
    44
  9
$DIMATFIT
 70
     3
  9
$DIMFRAC
 70
     0
  9
$DIMLDRBLK
  1

  9
$DIMLUNIT
 70
     2
  9
$DIMLWD
 70
    -2
  9
$DIMLWE
 70
    -2
  9
$DIMTMOVE
 70
     0
  9
$DIMFXL
 40
1.0
  9
$DIMFXLON
 70
     0
  9
$DIMJOGANG
 40
0.7853981633974483
  9
$DIMTFILL
 70
     0
  9
$DIMTFILLCLR
 70
     0
  9
$DIMARCSYM
 70
     0
  9
$DIMLTYPE
  6

  9
$DIMLTEX1
  6

  9
$DIMLTEX2
  6

  9
$DIMTXTDIRECTION
 70
     0
  9
$LUNITS
 70
     2
  9
$LUPREC
 70
     4
  9
$SKETCHINC
 40
1.0
  9
$FILLETRAD
 40
0.0
  9
$AUNITS
 70
     0
  9
$AUPREC
 70
     0
  9
$MENU
  1
.
  9
$ELEVATION
 40
0.0
  9
$PELEVATION
 40
0.0
  9
$THICKNESS
 40
0.0
  9
$LIMCHECK
 70
     0
  9
$CHAMFERA
 40
0.0
  9
$CHAMFERB
 40
0.0
  9
$CHAMFERC
 40
0.0
  9
$CHAMFERD
 40
0.0
  9
$SKPOLY
 70
     0
  9
$TDCREATE
 40
2459866.62129544
  9
$TDUCREATE
 40
2459866.24629544
  9
$TDUPDATE
 40
2459866.621295498
  9
$TDUUPDATE
 40
2459866.246295498
  9
$TDINDWG
 40
0.0000000116
  9
$TDUSRTIMER
 40
0.0000000116
  9
$USRTIMER
 70
     1
  9
$ANGBASE
 50
0.0
  9
$ANGDIR
 70
     0
  9
$PDMODE
 70
     0
  9
$PDSIZE
 40
0.0
  9
$PLINEWID
 40
0.0
  9
$SPLFRAME
 70
     0
  9
$SPLINETYPE
 70
     6
  9
$SPLINESEGS
 70
     8
  9
$HANDSEED
  5
BB
  9
$SURFTAB1
 70
     6
  9
$SURFTAB2
 70
     6
  9
$SURFTYPE
 70
     6
  9
$SURFU
 70
     6
  9
$SURFV
 70
     6
  9
$UCSBASE
  2

  9
$UCSNAME
  2

  9
$UCSORG
 10
0.0
 20
0.0
 30
0.0
  9
$UCSXDIR
 10
1.0
 20
0.0
 30
0.0
  9
$UCSYDIR
 10
0.0
 20
1.0
 30
0.0
  9
$UCSORTHOREF
  2

  9
$UCSORTHOVIEW
 70
     0
  9
$UCSORGTOP
 10
0.0
 20
0.0
 30
0.0
  9
$UCSORGBOTTOM
 10
0.0
 20
0.0
 30
0.0
  9
$UCSORGLEFT
 10
0.0
 20
0.0
 30
0.0
  9
$UCSORGRIGHT
 10
0.0
 20
0.0
 30
0.0
  9
$UCSORGFRONT
 10
0.0
 20
0.0
 30
0.0
  9
$UCSORGBACK
 10
0.0
 20
0.0
 30
0.0
  9
$PUCSBASE
  2

  9
$PUCSNAME
  2

  9
$PUCSORG
 10
0.0
 20
0.0
 30
0.0
  9
$PUCSXDIR
 10
1.0
 20
0.0
 30
0.0
  9
$PUCSYDIR
 10
0.0
 20
1.0
 30
0.0
  9
$PUCSORTHOREF
  2

  9
$PUCSORTHOVIEW
 70
     0
  9
$PUCSORGTOP
 10
0.0
 20
0.0
 30
0.0
  9
$PUCSORGBOTTOM
 10
0.0
 20
0.0
 30
0.0
  9
$PUCSORGLEFT
 10
0.0
 20
0.0
 30
0.0
  9
$PUCSORGRIGHT
 10
0.0
 20
0.0
 30
0.0
  9
$PUCSORGFRONT
 10
0.0
 20
0.0
 30
0.0
  9
$PUCSORGBACK
 10
0.0
 20
0.0
 30
0.0
  9
$USERI1
 70
     0
  9
$USERI2
 70
     0
  9
$USERI3
 70
     0
  9
$USERI4
 70
     0
  9
$USERI5
 70
     0
  9
$USERR1
 40
0.0
  9
$USERR2
 40
0.0
  9
$USERR3
 40
0.0
  9
$USERR4
 40
0.0
  9
$USERR5
 40
0.0
  9
$WORLDVIEW
 70
     1
  9
$SHADEDGE
 70
     3
  9
$SHADEDIF
 70
    70
  9
$TILEMODE
 70
     1
  9
$MAXACTVP
 70
    64
  9
$PINSBASE
 10
0.0
 20
0.0
 30
0.0
  9
$PLIMCHECK
 70
     0
  9
$PEXTMIN
 10
1.000000000000000E+20
 20
1.000000000000000E+20
 30
1.000000000000000E+20
  9
$PEXTMAX
 10
-1.000000000000000E+20
 20
-1.000000000000000E+20
 30
-1.000000000000000E+20
  9
$PLIMMIN
 10
0.0
 20
0.0
  9
$PLIMMAX
 10
420.0
 20
297.0
  9
$UNITMODE
 70
     0
  9
$VISRETAIN
 70
     1
  9
$PLINEGEN
 70
     0
  9
$PSLTSCALE
 70
     1
  9
$TREEDEPTH
 70
  3020
  9
$CMLSTYLE
  2
Standard
  9
$CMLJUST
 70
     0
  9
$CMLSCALE
 40
20.0
  9
$PROXYGRAPHICS
 70
     1
  9
$MEASUREMENT
 70
     1
  9
$CELWEIGHT
370
    -1
  9
$ENDCAPS
280
     0
  9
$JOINSTYLE
280
     0
  9
$LWDISPLAY
290
     0
  9
$INSUNITS
 70
     4
  9
$HYPERLINKBASE
  1

  9
$STYLESHEET
  1

  9
$XEDIT
290
     1
  9
$CEPSNTYPE
380
     0
  9
$PSTYLEMODE
290
     1
  9
$FINGERPRINTGUID
  2
{ed4b4ec6-a0dd-4351-b79e-91dddaa41cba}
  9
$VERSIONGUID
  2
{FAEB1C32-E019-11D5-929B-00C0DF256EC4}
  9
$EXTNAMES
290
     1
  9
$PSVPSCALE
 40
0.0
  9
$OLESTARTUP
290
     0
  9
$SORTENTS
280
   127
  9
$INDEXCTL
280
     0
  9
$HIDETEXT
280
     1
  9
$XCLIPFRAME
280
     2
  9
$HALOGAP
280
     0
  9
$OBSCOLOR
 70
   257
  9
$OBSLTYPE
280
     0
  9
$INTERSECTIONDISPLAY
280
     0
  9
$INTERSECTIONCOLOR
 70
   257
  9
$DIMASSOC
280
     2
  9
$PROJECTNAME
  1

  9
$CAMERADISPLAY
290
     0
  9
$LENSLENGTH
 40
50.0
  9
$CAMERAHEIGHT
 40
0.0
  9
$STEPSPERSEC
 40
2.0
  9
$STEPSIZE
 40
6.0
  9
$3DDWFPREC
 40
2.0
  9
$PSOLWIDTH
 40
5.0
  9
$PSOLHEIGHT
 40
80.0
  9
$LOFTANG1
 40
1.570796326794897
  9
$LOFTANG2
 40
1.570796326794897
  9
$LOFTMAG1
 40
0.0
  9
$LOFTMAG2
 40
0.0
  9
$LOFTPARAM
 70
     7
  9
$LOFTNORMALS
280
     1
  9
$LATITUDE
 40
37.795
  9
$LONGITUDE
 40
-122.394
  9
$NORTHDIRECTION
 40
0.0
  9
$TIMEZONE
 70
 -8000
  9
$LIGHTGLYPHDISPLAY
280
     1
  9
$TILEMODELIGHTSYNCH
280
     1
  9
$CMATERIAL
347
44
  9
$SOLIDHIST
280
     0
  9
$SHOWHIST
280
     1
  9
$DWFFRAME
280
     2
  9
$DGNFRAME
280
     2
  9
$REALWORLDSCALE
290
     1
  9
$INTERFERECOLOR
 62
   256
  9
$CSHADOW
280
     0
  9
$SHADOWPLANELOCATION
 40
0.0
  0
ENDSEC
  0
SECTION
  2
CLASSES
  0
CLASS
  1
ACDBDICTIONARYWDFLT
  2
AcDbDictionaryWithDefault
  3
ObjectDBX Classes
 90
        0
 91
        3
280
     0
281
     0
  0
CLASS
  1
VISUALSTYLE
  2
AcDbVisualStyle
  3
ObjectDBX Classes
 90
     4095
 91
        3
280
     0
281
     0
  0
CLASS
  1
MATERIAL
  2
AcDbMaterial
  3
ObjectDBX Classes
 90
     1153
 91
        3
280
     0
281
     0
  0
CLASS
  1
SCALE
  2
AcDbScale
  3
ObjectDBX Classes
 90
     1153
 91
        3
280
     0
281
     0
  0
CLASS
  1
TABLESTYLE
  2
AcDbTableStyle
  3
ObjectDBX Classes
 90
     4095
 91
        3
280
     0
281
     0
  0
CLASS
  1
MLEADERSTYLE
  2
AcDbMLeaderStyle
  3
ACDB_MLEADERSTYLE_CLASS
 90
     4095
 91
        3
280
     0
281
     0
  0
CLASS
  1
SUN
  2
AcDbSun
  3
SCENEOE
 90
     1153
 91
        3
280
     0
281
     0
  0
CLASS
  1
DICTIONARYVAR
  2
AcDbDictionaryVar
  3
ObjectDBX Classes
 90
        0
 91
        3
280
     0
281
     0
  0
CLASS
  1
CELLSTYLEMAP
  2
AcDbCellStyleMap
  3
ObjectDBX Classes
 90
     1152
 91
        3
280
     0
281
     0
  0
ENDSEC
  0
SECTION
  2
TABLES
  0
TABLE
  2
VPORT
  5
8
330
0
100
AcDbSymbolTable
 70
     1
  0
VPORT
  5
29
330
8
100
AcDbSymbolTableRecord
100
AcDbViewportTableRecord
  2
*Active
 70
     0
 10
0.0
 20
0.0
 11
1.0
 21
1.0
 12
151.4998911674896
 22
108.0008027704874
 13
0.0
 23
0.0
 14
10.0
 24
10.0
 15
10.0
 25
10.0
 16
0.0
 26
0.0
 36
1.0
 17
0.0
 27
0.0
 37
0.0
 40
237.6017660950723
 41
1.402766343222857
 42
50.0
 43
0.0
 44
0.0
 50
0.0
 51
0.0
 71
     0
 72
 10000
 73
     1
 74
     3
 75
     0
 76
     0
 77
     0
 78
     0
281
     0
 65
     1
110
0.0
120
0.0
130
0.0
111
1.0
121
0.0
131
0.0
112
0.0
122
1.0
132
0.0
 79
     0
146
0.0
348
2F
 60
     3
 61
     5
292
     1
282
     1
141
0.0
142
0.0
 63
   250
361
5D
  0
ENDTAB
  0
TABLE
  2
LTYPE
  5
5
330
0
100
AcDbSymbolTable
 70
     2
  0
LTYPE
  5
14
330
5
100
AcDbSymbolTableRecord
100
AcDbLinetypeTableRecord
  2
ByBlock
 70
     0
  3

 72
    65
 73
     0
 40
0.0
  0
LTYPE
  5
15
330
5
100
AcDbSymbolTableRecord
100
AcDbLinetypeTableRecord
  2
ByLayer
 70
     0
  3

 72
    65
 73
     0
 40
0.0
  0
LTYPE
  5
16
330
5
100
AcDbSymbolTableRecord
100
AcDbLinetypeTableRecord
  2
Continuous
 70
     0
  3
Solid line
 72
    65
 73
     0
 40
0.0
  0
LTYPE
  5
5F
330
5
100
AcDbSymbolTableRecord
100
AcDbLinetypeTableRecord
  2
UserDefined01
 70
     0
  3
----------------                
 72
    65
 73
     2
 40
0.7055555449591743
 49
0.3527777724795871
 74
     0
 49
-0.3527777724795871
 74
     0
  0
ENDTAB
  0
TABLE
  2
LAYER
  5
2
330
0
100
AcDbSymbolTable
 70
     3
  0
LAYER
  5
10
330
2
100
AcDbSymbolTableRecord
100
AcDbLayerTableRecord
  2
0
 70
     0
 62
     7
  6
Continuous
370
    -3
390
F
347
46
348
0
  0
LAYER
  5
60
330
2
100
AcDbSymbolTableRecord
100
AcDbLayerTableRecord
  2
外枠
 70
     0
 62
     7
  6
Continuous
370
    -3
390
F
347
46
348
0
  0
LAYER
  5
61
330
2
100
AcDbSymbolTableRecord
100
AcDbLayerTableRecord
  2
ISS138金台
 70
     0
 62
     7
  6
Continuous
370
    -3
390
F
347
46
348
0
  0
ENDTAB
  0
TABLE
  2
STYLE
  5
3
330
0
100
AcDbSymbolTable
 70
     2
  0
STYLE
  5
11
330
3
100
AcDbSymbolTableRecord
100
AcDbTextStyleTableRecord
  2
Standard
 70
     0
 40
0.0
 41
1.0
 50
0.0
 71
     0
 42
2.5
  3

  4

  0
STYLE
  5
5E
330
3
100
AcDbSymbolTableRecord
100
AcDbTextStyleTableRecord
  2
MS Gothic
 70
     0
 40
1.0
 41
1.0
 50
0.0
 71
     0
 42
2.5
  3
msgothic.ttc
  4

1001
ACAD
1000
MS Gothic
1071
    32817
  0
ENDTAB
  0
TABLE
  2
VIEW
  5
6
330
0
100
AcDbSymbolTable
 70
     0
  0
ENDTAB
  0
TABLE
  2
UCS
  5
7
330
0
100
AcDbSymbolTable
 70
     0
  0
ENDTAB
  0
TABLE
  2
APPID
  5
9
330
0
100
AcDbSymbolTable
 70
     1
  0
APPID
  5
12
330
9
100
AcDbSymbolTableRecord
100
AcDbRegAppTableRecord
  2
ACAD
 70
     0
  0
ENDTAB
  0
TABLE
  2
DIMSTYLE
  5
A
330
0
100
AcDbSymbolTable
 70
     1
100
AcDbDimStyleTable
  0
DIMSTYLE
105
27
330
A
100
AcDbSymbolTableRecord
100
AcDbDimStyleTableRecord
  2
ISO-25
 70
     0
 41
2.5
 42
0.625
 43
3.75
 44
1.25
 73
     0
 74
     0
 77
     1
 78
     8
140
2.5
141
2.5
143
0.03937007874016
147
0.625
171
     3
172
     1
178
     0
271
     2
272
     2
274
     3
278
    44
283
     0
284
     8
340
11
  0
ENDTAB
  0
TABLE
  2
BLOCK_RECORD
  5
1
330
0
100
AcDbSymbolTable
 70
     1
  0
BLOCK_RECORD
  5
1F
330
1
100
AcDbSymbolTableRecord
100
AcDbBlockTableRecord
  2
*Model_Space
340
22
 70
     0
280
     1
281
     0
  0
BLOCK_RECORD
  5
1B
330
1
100
AcDbSymbolTableRecord
100
AcDbBlockTableRecord
  2
*Paper_Space
340
1E
 70
     0
280
     1
281
     0
  0
BLOCK_RECORD
  5
23
330
1
100
AcDbSymbolTableRecord
100
AcDbBlockTableRecord
  2
*Paper_Space0
340
26
 70
     0
280
     1
281
     0
  0
ENDTAB
  0
ENDSEC
  0
SECTION
  2
BLOCKS
  0
BLOCK
  5
20
330
1F
100
AcDbEntity
  8
0
100
AcDbBlockBegin
  2
*Model_Space
 70
     0
 10
0.0
 20
0.0
 30
0.0
  3
*Model_Space
  1

  0
ENDBLK
  5
21
330
1F
100
AcDbEntity
  8
0
100
AcDbBlockEnd
  0
BLOCK
  5
1C
330
1B
100
AcDbEntity
 67
     1
  8
0
100
AcDbBlockBegin
  2
*Paper_Space
 70
     0
 10
0.0
 20
0.0
 30
0.0
  3
*Paper_Space
  1

  0
ENDBLK
  5
1D
330
1B
100
AcDbEntity
 67
     1
  8
0
100
AcDbBlockEnd
  0
BLOCK
  5
24
330
23
100
AcDbEntity
  8
0
100
AcDbBlockBegin
  2
*Paper_Space0
 70
     0
 10
0.0
 20
0.0
 30
0.0
  3
*Paper_Space0
  1

  0
ENDBLK
  5
25
330
23
100
AcDbEntity
  8
0
100
AcDbBlockEnd
  0
ENDSEC
  0
SECTION
  2
ENTITIES
  0
LWPOLYLINE
  5
62
330
1F
100
AcDbEntity
  8
外枠
  6
Continuous
 62
   250
420
  2367521
370
   100
100
AcDbPolyline
 90
        5
 70
     0
 43
0.0
 10
281.9999662644599
 20
13.29407825637392
 10
20.99981607051935
 20
13.29407825637392
 10
20.99981607051935
 20
193.0018900389566
 10
281.9999662644599
 20
193.0018900389566
 10
281.9999662644599
 20
13.29407825637392
  0
LINE
  5
63
330
1F
100
AcDbEntity
  8
外枠
  6
Continuous
 62
   250
420
  2367521
370
    25
100
AcDbLine
 10
223.3097080177524
 20
174.0786160074276
 30
0.0
 11
281.9999232007669
 21
174.0786160074276
 31
0.0
  0
LINE
  5
64
330
1F
100
AcDbEntity
  8
外枠
  6
Continuous
 62
   250
420
  2367521
370
    25
100
AcDbLine
 10
223.3097080177524
 20
50.37109023844297
 30
0.0
 11
281.9999232007669
 21
50.37109023844297
 31
0.0
  0
LINE
  5
65
330
1F
100
AcDbEntity
  8
外枠
  6
Continuous
 62
   250
420
  2367521
370
    25
100
AcDbLine
 10
223.3097080177524
 20
36.25997933925949
 30
0.0
 11
281.9999232007669
 21
36.25997933925949
 31
0.0
  0
LINE
  5
66
330
1F
100
AcDbEntity
  8
外枠
  6
Continuous
 62
   250
420
  2367521
370
    50
100
AcDbLine
 10
223.0158413772006
 20
193.3637327187979
 30
0.0
 11
223.0158413772006
 21
13.29396655992039
 31
0.0
  0
TEXT
  5
67
330
1F
100
AcDbEntity
  8
外枠
  6
Continuous
 62
   250
420
  2367521
100
AcDbText
 10
224.7190965599536
 20
186.6888051931772
 30
0.0
 40
2.688166626294454
  1
品名：
 41
0.974166170756022
  7
MS Gothic
100
AcDbText
  0
TEXT
  5
68
330
1F
100
AcDbEntity
  8
外枠
  6
Continuous
 62
   250
420
  2367521
100
AcDbText
 10
224.7190965599536
 20
168.1080059455944
 30
0.0
 40
2.688166626294454
  1
仕様：
 41
0.9978878657023111
  7
MS Gothic
100
AcDbText
  0
TEXT
  5
69
330
1F
100
AcDbEntity
  8
外枠
  6
Continuous
 62
   250
420
  2367521
100
AcDbText
 10
224.7190965599536
 20
44.16660664327048
 30
0.0
 40
2.688166626294454
  1
縮尺：
 41
0.9939999262491861
  7
MS Gothic
100
AcDbText
  0
TEXT
  5
6A
330
1F
100
AcDbEntity
  8
外枠
  6
Continuous
 62
   250
420
  2367521
100
AcDbText
 10
250.2379519709696
 20
40.59738467878129
 30
0.0
 40
2.150533301035563
  1
1/1
 41
1.000003814697266
  7
MS Gothic
100
AcDbText
  0
TEXT
  5
6B
330
1F
100
AcDbEntity
  8
外枠
  6
Continuous
 62
   250
420
  2367521
100
AcDbText
 10
232.7757967427735
 20
181.9845273775436
 30
0.0
 40
2.688166626294454
  1
エッジカバー　EST-94
 41
1.007070617675781
  7
MS Gothic
100
AcDbText
  0
TEXT
  5
6C
330
1F
100
AcDbEntity
  8
外枠
  6
Continuous
 62
   250
420
  2367521
100
AcDbText
 10
226.1633020978884
 20
24.25683874973963
 30
0.0
 40
2.553758294979732
  1
ヤスダインテリアサプライ株式会社
 41
1.0194908945184
  7
MS Gothic
100
AcDbText
  0
TEXT
  5
6D
330
1F
100
AcDbEntity
  8
外枠
  6
Continuous
 62
   250
420
  2367521
100
AcDbText
 10
227.7635273953072
 20
161.7763665048245
 30
0.0
 40
2.150533301035563
  1
材質
 41
1.028502464294433
  7
MS Gothic
100
AcDbText
  0
TEXT
  5
6E
330
1F
100
AcDbEntity
  8
外枠
  6
Continuous
 62
   250
420
  2367521
100
AcDbText
 10
232.7757967427735
 20
156.199681315683
 30
0.0
 40
2.016124969720841
  1
 ステンレスSUS304（18.8CR）/HL仕上
 41
1.066277118757659
  7
MS Gothic
100
AcDbText
  0
LWPOLYLINE
  5
6F
330
1F
100
AcDbEntity
  8
ISS138金台
  6
Continuous
 62
   250
420
  2367521
370
   100
100
AcDbPolyline
 90
       36
 70
     0
 43
0.0
 10
115.5536577460306
 20
113.5255408297396
 10
106.5101961034209
 20
113.5255408297396
 10
106.3935796229675
 20
113.5209330145962
 10
106.2826906136737
 20
113.5073033557839
 10
106.1777766917738
 20
113.4850071287696
 10
106.0790639416559
 20
113.4543673112502
 10
105.9868322773238
 20
113.4157284127691
 10
105.9013077831656
 20
113.3694134110232
 10
105.8227596072619
 20
113.3157775814794
 10
105.751424599924
 20
113.2551331359112
 10
105.6875396114629
 20
113.1878353497854
 10
105.6313737899594
 20
113.1141964348757
 10
105.5831639857246
 20
113.0345609007256
 10
105.5431685809162
 20
112.9492840228017
 10
105.5116244258453
 20
112.8586672469545
 10
105.4887791367461
 20
112.7630658486507
 10
105.4748910957763
 20
112.6628028055873
 10
105.4702079191702
 20
112.5582226273077
 10
105.4702079191702
 20
104.2810040389183
 10
105.4741267152268
 20
104.1466453169778
 10
105.4859046352431
 20
104.0207809084677
 10
105.5055309132957
 20
103.9033892815415
 10
105.5329840175384
 20
103.7945350317386
 10
105.5682747138942
 20
103.694218159059
 10
105.6113707045936
 20
103.6024817271957
 10
105.6623042874061
 20
103.5193687998415
 10
105.7210323986389
 20
103.4448686110732
 10
105.7875765701384
 20
103.3790457564303
 10
105.8619152700582
 20
103.3219110018359
 10
105.9440484983982
 20
103.2734858791365
 10
106.0339762551585
 20
103.2337919201786
 10
106.1316662425694
 20
103.2028829545783
 10
106.2371507584006
 20
103.180769748259
 10
106.3503867389591
 20
103.1674845989902
 10
106.4713957160914
 20
103.1630490386184
 10
139.5062112837331
 20
103.1630490386184
  0
LWPOLYLINE
  5
70
330
1F
100
AcDbEntity
  8
ISS138金台
  6
Continuous
 62
     7
420
 16777215
370
    53
100
AcDbPolyline
 90
       36
 70
     0
 43
0.0
 10
115.5536577460306
 20
113.5255408297396
 10
106.5101961034209
 20
113.5255408297396
 10
106.3935796229675
 20
113.5209330145962
 10
106.2826906136737
 20
113.5073033557839
 10
106.1777766917738
 20
113.4850071287696
 10
106.0790639416559
 20
113.4543673112502
 10
105.9868322773238
 20
113.4157284127691
 10
105.9013077831656
 20
113.3694134110232
 10
105.8227596072619
 20
113.3157775814794
 10
105.751424599924
 20
113.2551331359112
 10
105.6875396114629
 20
113.1878353497854
 10
105.6313737899594
 20
113.1141964348757
 10
105.5831639857246
 20
113.0345609007256
 10
105.5431685809162
 20
112.9492840228017
 10
105.5116244258453
 20
112.8586672469545
 10
105.4887791367461
 20
112.7630658486507
 10
105.4748910957763
 20
112.6628028055873
 10
105.4702079191702
 20
112.5582226273077
 10
105.4702079191702
 20
104.2810040389183
 10
105.4741267152268
 20
104.1466453169778
 10
105.4859046352431
 20
104.0207809084677
 10
105.5055309132957
 20
103.9033892815415
 10
105.5329840175384
 20
103.7945350317386
 10
105.5682747138942
 20
103.694218159059
 10
105.6113707045936
 20
103.6024817271957
 10
105.6623042874061
 20
103.5193687998415
 10
105.7210323986389
 20
103.4448686110732
 10
105.7875765701384
 20
103.3790457564303
 10
105.8619152700582
 20
103.3219110018359
 10
105.9440484983982
 20
103.2734858791365
 10
106.0339762551585
 20
103.2337919201786
 10
106.1316662425694
 20
103.2028829545783
 10
106.2371507584006
 20
103.180769748259
 10
106.3503867389591
 20
103.1674845989902
 10
106.4713957160914
 20
103.1630490386184
 10
139.5062112837331
 20
103.1630490386184
  0
LINE
  5
71
330
1F
100
AcDbEntity
  8
ISS138金台
  6
Continuous
 62
   250
420
  2367521
370
    13
100
AcDbLine
 10
140.9464334300719
 20
103.6288259413454
 30
0.0
 11
150.934626368172
 21
103.6288259413454
 31
0.0
  0
LINE
  5
72
330
1F
100
AcDbEntity
  8
ISS138金台
  6
Continuous
 62
   250
420
  2367521
370
    13
100
AcDbLine
 10
145.9294194663461
 20
102.7248221334432
 30
0.0
 11
140.9464334300719
 21
102.7248221334432
 31
0.0
  0
LINE
  5
73
330
1F
100
AcDbEntity
  8
ISS138金台
  6
Continuous
 62
   250
420
  2367521
370
    13
100
AcDbLine
 10
145.4223014184067
 20
101.7105860375644
 30
0.0
 11
145.4223014184067
 21
103.6289874301939
 31
0.0
  0
LINE
  5
74
330
1F
100
AcDbEntity
  8
ISS138金台
  6
Continuous
 62
   250
420
  2367521
370
    13
100
AcDbLine
 10
150.4273360654608
 20
113.1097285767343
 30
0.0
 11
150.4273360654608
 21
103.6288259413454
 31
0.0
  0
LINE
  5
75
330
1F
100
AcDbEntity
  8
ISS138金台
  6
Continuous
 62
   250
420
  2367521
370
    13
100
AcDbLine
 10
150.9344541134002
 20
113.1097285767343
 30
0.0
 11
140.9684820408519
 21
113.1097285767343
 31
0.0
  0
LINE
  5
76
330
1F
100
AcDbEntity
  8
ISS138金台
  6
Continuous
 62
   250
420
  2367521
370
    13
100
AcDbLine
 10
115.9874060271411
 20
114.9618118822521
 30
0.0
 11
115.9874060271411
 21
119.967018784078
 31
0.0
  0
LINE
  5
77
330
1F
100
AcDbEntity
  8
ISS138金台
  6
Continuous
 62
   250
420
  2367521
370
    13
100
AcDbLine
 10
105.029246469494
 20
119.4599007361386
 30
0.0
 11
115.9875782819129
 21
119.4599007361386
 31
0.0
  0
LINE
  5
78
330
1F
100
AcDbEntity
  8
ISS138金台
  6
Continuous
 62
   250
420
  2367521
370
    13
100
AcDbLine
 10
105.029246469494
 20
119.967018784078
 30
0.0
 11
105.029246469494
 21
114.9399355262439
 31
0.0
  0
LINE
  5
79
330
1F
100
AcDbEntity
  8
ISS138金台
  6
Continuous
 62
   250
420
  2367521
370
    13
100
AcDbLine
 10
104.0150103736151
 20
113.9696136312301
 30
0.0
 11
99.03202433734097
 21
113.9696136312301
 31
0.0
  0
LINE
  5
7A
330
1F
100
AcDbEntity
  8
ISS138金台
  6
Continuous
 62
   250
420
  2367521
370
    13
100
AcDbLine
 10
99.53914238528037
 20
102.7248221334432
 30
0.0
 11
99.53914238528037
 21
113.9696136312301
 31
0.0
  0
LINE
  5
7B
330
1F
100
AcDbEntity
  8
ISS138金台
  6
Continuous
 62
   250
420
  2367521
370
    13
100
AcDbLine
 10
99.03202433734097
 20
102.7248221334432
 30
0.0
 11
104.0150103736151
 21
102.7248221334432
 31
0.0
  0
LINE
  5
7C
330
1F
100
AcDbEntity
  8
ISS138金台
  6
Continuous
 62
   250
420
  2367521
370
    13
100
AcDbLine
 10
105.029246469494
 20
101.6885481927077
 30
0.0
 11
105.029246469494
 21
91.87674414084742
 31
0.0
  0
LINE
  5
7D
330
1F
100
AcDbEntity
  8
ISS138金台
  6
Continuous
 62
   250
420
  2367521
370
    13
100
AcDbLine
 10
139.9542459449731
 20
92.38403444355855
 30
0.0
 11
105.029246469494
 21
92.38403444355855
 31
0.0
  0
LINE
  5
7E
330
1F
100
AcDbEntity
  8
ISS138金台
  6
Continuous
 62
   250
420
  2367521
370
    13
100
AcDbLine
 10
139.9542459449731
 20
91.87690562969591
 30
0.0
 11
139.9542459449731
 21
101.7105860375644
 31
0.0
  0
TEXT
  5
7F
330
1F
100
AcDbEntity
  8
ISS138金台
  6
Continuous
 62
   250
420
  2367521
100
AcDbText
 10
108.9538991883294
 20
120.4914707513061
 30
0.0
 40
1.935479919659297
  1
11
 41
1.115277107961366
  7
MS Gothic
100
AcDbText
  0
TEXT
  5
80
330
1F
100
AcDbEntity
  8
ISS138金台
  6
Continuous
 62
   250
420
  2367521
100
AcDbText
 10
98.50757237011291
 20
106.8258637228636
 30
0.0
 40
1.935479919659297
  1
11
 50
90.00000250447816
 41
1.115277107961366
  7
MS Gothic
100
AcDbText
  0
HATCH
  5
81
330
1F
100
AcDbEntity
  8
ISS138金台
  6
Continuous
 62
   250
420
  2367521
370
    50
100
AcDbHatch
 10
0.0
 20
0.0
 30
0.0
210
0.0
220
0.0
230
1.0
  2
SOLID
 70
     1
 71
     0
 91
        1
 92
        3
 72
     0
 73
     1
 93
      240
 10
121.624970961869
 20
93.41202938932838
 10
121.6117504081396
 20
93.41221241002333
 10
121.5955261618284
 20
93.41280453580111
 10
121.5765566050929
 20
93.4138272985082
 10
121.5550893541674
 20
93.41534529368397
 10
121.53135049344
 20
93.41741235094459
 10
121.5055876391448
 20
93.42003923621328
 10
121.4780484075163
 20
93.42331207687594
 10
121.4489804147888
 20
93.42724163885578
 10
121.4186312771967
 20
93.43189251769218
 10
121.3872378450509
 20
93.43729701115484
 10
121.3550477345861
 20
93.44351971478318
 10
121.3223085620363
 20
93.45058216042364
 10
121.2892571777128
 20
93.45853817769239
 10
121.2561411978499
 20
93.46743083028235
 10
121.223208238682
 20
93.4773139478097
 10
121.1907059164433
 20
93.48823059396737
 10
121.0887526234324
 20
93.52351052439998
 10
121.1282635616953
 20
93.64274312419892
 10
121.1541017774531
 20
93.63421651299885
 10
121.1806936078372
 20
93.6257652632614
 10
121.2079421595384
 20
93.61744320460275
 10
121.2357936029406
 20
93.60932569848552
 10
121.2642156402742
 20
93.60146657452586
 10
121.2931006123068
 20
93.5939411941864
 10
121.3224592849616
 20
93.58682491892978
 10
121.352173233083
 20
93.58017157837216
 10
121.3822316907479
 20
93.57404576805291
 10
121.4125485305703
 20
93.56852284943469
 10
121.4430699229342
 20
93.5636781839801
 10
121.4737420382234
 20
93.55954406945885
 10
121.5045002808984
 20
93.55622816510328
 10
121.535290821343
 20
93.55377353460628
 10
121.5660705958645
 20
93.55225553943052
 10
121.5967534770769
 20
93.55172800919212
 10
121.5967534770769
 20
93.55172800919212
 10
121.645027876851
 20
93.55310604736587
 10
121.6912890489807
 20
93.55717556634772
 10
121.7353970364638
 20
93.56383967282858
 10
121.7772118822985
 20
93.57296917572967
 10
121.816561331713
 20
93.58449947951158
 10
121.8532838958587
 20
93.5982906271723
 10
121.8872611495802
 20
93.61425649132596
 10
121.9183100721825
 20
93.63228941274025
 10
121.9462799407403
 20
93.65229249810605
 10
121.9710200323283
 20
93.67415808819109
 10
121.9923688580982
 20
93.69776775783976
 10
122.0101864610479
 20
93.72303537966621
 10
122.024322118252
 20
93.74985329443815
 10
122.034603574939
 20
93.778103077
 10
122.0408801081834
 20
93.80770936588911
 10
122.0430117609835
 20
93.83854297002674
 10
122.0430117609835
 20
93.83854297002674
 10
122.041461468038
 20
93.86399361254816
 10
122.0369936098966
 20
93.88796932358673
 10
122.0298558027935
 20
93.91049163498893
 10
122.0203064288863
 20
93.93157131267799
 10
122.0085823384862
 20
93.95121912257713
 10
121.9949419137508
 20
93.96945659653284
 10
121.9796435368375
 20
93.98628373454508
 10
121.9629240580576
 20
94.00174360030684
 10
121.945063391415
 20
94.01582542789482
 10
121.9262983872209
 20
94.02856151507876
 10
121.9068658957864
 20
94.03995186185865
 10
121.8870458311155
 20
94.05001800008095
 10
121.8670642775962
 20
94.05878146159213
 10
121.8471903833092
 20
94.06625301231543
 10
121.8276717644888
 20
94.07244341817406
 10
121.8087668032927
 20
94.07736344509127
 10
121.8087668032927
 20
94.07736344509127
 10
121.7939205951552
 20
94.080593222061
 10
121.7789882596319
 20
94.08351078725698
 10
121.7640128604156
 20
94.08616997029539
 10
121.7489620997367
 20
94.08853847340652
 10
121.7338682753648
 20
94.0906593602833
 10
121.7187098554536
 20
94.09252186500251
 10
121.7035299036959
 20
94.09415828533383
 10
121.6882961223221
 20
94.0955793872005
 10
121.6730300431785
 20
94.09677440467931
 10
121.6577424321885
 20
94.09778640146315
 10
121.642433289352
 20
94.09860461162882
 10
121.6270918487458
 20
94.09925056702276
 10
121.6117611740628
 20
94.09972426764499
 10
121.5964089675334
 20
94.10004724534195
 10
121.581056761004
 20
94.1002302660369
 10
121.5657045544746
 20
94.10029486157632
 10
121.5208967819813
 20
94.10029486157632
 10
121.5208967819813
 20
94.23999348144005
 10
121.5293695635652
 20
94.23999348144005
 10
121.5837267099657
 20
94.24180215654309
 10
121.6337774870731
 20
94.24700209746435
 10
121.67962955412
 20
94.25535645389269
 10
121.7213905703385
 20
94.26656377997764
 10
121.759168194961
 20
94.28036569356158
 10
121.7930808531431
 20
94.29647151471727
 10
121.8232254381938
 20
94.31462286128712
 10
121.8497419071152
 20
94.33453981926706
 10
121.87270562137
 20
94.35594247465309
 10
121.8922673038833
 20
94.37855091344116
 10
121.9084915501945
 20
94.40210675347367
 10
121.921529083229
 20
94.4263300807466
 10
121.9314767962957
 20
94.45093021533265
 10
121.9384423486271
 20
94.47564877507426
 10
121.9425333994554
 20
94.50020584596737
 10
121.9438791398594
 20
94.5243322799312
 10
121.9438791398594
 20
94.5243322799312
 10
121.9425872290715
 20
94.54869556420616
 10
121.9386791989382
 20
94.57295118924877
 10
121.9321227516896
 20
94.59692690028734
 10
121.9228855895562
 20
94.62038584701077
 10
121.9109461806915
 20
94.64314500872408
 10
121.8962614614025
 20
94.66498906696265
 10
121.8787883679963
 20
94.68572423510827
 10
121.8585053686264
 20
94.70513519469628
 10
121.8353909314465
 20
94.72302815910857
 10
121.8093912268402
 20
94.73919857580364
 10
121.7804739570379
 20
94.75343112631688
 10
121.7486175901932
 20
94.76554278995334
 10
121.7137898285364
 20
94.77530748232513
 10
121.6759476083745
 20
94.78254218273732
 10
121.6350586319378
 20
94.78703157272523
 10
121.5911013673798
 20
94.78857109974746
 10
121.5911013673798
 20
94.78857109974746
 10
121.5569518588866
 20
94.7875914007333
 10
121.5232545191692
 20
94.78479226069288
 10
121.4901493052296
 20
94.7803782321676
 10
121.4577761740697
 20
94.77455386769887
 10
121.4262750826917
 20
94.76751295390487
 10
121.395764456251
 20
94.7594815751735
 10
121.3664057835962
 20
94.7506427521997
 10
121.3383390217293
 20
94.7412118034481
 10
121.3116825958059
 20
94.73139328146013
 10
121.2865979946744
 20
94.72139173877723
 10
121.2632036434904
 20
94.71141172794078
 10
121.2416610311023
 20
94.70165780149222
 10
121.2220778167426
 20
94.69232374604972
 10
121.2046154892596
 20
94.68363564600116
 10
121.1894032397322
 20
94.67578728796474
 10
121.1765917910856
 20
94.66897245855863
 10
121.1254428898085
 20
94.78080886909689
 10
121.1536819064471
 20
94.7966886058647
 10
121.1823407940917
 20
94.81184702577593
 10
121.2114087868192
 20
94.82627336290736
 10
121.2408966505528
 20
94.83992455356605
 10
121.2708259171389
 20
94.85273600221262
 10
121.3011750547311
 20
94.86466464515414
 10
121.331976361099
 20
94.87566741869765
 10
121.3632621340124
 20
94.8857120250735
 10
121.3949893097783
 20
94.89473386874225
 10
121.4272117180129
 20
94.90271141785746
 10
121.4598970609465
 20
94.90956931095651
 10
121.493088402272
 20
94.91529678211614
 10
121.5267857419894
 20
94.91981846987377
 10
121.5609890800988
 20
94.92311284238289
 10
121.5957199484466
 20
94.92511530410411
 10
121.6309675811095
 20
94.92579355726775
 10
121.6309675811095
 20
94.92579355726775
 10
121.6659783634613
 20
94.92473849679098
 10
121.7000525104918
 20
94.92163791090005
 10
121.7331146607386
 20
94.91662099067375
 10
121.7651002186621
 20
94.90980616126762
 10
121.7959553546461
 20
94.90126878414432
 10
121.8255724094585
 20
94.8911595822291
 10
121.8539298512527
 20
94.87956468290778
 10
121.8809092548731
 20
94.8666132772592
 10
121.9064783225501
 20
94.85242379043888
 10
121.9305724587442
 20
94.83709311575593
 10
121.9530840042232
 20
94.82072891244266
 10
121.973969895294
 20
94.80346037157788
 10
121.9931547704942
 20
94.7853951523939
 10
122.0105740342842
 20
94.76665168004628
 10
122.0261630911248
 20
94.7473268478441
 10
122.0398358136299
 20
94.72753908094293
 10
122.0398358136299
 20
94.72753908094293
 10
122.0456494121754
 20
94.717860515957
 10
122.0512692241027
 20
94.70788050512056
 10
122.0567060153351
 20
94.69757751658713
 10
122.0618951903331
 20
94.68694078443352
 10
122.06684751502
 20
94.67597030865969
 10
122.0714876279332
 20
94.66463379149596
 10
122.0758370609191
 20
94.65295276478881
 10
122.0798312184383
 20
94.64088416484527
 10
122.0834593345676
 20
94.62843875758861
 10
122.0867106433838
 20
94.61559501117235
 10
122.0895205493475
 20
94.60234215967324
 10
122.0918782865354
 20
94.58868020309131
 10
122.093762323101
 20
94.5745876095801
 10
122.0951403612748
 20
94.56005361321635
 10
122.0959908692102
 20
94.54506744807682
 10
122.0962815491374
 20
94.52962911416157
 10
122.0962815491374
 20
94.52962911416157
 10
122.0950219361192
 20
94.49382165349056
 10
122.0913399903738
 20
94.46077026916706
 10
122.0854079666727
 20
94.43031347234259
 10
122.0773765879413
 20
94.40222517862922
 10
122.0674073430281
 20
94.37636543102498
 10
122.0556724867048
 20
94.35254044291165
 10
122.0423227418966
 20
94.33055642767107
 10
122.0275411292985
 20
94.31025189645476
 10
122.0114568399893
 20
94.2914330626445
 10
121.9942528946639
 20
94.27393843739183
 10
121.9760907821708
 20
94.25756346815534
 10
121.9571319913585
 20
94.24214666608654
 10
121.9375272451523
 20
94.22749424456723
 10
121.9174487983239
 20
94.21344471474893
 10
121.8970581397217
 20
94.19979352409024
 10
121.876505992271
 20
94.18637918374264
 10
121.876505992271
 20
94.18637918374264
 10
121.8958092926267
 20
94.18192209152443
 10
121.9175241597865
 20
94.17595777005369
 10
121.9411445953584
 20
94.16833549640513
 10
121.9661646009505
 20
94.15882918619091
 10
121.9920997100174
 20
94.14728811648578
 10
122.0184223923206
 20
94.13351850067153
 10
122.0446266494683
 20
94.11734808397645
 10
122.0702172489918
 20
94.09858307978234
 10
122.0946989584223
 20
94.07704046739431
 10
122.1175550134447
 20
94.05253722611734
 10
122.1382578838206
 20
94.02490110117975
 10
122.156344634851
 20
93.99393830596333
 10
122.1712985022208
 20
93.9594765856964
 10
122.1825919556916
 20
93.92133291968398
 10
122.189740528718
 20
93.87931352130786
 10
122.1922382229079
 20
93.8332461357964
 10
122.1922382229079
 20
93.8332461357964
 10
122.1887823615503
 20
93.78124672658386
 10
122.1787377551745
 20
93.73281083796124
 10
122.1626211680955
 20
93.68787387438917
 10
122.1409063009358
 20
93.6464250699444
 10
122.1141099180103
 20
93.60846442462693
 10
122.0827057199414
 20
93.57392734289735
 10
122.0471997051209
 20
93.54281382475568
 10
122.0080871060175
 20
93.515080806509
 10
121.9658739210233
 20
93.49071752223406
 10
121.9210446166835
 20
93.46968090823793
 10
121.874094425467
 20
93.45196019859739
 10
121.8255293457656
 20
93.4375123296195
 10
121.7758338441248
 20
93.42632653538102
 10
121.7255139189365
 20
93.41837051811227
 10
121.6750648026694
 20
93.41361198004356
 97
        0
 75
     1
 76
     1
 98
        0
  0
LWPOLYLINE
  5
82
330
1F
100
AcDbEntity
  8
ISS138金台
  6
Continuous
 62
   250
420
  2367521
370
    50
100
AcDbPolyline
 90
      241
 70
     0
 43
0.0
 10
121.624970961869
 20
93.41202938932838
 10
121.6117504081396
 20
93.41221241002333
 10
121.5955261618284
 20
93.41280453580111
 10
121.5765566050929
 20
93.4138272985082
 10
121.5550893541674
 20
93.41534529368397
 10
121.53135049344
 20
93.41741235094459
 10
121.5055876391448
 20
93.42003923621328
 10
121.4780484075163
 20
93.42331207687594
 10
121.4489804147888
 20
93.42724163885578
 10
121.4186312771967
 20
93.43189251769218
 10
121.3872378450509
 20
93.43729701115484
 10
121.3550477345861
 20
93.44351971478318
 10
121.3223085620363
 20
93.45058216042364
 10
121.2892571777128
 20
93.45853817769239
 10
121.2561411978499
 20
93.46743083028235
 10
121.223208238682
 20
93.4773139478097
 10
121.1907059164433
 20
93.48823059396737
 10
121.0887526234324
 20
93.52351052439998
 10
121.1282635616953
 20
93.64274312419892
 10
121.1541017774531
 20
93.63421651299885
 10
121.1806936078372
 20
93.6257652632614
 10
121.2079421595384
 20
93.61744320460275
 10
121.2357936029406
 20
93.60932569848552
 10
121.2642156402742
 20
93.60146657452586
 10
121.2931006123068
 20
93.5939411941864
 10
121.3224592849616
 20
93.58682491892978
 10
121.352173233083
 20
93.58017157837216
 10
121.3822316907479
 20
93.57404576805291
 10
121.4125485305703
 20
93.56852284943469
 10
121.4430699229342
 20
93.5636781839801
 10
121.4737420382234
 20
93.55954406945885
 10
121.5045002808984
 20
93.55622816510328
 10
121.535290821343
 20
93.55377353460628
 10
121.5660705958645
 20
93.55225553943052
 10
121.5967534770769
 20
93.55172800919212
 10
121.5967534770769
 20
93.55172800919212
 10
121.645027876851
 20
93.55310604736587
 10
121.6912890489807
 20
93.55717556634772
 10
121.7353970364638
 20
93.56383967282858
 10
121.7772118822985
 20
93.57296917572967
 10
121.816561331713
 20
93.58449947951158
 10
121.8532838958587
 20
93.5982906271723
 10
121.8872611495802
 20
93.61425649132596
 10
121.9183100721825
 20
93.63228941274025
 10
121.9462799407403
 20
93.65229249810605
 10
121.9710200323283
 20
93.67415808819109
 10
121.9923688580982
 20
93.69776775783976
 10
122.0101864610479
 20
93.72303537966621
 10
122.024322118252
 20
93.74985329443815
 10
122.034603574939
 20
93.778103077
 10
122.0408801081834
 20
93.80770936588911
 10
122.0430117609835
 20
93.83854297002674
 10
122.0430117609835
 20
93.83854297002674
 10
122.041461468038
 20
93.86399361254816
 10
122.0369936098966
 20
93.88796932358673
 10
122.0298558027935
 20
93.91049163498893
 10
122.0203064288863
 20
93.93157131267799
 10
122.0085823384862
 20
93.95121912257713
 10
121.9949419137508
 20
93.96945659653284
 10
121.9796435368375
 20
93.98628373454508
 10
121.9629240580576
 20
94.00174360030684
 10
121.945063391415
 20
94.01582542789482
 10
121.9262983872209
 20
94.02856151507876
 10
121.9068658957864
 20
94.03995186185865
 10
121.8870458311155
 20
94.05001800008095
 10
121.8670642775962
 20
94.05878146159213
 10
121.8471903833092
 20
94.06625301231543
 10
121.8276717644888
 20
94.07244341817406
 10
121.8087668032927
 20
94.07736344509127
 10
121.8087668032927
 20
94.07736344509127
 10
121.7939205951552
 20
94.080593222061
 10
121.7789882596319
 20
94.08351078725698
 10
121.7640128604156
 20
94.08616997029539
 10
121.7489620997367
 20
94.08853847340652
 10
121.7338682753648
 20
94.0906593602833
 10
121.7187098554536
 20
94.09252186500251
 10
121.7035299036959
 20
94.09415828533383
 10
121.6882961223221
 20
94.0955793872005
 10
121.6730300431785
 20
94.09677440467931
 10
121.6577424321885
 20
94.09778640146315
 10
121.642433289352
 20
94.09860461162882
 10
121.6270918487458
 20
94.09925056702276
 10
121.6117611740628
 20
94.09972426764499
 10
121.5964089675334
 20
94.10004724534195
 10
121.581056761004
 20
94.1002302660369
 10
121.5657045544746
 20
94.10029486157632
 10
121.5208967819813
 20
94.10029486157632
 10
121.5208967819813
 20
94.23999348144005
 10
121.5293695635652
 20
94.23999348144005
 10
121.5837267099657
 20
94.24180215654309
 10
121.6337774870731
 20
94.24700209746435
 10
121.67962955412
 20
94.25535645389269
 10
121.7213905703385
 20
94.26656377997764
 10
121.759168194961
 20
94.28036569356158
 10
121.7930808531431
 20
94.29647151471727
 10
121.8232254381938
 20
94.31462286128712
 10
121.8497419071152
 20
94.33453981926706
 10
121.87270562137
 20
94.35594247465309
 10
121.8922673038833
 20
94.37855091344116
 10
121.9084915501945
 20
94.40210675347367
 10
121.921529083229
 20
94.4263300807466
 10
121.9314767962957
 20
94.45093021533265
 10
121.9384423486271
 20
94.47564877507426
 10
121.9425333994554
 20
94.50020584596737
 10
121.9438791398594
 20
94.5243322799312
 10
121.9438791398594
 20
94.5243322799312
 10
121.9425872290715
 20
94.54869556420616
 10
121.9386791989382
 20
94.57295118924877
 10
121.9321227516896
 20
94.59692690028734
 10
121.9228855895562
 20
94.62038584701077
 10
121.9109461806915
 20
94.64314500872408
 10
121.8962614614025
 20
94.66498906696265
 10
121.8787883679963
 20
94.68572423510827
 10
121.8585053686264
 20
94.70513519469628
 10
121.8353909314465
 20
94.72302815910857
 10
121.8093912268402
 20
94.73919857580364
 10
121.7804739570379
 20
94.75343112631688
 10
121.7486175901932
 20
94.76554278995334
 10
121.7137898285364
 20
94.77530748232513
 10
121.6759476083745
 20
94.78254218273732
 10
121.6350586319378
 20
94.78703157272523
 10
121.5911013673798
 20
94.78857109974746
 10
121.5911013673798
 20
94.78857109974746
 10
121.5569518588866
 20
94.7875914007333
 10
121.5232545191692
 20
94.78479226069288
 10
121.4901493052296
 20
94.7803782321676
 10
121.4577761740697
 20
94.77455386769887
 10
121.4262750826917
 20
94.76751295390487
 10
121.395764456251
 20
94.7594815751735
 10
121.3664057835962
 20
94.7506427521997
 10
121.3383390217293
 20
94.7412118034481
 10
121.3116825958059
 20
94.73139328146013
 10
121.2865979946744
 20
94.72139173877723
 10
121.2632036434904
 20
94.71141172794078
 10
121.2416610311023
 20
94.70165780149222
 10
121.2220778167426
 20
94.69232374604972
 10
121.2046154892596
 20
94.68363564600116
 10
121.1894032397322
 20
94.67578728796474
 10
121.1765917910856
 20
94.66897245855863
 10
121.1254428898085
 20
94.78080886909689
 10
121.1536819064471
 20
94.7966886058647
 10
121.1823407940917
 20
94.81184702577593
 10
121.2114087868192
 20
94.82627336290736
 10
121.2408966505528
 20
94.83992455356605
 10
121.2708259171389
 20
94.85273600221262
 10
121.3011750547311
 20
94.86466464515414
 10
121.331976361099
 20
94.87566741869765
 10
121.3632621340124
 20
94.8857120250735
 10
121.3949893097783
 20
94.89473386874225
 10
121.4272117180129
 20
94.90271141785746
 10
121.4598970609465
 20
94.90956931095651
 10
121.493088402272
 20
94.91529678211614
 10
121.5267857419894
 20
94.91981846987377
 10
121.5609890800988
 20
94.92311284238289
 10
121.5957199484466
 20
94.92511530410411
 10
121.6309675811095
 20
94.92579355726775
 10
121.6309675811095
 20
94.92579355726775
 10
121.6659783634613
 20
94.92473849679098
 10
121.7000525104918
 20
94.92163791090005
 10
121.7331146607386
 20
94.91662099067375
 10
121.7651002186621
 20
94.90980616126762
 10
121.7959553546461
 20
94.90126878414432
 10
121.8255724094585
 20
94.8911595822291
 10
121.8539298512527
 20
94.87956468290778
 10
121.8809092548731
 20
94.8666132772592
 10
121.9064783225501
 20
94.85242379043888
 10
121.9305724587442
 20
94.83709311575593
 10
121.9530840042232
 20
94.82072891244266
 10
121.973969895294
 20
94.80346037157788
 10
121.9931547704942
 20
94.7853951523939
 10
122.0105740342842
 20
94.76665168004628
 10
122.0261630911248
 20
94.7473268478441
 10
122.0398358136299
 20
94.72753908094293
 10
122.0398358136299
 20
94.72753908094293
 10
122.0456494121754
 20
94.717860515957
 10
122.0512692241027
 20
94.70788050512056
 10
122.0567060153351
 20
94.69757751658713
 10
122.0618951903331
 20
94.68694078443352
 10
122.06684751502
 20
94.67597030865969
 10
122.0714876279332
 20
94.66463379149596
 10
122.0758370609191
 20
94.65295276478881
 10
122.0798312184383
 20
94.64088416484527
 10
122.0834593345676
 20
94.62843875758861
 10
122.0867106433838
 20
94.61559501117235
 10
122.0895205493475
 20
94.60234215967324
 10
122.0918782865354
 20
94.58868020309131
 10
122.093762323101
 20
94.5745876095801
 10
122.0951403612748
 20
94.56005361321635
 10
122.0959908692102
 20
94.54506744807682
 10
122.0962815491374
 20
94.52962911416157
 10
122.0962815491374
 20
94.52962911416157
 10
122.0950219361192
 20
94.49382165349056
 10
122.0913399903738
 20
94.46077026916706
 10
122.0854079666727
 20
94.43031347234259
 10
122.0773765879413
 20
94.40222517862922
 10
122.0674073430281
 20
94.37636543102498
 10
122.0556724867048
 20
94.35254044291165
 10
122.0423227418966
 20
94.33055642767107
 10
122.0275411292985
 20
94.31025189645476
 10
122.0114568399893
 20
94.2914330626445
 10
121.9942528946639
 20
94.27393843739183
 10
121.9760907821708
 20
94.25756346815534
 10
121.9571319913585
 20
94.24214666608654
 10
121.9375272451523
 20
94.22749424456723
 10
121.9174487983239
 20
94.21344471474893
 10
121.8970581397217
 20
94.19979352409024
 10
121.876505992271
 20
94.18637918374264
 10
121.876505992271
 20
94.18637918374264
 10
121.8958092926267
 20
94.18192209152443
 10
121.9175241597865
 20
94.17595777005369
 10
121.9411445953584
 20
94.16833549640513
 10
121.9661646009505
 20
94.15882918619091
 10
121.9920997100174
 20
94.14728811648578
 10
122.0184223923206
 20
94.13351850067153
 10
122.0446266494683
 20
94.11734808397645
 10
122.0702172489918
 20
94.09858307978234
 10
122.0946989584223
 20
94.07704046739431
 10
122.1175550134447
 20
94.05253722611734
 10
122.1382578838206
 20
94.02490110117975
 10
122.156344634851
 20
93.99393830596333
 10
122.1712985022208
 20
93.9594765856964
 10
122.1825919556916
 20
93.92133291968398
 10
122.189740528718
 20
93.87931352130786
 10
122.1922382229079
 20
93.8332461357964
 10
122.1922382229079
 20
93.8332461357964
 10
122.1887823615503
 20
93.78124672658386
 10
122.1787377551745
 20
93.73281083796124
 10
122.1626211680955
 20
93.68787387438917
 10
122.1409063009358
 20
93.6464250699444
 10
122.1141099180103
 20
93.60846442462693
 10
122.0827057199414
 20
93.57392734289735
 10
122.0471997051209
 20
93.54281382475568
 10
122.0080871060175
 20
93.515080806509
 10
121.9658739210233
 20
93.49071752223406
 10
121.9210446166835
 20
93.46968090823793
 10
121.874094425467
 20
93.45196019859739
 10
121.8255293457656
 20
93.4375123296195
 10
121.7758338441248
 20
93.42632653538102
 10
121.7255139189365
 20
93.41837051811227
 10
121.6750648026694
 20
93.41361198004356
 10
121.624970961869
 20
93.41202938932838
  0
HATCH
  5
83
330
1F
100
AcDbEntity
  8
ISS138金台
  6
Continuous
 62
   250
420
  2367521
370
    50
100
AcDbHatch
 10
0.0
 20
0.0
 30
0.0
210
0.0
220
0.0
230
1.0
  2
SOLID
 70
     1
 71
     0
 91
        1
 92
        3
 72
     0
 73
     1
 93
      140
 10
123.3550978890101
 20
93.41202938932838
 10
123.3197318311916
 20
93.41258921733646
 10
123.2844411348358
 20
93.41420410582133
 10
123.2492365658658
 20
93.4168202251668
 10
123.2141288902049
 20
93.4203729798335
 10
123.1791504056228
 20
93.42477624243556
 10
123.1443118780428
 20
93.42997618335681
 10
123.109624073388
 20
93.4359189729811
 10
123.0751192894281
 20
93.4424969520761
 10
123.0408082920864
 20
93.44967782287212
 10
123.0067126132093
 20
93.45738622390652
 10
122.9728430187202
 20
93.46553602779346
 10
122.9392210404654
 20
93.47409493676322
 10
122.9058682102914
 20
93.4829552915835
 10
122.8727952941214
 20
93.49207402856135
 10
122.8400345897252
 20
93.50138655215738
 10
122.8075860971027
 20
93.51080673498574
 10
122.838635019705
 20
93.65086063031615
 10
122.8679936923597
 20
93.64091291724941
 10
122.8977291723277
 20
93.63120205449377
 10
122.9277983959158
 20
93.62179263758864
 10
122.9582013631241
 20
93.61274926207342
 10
122.9889057761829
 20
93.6041042257178
 10
123.0199008691691
 20
93.59592212406116
 10
123.051165110236
 20
93.58826755264292
 10
123.0826554356908
 20
93.58118357515599
 10
123.1143826114567
 20
93.57472402121655
 10
123.146314339764
 20
93.56895348636398
 10
123.1784290887663
 20
93.56392580021443
 10
123.2106945606938
 20
93.55967326053764
 10
123.2431107555466
 20
93.55628199471943
 10
123.2756453755549
 20
93.55378430052951
 10
123.3082768888724
 20
93.55225553943052
 10
123.3409837636524
 20
93.55172800919212
 10
123.3409837636524
 20
93.55172800919212
 10
123.3956423559034
 20
93.55331059990729
 10
123.4472326600331
 20
93.55796147874369
 10
123.4957008464254
 20
93.56556222054577
 10
123.5409823195409
 20
93.57598363423475
 10
123.5830124838402
 20
93.58906423096212
 10
123.621726743784
 20
93.60469635149558
 10
123.6570605038327
 20
93.62274003883309
 10
123.6889599343704
 20
93.64305533597266
 10
123.7173281420878
 20
93.66551305183546
 10
123.7421435951385
 20
93.68999476126595
 10
123.7633094002134
 20
93.71634974133889
 10
123.7807717276963
 20
93.74445956689871
 10
123.794465982048
 20
93.77418428094339
 10
123.8043275677289
 20
93.80538392647091
 10
123.8102918891996
 20
93.83794007832572
 10
123.8122943509209
 20
93.87170201358256
 10
123.8122943509209
 20
93.87170201358256
 10
123.8105287395107
 20
93.90212651263735
 10
123.8051996075107
 20
93.9322387999184
 10
123.7963930823066
 20
93.96185585473076
 10
123.7841199298216
 20
93.99069776307039
 10
123.7684232137488
 20
94.01854920647261
 10
123.7493459977809
 20
94.04519486647283
 10
123.7269205796878
 20
94.07038712683666
 10
123.7011684913159
 20
94.09391066909949
 10
123.6721650941278
 20
94.11551787702693
 10
123.6398996222003
 20
94.1350041980776
 10
123.6044474369959
 20
94.1521112500939
 10
123.5658408362845
 20
94.16663448053441
 10
123.5241013519125
 20
94.1783262731648
 10
123.4792720475727
 20
94.1869605435972
 10
123.431385221035
 20
94.19231120744371
 10
123.3804947019154
 20
94.19414141439321
 10
123.3804947019154
 20
94.19414141439321
 10
123.3713329012446
 20
94.19411988254674
 10
123.3597380019233
 20
94.19394762777503
 10
123.3458822587232
 20
94.19350622492252
 10
123.3298625649534
 20
94.19262341921745
 10
123.3117973457694
 20
94.19119155142754
 10
123.2917834944803
 20
94.1890491327043
 10
123.2699394362418
 20
94.18604544012246
 10
123.2463943621325
 20
94.18205128260323
 10
123.221266697308
 20
94.17693746906784
 10
123.1946533350775
 20
94.17054251066779
 10
123.1666834665197
 20
94.16273721632427
 10
123.137464750867
 20
94.15336009718885
 10
123.1071156132748
 20
94.14229272810593
 10
123.0757544788988
 20
94.12938438615028
 10
123.0434890069713
 20
94.11449511431985
 10
123.0104376226478
 20
94.09747418968942
 10
122.9007220989863
 20
94.12076088164112
 10
122.9007220989863
 20
94.8951106760554
 10
123.8772128680123
 20
94.8951106760554
 10
123.8772128680123
 20
94.75575656573508
 10
123.0559451801512
 20
94.75575656573508
 10
123.0559451801512
 20
94.25763882961797
 10
123.0758406062847
 20
94.26599318604632
 10
123.0963604559656
 20
94.27398150108476
 10
123.1174616655011
 20
94.28157147696362
 10
123.1390688734286
 20
94.2887415818364
 10
123.1611497819783
 20
94.29547028385664
 10
123.1836613274572
 20
94.30174681710115
 10
123.2065712120958
 20
94.30752811787696
 10
123.2298148403546
 20
94.31280342026083
 10
123.2533599144638
 20
94.31754042648309
 10
123.2771418388842
 20
94.32172837062049
 10
123.301128315846
 20
94.32533495490335
 10
123.3252762816563
 20
94.32832788156196
 10
123.3495211407757
 20
94.33070715059634
 10
123.3738413613577
 20
94.33242969831352
 10
123.398172347863
 20
94.33348475879029
 10
123.4224818025218
 20
94.33384003425695
 10
123.4224818025218
 20
94.33384003425695
 10
123.4867113005263
 20
94.3313315741438
 10
123.5470865980137
 20
94.3239892144993
 10
123.6035538653677
 20
94.31211440117396
 10
123.6560808048186
 20
94.29598704817181
 10
123.70464588452
 20
94.27589783542012
 10
123.7491845089325
 20
94.25214820876944
 10
123.7896643802863
 20
94.22501808222377
 10
123.8260532008119
 20
94.19479813571039
 10
123.8583079068162
 20
94.16177904915659
 10
123.8863962005295
 20
94.12625150248965
 10
123.9102642523358
 20
94.08850617563681
 10
123.9298905303884
 20
94.0488337485254
 10
123.9452104391482
 20
94.0075141351594
 10
123.9562132126917
 20
93.96484878138936
 10
123.9628342554796
 20
93.92112836714256
 10
123.9650520356655
 20
93.876632806423
 10
123.9650520356655
 20
93.876632806423
 10
123.96350174272
 20
93.84338763548132
 10
123.958635545419
 20
93.80784932289114
 10
123.9501089342189
 20
93.77062076035347
 10
123.9376096973461
 20
93.7322940736461
 10
123.9207933252571
 20
93.6935259840862
 10
123.8993045424852
 20
93.65490861745153
 10
123.8728419031799
 20
93.61704486544315
 10
123.8410501318746
 20
93.58055915160853
 10
123.8036170167955
 20
93.54607589949511
 10
123.7601765165527
 20
93.51419800080394
 10
123.7104164193725
 20
93.48553911315926
 10
123.6540029816347
 20
93.46071289418533
 10
123.5905916937958
 20
93.44033300150639
 10
123.5198703440822
 20
93.4250238586699
 10
123.4414728911037
 20
93.41537759145366
 97
        0
 75
     1
 76
     1
 98
        0
  0
LWPOLYLINE
  5
84
330
1F
100
AcDbEntity
  8
ISS138金台
  6
Continuous
 62
   250
420
  2367521
370
    50
100
AcDbPolyline
 90
      141
 70
     0
 43
0.0
 10
123.3550978890101
 20
93.41202938932838
 10
123.3197318311916
 20
93.41258921733646
 10
123.2844411348358
 20
93.41420410582133
 10
123.2492365658658
 20
93.4168202251668
 10
123.2141288902049
 20
93.4203729798335
 10
123.1791504056228
 20
93.42477624243556
 10
123.1443118780428
 20
93.42997618335681
 10
123.109624073388
 20
93.4359189729811
 10
123.0751192894281
 20
93.4424969520761
 10
123.0408082920864
 20
93.44967782287212
 10
123.0067126132093
 20
93.45738622390652
 10
122.9728430187202
 20
93.46553602779346
 10
122.9392210404654
 20
93.47409493676322
 10
122.9058682102914
 20
93.4829552915835
 10
122.8727952941214
 20
93.49207402856135
 10
122.8400345897252
 20
93.50138655215738
 10
122.8075860971027
 20
93.51080673498574
 10
122.838635019705
 20
93.65086063031615
 10
122.8679936923597
 20
93.64091291724941
 10
122.8977291723277
 20
93.63120205449377
 10
122.9277983959158
 20
93.62179263758864
 10
122.9582013631241
 20
93.61274926207342
 10
122.9889057761829
 20
93.6041042257178
 10
123.0199008691691
 20
93.59592212406116
 10
123.051165110236
 20
93.58826755264292
 10
123.0826554356908
 20
93.58118357515599
 10
123.1143826114567
 20
93.57472402121655
 10
123.146314339764
 20
93.56895348636398
 10
123.1784290887663
 20
93.56392580021443
 10
123.2106945606938
 20
93.55967326053764
 10
123.2431107555466
 20
93.55628199471943
 10
123.2756453755549
 20
93.55378430052951
 10
123.3082768888724
 20
93.55225553943052
 10
123.3409837636524
 20
93.55172800919212
 10
123.3409837636524
 20
93.55172800919212
 10
123.3956423559034
 20
93.55331059990729
 10
123.4472326600331
 20
93.55796147874369
 10
123.4957008464254
 20
93.56556222054577
 10
123.5409823195409
 20
93.57598363423475
 10
123.5830124838402
 20
93.58906423096212
 10
123.621726743784
 20
93.60469635149558
 10
123.6570605038327
 20
93.62274003883309
 10
123.6889599343704
 20
93.64305533597266
 10
123.7173281420878
 20
93.66551305183546
 10
123.7421435951385
 20
93.68999476126595
 10
123.7633094002134
 20
93.71634974133889
 10
123.7807717276963
 20
93.74445956689871
 10
123.794465982048
 20
93.77418428094339
 10
123.8043275677289
 20
93.80538392647091
 10
123.8102918891996
 20
93.83794007832572
 10
123.8122943509209
 20
93.87170201358256
 10
123.8122943509209
 20
93.87170201358256
 10
123.8105287395107
 20
93.90212651263735
 10
123.8051996075107
 20
93.9322387999184
 10
123.7963930823066
 20
93.96185585473076
 10
123.7841199298216
 20
93.99069776307039
 10
123.7684232137488
 20
94.01854920647261
 10
123.7493459977809
 20
94.04519486647283
 10
123.7269205796878
 20
94.07038712683666
 10
123.7011684913159
 20
94.09391066909949
 10
123.6721650941278
 20
94.11551787702693
 10
123.6398996222003
 20
94.1350041980776
 10
123.6044474369959
 20
94.1521112500939
 10
123.5658408362845
 20
94.16663448053441
 10
123.5241013519125
 20
94.1783262731648
 10
123.4792720475727
 20
94.1869605435972
 10
123.431385221035
 20
94.19231120744371
 10
123.3804947019154
 20
94.19414141439321
 10
123.3804947019154
 20
94.19414141439321
 10
123.3713329012446
 20
94.19411988254674
 10
123.3597380019233
 20
94.19394762777503
 10
123.3458822587232
 20
94.19350622492252
 10
123.3298625649534
 20
94.19262341921745
 10
123.3117973457694
 20
94.19119155142754
 10
123.2917834944803
 20
94.1890491327043
 10
123.2699394362418
 20
94.18604544012246
 10
123.2463943621325
 20
94.18205128260323
 10
123.221266697308
 20
94.17693746906784
 10
123.1946533350775
 20
94.17054251066779
 10
123.1666834665197
 20
94.16273721632427
 10
123.137464750867
 20
94.15336009718885
 10
123.1071156132748
 20
94.14229272810593
 10
123.0757544788988
 20
94.12938438615028
 10
123.0434890069713
 20
94.11449511431985
 10
123.0104376226478
 20
94.09747418968942
 10
122.9007220989863
 20
94.12076088164112
 10
122.9007220989863
 20
94.8951106760554
 10
123.8772128680123
 20
94.8951106760554
 10
123.8772128680123
 20
94.75575656573508
 10
123.0559451801512
 20
94.75575656573508
 10
123.0559451801512
 20
94.25763882961797
 10
123.0758406062847
 20
94.26599318604632
 10
123.0963604559656
 20
94.27398150108476
 10
123.1174616655011
 20
94.28157147696362
 10
123.1390688734286
 20
94.2887415818364
 10
123.1611497819783
 20
94.29547028385664
 10
123.1836613274572
 20
94.30174681710115
 10
123.2065712120958
 20
94.30752811787696
 10
123.2298148403546
 20
94.31280342026083
 10
123.2533599144638
 20
94.31754042648309
 10
123.2771418388842
 20
94.32172837062049
 10
123.301128315846
 20
94.32533495490335
 10
123.3252762816563
 20
94.32832788156196
 10
123.3495211407757
 20
94.33070715059634
 10
123.3738413613577
 20
94.33242969831352
 10
123.398172347863
 20
94.33348475879029
 10
123.4224818025218
 20
94.33384003425695
 10
123.4224818025218
 20
94.33384003425695
 10
123.4867113005263
 20
94.3313315741438
 10
123.5470865980137
 20
94.3239892144993
 10
123.6035538653677
 20
94.31211440117396
 10
123.6560808048186
 20
94.29598704817181
 10
123.70464588452
 20
94.27589783542012
 10
123.7491845089325
 20
94.25214820876944
 10
123.7896643802863
 20
94.22501808222377
 10
123.8260532008119
 20
94.19479813571039
 10
123.8583079068162
 20
94.16177904915659
 10
123.8863962005295
 20
94.12625150248965
 10
123.9102642523358
 20
94.08850617563681
 10
123.9298905303884
 20
94.0488337485254
 10
123.9452104391482
 20
94.0075141351594
 10
123.9562132126917
 20
93.96484878138936
 10
123.9628342554796
 20
93.92112836714256
 10
123.9650520356655
 20
93.876632806423
 10
123.9650520356655
 20
93.876632806423
 10
123.96350174272
 20
93.84338763548132
 10
123.958635545419
 20
93.80784932289114
 10
123.9501089342189
 20
93.77062076035347
 10
123.9376096973461
 20
93.7322940736461
 10
123.9207933252571
 20
93.6935259840862
 10
123.8993045424852
 20
93.65490861745153
 10
123.8728419031799
 20
93.61704486544315
 10
123.8410501318746
 20
93.58055915160853
 10
123.8036170167955
 20
93.54607589949511
 10
123.7601765165527
 20
93.51419800080394
 10
123.7104164193725
 20
93.48553911315926
 10
123.6540029816347
 20
93.46071289418533
 10
123.5905916937958
 20
93.44033300150639
 10
123.5198703440822
 20
93.4250238586699
 10
123.4414728911037
 20
93.41537759145366
 10
123.3550978890101
 20
93.41202938932838
  0
HATCH
  5
85
330
1F
100
AcDbEntity
  8
ISS138金台
  6
Continuous
 62
   250
420
  2367521
370
    50
100
AcDbHatch
 10
0.0
 20
0.0
 30
0.0
210
0.0
220
0.0
230
1.0
  2
SOLID
 70
     1
 71
     0
 91
        2
 92
        3
 72
     0
 73
     1
 93
      101
 10
145.1180887256285
 20
98.09941547141028
 10
145.0999804427516
 20
98.0877236787799
 10
145.082862624812
 20
98.07490146421009
 10
145.0667568036563
 20
98.06099189139383
 10
145.0516737452078
 20
98.04605955587047
 10
145.0376672790824
 20
98.0301582872562
 10
145.0247481712035
 20
98.01334191516717
 10
145.0129164215711
 20
97.99564273737309
 10
145.0022473916478
 20
97.97713611533658
 10
144.9927195495871
 20
97.95785434682733
 10
144.9843867250052
 20
97.93787279330799
 10
144.9772704497486
 20
97.91722375254822
 10
144.9713922556637
 20
97.89597182008745
 10
144.966773674597
 20
97.87416005961859
 10
144.9634362383949
 20
97.8518423007578
 10
144.9614230107505
 20
97.82907237312125
 10
144.9607447575868
 20
97.80590410632512
 10
144.9607447575868
 20
97.80590410632512
 10
144.9644159374091
 20
97.75040577206204
 10
144.9750526695627
 20
97.7001612083364
 10
144.9922027852719
 20
97.65494433076027
 10
145.0153064565287
 20
97.61451828902258
 10
145.0438684508643
 20
97.57865699873543
 10
145.07739353581
 20
97.54714514143416
 10
145.1153434152042
 20
97.51972433496121
 10
145.1572443884248
 20
97.4961684949287
 10
145.20255815931
 20
97.47624077102552
 10
145.2507894953912
 20
97.45973661071022
 10
145.3014216323532
 20
97.44640839774851
 10
145.3539485718041
 20
97.436008515906
 10
145.407864315352
 20
97.42833241264128
 10
145.4626520986818
 20
97.42313247172004
 10
145.5178059234014
 20
97.42018260875435
 10
145.572819791119
 20
97.41925673935637
 10
145.572819791119
 20
97.41925673935637
 10
145.5965694177697
 20
97.41948282374425
 10
145.6203298103436
 20
97.42017184283112
 10
145.6440686710711
 20
97.42130226477053
 10
145.6677644681056
 20
97.42287408956246
 10
145.6914172014472
 20
97.42488731720692
 10
145.7150053392494
 20
97.42730964993422
 10
145.7385073496658
 20
97.43015185366757
 10
145.7619017008498
 20
97.43341392840699
 10
145.7851991587247
 20
97.43706357638277
 10
145.8083566595976
 20
97.44112232944138
 10
145.8313634375453
 20
97.44554712388991
 10
145.8542087266445
 20
97.4503594915748
 10
145.8768602291255
 20
97.45554866657281
 10
145.8993179449883
 20
97.4610931170375
 10
145.9215711083096
 20
97.46699284296886
 10
145.9435874213199
 20
97.47323707844367
 10
145.9435874213199
 20
97.47323707844367
 10
145.9564634655059
 20
97.4770697471144
 10
145.9719125653444
 20
97.48246347465384
 10
145.9894610202132
 20
97.4895905158337
 10
146.0086458954134
 20
97.49861235950246
 10
146.0289611925529
 20
97.50967972858538
 10
146.0499978065491
 20
97.5229756437774
 10
146.0712497390098
 20
97.5386508280038
 10
146.092243289313
 20
97.55688830195949
 10
146.1125262886829
 20
97.57783878856975
 10
146.1316250364972
 20
97.60166377668307
 10
146.1490765980569
 20
97.62853552107117
 10
146.1643965068167
 20
97.65862627650576
 10
146.1771433599238
 20
97.69208676591208
 10
146.1868219249098
 20
97.72908924406187
 10
146.1929692670755
 20
97.76979519980361
 10
146.1951224517219
 20
97.81436612198578
 10
146.1951224517219
 20
97.81436612198578
 10
146.1910206349704
 20
97.87358946568727
 10
146.1792211831077
 20
97.92645014875839
 10
146.1603592856045
 20
97.97331421258909
 10
146.1351239615477
 20
98.0145476985692
 10
146.1041719322546
 20
98.05045205254929
 10
146.0682137486583
 20
98.08142561368894
 10
146.0278953661529
 20
98.10778059376187
 10
145.9838950379021
 20
98.12988303415801
 10
145.9369017829926
 20
98.14807744442078
 10
145.8875723227417
 20
98.16271910001686
 10
145.8365956762362
 20
98.17415251048968
 10
145.7846500966399
 20
98.18272218538267
 10
145.7323923052698
 20
98.18878340016252
 10
145.680522087136
 20
98.19266989844942
 10
145.6296853976326
 20
98.1947584875565
 10
145.5805820217695
 20
98.19537214518076
 10
145.5572953298179
 20
98.19537214518076
 10
145.5283242303994
 20
98.19473695571004
 10
145.4993746628275
 20
98.1936603633868
 10
145.4704789248717
 20
98.19213160228779
 10
145.4416908461482
 20
98.19005377910395
 10
145.4130319585036
 20
98.18737306421907
 10
145.3845560915539
 20
98.18401409617056
 10
145.3562955430688
 20
98.17993381126547
 10
145.3283041426645
 20
98.17504608211797
 10
145.3005926562643
 20
98.16929707911186
 10
145.2732149134843
 20
98.16261144078453
 10
145.2462032120941
 20
98.15493533751982
 10
145.2196113817101
 20
98.14621493970157
 10
145.1934609541786
 20
98.13635335402068
 10
145.1677949931925
 20
98.12531828270747
 10
145.1426565624449
 20
98.11302359837606
 97
        0
 92
        3
 72
     0
 73
     1
 93
      118
 10
146.334465796119
 20
97.80590410632512
 10
146.3285553042644
 20
97.71983055008201
 10
146.3116205070199
 20
97.64324177220664
 10
146.2848241240944
 20
97.57564254023035
 10
146.2493396411203
 20
97.51644072837533
 10
146.2063190118836
 20
97.46513033824966
 10
146.1569572538631
 20
97.4211300099988
 10
146.1023740230747
 20
97.3839229793076
 10
146.0437751029207
 20
97.3529278863215
 10
145.9823124471869
 20
97.32763873264857
 10
145.9191595415056
 20
97.30749569028072
 10
145.8554791055859
 20
97.2919389312099
 10
145.7924338591369
 20
97.28044092519768
 10
145.731197287791
 20
97.272441844236
 10
145.6729428771804
 20
97.26740339216323
 10
145.6188118151678
 20
97.26478727281776
 10
145.5699991192321
 20
97.2640336581915
 10
145.5699991192321
 20
97.2640336581915
 10
145.5629151417452
 20
97.26413055150059
 10
145.5541086165411
 20
97.26441046550462
 10
145.5437195006218
 20
97.26488416612685
 10
145.5319415806055
 20
97.26554088744402
 10
145.5189363453408
 20
97.26633756576322
 10
145.5048868155225
 20
97.26730649885414
 10
145.4899437140759
 20
97.26842615487031
 10
145.4743008276192
 20
97.2696857678885
 10
145.4581196450009
 20
97.27106380606224
 10
145.4415831869159
 20
97.27258180123803
 10
145.4248314103663
 20
97.27420745564612
 10
145.4080688678934
 20
97.27594076928654
 10
145.3914570483458
 20
97.27777097623604
 10
145.375157440572
 20
97.27969807649464
 10
145.3593530652668
 20
97.28171130413911
 10
145.344216177202
 20
97.28378912732296
 10
145.344216177202
 20
97.28378912732296
 10
145.3049205574037
 20
97.29045323380382
 10
145.2653665554479
 20
97.29887218577156
 10
145.2258340853384
 20
97.3091105787656
 10
145.1866353588492
 20
97.32128683794144
 10
145.1480072262914
 20
97.33547632476176
 10
145.1102618994385
 20
97.35177593253562
 10
145.0736362286019
 20
97.3702717886489
 10
145.0384531914784
 20
97.39108231825716
 10
145.0049496383791
 20
97.41427211689975
 10
144.9734162492314
 20
97.43992731196259
 10
144.9441329380392
 20
97.46815556267796
 10
144.9173796188067
 20
97.49904299643175
 10
144.8934254396146
 20
97.53268650653303
 10
144.8725503144669
 20
97.56917222036768
 10
144.8550341573678
 20
97.60859703124476
 10
144.8411568823212
 20
97.65103630062691
 10
144.8411568823212
 20
97.65103630062691
 10
144.8388422088263
 20
97.66056414268759
 10
144.8366244286404
 20
97.6702319417503
 10
144.8345466054565
 20
97.68000740004533
 10
144.8325979733515
 20
97.68991204941914
 10
144.8307785323252
 20
97.69990282617881
 10
144.8291098142242
 20
97.7100012621708
 10
144.8275595212787
 20
97.72018582554867
 10
144.8261599512585
 20
97.73045651631239
 10
144.8249218700868
 20
97.7407918026155
 10
144.8238237459171
 20
97.751191684458
 10
144.8228871105958
 20
97.76164539591667
 10
144.8221119641231
 20
97.77213140514505
 10
144.8214983064989
 20
97.78266047806633
 10
144.8210569036463
 20
97.7932110828341
 10
144.8207877555655
 20
97.80378321944832
 10
144.8207016281796
 20
97.81436612198578
 10
144.8207016281796
 20
97.81436612198578
 10
144.8215306042686
 20
97.84912928810323
 10
144.8240605962282
 20
97.88240675681462
 10
144.828270072212
 20
97.91427388958255
 10
144.8341805640666
 20
97.94478451602319
 10
144.8418028377152
 20
97.9739816998295
 10
144.8511476590809
 20
98.00194080246405
 10
144.8622473259335
 20
98.0287264194663
 10
144.8750695405033
 20
98.05439238045236
 10
144.8896573664832
 20
98.07899251503841
 10
144.9060215697965
 20
98.10258065284062
 10
144.9241513845199
 20
98.12523215532161
 10
144.9440791084231
 20
98.14700085209753
 10
144.9658047415061
 20
98.16794057278457
 10
144.9893390496921
 20
98.18811591292211
 10
145.0146927989044
 20
98.20758070212631
 10
145.0418875209895
 20
98.22641030185979
 10
145.0418875209895
 20
98.22641030185979
 10
145.0734962715999
 20
98.24590738883367
 10
145.1062139123031
 20
98.26322975931463
 10
145.1398358905579
 20
98.27848507253495
 10
145.1741145901299
 20
98.29181328549667
 10
145.2087808629383
 20
98.30333282335536
 10
145.2436086245951
 20
98.313183643113
 10
145.2783610247894
 20
98.32148416992518
 10
145.3127796813634
 20
98.3283635948707
 10
145.3466385099293
 20
98.33396187495156
 10
145.3796791283296
 20
98.33839743532332
 10
145.4116862180995
 20
98.34179946706476
 10
145.4423906311584
 20
98.34428639533144
 10
145.471555517195
 20
98.34600894304862
 10
145.4989440258982
 20
98.34707476944862
 10
145.524319306957
 20
98.34762383153348
 10
145.5474229782137
 20
98.34777455445874
 10
145.5474229782137
 20
98.34777455445874
 10
145.595611250602
 20
98.34741927899208
 10
145.6498176740772
 20
98.34591204973952
 10
145.7087395719282
 20
98.34251001799808
 10
145.7711603948297
 20
98.33652416468087
 10
145.8357882319938
 20
98.32726547070101
 10
145.9013957681721
 20
98.31399108735545
 10
145.9667341562696
 20
98.29602276148054
 10
146.0305114854984
 20
98.27262841029652
 10
146.0914896746868
 20
98.24312978063972
 10
146.1484198767398
 20
98.20680555565357
 10
146.2000209467927
 20
98.16293441848151
 10
146.2450763355203
 20
98.11083811595987
 10
146.282304898058
 20
98.0497953312321
 10
146.3104470213875
 20
97.97909551336488
 10
146.3282538584139
 20
97.89802811142485
 97
        0
 75
     1
 76
     1
 98
        0
  0
LWPOLYLINE
  5
86
330
1F
100
AcDbEntity
  8
ISS138金台
  6
Continuous
 62
   250
420
  2367521
370
    50
100
AcDbPolyline
 90
      102
 70
     0
 43
0.0
 10
145.1180887256285
 20
98.09941547141028
 10
145.0999804427516
 20
98.0877236787799
 10
145.082862624812
 20
98.07490146421009
 10
145.0667568036563
 20
98.06099189139383
 10
145.0516737452078
 20
98.04605955587047
 10
145.0376672790824
 20
98.0301582872562
 10
145.0247481712035
 20
98.01334191516717
 10
145.0129164215711
 20
97.99564273737309
 10
145.0022473916478
 20
97.97713611533658
 10
144.9927195495871
 20
97.95785434682733
 10
144.9843867250052
 20
97.93787279330799
 10
144.9772704497486
 20
97.91722375254822
 10
144.9713922556637
 20
97.89597182008745
 10
144.966773674597
 20
97.87416005961859
 10
144.9634362383949
 20
97.8518423007578
 10
144.9614230107505
 20
97.82907237312125
 10
144.9607447575868
 20
97.80590410632512
 10
144.9607447575868
 20
97.80590410632512
 10
144.9644159374091
 20
97.75040577206204
 10
144.9750526695627
 20
97.7001612083364
 10
144.9922027852719
 20
97.65494433076027
 10
145.0153064565287
 20
97.61451828902258
 10
145.0438684508643
 20
97.57865699873543
 10
145.07739353581
 20
97.54714514143416
 10
145.1153434152042
 20
97.51972433496121
 10
145.1572443884248
 20
97.4961684949287
 10
145.20255815931
 20
97.47624077102552
 10
145.2507894953912
 20
97.45973661071022
 10
145.3014216323532
 20
97.44640839774851
 10
145.3539485718041
 20
97.436008515906
 10
145.407864315352
 20
97.42833241264128
 10
145.4626520986818
 20
97.42313247172004
 10
145.5178059234014
 20
97.42018260875435
 10
145.572819791119
 20
97.41925673935637
 10
145.572819791119
 20
97.41925673935637
 10
145.5965694177697
 20
97.41948282374425
 10
145.6203298103436
 20
97.42017184283112
 10
145.6440686710711
 20
97.42130226477053
 10
145.6677644681056
 20
97.42287408956246
 10
145.6914172014472
 20
97.42488731720692
 10
145.7150053392494
 20
97.42730964993422
 10
145.7385073496658
 20
97.43015185366757
 10
145.7619017008498
 20
97.43341392840699
 10
145.7851991587247
 20
97.43706357638277
 10
145.8083566595976
 20
97.44112232944138
 10
145.8313634375453
 20
97.44554712388991
 10
145.8542087266445
 20
97.4503594915748
 10
145.8768602291255
 20
97.45554866657281
 10
145.8993179449883
 20
97.4610931170375
 10
145.9215711083096
 20
97.46699284296886
 10
145.9435874213199
 20
97.47323707844367
 10
145.9435874213199
 20
97.47323707844367
 10
145.9564634655059
 20
97.4770697471144
 10
145.9719125653444
 20
97.48246347465384
 10
145.9894610202132
 20
97.4895905158337
 10
146.0086458954134
 20
97.49861235950246
 10
146.0289611925529
 20
97.50967972858538
 10
146.0499978065491
 20
97.5229756437774
 10
146.0712497390098
 20
97.5386508280038
 10
146.092243289313
 20
97.55688830195949
 10
146.1125262886829
 20
97.57783878856975
 10
146.1316250364972
 20
97.60166377668307
 10
146.1490765980569
 20
97.62853552107117
 10
146.1643965068167
 20
97.65862627650576
 10
146.1771433599238
 20
97.69208676591208
 10
146.1868219249098
 20
97.72908924406187
 10
146.1929692670755
 20
97.76979519980361
 10
146.1951224517219
 20
97.81436612198578
 10
146.1951224517219
 20
97.81436612198578
 10
146.1910206349704
 20
97.87358946568727
 10
146.1792211831077
 20
97.92645014875839
 10
146.1603592856045
 20
97.97331421258909
 10
146.1351239615477
 20
98.0145476985692
 10
146.1041719322546
 20
98.05045205254929
 10
146.0682137486583
 20
98.08142561368894
 10
146.0278953661529
 20
98.10778059376187
 10
145.9838950379021
 20
98.12988303415801
 10
145.9369017829926
 20
98.14807744442078
 10
145.8875723227417
 20
98.16271910001686
 10
145.8365956762362
 20
98.17415251048968
 10
145.7846500966399
 20
98.18272218538267
 10
145.7323923052698
 20
98.18878340016252
 10
145.680522087136
 20
98.19266989844942
 10
145.6296853976326
 20
98.1947584875565
 10
145.5805820217695
 20
98.19537214518076
 10
145.5572953298179
 20
98.19537214518076
 10
145.5283242303994
 20
98.19473695571004
 10
145.4993746628275
 20
98.1936603633868
 10
145.4704789248717
 20
98.19213160228779
 10
145.4416908461482
 20
98.19005377910395
 10
145.4130319585036
 20
98.18737306421907
 10
145.3845560915539
 20
98.18401409617056
 10
145.3562955430688
 20
98.17993381126547
 10
145.3283041426645
 20
98.17504608211797
 10
145.3005926562643
 20
98.16929707911186
 10
145.2732149134843
 20
98.16261144078453
 10
145.2462032120941
 20
98.15493533751982
 10
145.2196113817101
 20
98.14621493970157
 10
145.1934609541786
 20
98.13635335402068
 10
145.1677949931925
 20
98.12531828270747
 10
145.1426565624449
 20
98.11302359837606
 10
145.1180887256285
 20
98.09941547141028
  0
LWPOLYLINE
  5
87
330
1F
100
AcDbEntity
  8
ISS138金台
  6
Continuous
 62
   250
420
  2367521
370
    50
100
AcDbPolyline
 90
      119
 70
     0
 43
0.0
 10
146.334465796119
 20
97.80590410632512
 10
146.3285553042644
 20
97.71983055008201
 10
146.3116205070199
 20
97.64324177220664
 10
146.2848241240944
 20
97.57564254023035
 10
146.2493396411203
 20
97.51644072837533
 10
146.2063190118836
 20
97.46513033824966
 10
146.1569572538631
 20
97.4211300099988
 10
146.1023740230747
 20
97.3839229793076
 10
146.0437751029207
 20
97.3529278863215
 10
145.9823124471869
 20
97.32763873264857
 10
145.9191595415056
 20
97.30749569028072
 10
145.8554791055859
 20
97.2919389312099
 10
145.7924338591369
 20
97.28044092519768
 10
145.731197287791
 20
97.272441844236
 10
145.6729428771804
 20
97.26740339216323
 10
145.6188118151678
 20
97.26478727281776
 10
145.5699991192321
 20
97.2640336581915
 10
145.5699991192321
 20
97.2640336581915
 10
145.5629151417452
 20
97.26413055150059
 10
145.5541086165411
 20
97.26441046550462
 10
145.5437195006218
 20
97.26488416612685
 10
145.5319415806055
 20
97.26554088744402
 10
145.5189363453408
 20
97.26633756576322
 10
145.5048868155225
 20
97.26730649885414
 10
145.4899437140759
 20
97.26842615487031
 10
145.4743008276192
 20
97.2696857678885
 10
145.4581196450009
 20
97.27106380606224
 10
145.4415831869159
 20
97.27258180123803
 10
145.4248314103663
 20
97.27420745564612
 10
145.4080688678934
 20
97.27594076928654
 10
145.3914570483458
 20
97.27777097623604
 10
145.375157440572
 20
97.27969807649464
 10
145.3593530652668
 20
97.28171130413911
 10
145.344216177202
 20
97.28378912732296
 10
145.344216177202
 20
97.28378912732296
 10
145.3049205574037
 20
97.29045323380382
 10
145.2653665554479
 20
97.29887218577156
 10
145.2258340853384
 20
97.3091105787656
 10
145.1866353588492
 20
97.32128683794144
 10
145.1480072262914
 20
97.33547632476176
 10
145.1102618994385
 20
97.35177593253562
 10
145.0736362286019
 20
97.3702717886489
 10
145.0384531914784
 20
97.39108231825716
 10
145.0049496383791
 20
97.41427211689975
 10
144.9734162492314
 20
97.43992731196259
 10
144.9441329380392
 20
97.46815556267796
 10
144.9173796188067
 20
97.49904299643175
 10
144.8934254396146
 20
97.53268650653303
 10
144.8725503144669
 20
97.56917222036768
 10
144.8550341573678
 20
97.60859703124476
 10
144.8411568823212
 20
97.65103630062691
 10
144.8411568823212
 20
97.65103630062691
 10
144.8388422088263
 20
97.66056414268759
 10
144.8366244286404
 20
97.6702319417503
 10
144.8345466054565
 20
97.68000740004533
 10
144.8325979733515
 20
97.68991204941914
 10
144.8307785323252
 20
97.69990282617881
 10
144.8291098142242
 20
97.7100012621708
 10
144.8275595212787
 20
97.72018582554867
 10
144.8261599512585
 20
97.73045651631239
 10
144.8249218700868
 20
97.7407918026155
 10
144.8238237459171
 20
97.751191684458
 10
144.8228871105958
 20
97.76164539591667
 10
144.8221119641231
 20
97.77213140514505
 10
144.8214983064989
 20
97.78266047806633
 10
144.8210569036463
 20
97.7932110828341
 10
144.8207877555655
 20
97.80378321944832
 10
144.8207016281796
 20
97.81436612198578
 10
144.8207016281796
 20
97.81436612198578
 10
144.8215306042686
 20
97.84912928810323
 10
144.8240605962282
 20
97.88240675681462
 10
144.828270072212
 20
97.91427388958255
 10
144.8341805640666
 20
97.94478451602319
 10
144.8418028377152
 20
97.9739816998295
 10
144.8511476590809
 20
98.00194080246405
 10
144.8622473259335
 20
98.0287264194663
 10
144.8750695405033
 20
98.05439238045236
 10
144.8896573664832
 20
98.07899251503841
 10
144.9060215697965
 20
98.10258065284062
 10
144.9241513845199
 20
98.12523215532161
 10
144.9440791084231
 20
98.14700085209753
 10
144.9658047415061
 20
98.16794057278457
 10
144.9893390496921
 20
98.18811591292211
 10
145.0146927989044
 20
98.20758070212631
 10
145.0418875209895
 20
98.22641030185979
 10
145.0418875209895
 20
98.22641030185979
 10
145.0734962715999
 20
98.24590738883367
 10
145.1062139123031
 20
98.26322975931463
 10
145.1398358905579
 20
98.27848507253495
 10
145.1741145901299
 20
98.29181328549667
 10
145.2087808629383
 20
98.30333282335536
 10
145.2436086245951
 20
98.313183643113
 10
145.2783610247894
 20
98.32148416992518
 10
145.3127796813634
 20
98.3283635948707
 10
145.3466385099293
 20
98.33396187495156
 10
145.3796791283296
 20
98.33839743532332
 10
145.4116862180995
 20
98.34179946706476
 10
145.4423906311584
 20
98.34428639533144
 10
145.471555517195
 20
98.34600894304862
 10
145.4989440258982
 20
98.34707476944862
 10
145.524319306957
 20
98.34762383153348
 10
145.5474229782137
 20
98.34777455445874
 10
145.5474229782137
 20
98.34777455445874
 10
145.595611250602
 20
98.34741927899208
 10
145.6498176740772
 20
98.34591204973952
 10
145.7087395719282
 20
98.34251001799808
 10
145.7711603948297
 20
98.33652416468087
 10
145.8357882319938
 20
98.32726547070101
 10
145.9013957681721
 20
98.31399108735545
 10
145.9667341562696
 20
98.29602276148054
 10
146.0305114854984
 20
98.27262841029652
 10
146.0914896746868
 20
98.24312978063972
 10
146.1484198767398
 20
98.20680555565357
 10
146.2000209467927
 20
98.16293441848151
 10
146.2450763355203
 20
98.11083811595987
 10
146.282304898058
 20
98.0497953312321
 10
146.3104470213875
 20
97.97909551336488
 10
146.3282538584139
 20
97.89802811142485
 10
146.334465796119
 20
97.80590410632512
  0
HATCH
  5
88
330
1F
100
AcDbEntity
  8
ISS138金台
  6
Continuous
 62
   250
420
  2367521
370
    50
100
AcDbHatch
 10
0.0
 20
0.0
 30
0.0
210
0.0
220
0.0
230
1.0
  2
SOLID
 70
     1
 71
     0
 91
        1
 92
        3
 72
     0
 73
     1
 93
       67
 10
146.3345519235049
 20
99.21977127259096
 10
146.3337014155695
 20
99.19799180989179
 10
146.3312575509958
 20
99.17714898251384
 10
146.3272741593998
 20
99.15729662007328
 10
146.3218804318603
 20
99.13851008403273
 10
146.3152055594562
 20
99.12085396993157
 10
146.3072926058804
 20
99.10439287330922
 10
146.2982922940581
 20
99.08919138970506
 10
146.2882907513752
 20
99.07531411465848
 10
146.277395637064
 20
99.06282564370889
 10
146.2657038444336
 20
99.05177980647244
 10
146.2533230327164
 20
99.04227349625822
 10
146.2403500952213
 20
99.03433901083594
 10
146.2268819252575
 20
99.02805171166821
 10
146.2130477139039
 20
99.02348696021767
 10
146.198922822623
 20
99.02069858610048
 10
146.1846256765704
 20
99.01975118485603
 10
146.1846256765704
 20
99.01975118485603
 10
146.1691442789622
 20
99.02078471348634
 10
146.1540935182832
 20
99.02383146976112
 10
146.139537990073
 20
99.02876226260156
 10
146.1255961194871
 20
99.03548019869858
 10
146.1123109702183
 20
99.0438883847431
 10
146.0997794355757
 20
99.05386839557954
 10
146.0880661110989
 20
99.06531257197558
 10
146.0772463582503
 20
99.07813478654538
 10
146.0674170703391
 20
99.09220584821014
 10
146.0586428429047
 20
99.10742886366077
 10
146.0509990374097
 20
99.1236854077417
 10
146.0445717812399
 20
99.1408893530671
 10
146.0394472017813
 20
99.15892227448138
 10
146.0356898945732
 20
99.17768727867548
 10
146.033364455155
 20
99.19706594049381
 10
146.032578542759
 20
99.21695060070407
 10
146.032578542759
 20
99.21695060070407
 10
146.0334505825409
 20
99.23776113031232
 10
146.0359913404237
 20
99.25769962013874
 10
146.0400931571752
 20
99.27670147464394
 10
146.0456591394864
 20
99.29471286421176
 10
146.0525816281249
 20
99.3116368955331
 10
146.060742197935
 20
99.32743050491504
 10
146.0700439556078
 20
99.34203986274143
 10
146.0803792419109
 20
99.35536807570315
 10
146.091640397612
 20
99.36737208010729
 10
146.1037197634788
 20
99.37799804633768
 10
146.1165204462021
 20
99.38715984700846
 10
146.1299132547032
 20
99.39480365250347
 10
146.1438120615963
 20
99.40085410136008
 10
146.1580984417257
 20
99.40525736396214
 10
146.1726862677056
 20
99.40794884477023
 10
146.1874463484572
 20
99.408863948245
 10
146.1874463484572
 20
99.408863948245
 10
146.2033368511483
 20
99.40774429222883
 10
146.2185813984454
 20
99.40444991971971
 10
146.2331153948091
 20
99.39918538325907
 10
146.2468957765466
 20
99.39206910800243
 10
146.2598687140417
 20
99.38326258279832
 10
146.2719696117549
 20
99.37293806241846
 10
146.2831661719166
 20
99.36123550386482
 10
146.2934153308339
 20
99.34831639598593
 10
146.3026309611208
 20
99.33433146170702
 10
146.3108022968542
 20
99.31944218987661
 10
146.3178432106482
 20
99.30379930341991
 10
146.3237214047331
 20
99.28756429118545
 10
146.3283830494927
 20
99.27088787609844
 10
146.3317743153109
 20
99.25392078108416
 10
146.3338521384948
 20
99.23683526091432
 97
        0
 75
     1
 76
     1
 98
        0
  0
LWPOLYLINE
  5
89
330
1F
100
AcDbEntity
  8
ISS138金台
  6
Continuous
 62
   250
420
  2367521
370
    50
100
AcDbPolyline
 90
       68
 70
     0
 43
0.0
 10
146.3345519235049
 20
99.21977127259096
 10
146.3337014155695
 20
99.19799180989179
 10
146.3312575509958
 20
99.17714898251384
 10
146.3272741593998
 20
99.15729662007328
 10
146.3218804318603
 20
99.13851008403273
 10
146.3152055594562
 20
99.12085396993157
 10
146.3072926058804
 20
99.10439287330922
 10
146.2982922940581
 20
99.08919138970506
 10
146.2882907513752
 20
99.07531411465848
 10
146.277395637064
 20
99.06282564370889
 10
146.2657038444336
 20
99.05177980647244
 10
146.2533230327164
 20
99.04227349625822
 10
146.2403500952213
 20
99.03433901083594
 10
146.2268819252575
 20
99.02805171166821
 10
146.2130477139039
 20
99.02348696021767
 10
146.198922822623
 20
99.02069858610048
 10
146.1846256765704
 20
99.01975118485603
 10
146.1846256765704
 20
99.01975118485603
 10
146.1691442789622
 20
99.02078471348634
 10
146.1540935182832
 20
99.02383146976112
 10
146.139537990073
 20
99.02876226260156
 10
146.1255961194871
 20
99.03548019869858
 10
146.1123109702183
 20
99.0438883847431
 10
146.0997794355757
 20
99.05386839557954
 10
146.0880661110989
 20
99.06531257197558
 10
146.0772463582503
 20
99.07813478654538
 10
146.0674170703391
 20
99.09220584821014
 10
146.0586428429047
 20
99.10742886366077
 10
146.0509990374097
 20
99.1236854077417
 10
146.0445717812399
 20
99.1408893530671
 10
146.0394472017813
 20
99.15892227448138
 10
146.0356898945732
 20
99.17768727867548
 10
146.033364455155
 20
99.19706594049381
 10
146.032578542759
 20
99.21695060070407
 10
146.032578542759
 20
99.21695060070407
 10
146.0334505825409
 20
99.23776113031232
 10
146.0359913404237
 20
99.25769962013874
 10
146.0400931571752
 20
99.27670147464394
 10
146.0456591394864
 20
99.29471286421176
 10
146.0525816281249
 20
99.3116368955331
 10
146.060742197935
 20
99.32743050491504
 10
146.0700439556078
 20
99.34203986274143
 10
146.0803792419109
 20
99.35536807570315
 10
146.091640397612
 20
99.36737208010729
 10
146.1037197634788
 20
99.37799804633768
 10
146.1165204462021
 20
99.38715984700846
 10
146.1299132547032
 20
99.39480365250347
 10
146.1438120615963
 20
99.40085410136008
 10
146.1580984417257
 20
99.40525736396214
 10
146.1726862677056
 20
99.40794884477023
 10
146.1874463484572
 20
99.408863948245
 10
146.1874463484572
 20
99.408863948245
 10
146.2033368511483
 20
99.40774429222883
 10
146.2185813984454
 20
99.40444991971971
 10
146.2331153948091
 20
99.39918538325907
 10
146.2468957765466
 20
99.39206910800243
 10
146.2598687140417
 20
99.38326258279832
 10
146.2719696117549
 20
99.37293806241846
 10
146.2831661719166
 20
99.36123550386482
 10
146.2934153308339
 20
99.34831639598593
 10
146.3026309611208
 20
99.33433146170702
 10
146.3108022968542
 20
99.31944218987661
 10
146.3178432106482
 20
99.30379930341991
 10
146.3237214047331
 20
99.28756429118545
 10
146.3283830494927
 20
99.27088787609844
 10
146.3317743153109
 20
99.25392078108416
 10
146.3338521384948
 20
99.23683526091432
 10
146.3345519235049
 20
99.21977127259096
  0
HATCH
  5
8A
330
1F
100
AcDbEntity
  8
ISS138金台
  6
Continuous
 62
   250
420
  2367521
370
    50
100
AcDbHatch
 10
0.0
 20
0.0
 30
0.0
210
0.0
220
0.0
230
1.0
  2
SOLID
 70
     1
 71
     0
 91
        3
 92
        3
 72
     0
 73
     1
 93
       67
 10
145.6362095471114
 20
100.6057331658384
 10
145.6367586091963
 20
100.5818328162624
 10
145.6385565183761
 20
100.5549610718744
 10
145.6418185931155
 20
100.5257746539913
 10
145.6468139814953
 20
100.4948764543143
 10
145.6537902997499
 20
100.4628801304676
 10
145.6629628663439
 20
100.4304208719219
 10
145.6745685315885
 20
100.3980908044549
 10
145.6888656776411
 20
100.366546649384
 10
145.7060696229665
 20
100.33639129841
 10
145.7264387497223
 20
100.3082384091572
 10
145.7501991422962
 20
100.2827231710964
 10
145.7775984169227
 20
100.2604484759286
 10
145.8088626579896
 20
100.2420495131244
 10
145.8442502476545
 20
100.2281399403081
 10
145.8839872703053
 20
100.219333415104
 10
145.9283105762532
 20
100.2162651269828
 10
145.9283105762532
 20
100.2162651269828
 10
145.9689842342252
 20
100.2193441810272
 10
146.0053945865972
 20
100.2281722380778
 10
146.03781078145
 20
100.2421356405102
 10
146.0664158394785
 20
100.2606637943932
 10
146.0914681428403
 20
100.2831538080257
 10
146.1131614781536
 20
100.3089920237835
 10
146.1317219298063
 20
100.3375647840423
 10
146.1473863481094
 20
100.3683122607941
 10
146.1603700515277
 20
100.4006100304913
 10
146.1709098903723
 20
100.433855201433
 10
146.1791996512612
 20
100.4674664137646
 10
146.1854869504289
 20
100.5008300098618
 10
146.1899871063401
 20
100.5333430980237
 10
146.1929262033825
 20
100.5644243183957
 10
146.1945303259442
 20
100.5934600133535
 10
146.1950147924896
 20
100.6198472911961
 10
146.1950147924896
 20
100.6198472911961
 10
146.194196582324
 20
100.6516282965782
 10
146.1916665903643
 20
100.6842598098956
 10
146.1873279233017
 20
100.7173650238352
 10
146.1810621559804
 20
100.7505025355446
 10
146.1727831610147
 20
100.7833063036338
 10
146.1623617473257
 20
100.8153564570966
 10
146.1497117875277
 20
100.8462438908504
 10
146.1347256223881
 20
100.8756025635052
 10
146.1173063585981
 20
100.9030018381317
 10
146.097335571002
 20
100.9280541414935
 10
146.0746948344442
 20
100.9503503685078
 10
146.0493087874622
 20
100.9694814140918
 10
146.0210590049003
 20
100.9850704709323
 10
145.9898378275264
 20
100.9966976680233
 10
145.9555483620312
 20
101.0039754321284
 10
145.9180829491823
 20
101.0064838922416
 10
145.9180829491823
 20
101.0064838922416
 10
145.8856236906366
 20
101.0043630053648
 10
145.8549192775778
 20
100.9981725995062
 10
145.8260450714685
 20
100.9880956953606
 10
145.7990226041551
 20
100.9743799091626
 10
145.7739272371004
 20
100.9572405593766
 10
145.7507589703043
 20
100.9368929644673
 10
145.7295931652293
 20
100.9135524428994
 10
145.7104728855686
 20
100.8874666109073
 10
145.6934304290917
 20
100.8588292551091
 10
145.6785088594916
 20
100.8278772258159
 10
145.6657835382309
 20
100.7948150755692
 10
145.6552436993863
 20
100.75987965468
 10
145.6469862362671
 20
100.7232755156898
 10
145.6410326807195
 20
100.6852395089097
 10
145.6374260964367
 20
100.6459869528044
 97
        0
 92
        3
 72
     0
 73
     1
 93
       67
 10
144.9606370983545
 20
100.6057331658384
 10
144.9609170123585
 20
100.5883784975878
 10
144.9620151365282
 20
100.5674172450543
 10
144.964179087098
 20
100.5435384273248
 10
144.9677533736111
 20
100.5173557020236
 10
144.9730394419182
 20
100.4895257904678
 10
144.9803602697163
 20
100.4607161798978
 10
144.9899957710093
 20
100.4315512938612
 10
145.0022689234942
 20
100.4027201514449
 10
145.0174811730216
 20
100.3748256443497
 10
145.0359554972885
 20
100.3485460257394
 10
145.0579825762219
 20
100.3245272510079
 10
145.0838746215959
 20
100.3034152755491
 10
145.113943845184
 20
100.2858668206803
 10
145.1484916928368
 20
100.2725278417953
 10
145.1878411422513
 20
100.2640442942882
 10
145.2322828733547
 20
100.261072899476
 10
145.2322828733547
 20
100.261072899476
 10
145.2737639755691
 20
100.2638720395165
 10
145.3106803263331
 20
100.271957247864
 10
145.3433010737273
 20
100.284650271355
 10
145.3718523021396
 20
100.3014343456744
 10
145.3966354574206
 20
100.3216850472745
 10
145.4178873898814
 20
100.3448317822242
 10
145.435888013526
 20
100.3702608928992
 10
145.4508741786655
 20
100.3974233172145
 10
145.4631150333807
 20
100.4256946316228
 10
145.4728797257525
 20
100.454515008116
 10
145.4804374038617
 20
100.4832707890697
 10
145.4860249180193
 20
100.511402146476
 10
145.4899221822295
 20
100.5382954227106
 10
145.4923875786497
 20
100.5633692579189
 10
145.4936687235143
 20
100.5860530581696
 10
145.4940347649042
 20
100.6057331658384
 10
145.4940347649042
 20
100.6057331658384
 10
145.4927966837325
 20
100.6430801535316
 10
145.4891362698335
 20
100.6789952734349
 10
145.4831181187466
 20
100.7133278026231
 10
145.4748391237808
 20
100.7459270181708
 10
145.4643638804757
 20
100.7767067926923
 10
145.451778516217
 20
100.8054948714158
 10
145.4371799243139
 20
100.8321728291857
 10
145.4206111684592
 20
100.856600709
 10
145.4021799078853
 20
100.8786600857032
 10
145.3819507381316
 20
100.89820023637
 10
145.3600205525072
 20
100.9151027358449
 10
145.336432414705
 20
100.9292383930491
 10
145.3112939839573
 20
100.9404564850572
 10
145.2846806217268
 20
100.9486385867139
 10
145.256667689476
 20
100.9536339750937
 10
145.227341314591
 20
100.9553349909644
 10
145.227341314591
 20
100.9553349909644
 10
145.2000389332736
 20
100.9537631661725
 10
145.1735439961986
 20
100.9491015214129
 10
145.1479749285216
 20
100.9414146522249
 10
145.1234609213215
 20
100.9308209837642
 10
145.1001419316001
 20
100.9173851115702
 10
145.0781471504363
 20
100.9011823971054
 10
145.0576273007553
 20
100.8822989677558
 10
145.0386900417895
 20
100.8608317168303
 10
145.0214860964641
 20
100.8368560057918
 10
145.0061338899347
 20
100.8104471961027
 10
144.9927841451265
 20
100.7817021810721
 10
144.9815768190415
 20
100.7506963221628
 10
144.9726195709122
 20
100.7175049808373
 10
144.9660523577404
 20
100.6822358163279
 10
144.9620151365282
 20
100.6449426582508
 97
        0
 92
        3
 72
     0
 73
     1
 93
      135
 10
146.3371788087736
 20
100.6113745096122
 10
146.3348533693554
 20
100.5470804160682
 10
146.3280277740261
 20
100.4865651615789
 10
146.3169927027128
 20
100.4298395120673
 10
146.3020603671895
 20
100.3770003608426
 10
146.2834568518439
 20
100.3280692397513
 10
146.261505134373
 20
100.2831107443328
 10
146.2364528310111
 20
100.2421894701264
 10
146.2085906216857
 20
100.2053269489786
 10
146.1781984204006
 20
100.1726093082753
 10
146.1455669070832
 20
100.1440796117095
 10
146.1109436979677
 20
100.1197916888972
 10
146.0746517707513
 20
100.0997993694546
 10
146.0369279757449
 20
100.0841564829979
 10
145.9980737587992
 20
100.0729168591432
 10
145.958369033918
 20
100.0661343275068
 10
145.9180829491823
 20
100.0638627177048
 10
145.9180829491823
 20
100.0638627177048
 10
145.876698740277
 20
100.0660589660442
 10
145.8381997987979
 20
100.0723570311351
 10
145.8025215292057
 20
100.0822401486625
 10
145.7695778041145
 20
100.0952561498505
 10
145.739260964292
 20
100.1109205681536
 10
145.7115279460454
 20
100.1287381711033
 10
145.6862710901421
 20
100.1482352580772
 10
145.6634150351197
 20
100.1689488943763
 10
145.6428844195155
 20
100.190383847532
 10
145.6245823500204
 20
100.2120556509989
 10
145.608444231095
 20
100.2334906041546
 10
145.5943839353535
 20
100.254215006377
 10
145.5823045694868
 20
100.2737443911206
 10
145.5721307720321
 20
100.2915942918399
 10
145.563787181527
 20
100.3072802419896
 10
145.5571876705855
 20
100.3203393068705
 10
145.5571876705855
 20
100.3203393068705
 10
145.544839156638
 20
100.2956638108218
 10
145.5314355822136
 20
100.2723448211004
 10
145.5170092450822
 20
100.2504038695527
 10
145.5015170815507
 20
100.2298840198718
 10
145.4849698575425
 20
100.2108068039039
 10
145.4673352752878
 20
100.1932045194189
 10
145.4486241007099
 20
100.177130996033
 10
145.4288255678855
 20
100.1626077655924
 10
145.407907379045
 20
100.1496563599438
 10
145.3858803001114
 20
100.1383306087033
 10
145.362744331085
 20
100.1286520437174
 10
145.3384564082727
 20
100.120663728679
 10
145.313038063521
 20
100.1143871954345
 10
145.2864569990601
 20
100.1098655076769
 10
145.2587239808134
 20
100.1071309631758
 10
145.2298067110112
 20
100.1062050937778
 10
145.2298067110112
 20
100.1062050937778
 10
145.1816938000856
 20
100.108713553891
 10
145.1363800292004
 20
100.1161097431517
 10
145.0938546324323
 20
100.128167577172
 10
145.0542252690138
 20
100.1446932693337
 10
145.0174811730216
 20
100.1654930330187
 10
144.9836977059183
 20
100.1903300179159
 10
144.9529179313969
 20
100.2190212033303
 10
144.9251849131502
 20
100.2513728026437
 10
144.9005524807944
 20
100.2871479655449
 10
144.8790529320993
 20
100.3261744372624
 10
144.8607293307577
 20
100.368215367485
 10
144.8456355063859
 20
100.4130877355177
 10
144.8338252885999
 20
100.4605654569726
 10
144.8253202092463
 20
100.5104655111548
 10
144.8201956297877
 20
100.5625725795997
 10
144.8184730820705
 20
100.6166713438425
 10
144.8184730820705
 20
100.6166713438425
 10
144.8211645628787
 20
100.6845720216693
 10
144.8289590912989
 20
100.7464760802557
 10
144.8414152644788
 20
100.802588072143
 10
144.8580593817961
 20
100.8531448476424
 10
144.878482338168
 20
100.898383257065
 10
144.9022211988955
 20
100.9385186188754
 10
144.9288453270492
 20
100.9737447196918
 10
144.9579133197767
 20
101.0043307075951
 10
144.9889514764557
 20
101.0304811351266
 10
145.0215614579267
 20
101.0524113207511
 10
145.0552695635674
 20
101.0703581147795
 10
145.0896343905252
 20
101.0845368356766
 10
145.124225301871
 20
101.0951735678302
 10
145.1585901288288
 20
101.1025051615515
 10
145.1922874685463
 20
101.1067361693818
 10
145.2248759181708
 20
101.1080926757091
 10
145.2248759181708
 20
101.1080926757091
 10
145.262825797565
 20
101.1066715738424
 10
145.2977612184542
 20
101.1025482252444
 10
145.3298436696867
 20
101.0959487143029
 10
145.3592454060345
 20
101.0870883594826
 10
145.3861063844993
 20
101.0762147770179
 10
145.4105773280066
 20
101.0635002216804
 10
145.4327981935583
 20
101.0492030756278
 10
145.4529412359261
 20
101.0335278914014
 10
145.4711571780354
 20
101.0167007533892
 10
145.4875644450415
 20
100.9989369800557
 10
145.5023675894861
 20
100.9804626557889
 10
145.5156850365246
 20
100.9614930990534
 10
145.5276675090823
 20
100.9422651601603
 10
145.5384764960076
 20
100.9229726257278
 10
145.5482734861491
 20
100.9038523460671
 10
145.5571876705855
 20
100.8851304055659
 10
145.5571876705855
 20
100.8851304055659
 10
145.5645838598462
 20
100.9049397043135
 10
145.5733150235877
 20
100.9260516797723
 10
145.5835641825049
 20
100.948089524629
 10
145.5954066980606
 20
100.9707087293403
 10
145.6090040591031
 20
100.9935647843627
 10
145.6244316270952
 20
101.0162808823831
 10
145.6418616568084
 20
101.0385232797813
 10
145.661391041552
 20
101.0599259351673
 10
145.6831489724047
 20
101.0801443389977
 10
145.7072431085988
 20
101.0988124498827
 10
145.7338349389829
 20
101.1155857582788
 10
145.7630105909427
 20
101.1300982227961
 10
145.7949207874036
 20
101.1420053338912
 10
145.8296624216746
 20
101.1509518160973
 10
145.8673862166809
 20
101.1565716280246
 10
145.908199831655
 20
101.1585310260529
 10
145.908199831655
 20
101.1585310260529
 10
145.9519094799786
 20
101.1561948207115
 10
145.9943810471304
 20
101.1492615661498
 10
146.0354315124156
 20
101.1377850919841
 10
146.0747917277533
 20
101.1218515256001
 10
146.1122786724486
 20
101.1015469943838
 10
146.147644730267
 20
101.0769360938745
 10
146.1806961145905
 20
101.0481049514581
 10
146.2111852091847
 20
101.0151289285972
 10
146.2389289933546
 20
100.9780833867545
 10
146.2636690849427
 20
100.9370436873926
 10
146.285222463254
 20
100.8920959578973
 10
146.3033415120541
 20
100.8433155597312
 10
146.3178109128785
 20
100.7907778543571
 10
146.3284261131856
 20
100.7345474373142
 10
146.3349502626645
 20
100.6747212019117
 97
        0
 75
     1
 76
     1
 98
        0
  0
LWPOLYLINE
  5
8B
330
1F
100
AcDbEntity
  8
ISS138金台
  6
Continuous
 62
   250
420
  2367521
370
    50
100
AcDbPolyline
 90
       68
 70
     0
 43
0.0
 10
145.6362095471114
 20
100.6057331658384
 10
145.6367586091963
 20
100.5818328162624
 10
145.6385565183761
 20
100.5549610718744
 10
145.6418185931155
 20
100.5257746539913
 10
145.6468139814953
 20
100.4948764543143
 10
145.6537902997499
 20
100.4628801304676
 10
145.6629628663439
 20
100.4304208719219
 10
145.6745685315885
 20
100.3980908044549
 10
145.6888656776411
 20
100.366546649384
 10
145.7060696229665
 20
100.33639129841
 10
145.7264387497223
 20
100.3082384091572
 10
145.7501991422962
 20
100.2827231710964
 10
145.7775984169227
 20
100.2604484759286
 10
145.8088626579896
 20
100.2420495131244
 10
145.8442502476545
 20
100.2281399403081
 10
145.8839872703053
 20
100.219333415104
 10
145.9283105762532
 20
100.2162651269828
 10
145.9283105762532
 20
100.2162651269828
 10
145.9689842342252
 20
100.2193441810272
 10
146.0053945865972
 20
100.2281722380778
 10
146.03781078145
 20
100.2421356405102
 10
146.0664158394785
 20
100.2606637943932
 10
146.0914681428403
 20
100.2831538080257
 10
146.1131614781536
 20
100.3089920237835
 10
146.1317219298063
 20
100.3375647840423
 10
146.1473863481094
 20
100.3683122607941
 10
146.1603700515277
 20
100.4006100304913
 10
146.1709098903723
 20
100.433855201433
 10
146.1791996512612
 20
100.4674664137646
 10
146.1854869504289
 20
100.5008300098618
 10
146.1899871063401
 20
100.5333430980237
 10
146.1929262033825
 20
100.5644243183957
 10
146.1945303259442
 20
100.5934600133535
 10
146.1950147924896
 20
100.6198472911961
 10
146.1950147924896
 20
100.6198472911961
 10
146.194196582324
 20
100.6516282965782
 10
146.1916665903643
 20
100.6842598098956
 10
146.1873279233017
 20
100.7173650238352
 10
146.1810621559804
 20
100.7505025355446
 10
146.1727831610147
 20
100.7833063036338
 10
146.1623617473257
 20
100.8153564570966
 10
146.1497117875277
 20
100.8462438908504
 10
146.1347256223881
 20
100.8756025635052
 10
146.1173063585981
 20
100.9030018381317
 10
146.097335571002
 20
100.9280541414935
 10
146.0746948344442
 20
100.9503503685078
 10
146.0493087874622
 20
100.9694814140918
 10
146.0210590049003
 20
100.9850704709323
 10
145.9898378275264
 20
100.9966976680233
 10
145.9555483620312
 20
101.0039754321284
 10
145.9180829491823
 20
101.0064838922416
 10
145.9180829491823
 20
101.0064838922416
 10
145.8856236906366
 20
101.0043630053648
 10
145.8549192775778
 20
100.9981725995062
 10
145.8260450714685
 20
100.9880956953606
 10
145.7990226041551
 20
100.9743799091626
 10
145.7739272371004
 20
100.9572405593766
 10
145.7507589703043
 20
100.9368929644673
 10
145.7295931652293
 20
100.9135524428994
 10
145.7104728855686
 20
100.8874666109073
 10
145.6934304290917
 20
100.8588292551091
 10
145.6785088594916
 20
100.8278772258159
 10
145.6657835382309
 20
100.7948150755692
 10
145.6552436993863
 20
100.75987965468
 10
145.6469862362671
 20
100.7232755156898
 10
145.6410326807195
 20
100.6852395089097
 10
145.6374260964367
 20
100.6459869528044
 10
145.6362095471114
 20
100.6057331658384
  0
LWPOLYLINE
  5
8C
330
1F
100
AcDbEntity
  8
ISS138金台
  6
Continuous
 62
   250
420
  2367521
370
    50
100
AcDbPolyline
 90
       68
 70
     0
 43
0.0
 10
144.9606370983545
 20
100.6057331658384
 10
144.9609170123585
 20
100.5883784975878
 10
144.9620151365282
 20
100.5674172450543
 10
144.964179087098
 20
100.5435384273248
 10
144.9677533736111
 20
100.5173557020236
 10
144.9730394419182
 20
100.4895257904678
 10
144.9803602697163
 20
100.4607161798978
 10
144.9899957710093
 20
100.4315512938612
 10
145.0022689234942
 20
100.4027201514449
 10
145.0174811730216
 20
100.3748256443497
 10
145.0359554972885
 20
100.3485460257394
 10
145.0579825762219
 20
100.3245272510079
 10
145.0838746215959
 20
100.3034152755491
 10
145.113943845184
 20
100.2858668206803
 10
145.1484916928368
 20
100.2725278417953
 10
145.1878411422513
 20
100.2640442942882
 10
145.2322828733547
 20
100.261072899476
 10
145.2322828733547
 20
100.261072899476
 10
145.2737639755691
 20
100.2638720395165
 10
145.3106803263331
 20
100.271957247864
 10
145.3433010737273
 20
100.284650271355
 10
145.3718523021396
 20
100.3014343456744
 10
145.3966354574206
 20
100.3216850472745
 10
145.4178873898814
 20
100.3448317822242
 10
145.435888013526
 20
100.3702608928992
 10
145.4508741786655
 20
100.3974233172145
 10
145.4631150333807
 20
100.4256946316228
 10
145.4728797257525
 20
100.454515008116
 10
145.4804374038617
 20
100.4832707890697
 10
145.4860249180193
 20
100.511402146476
 10
145.4899221822295
 20
100.5382954227106
 10
145.4923875786497
 20
100.5633692579189
 10
145.4936687235143
 20
100.5860530581696
 10
145.4940347649042
 20
100.6057331658384
 10
145.4940347649042
 20
100.6057331658384
 10
145.4927966837325
 20
100.6430801535316
 10
145.4891362698335
 20
100.6789952734349
 10
145.4831181187466
 20
100.7133278026231
 10
145.4748391237808
 20
100.7459270181708
 10
145.4643638804757
 20
100.7767067926923
 10
145.451778516217
 20
100.8054948714158
 10
145.4371799243139
 20
100.8321728291857
 10
145.4206111684592
 20
100.856600709
 10
145.4021799078853
 20
100.8786600857032
 10
145.3819507381316
 20
100.89820023637
 10
145.3600205525072
 20
100.9151027358449
 10
145.336432414705
 20
100.9292383930491
 10
145.3112939839573
 20
100.9404564850572
 10
145.2846806217268
 20
100.9486385867139
 10
145.256667689476
 20
100.9536339750937
 10
145.227341314591
 20
100.9553349909644
 10
145.227341314591
 20
100.9553349909644
 10
145.2000389332736
 20
100.9537631661725
 10
145.1735439961986
 20
100.9491015214129
 10
145.1479749285216
 20
100.9414146522249
 10
145.1234609213215
 20
100.9308209837642
 10
145.1001419316001
 20
100.9173851115702
 10
145.0781471504363
 20
100.9011823971054
 10
145.0576273007553
 20
100.8822989677558
 10
145.0386900417895
 20
100.8608317168303
 10
145.0214860964641
 20
100.8368560057918
 10
145.0061338899347
 20
100.8104471961027
 10
144.9927841451265
 20
100.7817021810721
 10
144.9815768190415
 20
100.7506963221628
 10
144.9726195709122
 20
100.7175049808373
 10
144.9660523577404
 20
100.6822358163279
 10
144.9620151365282
 20
100.6449426582508
 10
144.9606370983545
 20
100.6057331658384
  0
LWPOLYLINE
  5
8D
330
1F
100
AcDbEntity
  8
ISS138金台
  6
Continuous
 62
   250
420
  2367521
370
    50
100
AcDbPolyline
 90
      136
 70
     0
 43
0.0
 10
146.3371788087736
 20
100.6113745096122
 10
146.3348533693554
 20
100.5470804160682
 10
146.3280277740261
 20
100.4865651615789
 10
146.3169927027128
 20
100.4298395120673
 10
146.3020603671895
 20
100.3770003608426
 10
146.2834568518439
 20
100.3280692397513
 10
146.261505134373
 20
100.2831107443328
 10
146.2364528310111
 20
100.2421894701264
 10
146.2085906216857
 20
100.2053269489786
 10
146.1781984204006
 20
100.1726093082753
 10
146.1455669070832
 20
100.1440796117095
 10
146.1109436979677
 20
100.1197916888972
 10
146.0746517707513
 20
100.0997993694546
 10
146.0369279757449
 20
100.0841564829979
 10
145.9980737587992
 20
100.0729168591432
 10
145.958369033918
 20
100.0661343275068
 10
145.9180829491823
 20
100.0638627177048
 10
145.9180829491823
 20
100.0638627177048
 10
145.876698740277
 20
100.0660589660442
 10
145.8381997987979
 20
100.0723570311351
 10
145.8025215292057
 20
100.0822401486625
 10
145.7695778041145
 20
100.0952561498505
 10
145.739260964292
 20
100.1109205681536
 10
145.7115279460454
 20
100.1287381711033
 10
145.6862710901421
 20
100.1482352580772
 10
145.6634150351197
 20
100.1689488943763
 10
145.6428844195155
 20
100.190383847532
 10
145.6245823500204
 20
100.2120556509989
 10
145.608444231095
 20
100.2334906041546
 10
145.5943839353535
 20
100.254215006377
 10
145.5823045694868
 20
100.2737443911206
 10
145.5721307720321
 20
100.2915942918399
 10
145.563787181527
 20
100.3072802419896
 10
145.5571876705855
 20
100.3203393068705
 10
145.5571876705855
 20
100.3203393068705
 10
145.544839156638
 20
100.2956638108218
 10
145.5314355822136
 20
100.2723448211004
 10
145.5170092450822
 20
100.2504038695527
 10
145.5015170815507
 20
100.2298840198718
 10
145.4849698575425
 20
100.2108068039039
 10
145.4673352752878
 20
100.1932045194189
 10
145.4486241007099
 20
100.177130996033
 10
145.4288255678855
 20
100.1626077655924
 10
145.407907379045
 20
100.1496563599438
 10
145.3858803001114
 20
100.1383306087033
 10
145.362744331085
 20
100.1286520437174
 10
145.3384564082727
 20
100.120663728679
 10
145.313038063521
 20
100.1143871954345
 10
145.2864569990601
 20
100.1098655076769
 10
145.2587239808134
 20
100.1071309631758
 10
145.2298067110112
 20
100.1062050937778
 10
145.2298067110112
 20
100.1062050937778
 10
145.1816938000856
 20
100.108713553891
 10
145.1363800292004
 20
100.1161097431517
 10
145.0938546324323
 20
100.128167577172
 10
145.0542252690138
 20
100.1446932693337
 10
145.0174811730216
 20
100.1654930330187
 10
144.9836977059183
 20
100.1903300179159
 10
144.9529179313969
 20
100.2190212033303
 10
144.9251849131502
 20
100.2513728026437
 10
144.9005524807944
 20
100.2871479655449
 10
144.8790529320993
 20
100.3261744372624
 10
144.8607293307577
 20
100.368215367485
 10
144.8456355063859
 20
100.4130877355177
 10
144.8338252885999
 20
100.4605654569726
 10
144.8253202092463
 20
100.5104655111548
 10
144.8201956297877
 20
100.5625725795997
 10
144.8184730820705
 20
100.6166713438425
 10
144.8184730820705
 20
100.6166713438425
 10
144.8211645628787
 20
100.6845720216693
 10
144.8289590912989
 20
100.7464760802557
 10
144.8414152644788
 20
100.802588072143
 10
144.8580593817961
 20
100.8531448476424
 10
144.878482338168
 20
100.898383257065
 10
144.9022211988955
 20
100.9385186188754
 10
144.9288453270492
 20
100.9737447196918
 10
144.9579133197767
 20
101.0043307075951
 10
144.9889514764557
 20
101.0304811351266
 10
145.0215614579267
 20
101.0524113207511
 10
145.0552695635674
 20
101.0703581147795
 10
145.0896343905252
 20
101.0845368356766
 10
145.124225301871
 20
101.0951735678302
 10
145.1585901288288
 20
101.1025051615515
 10
145.1922874685463
 20
101.1067361693818
 10
145.2248759181708
 20
101.1080926757091
 10
145.2248759181708
 20
101.1080926757091
 10
145.262825797565
 20
101.1066715738424
 10
145.2977612184542
 20
101.1025482252444
 10
145.3298436696867
 20
101.0959487143029
 10
145.3592454060345
 20
101.0870883594826
 10
145.3861063844993
 20
101.0762147770179
 10
145.4105773280066
 20
101.0635002216804
 10
145.4327981935583
 20
101.0492030756278
 10
145.4529412359261
 20
101.0335278914014
 10
145.4711571780354
 20
101.0167007533892
 10
145.4875644450415
 20
100.9989369800557
 10
145.5023675894861
 20
100.9804626557889
 10
145.5156850365246
 20
100.9614930990534
 10
145.5276675090823
 20
100.9422651601603
 10
145.5384764960076
 20
100.9229726257278
 10
145.5482734861491
 20
100.9038523460671
 10
145.5571876705855
 20
100.8851304055659
 10
145.5571876705855
 20
100.8851304055659
 10
145.5645838598462
 20
100.9049397043135
 10
145.5733150235877
 20
100.9260516797723
 10
145.5835641825049
 20
100.948089524629
 10
145.5954066980606
 20
100.9707087293403
 10
145.6090040591031
 20
100.9935647843627
 10
145.6244316270952
 20
101.0162808823831
 10
145.6418616568084
 20
101.0385232797813
 10
145.661391041552
 20
101.0599259351673
 10
145.6831489724047
 20
101.0801443389977
 10
145.7072431085988
 20
101.0988124498827
 10
145.7338349389829
 20
101.1155857582788
 10
145.7630105909427
 20
101.1300982227961
 10
145.7949207874036
 20
101.1420053338912
 10
145.8296624216746
 20
101.1509518160973
 10
145.8673862166809
 20
101.1565716280246
 10
145.908199831655
 20
101.1585310260529
 10
145.908199831655
 20
101.1585310260529
 10
145.9519094799786
 20
101.1561948207115
 10
145.9943810471304
 20
101.1492615661498
 10
146.0354315124156
 20
101.1377850919841
 10
146.0747917277533
 20
101.1218515256001
 10
146.1122786724486
 20
101.1015469943838
 10
146.147644730267
 20
101.0769360938745
 10
146.1806961145905
 20
101.0481049514581
 10
146.2111852091847
 20
101.0151289285972
 10
146.2389289933546
 20
100.9780833867545
 10
146.2636690849427
 20
100.9370436873926
 10
146.285222463254
 20
100.8920959578973
 10
146.3033415120541
 20
100.8433155597312
 10
146.3178109128785
 20
100.7907778543571
 10
146.3284261131856
 20
100.7345474373142
 10
146.3349502626645
 20
100.6747212019117
 10
146.3371788087736
 20
100.6113745096122
  0
HATCH
  5
8E
330
1F
100
AcDbEntity
  8
ISS138金台
  6
Continuous
 62
   250
420
  2367521
370
    50
100
AcDbHatch
 10
0.0
 20
0.0
 30
0.0
210
0.0
220
0.0
230
1.0
  2
SOLID
 70
     1
 71
     0
 91
        2
 92
        3
 72
     0
 73
     1
 93
       84
 10
148.1718213186549
 20
107.8122053273021
 10
148.1561784321982
 20
107.7983711159484
 10
148.1416552017577
 20
107.7833634189624
 10
148.1282408614101
 20
107.7673006614997
 10
148.1159031133858
 20
107.7503012687157
 10
148.1046419576847
 20
107.7324083043034
 10
148.0944358624604
 20
107.7137724911881
 10
148.0852740617896
 20
107.6944799567557
 10
148.0771457897491
 20
107.6746168283919
 10
148.0700295144925
 20
107.6543015312523
 10
148.0639037041732
 20
107.6336094267996
 10
148.0587683587914
 20
107.6126589401893
 10
148.0545911805772
 20
107.5915361988074
 10
148.0513829354539
 20
107.5703596278092
 10
148.0491005597287
 20
107.5492045886575
 10
148.0477440534014
 20
107.5281895065079
 10
148.0472918846256
 20
107.5074005087461
 10
148.0472918846256
 20
107.5074005087461
 10
148.0487668161085
 20
107.4669529351619
 10
148.0531162490944
 20
107.428184845602
 10
148.0602217584278
 20
107.3911393037593
 10
148.0699864507995
 20
107.3560423940216
 10
148.0823349647471
 20
107.3229587119285
 10
148.097105811422
 20
107.2920497463282
 10
148.1142559271312
 20
107.2634662201462
 10
148.1336345889496
 20
107.2373050266914
 10
148.1551556694911
 20
107.2137276548124
 10
148.1787222754469
 20
107.192863295588
 10
148.2042159816612
 20
107.174841140097
 10
148.2315398948251
 20
107.1597903794181
 10
148.2605863557062
 20
107.1478509705533
 10
148.2912584709953
 20
107.1391628705048
 10
148.3234378155369
 20
107.1338445044279
 10
148.3570274960221
 20
107.1320465952481
 10
148.3570274960221
 20
107.1320465952481
 10
148.3904018580425
 20
107.1335968881936
 10
148.4226673299701
 20
107.1382262351835
 10
148.4536624229561
 20
107.1459023384483
 10
148.4832794777685
 20
107.1566144320645
 10
148.5113570055586
 20
107.1702979204929
 10
148.5377658152477
 20
107.1869635696567
 10
148.5623228861409
 20
107.2065575499396
 10
148.5849205590057
 20
107.2290583294954
 10
148.605408110917
 20
107.2544443764774
 10
148.6236240530262
 20
107.2826726271928
 10
148.6394391942546
 20
107.3137107838718
 10
148.6527028116769
 20
107.3475588465145
 10
148.6632749482912
 20
107.3841522195815
 10
148.6709941152488
 20
107.4234909030727
 10
148.6757418873943
 20
107.465521067372
 10
148.6773567758792
 20
107.5102319465562
 10
148.6773567758792
 20
107.5102319465562
 10
148.6759895036286
 20
107.5474174454009
 10
148.6720384098024
 20
107.5837201385406
 10
148.6657295787882
 20
107.6190108348965
 10
148.657246031281
 20
107.6531495774664
 10
148.646824617592
 20
107.685974877402
 10
148.6346591243394
 20
107.7173467777013
 10
148.6209648699878
 20
107.7471145554389
 10
148.6059571730018
 20
107.7751597854593
 10
148.5898513518461
 20
107.8013102129909
 10
148.5728519590622
 20
107.8254366469547
 10
148.5551635471913
 20
107.8473883644256
 10
148.5370122006215
 20
107.8670146424783
 10
148.5185917059708
 20
107.8841755241107
 10
148.5001389135505
 20
107.8987418182442
 10
148.4818476099786
 20
107.9105412701069
 10
148.4639223477967
 20
107.9194446886201
 10
148.4639223477967
 20
107.9194446886201
 10
148.44471594075
 20
107.9184326918362
 10
148.4252296196994
 20
107.9164625278847
 10
148.4055602779538
 20
107.9135880263817
 10
148.3857832769758
 20
107.9098307191735
 10
148.3660062759979
 20
107.9052552017998
 10
148.3462938705594
 20
107.8999045379533
 10
148.326732188046
 20
107.8938002594805
 10
148.3074181217671
 20
107.8869961959976
 10
148.2884377991084
 20
107.8795246452743
 10
148.2698558156092
 20
107.8714394369268
 10
148.251779830502
 20
107.8627728687247
 10
148.2342852052494
 20
107.853568004361
 10
148.2174473013139
 20
107.8438679075286
 10
148.2013737779279
 20
107.8337156419204
 10
148.186139996554
 20
107.8231435053062
 97
        0
 92
        3
 72
     0
 73
     1
 93
      171
 10
149.3885536646121
 20
107.479183023954
 10
149.3927416087495
 20
107.4585447491174
 10
149.3966604048061
 20
107.4379280061273
 10
149.4003531164748
 20
107.4173112631373
 10
149.4037982119092
 20
107.3967268179169
 10
149.4069741592628
 20
107.3761423726965
 10
149.409902490382
 20
107.3556009911691
 10
149.4125616734204
 20
107.3350596096417
 10
149.4149732402245
 20
107.3145612918072
 10
149.4170941271012
 20
107.2940952717424
 10
149.4189566318204
 20
107.273650783524
 10
149.4205392225356
 20
107.2532385930754
 10
149.4218418992467
 20
107.2328694663196
 10
149.4228538960306
 20
107.2125326373336
 10
149.4235859788104
 20
107.1922496379638
 10
149.4240273816629
 20
107.1719989363636
 10
149.4241781045882
 20
107.1518020643796
 10
149.4241781045882
 20
106.9627201546488
 10
149.279548691884
 20
106.9627201546488
 10
149.279548691884
 20
107.1094704542298
 10
149.2795917555769
 20
107.1130878044359
 10
149.2797424785022
 20
107.116662090949
 10
149.2799793288133
 20
107.1201933137693
 10
149.2802592428173
 20
107.1236922388198
 10
149.280614518284
 20
107.1271696320239
 10
149.2810020915203
 20
107.1306362593047
 10
149.2814111966032
 20
107.1341028865855
 10
149.2818418335325
 20
107.1375587479431
 10
149.2822617045385
 20
107.1410146093007
 10
149.2826708096214
 20
107.1444920025048
 10
149.283069148781
 20
107.1479801616321
 10
149.2834028924012
 20
107.1514898526059
 10
149.2837043382517
 20
107.1550318413493
 10
149.2839304226396
 20
107.1586168937857
 10
149.2840703796416
 20
107.1622450099151
 10
149.2841242092578
 20
107.1659161897373
 10
149.2841242092578
 20
107.1659161897373
 10
149.2840057841022
 20
107.1834323468364
 10
149.2836612745588
 20
107.2009162061659
 10
149.2830799147042
 20
107.2183677677256
 10
149.2822617045385
 20
107.2357439678227
 10
149.2812066440618
 20
107.2530448064572
 10
149.2799147332739
 20
107.270270283629
 10
149.2783967380981
 20
107.2873881015686
 10
149.276631126688
 20
107.3043767284293
 10
149.2746286649668
 20
107.3212469301345
 10
149.2723785870112
 20
107.3379664089144
 10
149.2698916587445
 20
107.3545243988459
 10
149.2671571142435
 20
107.3708993680824
 10
149.2641857194313
 20
107.3870913166239
 10
149.2609667083848
 20
107.403078712624
 10
149.257500081104
 20
107.4188400242363
 10
149.2537858375888
 20
107.4343752514607
 10
149.2537858375888
 20
107.4343752514607
 10
149.2407590704776
 20
107.4818422069923
 10
149.225256141023
 20
107.5279418902735
 10
149.207007901144
 20
107.5724912806092
 10
149.1857882664529
 20
107.6152750595348
 10
149.1613819184851
 20
107.6561425041251
 10
149.133541241006
 20
107.6948890618385
 10
149.1020616814745
 20
107.7313424779034
 10
149.0666848577328
 20
107.7652874338552
 10
149.0272062172396
 20
107.7965516749221
 10
148.9833673778372
 20
107.8249629463325
 10
148.9349745529075
 20
107.8503166955448
 10
148.8817693602929
 20
107.8724299018642
 10
148.8235364815288
 20
107.8911195445956
 10
148.760039066304
 20
107.906191837121
 10
148.6910402643076
 20
107.9174637587453
 10
148.6163247570746
 20
107.9247415228504
 10
148.6163247570746
 20
107.9247415228504
 10
148.6408172324284
 20
107.906331794123
 10
148.6637378829902
 20
107.8860380288299
 10
148.685129772453
 20
107.8639571202802
 10
148.7049390712006
 20
107.8402828550922
 10
148.7231657792331
 20
107.8151336584213
 10
148.7398314283968
 20
107.788671019116
 10
148.7549360186919
 20
107.7610671919481
 10
148.7684580182718
 20
107.7324298361499
 10
148.7804081930598
 20
107.7029419724163
 10
148.7907542452861
 20
107.6727327918262
 10
148.7995284727205
 20
107.6419530173047
 10
148.8067201094398
 20
107.6107641377005
 10
148.8123183895206
 20
107.5793061100154
 10
148.8163125470399
 20
107.5477296571747
 10
148.8187241138439
 20
107.5161855021037
 10
148.8195207921631
 20
107.4848243677277
 10
148.8195207921631
 20
107.4848243677277
 10
148.8168939068944
 20
107.4228772454484
 10
148.8092501013994
 20
107.3650750036136
 10
148.7969015874518
 20
107.3113961103768
 10
148.7801928745951
 20
107.2618297998148
 10
148.7594469405263
 20
107.2163330082347
 10
148.7350082947887
 20
107.1749165015596
 10
148.7071891491562
 20
107.1375372160967
 10
148.6763340131721
 20
107.1041843859227
 10
148.6427766304567
 20
107.0748257132679
 10
148.6068399787069
 20
107.0494504322091
 10
148.5688578015429
 20
107.0280370108998
 10
148.5291530766618
 20
107.0105639174936
 10
148.488070313607
 20
106.997009620144
 10
148.4459432559985
 20
106.9873525870046
 10
148.4030841156103
 20
106.9815712862288
 10
148.359848167909
 20
106.9796549518934
 10
148.359848167909
 20
106.9796549518934
 10
148.3154064368056
 20
106.9821095823904
 10
148.2718475114072
 20
106.989365814649
 10
148.2294190079483
 20
107.0012513938976
 10
148.1884223722793
 20
107.0176263631341
 10
148.149126752481
 20
107.0383077016635
 10
148.111790530711
 20
107.0631446865607
 10
148.0767151528198
 20
107.0919758289771
 10
148.044159000965
 20
107.1246396400642
 10
148.0144019891506
 20
107.1609746309736
 10
147.9877240313807
 20
107.20083007878
 10
147.9643727438896
 20
107.2440121968652
 10
147.9446711043743
 20
107.2904025600736
 10
147.9288667290691
 20
107.3398073817872
 10
147.9172287660549
 20
107.3920867050037
 10
147.9100478952589
 20
107.4470575090284
 10
147.9075932647619
 20
107.5045798368592
 10
147.9075932647619
 20
107.5045798368592
 10
147.9080669653841
 20
107.5300197134574
 10
147.9094880672508
 20
107.5553949945162
 10
147.9118458044387
 20
107.5806303185729
 10
147.9151186451014
 20
107.6056718560115
 10
147.9193281210852
 20
107.6304442453693
 10
147.9244527005438
 20
107.6549151888766
 10
147.9304708516308
 20
107.678977027301
 10
147.9374041061924
 20
107.7026189947194
 10
147.9452094005359
 20
107.725765729669
 10
147.9539297983542
 20
107.7483418706874
 10
147.9635114700311
 20
107.7702935881583
 10
147.9739651814897
 20
107.7915778183888
 10
147.9852909327302
 20
107.812108433993
 10
147.9974671919061
 20
107.831842371278
 10
148.0104939590173
 20
107.8507042687812
 10
148.0243604681406
 20
107.8686510628096
 10
148.0243604681406
 20
107.8686510628096
 10
148.0501771520519
 20
107.8979666717714
 10
148.0778778725289
 20
107.9246230976949
 10
148.1072903747998
 20
107.9487064679658
 10
148.138242404093
 20
107.9703352077397
 10
148.1705401737902
 20
107.9896169762489
 10
148.2039898972733
 20
108.0066701986491
 10
148.2384408516171
 20
108.0215810023259
 10
148.27368848428
 20
108.0344570465119
 10
148.3095497745671
 20
108.0454167563625
 10
148.3458524677068
 20
108.0545785570333
 10
148.3824243089273
 20
108.0620285759101
 10
148.4190607456872
 20
108.0678852381485
 10
148.4555787572915
 20
108.0722562029809
 10
148.4918168548918
 20
108.0752383637163
 10
148.5275812518699
 20
108.0769501455102
 10
148.562699693454
 20
108.0774992075951
 10
148.562699693454
 20
108.0774992075951
 10
148.6499467353295
 20
108.0744309194739
 10
148.7324137072897
 20
108.065452139498
 10
148.8101006093348
 20
108.0508212498252
 10
148.8830289733111
 20
108.0308504622291
 10
148.9512095651419
 20
108.0058089247905
 10
149.0146316189041
 20
107.9759980833599
 10
149.0732951345975
 20
107.9417086178647
 10
149.1272324099918
 20
107.9032312082321
 10
149.1764219132407
 20
107.8608457684661
 10
149.2208851761906
 20
107.814842978494
 10
149.2606221988414
 20
107.7655242841663
 10
149.2956329811932
 20
107.7131695994871
 10
149.3259175232459
 20
107.6580588384604
 10
149.3514973568462
 20
107.60050421286
 10
149.372383247917
 20
107.5407856366898
 97
        0
 75
     1
 76
     1
 98
        0
  0
LWPOLYLINE
  5
8F
330
1F
100
AcDbEntity
  8
ISS138金台
  6
Continuous
 62
   250
420
  2367521
370
    50
100
AcDbPolyline
 90
       85
 70
     0
 43
0.0
 10
148.1718213186549
 20
107.8122053273021
 10
148.1561784321982
 20
107.7983711159484
 10
148.1416552017577
 20
107.7833634189624
 10
148.1282408614101
 20
107.7673006614997
 10
148.1159031133858
 20
107.7503012687157
 10
148.1046419576847
 20
107.7324083043034
 10
148.0944358624604
 20
107.7137724911881
 10
148.0852740617896
 20
107.6944799567557
 10
148.0771457897491
 20
107.6746168283919
 10
148.0700295144925
 20
107.6543015312523
 10
148.0639037041732
 20
107.6336094267996
 10
148.0587683587914
 20
107.6126589401893
 10
148.0545911805772
 20
107.5915361988074
 10
148.0513829354539
 20
107.5703596278092
 10
148.0491005597287
 20
107.5492045886575
 10
148.0477440534014
 20
107.5281895065079
 10
148.0472918846256
 20
107.5074005087461
 10
148.0472918846256
 20
107.5074005087461
 10
148.0487668161085
 20
107.4669529351619
 10
148.0531162490944
 20
107.428184845602
 10
148.0602217584278
 20
107.3911393037593
 10
148.0699864507995
 20
107.3560423940216
 10
148.0823349647471
 20
107.3229587119285
 10
148.097105811422
 20
107.2920497463282
 10
148.1142559271312
 20
107.2634662201462
 10
148.1336345889496
 20
107.2373050266914
 10
148.1551556694911
 20
107.2137276548124
 10
148.1787222754469
 20
107.192863295588
 10
148.2042159816612
 20
107.174841140097
 10
148.2315398948251
 20
107.1597903794181
 10
148.2605863557062
 20
107.1478509705533
 10
148.2912584709953
 20
107.1391628705048
 10
148.3234378155369
 20
107.1338445044279
 10
148.3570274960221
 20
107.1320465952481
 10
148.3570274960221
 20
107.1320465952481
 10
148.3904018580425
 20
107.1335968881936
 10
148.4226673299701
 20
107.1382262351835
 10
148.4536624229561
 20
107.1459023384483
 10
148.4832794777685
 20
107.1566144320645
 10
148.5113570055586
 20
107.1702979204929
 10
148.5377658152477
 20
107.1869635696567
 10
148.5623228861409
 20
107.2065575499396
 10
148.5849205590057
 20
107.2290583294954
 10
148.605408110917
 20
107.2544443764774
 10
148.6236240530262
 20
107.2826726271928
 10
148.6394391942546
 20
107.3137107838718
 10
148.6527028116769
 20
107.3475588465145
 10
148.6632749482912
 20
107.3841522195815
 10
148.6709941152488
 20
107.4234909030727
 10
148.6757418873943
 20
107.465521067372
 10
148.6773567758792
 20
107.5102319465562
 10
148.6773567758792
 20
107.5102319465562
 10
148.6759895036286
 20
107.5474174454009
 10
148.6720384098024
 20
107.5837201385406
 10
148.6657295787882
 20
107.6190108348965
 10
148.657246031281
 20
107.6531495774664
 10
148.646824617592
 20
107.685974877402
 10
148.6346591243394
 20
107.7173467777013
 10
148.6209648699878
 20
107.7471145554389
 10
148.6059571730018
 20
107.7751597854593
 10
148.5898513518461
 20
107.8013102129909
 10
148.5728519590622
 20
107.8254366469547
 10
148.5551635471913
 20
107.8473883644256
 10
148.5370122006215
 20
107.8670146424783
 10
148.5185917059708
 20
107.8841755241107
 10
148.5001389135505
 20
107.8987418182442
 10
148.4818476099786
 20
107.9105412701069
 10
148.4639223477967
 20
107.9194446886201
 10
148.4639223477967
 20
107.9194446886201
 10
148.44471594075
 20
107.9184326918362
 10
148.4252296196994
 20
107.9164625278847
 10
148.4055602779538
 20
107.9135880263817
 10
148.3857832769758
 20
107.9098307191735
 10
148.3660062759979
 20
107.9052552017998
 10
148.3462938705594
 20
107.8999045379533
 10
148.326732188046
 20
107.8938002594805
 10
148.3074181217671
 20
107.8869961959976
 10
148.2884377991084
 20
107.8795246452743
 10
148.2698558156092
 20
107.8714394369268
 10
148.251779830502
 20
107.8627728687247
 10
148.2342852052494
 20
107.853568004361
 10
148.2174473013139
 20
107.8438679075286
 10
148.2013737779279
 20
107.8337156419204
 10
148.186139996554
 20
107.8231435053062
 10
148.1718213186549
 20
107.8122053273021
  0
LWPOLYLINE
  5
90
330
1F
100
AcDbEntity
  8
ISS138金台
  6
Continuous
 62
   250
420
  2367521
370
    50
100
AcDbPolyline
 90
      172
 70
     0
 43
0.0
 10
149.3885536646121
 20
107.479183023954
 10
149.3927416087495
 20
107.4585447491174
 10
149.3966604048061
 20
107.4379280061273
 10
149.4003531164748
 20
107.4173112631373
 10
149.4037982119092
 20
107.3967268179169
 10
149.4069741592628
 20
107.3761423726965
 10
149.409902490382
 20
107.3556009911691
 10
149.4125616734204
 20
107.3350596096417
 10
149.4149732402245
 20
107.3145612918072
 10
149.4170941271012
 20
107.2940952717424
 10
149.4189566318204
 20
107.273650783524
 10
149.4205392225356
 20
107.2532385930754
 10
149.4218418992467
 20
107.2328694663196
 10
149.4228538960306
 20
107.2125326373336
 10
149.4235859788104
 20
107.1922496379638
 10
149.4240273816629
 20
107.1719989363636
 10
149.4241781045882
 20
107.1518020643796
 10
149.4241781045882
 20
106.9627201546488
 10
149.279548691884
 20
106.9627201546488
 10
149.279548691884
 20
107.1094704542298
 10
149.2795917555769
 20
107.1130878044359
 10
149.2797424785022
 20
107.116662090949
 10
149.2799793288133
 20
107.1201933137693
 10
149.2802592428173
 20
107.1236922388198
 10
149.280614518284
 20
107.1271696320239
 10
149.2810020915203
 20
107.1306362593047
 10
149.2814111966032
 20
107.1341028865855
 10
149.2818418335325
 20
107.1375587479431
 10
149.2822617045385
 20
107.1410146093007
 10
149.2826708096214
 20
107.1444920025048
 10
149.283069148781
 20
107.1479801616321
 10
149.2834028924012
 20
107.1514898526059
 10
149.2837043382517
 20
107.1550318413493
 10
149.2839304226396
 20
107.1586168937857
 10
149.2840703796416
 20
107.1622450099151
 10
149.2841242092578
 20
107.1659161897373
 10
149.2841242092578
 20
107.1659161897373
 10
149.2840057841022
 20
107.1834323468364
 10
149.2836612745588
 20
107.2009162061659
 10
149.2830799147042
 20
107.2183677677256
 10
149.2822617045385
 20
107.2357439678227
 10
149.2812066440618
 20
107.2530448064572
 10
149.2799147332739
 20
107.270270283629
 10
149.2783967380981
 20
107.2873881015686
 10
149.276631126688
 20
107.3043767284293
 10
149.2746286649668
 20
107.3212469301345
 10
149.2723785870112
 20
107.3379664089144
 10
149.2698916587445
 20
107.3545243988459
 10
149.2671571142435
 20
107.3708993680824
 10
149.2641857194313
 20
107.3870913166239
 10
149.2609667083848
 20
107.403078712624
 10
149.257500081104
 20
107.4188400242363
 10
149.2537858375888
 20
107.4343752514607
 10
149.2537858375888
 20
107.4343752514607
 10
149.2407590704776
 20
107.4818422069923
 10
149.225256141023
 20
107.5279418902735
 10
149.207007901144
 20
107.5724912806092
 10
149.1857882664529
 20
107.6152750595348
 10
149.1613819184851
 20
107.6561425041251
 10
149.133541241006
 20
107.6948890618385
 10
149.1020616814745
 20
107.7313424779034
 10
149.0666848577328
 20
107.7652874338552
 10
149.0272062172396
 20
107.7965516749221
 10
148.9833673778372
 20
107.8249629463325
 10
148.9349745529075
 20
107.8503166955448
 10
148.8817693602929
 20
107.8724299018642
 10
148.8235364815288
 20
107.8911195445956
 10
148.760039066304
 20
107.906191837121
 10
148.6910402643076
 20
107.9174637587453
 10
148.6163247570746
 20
107.9247415228504
 10
148.6163247570746
 20
107.9247415228504
 10
148.6408172324284
 20
107.906331794123
 10
148.6637378829902
 20
107.8860380288299
 10
148.685129772453
 20
107.8639571202802
 10
148.7049390712006
 20
107.8402828550922
 10
148.7231657792331
 20
107.8151336584213
 10
148.7398314283968
 20
107.788671019116
 10
148.7549360186919
 20
107.7610671919481
 10
148.7684580182718
 20
107.7324298361499
 10
148.7804081930598
 20
107.7029419724163
 10
148.7907542452861
 20
107.6727327918262
 10
148.7995284727205
 20
107.6419530173047
 10
148.8067201094398
 20
107.6107641377005
 10
148.8123183895206
 20
107.5793061100154
 10
148.8163125470399
 20
107.5477296571747
 10
148.8187241138439
 20
107.5161855021037
 10
148.8195207921631
 20
107.4848243677277
 10
148.8195207921631
 20
107.4848243677277
 10
148.8168939068944
 20
107.4228772454484
 10
148.8092501013994
 20
107.3650750036136
 10
148.7969015874518
 20
107.3113961103768
 10
148.7801928745951
 20
107.2618297998148
 10
148.7594469405263
 20
107.2163330082347
 10
148.7350082947887
 20
107.1749165015596
 10
148.7071891491562
 20
107.1375372160967
 10
148.6763340131721
 20
107.1041843859227
 10
148.6427766304567
 20
107.0748257132679
 10
148.6068399787069
 20
107.0494504322091
 10
148.5688578015429
 20
107.0280370108998
 10
148.5291530766618
 20
107.0105639174936
 10
148.488070313607
 20
106.997009620144
 10
148.4459432559985
 20
106.9873525870046
 10
148.4030841156103
 20
106.9815712862288
 10
148.359848167909
 20
106.9796549518934
 10
148.359848167909
 20
106.9796549518934
 10
148.3154064368056
 20
106.9821095823904
 10
148.2718475114072
 20
106.989365814649
 10
148.2294190079483
 20
107.0012513938976
 10
148.1884223722793
 20
107.0176263631341
 10
148.149126752481
 20
107.0383077016635
 10
148.111790530711
 20
107.0631446865607
 10
148.0767151528198
 20
107.0919758289771
 10
148.044159000965
 20
107.1246396400642
 10
148.0144019891506
 20
107.1609746309736
 10
147.9877240313807
 20
107.20083007878
 10
147.9643727438896
 20
107.2440121968652
 10
147.9446711043743
 20
107.2904025600736
 10
147.9288667290691
 20
107.3398073817872
 10
147.9172287660549
 20
107.3920867050037
 10
147.9100478952589
 20
107.4470575090284
 10
147.9075932647619
 20
107.5045798368592
 10
147.9075932647619
 20
107.5045798368592
 10
147.9080669653841
 20
107.5300197134574
 10
147.9094880672508
 20
107.5553949945162
 10
147.9118458044387
 20
107.5806303185729
 10
147.9151186451014
 20
107.6056718560115
 10
147.9193281210852
 20
107.6304442453693
 10
147.9244527005438
 20
107.6549151888766
 10
147.9304708516308
 20
107.678977027301
 10
147.9374041061924
 20
107.7026189947194
 10
147.9452094005359
 20
107.725765729669
 10
147.9539297983542
 20
107.7483418706874
 10
147.9635114700311
 20
107.7702935881583
 10
147.9739651814897
 20
107.7915778183888
 10
147.9852909327302
 20
107.812108433993
 10
147.9974671919061
 20
107.831842371278
 10
148.0104939590173
 20
107.8507042687812
 10
148.0243604681406
 20
107.8686510628096
 10
148.0243604681406
 20
107.8686510628096
 10
148.0501771520519
 20
107.8979666717714
 10
148.0778778725289
 20
107.9246230976949
 10
148.1072903747998
 20
107.9487064679658
 10
148.138242404093
 20
107.9703352077397
 10
148.1705401737902
 20
107.9896169762489
 10
148.2039898972733
 20
108.0066701986491
 10
148.2384408516171
 20
108.0215810023259
 10
148.27368848428
 20
108.0344570465119
 10
148.3095497745671
 20
108.0454167563625
 10
148.3458524677068
 20
108.0545785570333
 10
148.3824243089273
 20
108.0620285759101
 10
148.4190607456872
 20
108.0678852381485
 10
148.4555787572915
 20
108.0722562029809
 10
148.4918168548918
 20
108.0752383637163
 10
148.5275812518699
 20
108.0769501455102
 10
148.562699693454
 20
108.0774992075951
 10
148.562699693454
 20
108.0774992075951
 10
148.6499467353295
 20
108.0744309194739
 10
148.7324137072897
 20
108.065452139498
 10
148.8101006093348
 20
108.0508212498252
 10
148.8830289733111
 20
108.0308504622291
 10
148.9512095651419
 20
108.0058089247905
 10
149.0146316189041
 20
107.9759980833599
 10
149.0732951345975
 20
107.9417086178647
 10
149.1272324099918
 20
107.9032312082321
 10
149.1764219132407
 20
107.8608457684661
 10
149.2208851761906
 20
107.814842978494
 10
149.2606221988414
 20
107.7655242841663
 10
149.2956329811932
 20
107.7131695994871
 10
149.3259175232459
 20
107.6580588384604
 10
149.3514973568462
 20
107.60050421286
 10
149.372383247917
 20
107.5407856366898
 10
149.3885536646121
 20
107.479183023954
  0
HATCH
  5
91
330
1F
100
AcDbEntity
  8
ISS138金台
  6
Continuous
 62
   250
420
  2367521
370
    50
100
AcDbHatch
 10
0.0
 20
0.0
 30
0.0
210
0.0
220
0.0
230
1.0
  2
SOLID
 70
     1
 71
     0
 91
        1
 92
        3
 72
     0
 73
     1
 93
       67
 10
149.4213574327013
 20
108.9211600157796
 10
149.4205069247659
 20
108.8993805530804
 10
149.4180630601921
 20
108.8785377257025
 10
149.4140796685962
 20
108.8586853632619
 10
149.4086859410567
 20
108.8398988272214
 10
149.4020110686526
 20
108.8222427131202
 10
149.3940981150768
 20
108.8057816164979
 10
149.3850978032545
 20
108.7905801328937
 10
149.3750962605716
 20
108.7767136237704
 10
149.3642011462604
 20
108.7642143868975
 10
149.35250935363
 20
108.7531685496611
 10
149.3401285419127
 20
108.7436622394469
 10
149.3271556044177
 20
108.7357277540246
 10
149.3136874344539
 20
108.7294404548569
 10
149.2998532231003
 20
108.7248757034063
 10
149.2857283318194
 20
108.7220873292891
 10
149.2714311857667
 20
108.7211399280447
 10
149.2714311857667
 20
108.7211399280447
 10
149.2559497881585
 20
108.722173456675
 10
149.2408990274796
 20
108.7252202129498
 10
149.2263434992694
 20
108.7301510057902
 10
149.2124016286834
 20
108.7368689418872
 10
149.1991164794146
 20
108.7452771279317
 10
149.1865849447721
 20
108.7552571387682
 10
149.1748716202953
 20
108.7667013151642
 10
149.1640518674467
 20
108.779523529734
 10
149.1542225795355
 20
108.7935945913988
 10
149.1454483521011
 20
108.8088176068494
 10
149.1378045466061
 20
108.8250741509303
 10
149.1313772904363
 20
108.8422780962558
 10
149.1262527109777
 20
108.86031101767
 10
149.1224954037696
 20
108.8790760218641
 10
149.1201699643514
 20
108.8984546836825
 10
149.1193840519554
 20
108.9183393438927
 10
149.1193840519554
 20
108.9183393438927
 10
149.1202560917372
 20
108.939149873501
 10
149.1227968496201
 20
108.9591206610971
 10
149.1268986663716
 20
108.9781332815255
 10
149.1324646486828
 20
108.9961446710933
 10
149.1393871373213
 20
109.0131117661076
 10
149.1475477071314
 20
109.0289376732593
 10
149.1568494648042
 20
109.0435577970089
 10
149.1671847511073
 20
109.0569290736635
 10
149.1784459068084
 20
109.0689761417606
 10
149.1905252726752
 20
109.0796236398374
 10
149.2033259553985
 20
109.0888177382779
 10
149.2167187638996
 20
109.0964830756194
 10
149.2306175707927
 20
109.1025658222457
 10
149.2449039509221
 20
109.106979850771
 10
149.259491776902
 20
109.1096820975023
 10
149.2742518576536
 20
109.1105972009771
 10
149.2742518576536
 20
109.1105972009771
 10
149.2901423603446
 20
109.1094560131144
 10
149.3053869076418
 20
109.1061616406053
 10
149.3199209040055
 20
109.1008540404518
 10
149.333701285743
 20
109.0936947015022
 10
149.346674223238
 20
109.0848558785284
 10
149.3587751209513
 20
109.0744667626091
 10
149.369971681113
 20
109.0627211403626
 10
149.3802208400302
 20
109.0497482028675
 10
149.3894364703172
 20
109.0357202048957
 10
149.3976078060506
 20
109.0207878693723
 10
149.4046487198446
 20
109.0051126851459
 10
149.4105269139295
 20
108.9888669069882
 10
149.4151885586891
 20
108.972179725978
 10
149.4185798245073
 20
108.9552341628102
 10
149.4206576476911
 20
108.9381701744868
 97
        0
 75
     1
 76
     1
 98
        0
  0
LWPOLYLINE
  5
92
330
1F
100
AcDbEntity
  8
ISS138金台
  6
Continuous
 62
   250
420
  2367521
370
    50
100
AcDbPolyline
 90
       68
 70
     0
 43
0.0
 10
149.4213574327013
 20
108.9211600157796
 10
149.4205069247659
 20
108.8993805530804
 10
149.4180630601921
 20
108.8785377257025
 10
149.4140796685962
 20
108.8586853632619
 10
149.4086859410567
 20
108.8398988272214
 10
149.4020110686526
 20
108.8222427131202
 10
149.3940981150768
 20
108.8057816164979
 10
149.3850978032545
 20
108.7905801328937
 10
149.3750962605716
 20
108.7767136237704
 10
149.3642011462604
 20
108.7642143868975
 10
149.35250935363
 20
108.7531685496611
 10
149.3401285419127
 20
108.7436622394469
 10
149.3271556044177
 20
108.7357277540246
 10
149.3136874344539
 20
108.7294404548569
 10
149.2998532231003
 20
108.7248757034063
 10
149.2857283318194
 20
108.7220873292891
 10
149.2714311857667
 20
108.7211399280447
 10
149.2714311857667
 20
108.7211399280447
 10
149.2559497881585
 20
108.722173456675
 10
149.2408990274796
 20
108.7252202129498
 10
149.2263434992694
 20
108.7301510057902
 10
149.2124016286834
 20
108.7368689418872
 10
149.1991164794146
 20
108.7452771279317
 10
149.1865849447721
 20
108.7552571387682
 10
149.1748716202953
 20
108.7667013151642
 10
149.1640518674467
 20
108.779523529734
 10
149.1542225795355
 20
108.7935945913988
 10
149.1454483521011
 20
108.8088176068494
 10
149.1378045466061
 20
108.8250741509303
 10
149.1313772904363
 20
108.8422780962558
 10
149.1262527109777
 20
108.86031101767
 10
149.1224954037696
 20
108.8790760218641
 10
149.1201699643514
 20
108.8984546836825
 10
149.1193840519554
 20
108.9183393438927
 10
149.1193840519554
 20
108.9183393438927
 10
149.1202560917372
 20
108.939149873501
 10
149.1227968496201
 20
108.9591206610971
 10
149.1268986663716
 20
108.9781332815255
 10
149.1324646486828
 20
108.9961446710933
 10
149.1393871373213
 20
109.0131117661076
 10
149.1475477071314
 20
109.0289376732593
 10
149.1568494648042
 20
109.0435577970089
 10
149.1671847511073
 20
109.0569290736635
 10
149.1784459068084
 20
109.0689761417606
 10
149.1905252726752
 20
109.0796236398374
 10
149.2033259553985
 20
109.0888177382779
 10
149.2167187638996
 20
109.0964830756194
 10
149.2306175707927
 20
109.1025658222457
 10
149.2449039509221
 20
109.106979850771
 10
149.259491776902
 20
109.1096820975023
 10
149.2742518576536
 20
109.1105972009771
 10
149.2742518576536
 20
109.1105972009771
 10
149.2901423603446
 20
109.1094560131144
 10
149.3053869076418
 20
109.1061616406053
 10
149.3199209040055
 20
109.1008540404518
 10
149.333701285743
 20
109.0936947015022
 10
149.346674223238
 20
109.0848558785284
 10
149.3587751209513
 20
109.0744667626091
 10
149.369971681113
 20
109.0627211403626
 10
149.3802208400302
 20
109.0497482028675
 10
149.3894364703172
 20
109.0357202048957
 10
149.3976078060506
 20
109.0207878693723
 10
149.4046487198446
 20
109.0051126851459
 10
149.4105269139295
 20
108.9888669069882
 10
149.4151885586891
 20
108.972179725978
 10
149.4185798245073
 20
108.9552341628102
 10
149.4206576476911
 20
108.9381701744868
 10
149.4213574327013
 20
108.9211600157796
  0
HATCH
  5
93
330
1F
100
AcDbEntity
  8
ISS138金台
  6
Continuous
 62
   250
420
  2367521
370
    50
100
AcDbHatch
 10
0.0
 20
0.0
 30
0.0
210
0.0
220
0.0
230
1.0
  2
SOLID
 70
     1
 71
     0
 91
        2
 92
        3
 72
     0
 73
     1
 93
        3
 10
148.8398360893027
 20
109.8158728319322
 10
148.8398360893027
 20
110.4170096874602
 10
148.0602002265813
 20
110.4170096874602
 97
        0
 92
        3
 72
     0
 73
     1
 93
       15
 10
149.3912236135737
 20
110.1065635251305
 10
149.2511697182433
 20
110.1065635251305
 10
149.2511697182433
 20
110.4170096874602
 10
148.9795347091664
 20
110.4170096874602
 10
148.9795347091664
 20
109.6440702289894
 10
148.8550052751372
 20
109.6440702289894
 10
147.9381361889722
 20
110.3468051020617
 10
147.9381361889722
 20
110.5722327686251
 10
148.8398360893027
 20
110.5722327686251
 10
148.8398360893027
 20
110.8375158829949
 10
148.9795347091664
 20
110.8375158829949
 10
148.9795347091664
 20
110.5722327686251
 10
149.2511697182433
 20
110.5722327686251
 10
149.2511697182433
 20
110.8375158829949
 10
149.3912236135737
 20
110.8375158829949
 97
        0
 75
     1
 76
     1
 98
        0
  0
LWPOLYLINE
  5
94
330
1F
100
AcDbEntity
  8
ISS138金台
  6
Continuous
 62
   250
420
  2367521
370
    50
100
AcDbPolyline
 90
        4
 70
     0
 43
0.0
 10
148.8398360893027
 20
109.8158728319322
 10
148.8398360893027
 20
110.4170096874602
 10
148.0602002265813
 20
110.4170096874602
 10
148.8398360893027
 20
109.8158728319322
  0
LWPOLYLINE
  5
95
330
1F
100
AcDbEntity
  8
ISS138金台
  6
Continuous
 62
   250
420
  2367521
370
    50
100
AcDbPolyline
 90
       16
 70
     0
 43
0.0
 10
149.3912236135737
 20
110.1065635251305
 10
149.2511697182433
 20
110.1065635251305
 10
149.2511697182433
 20
110.4170096874602
 10
148.9795347091664
 20
110.4170096874602
 10
148.9795347091664
 20
109.6440702289894
 10
148.8550052751372
 20
109.6440702289894
 10
147.9381361889722
 20
110.3468051020617
 10
147.9381361889722
 20
110.5722327686251
 10
148.8398360893027
 20
110.5722327686251
 10
148.8398360893027
 20
110.8375158829949
 10
148.9795347091664
 20
110.8375158829949
 10
148.9795347091664
 20
110.5722327686251
 10
149.2511697182433
 20
110.5722327686251
 10
149.2511697182433
 20
110.8375158829949
 10
149.3912236135737
 20
110.8375158829949
 10
149.3912236135737
 20
110.1065635251305
  0
HATCH
  5
96
330
1F
100
AcDbEntity
  8
ISS138金台
  6
Continuous
 62
   250
420
  2367521
370
    50
100
AcDbHatch
 10
0.0
 20
0.0
 30
0.0
210
0.0
220
0.0
230
1.0
  2
SOLID
 70
     1
 71
     0
 91
        1
 92
        3
 72
     0
 73
     1
 93
       67
 10
150.4273360654608
 20
112.8599591577424
 10
150.4529266649843
 20
112.8612510685303
 10
150.4777959476511
 20
112.8650406735081
 10
150.5017608927665
 20
112.8711880156738
 10
150.5247569047909
 20
112.8795962017183
 10
150.5466224948759
 20
112.8901037427931
 10
150.5672500037892
 20
112.9026137455892
 10
150.586510240452
 20
112.9169970190277
 10
150.604252481939
 20
112.9331136061066
 10
150.6204013667876
 20
112.9508558475936
 10
150.6347846402261
 20
112.9700837864867
 10
150.6473054089454
 20
112.9906682317071
 10
150.6578237159435
 20
113.0125015240224
 10
150.666231901988
 20
113.0354544723539
 10
150.6723900100769
 20
113.0593871196995
 10
150.6761688491315
 20
113.084191806827
 10
150.6774607599194
 20
113.1097285767343
 10
150.6774607599194
 20
113.1097285767343
 10
150.6761688491315
 20
113.1353945377204
 10
150.6723792441537
 20
113.1602745863105
 10
150.6662211360647
 20
113.184293361042
 10
150.6578237159435
 20
113.2073109049128
 10
150.6472946430222
 20
113.2291764949979
 10
150.6347846402261
 20
113.2497932379879
 10
150.6203906008644
 20
113.2690319428042
 10
150.604252481939
 20
113.2867741842913
 10
150.586510240452
 20
113.3029015372934
 10
150.5672500037892
 20
113.3172632788854
 10
150.5466332607992
 20
113.329751749835
 10
150.5247569047909
 20
113.3402592909099
 10
150.5017716586897
 20
113.3486459451079
 10
150.4777851817279
 20
113.3547825213504
 10
150.4529374309075
 20
113.358561360405
 10
150.4273360654608
 20
113.3598425052696
 10
150.4273360654608
 20
113.3598425052696
 10
150.4017992955535
 20
113.358561360405
 10
150.3770053743493
 20
113.3547825213504
 10
150.3530619610804
 20
113.3486351791847
 10
150.3301197786722
 20
113.3402700568331
 10
150.3082757204336
 20
113.329751749835
 10
150.2876912752133
 20
113.3172632788854
 10
150.2684633363202
 20
113.3028907713702
 10
150.2507318607564
 20
113.2867741842913
 10
150.2346152736775
 20
113.2690319428042
 10
150.220232000239
 20
113.2497932379879
 10
150.2077219974429
 20
113.2291764949979
 10
150.1972036904448
 20
113.2073001389896
 10
150.1887955044003
 20
113.184293361042
 10
150.1826373963114
 20
113.1602853522337
 10
150.1788585572568
 20
113.1353837717971
 10
150.1775666464689
 20
113.1097285767343
 10
150.1775666464689
 20
113.1097285767343
 10
150.1788477913336
 20
113.0841810409038
 10
150.1826373963114
 20
113.0593978856228
 10
150.1887847384771
 20
113.0354544723539
 10
150.1971929245216
 20
113.0125015240224
 10
150.2077112315197
 20
112.9906682317071
 10
150.2202212343157
 20
112.9700837864867
 10
150.2346045077542
 20
112.9508558475936
 10
150.2507318607564
 20
112.9331136061066
 10
150.2684633363202
 20
112.9169970190277
 10
150.2876912752133
 20
112.9026137455892
 10
150.3082864863568
 20
112.8901037427931
 10
150.3301197786722
 20
112.8795854357951
 10
150.3530727270037
 20
112.8711880156738
 10
150.3770053743493
 20
112.8650299075849
 10
150.4017992955535
 20
112.8612510685303
 97
        0
 75
     1
 76
     1
 98
        0
  0
LWPOLYLINE
  5
97
330
1F
100
AcDbEntity
  8
ISS138金台
  6
Continuous
 62
   250
420
  2367521
370
    50
100
AcDbPolyline
 90
       68
 70
     0
 43
0.0
 10
150.4273360654608
 20
112.8599591577424
 10
150.4529266649843
 20
112.8612510685303
 10
150.4777959476511
 20
112.8650406735081
 10
150.5017608927665
 20
112.8711880156738
 10
150.5247569047909
 20
112.8795962017183
 10
150.5466224948759
 20
112.8901037427931
 10
150.5672500037892
 20
112.9026137455892
 10
150.586510240452
 20
112.9169970190277
 10
150.604252481939
 20
112.9331136061066
 10
150.6204013667876
 20
112.9508558475936
 10
150.6347846402261
 20
112.9700837864867
 10
150.6473054089454
 20
112.9906682317071
 10
150.6578237159435
 20
113.0125015240224
 10
150.666231901988
 20
113.0354544723539
 10
150.6723900100769
 20
113.0593871196995
 10
150.6761688491315
 20
113.084191806827
 10
150.6774607599194
 20
113.1097285767343
 10
150.6774607599194
 20
113.1097285767343
 10
150.6761688491315
 20
113.1353945377204
 10
150.6723792441537
 20
113.1602745863105
 10
150.6662211360647
 20
113.184293361042
 10
150.6578237159435
 20
113.2073109049128
 10
150.6472946430222
 20
113.2291764949979
 10
150.6347846402261
 20
113.2497932379879
 10
150.6203906008644
 20
113.2690319428042
 10
150.604252481939
 20
113.2867741842913
 10
150.586510240452
 20
113.3029015372934
 10
150.5672500037892
 20
113.3172632788854
 10
150.5466332607992
 20
113.329751749835
 10
150.5247569047909
 20
113.3402592909099
 10
150.5017716586897
 20
113.3486459451079
 10
150.4777851817279
 20
113.3547825213504
 10
150.4529374309075
 20
113.358561360405
 10
150.4273360654608
 20
113.3598425052696
 10
150.4273360654608
 20
113.3598425052696
 10
150.4017992955535
 20
113.358561360405
 10
150.3770053743493
 20
113.3547825213504
 10
150.3530619610804
 20
113.3486351791847
 10
150.3301197786722
 20
113.3402700568331
 10
150.3082757204336
 20
113.329751749835
 10
150.2876912752133
 20
113.3172632788854
 10
150.2684633363202
 20
113.3028907713702
 10
150.2507318607564
 20
113.2867741842913
 10
150.2346152736775
 20
113.2690319428042
 10
150.220232000239
 20
113.2497932379879
 10
150.2077219974429
 20
113.2291764949979
 10
150.1972036904448
 20
113.2073001389896
 10
150.1887955044003
 20
113.184293361042
 10
150.1826373963114
 20
113.1602853522337
 10
150.1788585572568
 20
113.1353837717971
 10
150.1775666464689
 20
113.1097285767343
 10
150.1775666464689
 20
113.1097285767343
 10
150.1788477913336
 20
113.0841810409038
 10
150.1826373963114
 20
113.0593978856228
 10
150.1887847384771
 20
113.0354544723539
 10
150.1971929245216
 20
113.0125015240224
 10
150.2077112315197
 20
112.9906682317071
 10
150.2202212343157
 20
112.9700837864867
 10
150.2346045077542
 20
112.9508558475936
 10
150.2507318607564
 20
112.9331136061066
 10
150.2684633363202
 20
112.9169970190277
 10
150.2876912752133
 20
112.9026137455892
 10
150.3082864863568
 20
112.8901037427931
 10
150.3301197786722
 20
112.8795854357951
 10
150.3530727270037
 20
112.8711880156738
 10
150.3770053743493
 20
112.8650299075849
 10
150.4017992955535
 20
112.8612510685303
 10
150.4273360654608
 20
112.8599591577424
  0
HATCH
  5
98
330
1F
100
AcDbEntity
  8
ISS138金台
  6
Continuous
 62
   250
420
  2367521
370
    50
100
AcDbHatch
 10
0.0
 20
0.0
 30
0.0
210
0.0
220
0.0
230
1.0
  2
SOLID
 70
     1
 71
     0
 91
        1
 92
        3
 72
     0
 73
     1
 93
       67
 10
150.4273360654608
 20
103.3790565223535
 10
150.4529266649843
 20
103.3803484331414
 10
150.4777959476511
 20
103.3841380381192
 10
150.5017608927665
 20
103.3902853802849
 10
150.5247569047909
 20
103.3986935663294
 10
150.5466224948759
 20
103.4092011074042
 10
150.5672500037892
 20
103.4217111102003
 10
150.586510240452
 20
103.4360943836388
 10
150.604252481939
 20
103.4522109707177
 10
150.6204013667876
 20
103.4699424462815
 10
150.6347846402261
 20
103.4891811510978
 10
150.6473054089454
 20
103.5097655963182
 10
150.6578237159435
 20
103.5315988886335
 10
150.666231901988
 20
103.554551836965
 10
150.6723900100769
 20
103.5784844843106
 10
150.6761688491315
 20
103.6032891714381
 10
150.6774607599194
 20
103.6288259413454
 10
150.6774607599194
 20
103.6288259413454
 10
150.6761688491315
 20
103.6544273067921
 10
150.6723792441537
 20
103.6792642916892
 10
150.6662211360647
 20
103.7032615345743
 10
150.6578237159435
 20
103.7262575465987
 10
150.6472946430222
 20
103.7481123707605
 10
150.6347846402261
 20
103.7687398796738
 10
150.6203906008644
 20
103.7879893504133
 10
150.604252481939
 20
103.8057423578236
 10
150.586510240452
 20
103.821880476749
 10
150.5672500037892
 20
103.8362637501875
 10
150.5466332607992
 20
103.8487845189068
 10
150.5247569047909
 20
103.8593028259048
 10
150.5017716586897
 20
103.8677110119493
 10
150.4777851817279
 20
103.873858354115
 10
150.4529374309075
 20
103.8776479590928
 10
150.4273360654608
 20
103.8789398698807
 10
150.4273360654608
 20
103.8789398698807
 10
150.4017992955535
 20
103.8776479590928
 10
150.3770053743493
 20
103.873858354115
 10
150.3530619610804
 20
103.8677110119493
 10
150.3301197786722
 20
103.859313591828
 10
150.3082757204336
 20
103.8487845189068
 10
150.2876912752133
 20
103.8362745161107
 10
150.2684633363202
 20
103.821880476749
 10
150.2507318607564
 20
103.8057423578236
 10
150.2346152736775
 20
103.7879893504133
 10
150.220232000239
 20
103.7687398796738
 10
150.2077219974429
 20
103.7481123707605
 10
150.1972036904448
 20
103.7262467806755
 10
150.1887955044003
 20
103.7032615345743
 10
150.1826373963114
 20
103.6792750576125
 10
150.1788585572568
 20
103.6544273067921
 10
150.1775666464689
 20
103.6288259413454
 10
150.1775666464689
 20
103.6288259413454
 10
150.1788477913336
 20
103.6032784055149
 10
150.1826373963114
 20
103.5784952502339
 10
150.1887847384771
 20
103.554551836965
 10
150.1971929245216
 20
103.5316096545567
 10
150.2077112315197
 20
103.5097655963182
 10
150.2202212343157
 20
103.4891811510978
 10
150.2346045077542
 20
103.4699532122047
 10
150.2507318607564
 20
103.4522109707177
 10
150.2684633363202
 20
103.4360943836388
 10
150.2876912752133
 20
103.4217111102003
 10
150.3082864863568
 20
103.4092011074042
 10
150.3301197786722
 20
103.3986828004062
 10
150.3530727270037
 20
103.3902853802849
 10
150.3770053743493
 20
103.384127272196
 10
150.4017992955535
 20
103.3803484331414
 97
        0
 75
     1
 76
     1
 98
        0
  0
LWPOLYLINE
  5
99
330
1F
100
AcDbEntity
  8
ISS138金台
  6
Continuous
 62
   250
420
  2367521
370
    50
100
AcDbPolyline
 90
       68
 70
     0
 43
0.0
 10
150.4273360654608
 20
103.3790565223535
 10
150.4529266649843
 20
103.3803484331414
 10
150.4777959476511
 20
103.3841380381192
 10
150.5017608927665
 20
103.3902853802849
 10
150.5247569047909
 20
103.3986935663294
 10
150.5466224948759
 20
103.4092011074042
 10
150.5672500037892
 20
103.4217111102003
 10
150.586510240452
 20
103.4360943836388
 10
150.604252481939
 20
103.4522109707177
 10
150.6204013667876
 20
103.4699424462815
 10
150.6347846402261
 20
103.4891811510978
 10
150.6473054089454
 20
103.5097655963182
 10
150.6578237159435
 20
103.5315988886335
 10
150.666231901988
 20
103.554551836965
 10
150.6723900100769
 20
103.5784844843106
 10
150.6761688491315
 20
103.6032891714381
 10
150.6774607599194
 20
103.6288259413454
 10
150.6774607599194
 20
103.6288259413454
 10
150.6761688491315
 20
103.6544273067921
 10
150.6723792441537
 20
103.6792642916892
 10
150.6662211360647
 20
103.7032615345743
 10
150.6578237159435
 20
103.7262575465987
 10
150.6472946430222
 20
103.7481123707605
 10
150.6347846402261
 20
103.7687398796738
 10
150.6203906008644
 20
103.7879893504133
 10
150.604252481939
 20
103.8057423578236
 10
150.586510240452
 20
103.821880476749
 10
150.5672500037892
 20
103.8362637501875
 10
150.5466332607992
 20
103.8487845189068
 10
150.5247569047909
 20
103.8593028259048
 10
150.5017716586897
 20
103.8677110119493
 10
150.4777851817279
 20
103.873858354115
 10
150.4529374309075
 20
103.8776479590928
 10
150.4273360654608
 20
103.8789398698807
 10
150.4273360654608
 20
103.8789398698807
 10
150.4017992955535
 20
103.8776479590928
 10
150.3770053743493
 20
103.873858354115
 10
150.3530619610804
 20
103.8677110119493
 10
150.3301197786722
 20
103.859313591828
 10
150.3082757204336
 20
103.8487845189068
 10
150.2876912752133
 20
103.8362745161107
 10
150.2684633363202
 20
103.821880476749
 10
150.2507318607564
 20
103.8057423578236
 10
150.2346152736775
 20
103.7879893504133
 10
150.220232000239
 20
103.7687398796738
 10
150.2077219974429
 20
103.7481123707605
 10
150.1972036904448
 20
103.7262467806755
 10
150.1887955044003
 20
103.7032615345743
 10
150.1826373963114
 20
103.6792750576125
 10
150.1788585572568
 20
103.6544273067921
 10
150.1775666464689
 20
103.6288259413454
 10
150.1775666464689
 20
103.6288259413454
 10
150.1788477913336
 20
103.6032784055149
 10
150.1826373963114
 20
103.5784952502339
 10
150.1887847384771
 20
103.554551836965
 10
150.1971929245216
 20
103.5316096545567
 10
150.2077112315197
 20
103.5097655963182
 10
150.2202212343157
 20
103.4891811510978
 10
150.2346045077542
 20
103.4699532122047
 10
150.2507318607564
 20
103.4522109707177
 10
150.2684633363202
 20
103.4360943836388
 10
150.2876912752133
 20
103.4217111102003
 10
150.3082864863568
 20
103.4092011074042
 10
150.3301197786722
 20
103.3986828004062
 10
150.3530727270037
 20
103.3902853802849
 10
150.3770053743493
 20
103.384127272196
 10
150.4017992955535
 20
103.3803484331414
 10
150.4273360654608
 20
103.3790565223535
  0
HATCH
  5
9A
330
1F
100
AcDbEntity
  8
ISS138金台
  6
Continuous
 62
   250
420
  2367521
370
    50
100
AcDbHatch
 10
0.0
 20
0.0
 30
0.0
210
0.0
220
0.0
230
1.0
  2
SOLID
 70
     1
 71
     0
 91
        1
 92
        3
 72
     0
 73
     1
 93
       67
 10
145.4223014184067
 20
103.3790565223535
 10
145.4479027838534
 20
103.3803484331414
 10
145.472761300597
 20
103.3841380381192
 10
145.4967370116356
 20
103.3902853802849
 10
145.5197222577368
 20
103.3986935663294
 10
145.5415878478218
 20
103.4092011074042
 10
145.5622153567351
 20
103.4217111102003
 10
145.5814648274746
 20
103.4360943836388
 10
145.5992178348849
 20
103.4522109707177
 10
145.6153559538103
 20
103.4699424462815
 10
145.629749993172
 20
103.4891811510978
 10
145.6422707618913
 20
103.5097655963182
 10
145.6527890688893
 20
103.5315988886335
 10
145.6611972549338
 20
103.554551836965
 10
145.6673553630228
 20
103.5784844843106
 10
145.6711342020774
 20
103.6032891714381
 10
145.6724261128653
 20
103.6288259413454
 10
145.6724261128653
 20
103.6288259413454
 10
145.6711342020774
 20
103.6544273067921
 10
145.6673445970995
 20
103.6792642916892
 10
145.6611864890106
 20
103.7032615345743
 10
145.6527890688893
 20
103.7262575465987
 10
145.6422707618913
 20
103.7481123707605
 10
145.629749993172
 20
103.7687398796738
 10
145.6153559538103
 20
103.7879893504133
 10
145.5992178348849
 20
103.8057423578236
 10
145.5814648274746
 20
103.821880476749
 10
145.5622153567351
 20
103.8362637501875
 10
145.5415878478218
 20
103.8487845189068
 10
145.5197222577368
 20
103.8593028259048
 10
145.4967370116356
 20
103.8677110119493
 10
145.4727505346738
 20
103.873858354115
 10
145.4479027838534
 20
103.8776479590928
 10
145.4223014184067
 20
103.8789398698807
 10
145.4223014184067
 20
103.8789398698807
 10
145.3967646484994
 20
103.8776479590928
 10
145.3719707272951
 20
103.873858354115
 10
145.3480380799495
 20
103.8677110119493
 10
145.325085131618
 20
103.859313591828
 10
145.3032518393027
 20
103.8487845189068
 10
145.2826566281591
 20
103.8362745161107
 10
145.263428689266
 20
103.821880476749
 10
145.2456972137022
 20
103.8057423578236
 10
145.2295698607001
 20
103.7879893504133
 10
145.2151973531848
 20
103.7687398796738
 10
145.2026765844655
 20
103.7481123707605
 10
145.1921690433907
 20
103.7262467806755
 10
145.1837608573462
 20
103.7032615345743
 10
145.1776027492572
 20
103.6792750576125
 10
145.1738239102027
 20
103.6544273067921
 10
145.1725319994148
 20
103.6288259413454
 10
145.1725319994148
 20
103.6288259413454
 10
145.1738346761259
 20
103.6032784055149
 10
145.1776027492572
 20
103.5784952502339
 10
145.1837608573462
 20
103.554551836965
 10
145.1921582774675
 20
103.5316096545567
 10
145.2026765844655
 20
103.5097655963182
 10
145.2151865872616
 20
103.4891811510978
 10
145.2295806266233
 20
103.4699532122047
 10
145.2456972137022
 20
103.4522109707177
 10
145.263428689266
 20
103.4360943836388
 10
145.2826566281591
 20
103.4217111102003
 10
145.3032518393027
 20
103.4092011074042
 10
145.325085131618
 20
103.3986828004062
 10
145.3480380799495
 20
103.3902853802849
 10
145.3719707272951
 20
103.384127272196
 10
145.3967646484994
 20
103.3803484331414
 97
        0
 75
     1
 76
     1
 98
        0
  0
LWPOLYLINE
  5
9B
330
1F
100
AcDbEntity
  8
ISS138金台
  6
Continuous
 62
   250
420
  2367521
370
    50
100
AcDbPolyline
 90
       68
 70
     0
 43
0.0
 10
145.4223014184067
 20
103.3790565223535
 10
145.4479027838534
 20
103.3803484331414
 10
145.472761300597
 20
103.3841380381192
 10
145.4967370116356
 20
103.3902853802849
 10
145.5197222577368
 20
103.3986935663294
 10
145.5415878478218
 20
103.4092011074042
 10
145.5622153567351
 20
103.4217111102003
 10
145.5814648274746
 20
103.4360943836388
 10
145.5992178348849
 20
103.4522109707177
 10
145.6153559538103
 20
103.4699424462815
 10
145.629749993172
 20
103.4891811510978
 10
145.6422707618913
 20
103.5097655963182
 10
145.6527890688893
 20
103.5315988886335
 10
145.6611972549338
 20
103.554551836965
 10
145.6673553630228
 20
103.5784844843106
 10
145.6711342020774
 20
103.6032891714381
 10
145.6724261128653
 20
103.6288259413454
 10
145.6724261128653
 20
103.6288259413454
 10
145.6711342020774
 20
103.6544273067921
 10
145.6673445970995
 20
103.6792642916892
 10
145.6611864890106
 20
103.7032615345743
 10
145.6527890688893
 20
103.7262575465987
 10
145.6422707618913
 20
103.7481123707605
 10
145.629749993172
 20
103.7687398796738
 10
145.6153559538103
 20
103.7879893504133
 10
145.5992178348849
 20
103.8057423578236
 10
145.5814648274746
 20
103.821880476749
 10
145.5622153567351
 20
103.8362637501875
 10
145.5415878478218
 20
103.8487845189068
 10
145.5197222577368
 20
103.8593028259048
 10
145.4967370116356
 20
103.8677110119493
 10
145.4727505346738
 20
103.873858354115
 10
145.4479027838534
 20
103.8776479590928
 10
145.4223014184067
 20
103.8789398698807
 10
145.4223014184067
 20
103.8789398698807
 10
145.3967646484994
 20
103.8776479590928
 10
145.3719707272951
 20
103.873858354115
 10
145.3480380799495
 20
103.8677110119493
 10
145.325085131618
 20
103.859313591828
 10
145.3032518393027
 20
103.8487845189068
 10
145.2826566281591
 20
103.8362745161107
 10
145.263428689266
 20
103.821880476749
 10
145.2456972137022
 20
103.8057423578236
 10
145.2295698607001
 20
103.7879893504133
 10
145.2151973531848
 20
103.7687398796738
 10
145.2026765844655
 20
103.7481123707605
 10
145.1921690433907
 20
103.7262467806755
 10
145.1837608573462
 20
103.7032615345743
 10
145.1776027492572
 20
103.6792750576125
 10
145.1738239102027
 20
103.6544273067921
 10
145.1725319994148
 20
103.6288259413454
 10
145.1725319994148
 20
103.6288259413454
 10
145.1738346761259
 20
103.6032784055149
 10
145.1776027492572
 20
103.5784952502339
 10
145.1837608573462
 20
103.554551836965
 10
145.1921582774675
 20
103.5316096545567
 10
145.2026765844655
 20
103.5097655963182
 10
145.2151865872616
 20
103.4891811510978
 10
145.2295806266233
 20
103.4699532122047
 10
145.2456972137022
 20
103.4522109707177
 10
145.263428689266
 20
103.4360943836388
 10
145.2826566281591
 20
103.4217111102003
 10
145.3032518393027
 20
103.4092011074042
 10
145.325085131618
 20
103.3986828004062
 10
145.3480380799495
 20
103.3902853802849
 10
145.3719707272951
 20
103.384127272196
 10
145.3967646484994
 20
103.3803484331414
 10
145.4223014184067
 20
103.3790565223535
  0
HATCH
  5
9C
330
1F
100
AcDbEntity
  8
ISS138金台
  6
Continuous
 62
   250
420
  2367521
370
    50
100
AcDbHatch
 10
0.0
 20
0.0
 30
0.0
210
0.0
220
0.0
230
1.0
  2
SOLID
 70
     1
 71
     0
 91
        1
 92
        3
 72
     0
 73
     1
 93
       67
 10
145.4223014184067
 20
102.4750527144513
 10
145.4479027838534
 20
102.4763446252392
 10
145.472761300597
 20
102.4801234642938
 10
145.4967370116356
 20
102.4862815723827
 10
145.5197222577368
 20
102.4946897584272
 10
145.5415878478218
 20
102.5051972995021
 10
145.5622153567351
 20
102.5177180682214
 10
145.5814648274746
 20
102.5320905757366
 10
145.5992178348849
 20
102.5482071628155
 10
145.6153559538103
 20
102.5659494043026
 10
145.629749993172
 20
102.5851773431956
 10
145.6422707618913
 20
102.605761788416
 10
145.6527890688893
 20
102.6276058466546
 10
145.6611972549338
 20
102.6505480290628
 10
145.6673553630228
 20
102.6744806764085
 10
145.6711342020774
 20
102.6992853635359
 10
145.6724261128653
 20
102.7248221334432
 10
145.6724261128653
 20
102.7248221334432
 10
145.6711342020774
 20
102.7504234988899
 10
145.6673445970995
 20
102.7752712497103
 10
145.6611864890106
 20
102.7992577266721
 10
145.6527890688893
 20
102.8222537386965
 10
145.6422707618913
 20
102.8441085628583
 10
145.629749993172
 20
102.8647360717716
 10
145.6153559538103
 20
102.8839855425112
 10
145.5992178348849
 20
102.9017385499214
 10
145.5814648274746
 20
102.9178659029236
 10
145.5622153567351
 20
102.9322599422853
 10
145.5415878478218
 20
102.9447807110046
 10
145.5197222577368
 20
102.9552990180026
 10
145.4967370116356
 20
102.9637072040471
 10
145.4727505346738
 20
102.9698653121361
 10
145.4479027838534
 20
102.9736441511907
 10
145.4223014184067
 20
102.9749360619786
 10
145.4223014184067
 20
102.9749360619786
 10
145.3967646484994
 20
102.9736549171139
 10
145.3719707272951
 20
102.9698545462128
 10
145.3480380799495
 20
102.9637072040471
 10
145.325085131618
 20
102.9552990180026
 10
145.3032518393027
 20
102.9447807110046
 10
145.2826566281591
 20
102.9322599422853
 10
145.263428689266
 20
102.9178659029236
 10
145.2456972137022
 20
102.9017385499214
 10
145.2295698607001
 20
102.8839855425112
 10
145.2151973531848
 20
102.8647360717716
 10
145.2026765844655
 20
102.8441085628583
 10
145.1921690433907
 20
102.8222429727733
 10
145.1837608573462
 20
102.7992577266721
 10
145.1776027492572
 20
102.7752712497103
 10
145.1738239102027
 20
102.7504234988899
 10
145.1725319994148
 20
102.7248221334432
 10
145.1725319994148
 20
102.7248221334432
 10
145.1738346761259
 20
102.6992853635359
 10
145.1776027492572
 20
102.6744914423317
 10
145.1837608573462
 20
102.6505480290628
 10
145.1921582774675
 20
102.6276058466546
 10
145.2026765844655
 20
102.605761788416
 10
145.2151865872616
 20
102.5851665772724
 10
145.2295806266233
 20
102.5659386383793
 10
145.2456972137022
 20
102.5482071628155
 10
145.263428689266
 20
102.5320905757366
 10
145.2826566281591
 20
102.5177073022981
 10
145.3032518393027
 20
102.5051972995021
 10
145.325085131618
 20
102.494678992504
 10
145.3480380799495
 20
102.4862815723827
 10
145.3719707272951
 20
102.4801234642938
 10
145.3967646484994
 20
102.4763446252392
 97
        0
 75
     1
 76
     1
 98
        0
  0
LWPOLYLINE
  5
9D
330
1F
100
AcDbEntity
  8
ISS138金台
  6
Continuous
 62
   250
420
  2367521
370
    50
100
AcDbPolyline
 90
       68
 70
     0
 43
0.0
 10
145.4223014184067
 20
102.4750527144513
 10
145.4479027838534
 20
102.4763446252392
 10
145.472761300597
 20
102.4801234642938
 10
145.4967370116356
 20
102.4862815723827
 10
145.5197222577368
 20
102.4946897584272
 10
145.5415878478218
 20
102.5051972995021
 10
145.5622153567351
 20
102.5177180682214
 10
145.5814648274746
 20
102.5320905757366
 10
145.5992178348849
 20
102.5482071628155
 10
145.6153559538103
 20
102.5659494043026
 10
145.629749993172
 20
102.5851773431956
 10
145.6422707618913
 20
102.605761788416
 10
145.6527890688893
 20
102.6276058466546
 10
145.6611972549338
 20
102.6505480290628
 10
145.6673553630228
 20
102.6744806764085
 10
145.6711342020774
 20
102.6992853635359
 10
145.6724261128653
 20
102.7248221334432
 10
145.6724261128653
 20
102.7248221334432
 10
145.6711342020774
 20
102.7504234988899
 10
145.6673445970995
 20
102.7752712497103
 10
145.6611864890106
 20
102.7992577266721
 10
145.6527890688893
 20
102.8222537386965
 10
145.6422707618913
 20
102.8441085628583
 10
145.629749993172
 20
102.8647360717716
 10
145.6153559538103
 20
102.8839855425112
 10
145.5992178348849
 20
102.9017385499214
 10
145.5814648274746
 20
102.9178659029236
 10
145.5622153567351
 20
102.9322599422853
 10
145.5415878478218
 20
102.9447807110046
 10
145.5197222577368
 20
102.9552990180026
 10
145.4967370116356
 20
102.9637072040471
 10
145.4727505346738
 20
102.9698653121361
 10
145.4479027838534
 20
102.9736441511907
 10
145.4223014184067
 20
102.9749360619786
 10
145.4223014184067
 20
102.9749360619786
 10
145.3967646484994
 20
102.9736549171139
 10
145.3719707272951
 20
102.9698545462128
 10
145.3480380799495
 20
102.9637072040471
 10
145.325085131618
 20
102.9552990180026
 10
145.3032518393027
 20
102.9447807110046
 10
145.2826566281591
 20
102.9322599422853
 10
145.263428689266
 20
102.9178659029236
 10
145.2456972137022
 20
102.9017385499214
 10
145.2295698607001
 20
102.8839855425112
 10
145.2151973531848
 20
102.8647360717716
 10
145.2026765844655
 20
102.8441085628583
 10
145.1921690433907
 20
102.8222429727733
 10
145.1837608573462
 20
102.7992577266721
 10
145.1776027492572
 20
102.7752712497103
 10
145.1738239102027
 20
102.7504234988899
 10
145.1725319994148
 20
102.7248221334432
 10
145.1725319994148
 20
102.7248221334432
 10
145.1738346761259
 20
102.6992853635359
 10
145.1776027492572
 20
102.6744914423317
 10
145.1837608573462
 20
102.6505480290628
 10
145.1921582774675
 20
102.6276058466546
 10
145.2026765844655
 20
102.605761788416
 10
145.2151865872616
 20
102.5851665772724
 10
145.2295806266233
 20
102.5659386383793
 10
145.2456972137022
 20
102.5482071628155
 10
145.263428689266
 20
102.5320905757366
 10
145.2826566281591
 20
102.5177073022981
 10
145.3032518393027
 20
102.5051972995021
 10
145.325085131618
 20
102.494678992504
 10
145.3480380799495
 20
102.4862815723827
 10
145.3719707272951
 20
102.4801234642938
 10
145.3967646484994
 20
102.4763446252392
 10
145.4223014184067
 20
102.4750527144513
  0
HATCH
  5
9E
330
1F
100
AcDbEntity
  8
ISS138金台
  6
Continuous
 62
   250
420
  2367521
370
    50
100
AcDbHatch
 10
0.0
 20
0.0
 30
0.0
210
0.0
220
0.0
230
1.0
  2
SOLID
 70
     1
 71
     0
 91
        1
 92
        3
 72
     0
 73
     1
 93
       67
 10
139.9542459449731
 20
92.13426502456664
 10
139.9798473104198
 20
92.13555693535454
 10
140.0047058271634
 20
92.13933577440912
 10
140.028681538202
 20
92.14549388249806
 10
140.0516667843032
 20
92.15390206854258
 10
140.0735323743882
 20
92.1644096096174
 10
140.0941598833015
 20
92.17691961241346
 10
140.113409354041
 20
92.19130288585197
 10
140.1311623614513
 20
92.20741947293087
 10
140.1473004803767
 20
92.22515094849464
 10
140.1616945197384
 20
92.24438965331098
 10
140.1742152884577
 20
92.26497409853133
 10
140.1847335954557
 20
92.28680739084666
 10
140.1931417815002
 20
92.30976033917815
 10
140.1992998895892
 20
92.3336929865238
 10
140.2030787286438
 20
92.35849767365127
 10
140.2043706394317
 20
92.38403444355855
 10
140.2043706394317
 20
92.38403444355855
 10
140.2030787286438
 20
92.40963580900521
 10
140.1992891236659
 20
92.43448355982562
 10
140.193131015577
 20
92.4584592708642
 10
140.1847335954557
 20
92.48146604881185
 10
140.1742152884577
 20
92.50332087297365
 10
140.1616945197384
 20
92.52394838188694
 10
140.1473004803767
 20
92.54319785262649
 10
140.1311623614513
 20
92.56095086003674
 10
140.113409354041
 20
92.57708897896211
 10
140.0941598833015
 20
92.59147225240062
 10
140.0735323743882
 20
92.6039930211199
 10
140.0516667843032
 20
92.61451132811797
 10
140.028681538202
 20
92.62291951416248
 10
140.0046950612402
 20
92.6290668563282
 10
139.9798473104198
 20
92.63285646130599
 10
139.9542459449731
 20
92.63414837209388
 10
139.9542459449731
 20
92.63414837209388
 10
139.9287091750658
 20
92.63285646130599
 10
139.9039152538616
 20
92.6290668563282
 10
139.8799826065159
 20
92.62291951416248
 10
139.8570296581844
 20
92.6145220940412
 10
139.8351963658691
 20
92.6039930211199
 10
139.8146011547255
 20
92.59147225240062
 10
139.7953732158324
 20
92.57707821303887
 10
139.7776417402686
 20
92.56095086003674
 10
139.7615143872665
 20
92.54319785262649
 10
139.7471418797512
 20
92.52394838188694
 10
139.7346211110319
 20
92.50332087297365
 10
139.7241135699571
 20
92.48145528288862
 10
139.7157053839126
 20
92.45847003678742
 10
139.7095472758236
 20
92.43448355982562
 10
139.7057684367691
 20
92.40963580900521
 10
139.7044765259812
 20
92.38403444355855
 10
139.7044765259812
 20
92.38403444355855
 10
139.7057792026923
 20
92.35848690772804
 10
139.7095472758236
 20
92.3336929865238
 10
139.7157053839126
 20
92.30976033917815
 10
139.7241028040339
 20
92.2868181567699
 10
139.7346211110319
 20
92.26497409853133
 10
139.747131113828
 20
92.24438965331098
 10
139.7615251531897
 20
92.22515094849464
 10
139.7776417402686
 20
92.20741947293087
 10
139.7953732158324
 20
92.19130288585197
 10
139.8146011547255
 20
92.17691961241346
 10
139.8351963658691
 20
92.1644096096174
 10
139.8570296581844
 20
92.15389130261934
 10
139.8799826065159
 20
92.14549388249806
 10
139.9039152538616
 20
92.13933577440912
 10
139.9287091750658
 20
92.13555693535454
 97
        0
 75
     1
 76
     1
 98
        0
  0
LWPOLYLINE
  5
9F
330
1F
100
AcDbEntity
  8
ISS138金台
  6
Continuous
 62
   250
420
  2367521
370
    50
100
AcDbPolyline
 90
       68
 70
     0
 43
0.0
 10
139.9542459449731
 20
92.13426502456664
 10
139.9798473104198
 20
92.13555693535454
 10
140.0047058271634
 20
92.13933577440912
 10
140.028681538202
 20
92.14549388249806
 10
140.0516667843032
 20
92.15390206854258
 10
140.0735323743882
 20
92.1644096096174
 10
140.0941598833015
 20
92.17691961241346
 10
140.113409354041
 20
92.19130288585197
 10
140.1311623614513
 20
92.20741947293087
 10
140.1473004803767
 20
92.22515094849464
 10
140.1616945197384
 20
92.24438965331098
 10
140.1742152884577
 20
92.26497409853133
 10
140.1847335954557
 20
92.28680739084666
 10
140.1931417815002
 20
92.30976033917815
 10
140.1992998895892
 20
92.3336929865238
 10
140.2030787286438
 20
92.35849767365127
 10
140.2043706394317
 20
92.38403444355855
 10
140.2043706394317
 20
92.38403444355855
 10
140.2030787286438
 20
92.40963580900521
 10
140.1992891236659
 20
92.43448355982562
 10
140.193131015577
 20
92.4584592708642
 10
140.1847335954557
 20
92.48146604881185
 10
140.1742152884577
 20
92.50332087297365
 10
140.1616945197384
 20
92.52394838188694
 10
140.1473004803767
 20
92.54319785262649
 10
140.1311623614513
 20
92.56095086003674
 10
140.113409354041
 20
92.57708897896211
 10
140.0941598833015
 20
92.59147225240062
 10
140.0735323743882
 20
92.6039930211199
 10
140.0516667843032
 20
92.61451132811797
 10
140.028681538202
 20
92.62291951416248
 10
140.0046950612402
 20
92.6290668563282
 10
139.9798473104198
 20
92.63285646130599
 10
139.9542459449731
 20
92.63414837209388
 10
139.9542459449731
 20
92.63414837209388
 10
139.9287091750658
 20
92.63285646130599
 10
139.9039152538616
 20
92.6290668563282
 10
139.8799826065159
 20
92.62291951416248
 10
139.8570296581844
 20
92.6145220940412
 10
139.8351963658691
 20
92.6039930211199
 10
139.8146011547255
 20
92.59147225240062
 10
139.7953732158324
 20
92.57707821303887
 10
139.7776417402686
 20
92.56095086003674
 10
139.7615143872665
 20
92.54319785262649
 10
139.7471418797512
 20
92.52394838188694
 10
139.7346211110319
 20
92.50332087297365
 10
139.7241135699571
 20
92.48145528288862
 10
139.7157053839126
 20
92.45847003678742
 10
139.7095472758236
 20
92.43448355982562
 10
139.7057684367691
 20
92.40963580900521
 10
139.7044765259812
 20
92.38403444355855
 10
139.7044765259812
 20
92.38403444355855
 10
139.7057792026923
 20
92.35848690772804
 10
139.7095472758236
 20
92.3336929865238
 10
139.7157053839126
 20
92.30976033917815
 10
139.7241028040339
 20
92.2868181567699
 10
139.7346211110319
 20
92.26497409853133
 10
139.747131113828
 20
92.24438965331098
 10
139.7615251531897
 20
92.22515094849464
 10
139.7776417402686
 20
92.20741947293087
 10
139.7953732158324
 20
92.19130288585197
 10
139.8146011547255
 20
92.17691961241346
 10
139.8351963658691
 20
92.1644096096174
 10
139.8570296581844
 20
92.15389130261934
 10
139.8799826065159
 20
92.14549388249806
 10
139.9039152538616
 20
92.13933577440912
 10
139.9287091750658
 20
92.13555693535454
 10
139.9542459449731
 20
92.13426502456664
  0
HATCH
  5
A0
330
1F
100
AcDbEntity
  8
ISS138金台
  6
Continuous
 62
   250
420
  2367521
370
    50
100
AcDbHatch
 10
0.0
 20
0.0
 30
0.0
210
0.0
220
0.0
230
1.0
  2
SOLID
 70
     1
 71
     0
 91
        1
 92
        3
 72
     0
 73
     1
 93
       67
 10
105.029246469494
 20
92.13426502456664
 10
105.0549016645568
 20
92.13555693535454
 10
105.0798140109166
 20
92.13933577440912
 10
105.1038220197249
 20
92.14549388249806
 10
105.1268180317493
 20
92.15390206854258
 10
105.1486943877575
 20
92.1644096096174
 10
105.1693218966708
 20
92.17691961241346
 10
105.1885606014872
 20
92.19130288585197
 10
105.2062920770509
 20
92.20741947293087
 10
105.2224194300531
 20
92.22515094849464
 10
105.2367811716451
 20
92.24438965331098
 10
105.2492911744412
 20
92.26497409853133
 10
105.2597879495928
 20
92.28680739084666
 10
105.2681638378676
 20
92.30976033917815
 10
105.2743111800333
 20
92.3336929865238
 10
105.2780900190879
 20
92.35849767365127
 10
105.2793711639525
 20
92.38403444355855
 10
105.2793711639525
 20
92.38403444355855
 10
105.2780900190879
 20
92.40963580900521
 10
105.2743111800333
 20
92.43448355982562
 10
105.2681638378676
 20
92.4584592708642
 10
105.2597879495928
 20
92.48146604881185
 10
105.2492911744412
 20
92.50332087297365
 10
105.2367811716451
 20
92.52394838188694
 10
105.2224194300531
 20
92.54319785262649
 10
105.2063028429742
 20
92.56095086003674
 10
105.1885606014872
 20
92.57708897896211
 10
105.1693111307476
 20
92.59147225240062
 10
105.1486943877575
 20
92.6039930211199
 10
105.1268180317493
 20
92.61451132811797
 10
105.1038112538016
 20
92.62291951416248
 10
105.0798032449933
 20
92.6290668563282
 10
105.0549016645568
 20
92.63285646130599
 10
105.029246469494
 20
92.63414837209388
 10
105.029246469494
 20
92.63414837209388
 10
105.0037096995867
 20
92.63285646130599
 10
104.9789157783824
 20
92.6290668563282
 10
104.9549831310368
 20
92.62291951416248
 10
104.9320301827053
 20
92.6145220940412
 10
104.91019689039
 20
92.6039930211199
 10
104.8896016792464
 20
92.59147225240062
 10
104.8703737403533
 20
92.57707821303887
 10
104.8526422647895
 20
92.56095086003674
 10
104.8365149117874
 20
92.54319785262649
 10
104.8221424042721
 20
92.52394838188694
 10
104.8096216355528
 20
92.50332087297365
 10
104.799114094478
 20
92.48145528288862
 10
104.7907059084335
 20
92.45847003678742
 10
104.7845478003445
 20
92.43448355982562
 10
104.78076896129
 20
92.40963580900521
 10
104.7794770505021
 20
92.38403444355855
 10
104.7794770505021
 20
92.38403444355855
 10
104.7807797272132
 20
92.35848690772804
 10
104.7845478003445
 20
92.3336929865238
 10
104.7907059084335
 20
92.30976033917815
 10
104.7991033285547
 20
92.2868181567699
 10
104.809632401476
 20
92.26497409853133
 10
104.8221316383489
 20
92.24438965331098
 10
104.8365256777106
 20
92.22515094849464
 10
104.8526422647895
 20
92.20741947293087
 10
104.8703737403533
 20
92.19130288585197
 10
104.8896016792464
 20
92.17691961241346
 10
104.91019689039
 20
92.1644096096174
 10
104.9320301827053
 20
92.15389130261934
 10
104.9549831310368
 20
92.14549388249806
 10
104.9789157783824
 20
92.13933577440912
 10
105.0037096995867
 20
92.13555693535454
 97
        0
 75
     1
 76
     1
 98
        0
  0
LWPOLYLINE
  5
A1
330
1F
100
AcDbEntity
  8
ISS138金台
  6
Continuous
 62
   250
420
  2367521
370
    50
100
AcDbPolyline
 90
       68
 70
     0
 43
0.0
 10
105.029246469494
 20
92.13426502456664
 10
105.0549016645568
 20
92.13555693535454
 10
105.0798140109166
 20
92.13933577440912
 10
105.1038220197249
 20
92.14549388249806
 10
105.1268180317493
 20
92.15390206854258
 10
105.1486943877575
 20
92.1644096096174
 10
105.1693218966708
 20
92.17691961241346
 10
105.1885606014872
 20
92.19130288585197
 10
105.2062920770509
 20
92.20741947293087
 10
105.2224194300531
 20
92.22515094849464
 10
105.2367811716451
 20
92.24438965331098
 10
105.2492911744412
 20
92.26497409853133
 10
105.2597879495928
 20
92.28680739084666
 10
105.2681638378676
 20
92.30976033917815
 10
105.2743111800333
 20
92.3336929865238
 10
105.2780900190879
 20
92.35849767365127
 10
105.2793711639525
 20
92.38403444355855
 10
105.2793711639525
 20
92.38403444355855
 10
105.2780900190879
 20
92.40963580900521
 10
105.2743111800333
 20
92.43448355982562
 10
105.2681638378676
 20
92.4584592708642
 10
105.2597879495928
 20
92.48146604881185
 10
105.2492911744412
 20
92.50332087297365
 10
105.2367811716451
 20
92.52394838188694
 10
105.2224194300531
 20
92.54319785262649
 10
105.2063028429742
 20
92.56095086003674
 10
105.1885606014872
 20
92.57708897896211
 10
105.1693111307476
 20
92.59147225240062
 10
105.1486943877575
 20
92.6039930211199
 10
105.1268180317493
 20
92.61451132811797
 10
105.1038112538016
 20
92.62291951416248
 10
105.0798032449933
 20
92.6290668563282
 10
105.0549016645568
 20
92.63285646130599
 10
105.029246469494
 20
92.63414837209388
 10
105.029246469494
 20
92.63414837209388
 10
105.0037096995867
 20
92.63285646130599
 10
104.9789157783824
 20
92.6290668563282
 10
104.9549831310368
 20
92.62291951416248
 10
104.9320301827053
 20
92.6145220940412
 10
104.91019689039
 20
92.6039930211199
 10
104.8896016792464
 20
92.59147225240062
 10
104.8703737403533
 20
92.57707821303887
 10
104.8526422647895
 20
92.56095086003674
 10
104.8365149117874
 20
92.54319785262649
 10
104.8221424042721
 20
92.52394838188694
 10
104.8096216355528
 20
92.50332087297365
 10
104.799114094478
 20
92.48145528288862
 10
104.7907059084335
 20
92.45847003678742
 10
104.7845478003445
 20
92.43448355982562
 10
104.78076896129
 20
92.40963580900521
 10
104.7794770505021
 20
92.38403444355855
 10
104.7794770505021
 20
92.38403444355855
 10
104.7807797272132
 20
92.35848690772804
 10
104.7845478003445
 20
92.3336929865238
 10
104.7907059084335
 20
92.30976033917815
 10
104.7991033285547
 20
92.2868181567699
 10
104.809632401476
 20
92.26497409853133
 10
104.8221316383489
 20
92.24438965331098
 10
104.8365256777106
 20
92.22515094849464
 10
104.8526422647895
 20
92.20741947293087
 10
104.8703737403533
 20
92.19130288585197
 10
104.8896016792464
 20
92.17691961241346
 10
104.91019689039
 20
92.1644096096174
 10
104.9320301827053
 20
92.15389130261934
 10
104.9549831310368
 20
92.14549388249806
 10
104.9789157783824
 20
92.13933577440912
 10
105.0037096995867
 20
92.13555693535454
 10
105.029246469494
 20
92.13426502456664
  0
HATCH
  5
A2
330
1F
100
AcDbEntity
  8
ISS138金台
  6
Continuous
 62
   250
420
  2367521
370
    50
100
AcDbHatch
 10
0.0
 20
0.0
 30
0.0
210
0.0
220
0.0
230
1.0
  2
SOLID
 70
     1
 71
     0
 91
        1
 92
        3
 72
     0
 73
     1
 93
       67
 10
99.53914238528037
 20
102.4750527144513
 10
99.56479758034321
 20
102.4763446252392
 10
99.58970992670301
 20
102.4801234642938
 10
99.61370716958805
 20
102.4862815723827
 10
99.6367139475357
 20
102.4946897584272
 10
99.65859030354396
 20
102.5051972995021
 10
99.67921781245727
 20
102.5177180682214
 10
99.69845651727357
 20
102.5320905757366
 10
99.71619875876058
 20
102.5482071628155
 10
99.73231534583951
 20
102.5659494043026
 10
99.74667708743154
 20
102.5851773431956
 10
99.75918709022758
 20
102.605761788416
 10
99.76968386537919
 20
102.6276058466546
 10
99.778059753654
 20
102.6505480290628
 10
99.78420709581971
 20
102.6744806764085
 10
99.78798593487429
 20
102.6992853635359
 10
99.78926707973895
 20
102.7248221334432
 10
99.78926707973895
 20
102.7248221334432
 10
99.78797516895105
 20
102.7504234988899
 10
99.78420709581971
 20
102.7752712497103
 10
99.778059753654
 20
102.7992577266721
 10
99.76968386537919
 20
102.8222537386965
 10
99.75917632430436
 20
102.8441085628583
 10
99.74667708743154
 20
102.8647360717716
 10
99.73230457991627
 20
102.8839855425112
 10
99.71619875876058
 20
102.9017385499214
 10
99.69845651727357
 20
102.9178659029236
 10
99.67920704653403
 20
102.9322599422853
 10
99.65859030354396
 20
102.9447807110046
 10
99.6367139475357
 20
102.9552990180026
 10
99.61370716958805
 20
102.9637072040471
 10
99.58969916077977
 20
102.9698653121361
 10
99.56479758034321
 20
102.9736441511907
 10
99.53914238528037
 20
102.9749360619786
 10
99.53914238528037
 20
102.9749360619786
 10
99.51360561537311
 20
102.9736549171139
 10
99.48881169416887
 20
102.9698545462128
 10
99.46486828089999
 20
102.9637072040471
 10
99.44192609849173
 20
102.9552990180026
 10
99.4200928061764
 20
102.9447807110046
 10
99.3994975950328
 20
102.9322599422853
 10
99.38026965613972
 20
102.9178659029236
 10
99.36253818057594
 20
102.9017385499214
 10
99.34641082757379
 20
102.8839855425112
 10
99.33203832005853
 20
102.8647360717716
 10
99.31951755133923
 20
102.8441085628583
 10
99.3090100102644
 20
102.8222429727733
 10
99.30060182421988
 20
102.7992577266721
 10
99.29444371613096
 20
102.7752712497103
 10
99.29066487707638
 20
102.7504234988899
 10
99.28937296628848
 20
102.7248221334432
 10
99.28937296628848
 20
102.7248221334432
 10
99.29066487707638
 20
102.6992853635359
 10
99.29444371613096
 20
102.6744914423317
 10
99.30060182421988
 20
102.6505480290628
 10
99.30899924434117
 20
102.6276058466546
 10
99.31951755133923
 20
102.605761788416
 10
99.3320275541353
 20
102.5851665772724
 10
99.34641082757379
 20
102.5659386383793
 10
99.36253818057594
 20
102.5482071628155
 10
99.38026965613972
 20
102.5320905757366
 10
99.3994975950328
 20
102.5177073022981
 10
99.4200928061764
 20
102.5051972995021
 10
99.44192609849173
 20
102.494678992504
 10
99.46487904682323
 20
102.4862815723827
 10
99.48881169416887
 20
102.4801234642938
 10
99.51360561537311
 20
102.4763446252392
 97
        0
 75
     1
 76
     1
 98
        0
  0
LWPOLYLINE
  5
A3
330
1F
100
AcDbEntity
  8
ISS138金台
  6
Continuous
 62
   250
420
  2367521
370
    50
100
AcDbPolyline
 90
       68
 70
     0
 43
0.0
 10
99.53914238528037
 20
102.4750527144513
 10
99.56479758034321
 20
102.4763446252392
 10
99.58970992670301
 20
102.4801234642938
 10
99.61370716958805
 20
102.4862815723827
 10
99.6367139475357
 20
102.4946897584272
 10
99.65859030354396
 20
102.5051972995021
 10
99.67921781245727
 20
102.5177180682214
 10
99.69845651727357
 20
102.5320905757366
 10
99.71619875876058
 20
102.5482071628155
 10
99.73231534583951
 20
102.5659494043026
 10
99.74667708743154
 20
102.5851773431956
 10
99.75918709022758
 20
102.605761788416
 10
99.76968386537919
 20
102.6276058466546
 10
99.778059753654
 20
102.6505480290628
 10
99.78420709581971
 20
102.6744806764085
 10
99.78798593487429
 20
102.6992853635359
 10
99.78926707973895
 20
102.7248221334432
 10
99.78926707973895
 20
102.7248221334432
 10
99.78797516895105
 20
102.7504234988899
 10
99.78420709581971
 20
102.7752712497103
 10
99.778059753654
 20
102.7992577266721
 10
99.76968386537919
 20
102.8222537386965
 10
99.75917632430436
 20
102.8441085628583
 10
99.74667708743154
 20
102.8647360717716
 10
99.73230457991627
 20
102.8839855425112
 10
99.71619875876058
 20
102.9017385499214
 10
99.69845651727357
 20
102.9178659029236
 10
99.67920704653403
 20
102.9322599422853
 10
99.65859030354396
 20
102.9447807110046
 10
99.6367139475357
 20
102.9552990180026
 10
99.61370716958805
 20
102.9637072040471
 10
99.58969916077977
 20
102.9698653121361
 10
99.56479758034321
 20
102.9736441511907
 10
99.53914238528037
 20
102.9749360619786
 10
99.53914238528037
 20
102.9749360619786
 10
99.51360561537311
 20
102.9736549171139
 10
99.48881169416887
 20
102.9698545462128
 10
99.46486828089999
 20
102.9637072040471
 10
99.44192609849173
 20
102.9552990180026
 10
99.4200928061764
 20
102.9447807110046
 10
99.3994975950328
 20
102.9322599422853
 10
99.38026965613972
 20
102.9178659029236
 10
99.36253818057594
 20
102.9017385499214
 10
99.34641082757379
 20
102.8839855425112
 10
99.33203832005853
 20
102.8647360717716
 10
99.31951755133923
 20
102.8441085628583
 10
99.3090100102644
 20
102.8222429727733
 10
99.30060182421988
 20
102.7992577266721
 10
99.29444371613096
 20
102.7752712497103
 10
99.29066487707638
 20
102.7504234988899
 10
99.28937296628848
 20
102.7248221334432
 10
99.28937296628848
 20
102.7248221334432
 10
99.29066487707638
 20
102.6992853635359
 10
99.29444371613096
 20
102.6744914423317
 10
99.30060182421988
 20
102.6505480290628
 10
99.30899924434117
 20
102.6276058466546
 10
99.31951755133923
 20
102.605761788416
 10
99.3320275541353
 20
102.5851665772724
 10
99.34641082757379
 20
102.5659386383793
 10
99.36253818057594
 20
102.5482071628155
 10
99.38026965613972
 20
102.5320905757366
 10
99.3994975950328
 20
102.5177073022981
 10
99.4200928061764
 20
102.5051972995021
 10
99.44192609849173
 20
102.494678992504
 10
99.46487904682323
 20
102.4862815723827
 10
99.48881169416887
 20
102.4801234642938
 10
99.51360561537311
 20
102.4763446252392
 10
99.53914238528037
 20
102.4750527144513
  0
HATCH
  5
A4
330
1F
100
AcDbEntity
  8
ISS138金台
  6
Continuous
 62
   250
420
  2367521
370
    50
100
AcDbHatch
 10
0.0
 20
0.0
 30
0.0
210
0.0
220
0.0
230
1.0
  2
SOLID
 70
     1
 71
     0
 91
        1
 92
        3
 72
     0
 73
     1
 93
       67
 10
99.53914238528037
 20
113.7198442122382
 10
99.56479758034321
 20
113.7211468889493
 10
99.58970992670301
 20
113.7249149620806
 10
99.61370716958805
 20
113.7310730701696
 10
99.6367139475357
 20
113.7394812562141
 10
99.65859030354396
 20
113.7499887972889
 10
99.67921781245727
 20
113.7625095660082
 10
99.69845651727357
 20
113.7768820735235
 10
99.71619875876058
 20
113.7929986606024
 10
99.73231534583951
 20
113.8107301361662
 10
99.74667708743154
 20
113.8299688409825
 10
99.75918709022758
 20
113.8505532862028
 10
99.76968386537919
 20
113.8723973444414
 10
99.778059753654
 20
113.8953395268497
 10
99.78420709581971
 20
113.9192721741953
 10
99.78798593487429
 20
113.9440768613228
 10
99.78926707973895
 20
113.9696136312301
 10
99.78926707973895
 20
113.9696136312301
 10
99.78797516895105
 20
113.9952688262929
 10
99.78420709581971
 20
114.0201596408062
 10
99.778059753654
 20
114.0441784155377
 10
99.76968386537919
 20
114.0671959594086
 10
99.75917632430436
 20
114.0890507835704
 10
99.74667708743154
 20
114.1096782924837
 10
99.73230457991627
 20
114.1289277632232
 10
99.71619875876058
 20
114.146659238787
 10
99.69845651727357
 20
114.1627758258659
 10
99.67920704653403
 20
114.1771483333812
 10
99.65859030354396
 20
114.189647570254
 10
99.6367139475357
 20
114.2001443454056
 10
99.61370716958805
 20
114.2085309996037
 10
99.58969916077977
 20
114.2146675758461
 10
99.56479758034321
 20
114.2184464149007
 10
99.53914238528037
 20
114.2197275597654
 10
99.53914238528037
 20
114.2197275597654
 10
99.51360561537311
 20
114.2184356489775
 10
99.48881169416887
 20
114.2146675758461
 10
99.46486828089999
 20
114.2085309996037
 10
99.44192609849173
 20
114.2001335794824
 10
99.4200928061764
 20
114.1896368043308
 10
99.3994975950328
 20
114.1771483333812
 10
99.38026965613972
 20
114.1627758258659
 10
99.36253818057594
 20
114.146659238787
 10
99.34641082757379
 20
114.1289169973
 10
99.33203832005853
 20
114.1096782924837
 10
99.31951755133923
 20
114.0890615494936
 10
99.3090100102644
 20
114.0671851934854
 10
99.30060182421988
 20
114.0441784155377
 10
99.29444371613096
 20
114.0201704067294
 10
99.29066487707638
 20
113.9952688262929
 10
99.28937296628848
 20
113.9696136312301
 10
99.28937296628848
 20
113.9696136312301
 10
99.29066487707638
 20
113.9440768613228
 10
99.29444371613096
 20
113.9192829401185
 10
99.30060182421988
 20
113.8953395268497
 10
99.30899924434117
 20
113.8723973444414
 10
99.31951755133923
 20
113.8505532862028
 10
99.3320275541353
 20
113.8299580750593
 10
99.34641082757379
 20
113.8107301361662
 10
99.36253818057594
 20
113.7929986606024
 10
99.38026965613972
 20
113.7768820735235
 10
99.3994975950328
 20
113.762498800085
 10
99.4200928061764
 20
113.7499887972889
 10
99.44192609849173
 20
113.7394704902908
 10
99.46487904682323
 20
113.7310730701696
 10
99.48881169416887
 20
113.7249149620806
 10
99.51360561537311
 20
113.721136123026
 97
        0
 75
     1
 76
     1
 98
        0
  0
LWPOLYLINE
  5
A5
330
1F
100
AcDbEntity
  8
ISS138金台
  6
Continuous
 62
   250
420
  2367521
370
    50
100
AcDbPolyline
 90
       68
 70
     0
 43
0.0
 10
99.53914238528037
 20
113.7198442122382
 10
99.56479758034321
 20
113.7211468889493
 10
99.58970992670301
 20
113.7249149620806
 10
99.61370716958805
 20
113.7310730701696
 10
99.6367139475357
 20
113.7394812562141
 10
99.65859030354396
 20
113.7499887972889
 10
99.67921781245727
 20
113.7625095660082
 10
99.69845651727357
 20
113.7768820735235
 10
99.71619875876058
 20
113.7929986606024
 10
99.73231534583951
 20
113.8107301361662
 10
99.74667708743154
 20
113.8299688409825
 10
99.75918709022758
 20
113.8505532862028
 10
99.76968386537919
 20
113.8723973444414
 10
99.778059753654
 20
113.8953395268497
 10
99.78420709581971
 20
113.9192721741953
 10
99.78798593487429
 20
113.9440768613228
 10
99.78926707973895
 20
113.9696136312301
 10
99.78926707973895
 20
113.9696136312301
 10
99.78797516895105
 20
113.9952688262929
 10
99.78420709581971
 20
114.0201596408062
 10
99.778059753654
 20
114.0441784155377
 10
99.76968386537919
 20
114.0671959594086
 10
99.75917632430436
 20
114.0890507835704
 10
99.74667708743154
 20
114.1096782924837
 10
99.73230457991627
 20
114.1289277632232
 10
99.71619875876058
 20
114.146659238787
 10
99.69845651727357
 20
114.1627758258659
 10
99.67920704653403
 20
114.1771483333812
 10
99.65859030354396
 20
114.189647570254
 10
99.6367139475357
 20
114.2001443454056
 10
99.61370716958805
 20
114.2085309996037
 10
99.58969916077977
 20
114.2146675758461
 10
99.56479758034321
 20
114.2184464149007
 10
99.53914238528037
 20
114.2197275597654
 10
99.53914238528037
 20
114.2197275597654
 10
99.51360561537311
 20
114.2184356489775
 10
99.48881169416887
 20
114.2146675758461
 10
99.46486828089999
 20
114.2085309996037
 10
99.44192609849173
 20
114.2001335794824
 10
99.4200928061764
 20
114.1896368043308
 10
99.3994975950328
 20
114.1771483333812
 10
99.38026965613972
 20
114.1627758258659
 10
99.36253818057594
 20
114.146659238787
 10
99.34641082757379
 20
114.1289169973
 10
99.33203832005853
 20
114.1096782924837
 10
99.31951755133923
 20
114.0890615494936
 10
99.3090100102644
 20
114.0671851934854
 10
99.30060182421988
 20
114.0441784155377
 10
99.29444371613096
 20
114.0201704067294
 10
99.29066487707638
 20
113.9952688262929
 10
99.28937296628848
 20
113.9696136312301
 10
99.28937296628848
 20
113.9696136312301
 10
99.29066487707638
 20
113.9440768613228
 10
99.29444371613096
 20
113.9192829401185
 10
99.30060182421988
 20
113.8953395268497
 10
99.30899924434117
 20
113.8723973444414
 10
99.31951755133923
 20
113.8505532862028
 10
99.3320275541353
 20
113.8299580750593
 10
99.34641082757379
 20
113.8107301361662
 10
99.36253818057594
 20
113.7929986606024
 10
99.38026965613972
 20
113.7768820735235
 10
99.3994975950328
 20
113.762498800085
 10
99.4200928061764
 20
113.7499887972889
 10
99.44192609849173
 20
113.7394704902908
 10
99.46487904682323
 20
113.7310730701696
 10
99.48881169416887
 20
113.7249149620806
 10
99.51360561537311
 20
113.721136123026
 10
99.53914238528037
 20
113.7198442122382
  0
HATCH
  5
A6
330
1F
100
AcDbEntity
  8
ISS138金台
  6
Continuous
 62
   250
420
  2367521
370
    50
100
AcDbHatch
 10
0.0
 20
0.0
 30
0.0
210
0.0
220
0.0
230
1.0
  2
SOLID
 70
     1
 71
     0
 91
        1
 92
        3
 72
     0
 73
     1
 93
       67
 10
105.029246469494
 20
119.209959062375
 10
105.0549016645568
 20
119.2112509731629
 10
105.0798140109166
 20
119.2150405781407
 10
105.1038220197249
 20
119.2211879203064
 10
105.1268180317493
 20
119.2295961063509
 10
105.1486943877575
 20
119.2401036474257
 10
105.1693218966708
 20
119.2526136502218
 10
105.1885606014872
 20
119.2669969236603
 10
105.2062920770509
 20
119.2831135107392
 10
105.2224194300531
 20
119.3008557522262
 10
105.2367811716451
 20
119.3200836911193
 10
105.2492911744412
 20
119.3406681363397
 10
105.2597879495928
 20
119.362501428655
 10
105.2681638378676
 20
119.3854543769865
 10
105.2743111800333
 20
119.4093870243321
 10
105.2780900190879
 20
119.4341917114596
 10
105.2793711639525
 20
119.4597284813669
 10
105.2793711639525
 20
119.4597284813669
 10
105.2780900190879
 20
119.4853298468135
 10
105.2743111800333
 20
119.5101668317107
 10
105.2681638378676
 20
119.5341640745958
 10
105.2597879495928
 20
119.5571600866202
 10
105.2492911744412
 20
119.579014910782
 10
105.2367811716451
 20
119.5996424196953
 10
105.2224194300531
 20
119.6188918904348
 10
105.2063028429742
 20
119.636644897845
 10
105.1885606014872
 20
119.6527830167704
 10
105.1693111307476
 20
119.6671662902089
 10
105.1486943877575
 20
119.6796870589282
 10
105.1268180317493
 20
119.6902053659263
 10
105.1038112538016
 20
119.6986135519708
 10
105.0798032449933
 20
119.7047608941365
 10
105.0549016645568
 20
119.7085504991143
 10
105.029246469494
 20
119.7098424099022
 10
105.029246469494
 20
119.7098424099022
 10
105.0037096995867
 20
119.7085504991143
 10
104.9789157783824
 20
119.7047608941365
 10
104.9549831310368
 20
119.6986135519708
 10
104.9320301827053
 20
119.6902161318495
 10
104.91019689039
 20
119.6796870589282
 10
104.8896016792464
 20
119.6671770561322
 10
104.8703737403533
 20
119.6527830167704
 10
104.8526422647895
 20
119.636644897845
 10
104.8365149117874
 20
119.6188918904348
 10
104.8221424042721
 20
119.5996424196953
 10
104.8096216355528
 20
119.579014910782
 10
104.799114094478
 20
119.5571493206969
 10
104.7907059084335
 20
119.5341640745958
 10
104.7845478003445
 20
119.5101775976339
 10
104.78076896129
 20
119.4853298468135
 10
104.7794770505021
 20
119.4597284813669
 10
104.7794770505021
 20
119.4597284813669
 10
104.7807797272132
 20
119.4341809455364
 10
104.7845478003445
 20
119.4093977902554
 10
104.7907059084335
 20
119.3854543769865
 10
104.7991033285547
 20
119.362501428655
 10
104.809632401476
 20
119.3406789022629
 10
104.8221316383489
 20
119.3200836911193
 10
104.8365256777106
 20
119.3008557522262
 10
104.8526422647895
 20
119.2831135107392
 10
104.8703737403533
 20
119.2669969236603
 10
104.8896016792464
 20
119.2526136502218
 10
104.91019689039
 20
119.2401036474257
 10
104.9320301827053
 20
119.2295853404276
 10
104.9549831310368
 20
119.2211879203064
 10
104.9789157783824
 20
119.2150298122174
 10
105.0037096995867
 20
119.2112509731629
 97
        0
 75
     1
 76
     1
 98
        0
  0
LWPOLYLINE
  5
A7
330
1F
100
AcDbEntity
  8
ISS138金台
  6
Continuous
 62
   250
420
  2367521
370
    50
100
AcDbPolyline
 90
       68
 70
     0
 43
0.0
 10
105.029246469494
 20
119.209959062375
 10
105.0549016645568
 20
119.2112509731629
 10
105.0798140109166
 20
119.2150405781407
 10
105.1038220197249
 20
119.2211879203064
 10
105.1268180317493
 20
119.2295961063509
 10
105.1486943877575
 20
119.2401036474257
 10
105.1693218966708
 20
119.2526136502218
 10
105.1885606014872
 20
119.2669969236603
 10
105.2062920770509
 20
119.2831135107392
 10
105.2224194300531
 20
119.3008557522262
 10
105.2367811716451
 20
119.3200836911193
 10
105.2492911744412
 20
119.3406681363397
 10
105.2597879495928
 20
119.362501428655
 10
105.2681638378676
 20
119.3854543769865
 10
105.2743111800333
 20
119.4093870243321
 10
105.2780900190879
 20
119.4341917114596
 10
105.2793711639525
 20
119.4597284813669
 10
105.2793711639525
 20
119.4597284813669
 10
105.2780900190879
 20
119.4853298468135
 10
105.2743111800333
 20
119.5101668317107
 10
105.2681638378676
 20
119.5341640745958
 10
105.2597879495928
 20
119.5571600866202
 10
105.2492911744412
 20
119.579014910782
 10
105.2367811716451
 20
119.5996424196953
 10
105.2224194300531
 20
119.6188918904348
 10
105.2063028429742
 20
119.636644897845
 10
105.1885606014872
 20
119.6527830167704
 10
105.1693111307476
 20
119.6671662902089
 10
105.1486943877575
 20
119.6796870589282
 10
105.1268180317493
 20
119.6902053659263
 10
105.1038112538016
 20
119.6986135519708
 10
105.0798032449933
 20
119.7047608941365
 10
105.0549016645568
 20
119.7085504991143
 10
105.029246469494
 20
119.7098424099022
 10
105.029246469494
 20
119.7098424099022
 10
105.0037096995867
 20
119.7085504991143
 10
104.9789157783824
 20
119.7047608941365
 10
104.9549831310368
 20
119.6986135519708
 10
104.9320301827053
 20
119.6902161318495
 10
104.91019689039
 20
119.6796870589282
 10
104.8896016792464
 20
119.6671770561322
 10
104.8703737403533
 20
119.6527830167704
 10
104.8526422647895
 20
119.636644897845
 10
104.8365149117874
 20
119.6188918904348
 10
104.8221424042721
 20
119.5996424196953
 10
104.8096216355528
 20
119.579014910782
 10
104.799114094478
 20
119.5571493206969
 10
104.7907059084335
 20
119.5341640745958
 10
104.7845478003445
 20
119.5101775976339
 10
104.78076896129
 20
119.4853298468135
 10
104.7794770505021
 20
119.4597284813669
 10
104.7794770505021
 20
119.4597284813669
 10
104.7807797272132
 20
119.4341809455364
 10
104.7845478003445
 20
119.4093977902554
 10
104.7907059084335
 20
119.3854543769865
 10
104.7991033285547
 20
119.362501428655
 10
104.809632401476
 20
119.3406789022629
 10
104.8221316383489
 20
119.3200836911193
 10
104.8365256777106
 20
119.3008557522262
 10
104.8526422647895
 20
119.2831135107392
 10
104.8703737403533
 20
119.2669969236603
 10
104.8896016792464
 20
119.2526136502218
 10
104.91019689039
 20
119.2401036474257
 10
104.9320301827053
 20
119.2295853404276
 10
104.9549831310368
 20
119.2211879203064
 10
104.9789157783824
 20
119.2150298122174
 10
105.0037096995867
 20
119.2112509731629
 10
105.029246469494
 20
119.209959062375
  0
HATCH
  5
A8
330
1F
100
AcDbEntity
  8
ISS138金台
  6
Continuous
 62
   250
420
  2367521
370
    50
100
AcDbHatch
 10
0.0
 20
0.0
 30
0.0
210
0.0
220
0.0
230
1.0
  2
SOLID
 70
     1
 71
     0
 91
        1
 92
        3
 72
     0
 73
     1
 93
       67
 10
115.9874060271411
 20
119.209959062375
 10
116.013061222204
 20
119.2112509731629
 10
116.0379735685638
 20
119.2150405781407
 10
116.0619708114488
 20
119.2211879203064
 10
116.0849775893964
 20
119.2295961063509
 10
116.1068539454047
 20
119.2401036474257
 10
116.127481454318
 20
119.2526136502218
 10
116.1467201591343
 20
119.2669969236603
 10
116.1644516346981
 20
119.2831135107392
 10
116.1805789877002
 20
119.3008557522262
 10
116.1949407292923
 20
119.3200836911193
 10
116.2074507320883
 20
119.3406681363397
 10
116.2179475072399
 20
119.362501428655
 10
116.2263233955148
 20
119.3854543769865
 10
116.2324707376805
 20
119.4093870243321
 10
116.236249576735
 20
119.4341917114596
 10
116.2375307215997
 20
119.4597284813669
 10
116.2375307215997
 20
119.4597284813669
 10
116.2362388108118
 20
119.4853298468135
 10
116.2324707376805
 20
119.5101668317107
 10
116.2263233955148
 20
119.5341640745958
 10
116.2179475072399
 20
119.5571600866202
 10
116.2074399661651
 20
119.579014910782
 10
116.1949407292923
 20
119.5996424196953
 10
116.180568221777
 20
119.6188918904348
 10
116.1644624006213
 20
119.636644897845
 10
116.1467201591343
 20
119.6527830167704
 10
116.1274706883948
 20
119.6671662902089
 10
116.1068539454047
 20
119.6796870589282
 10
116.0849775893964
 20
119.6902053659263
 10
116.0619708114488
 20
119.6986135519708
 10
116.0379628026405
 20
119.7047608941365
 10
116.013061222204
 20
119.7085504991143
 10
115.9874060271411
 20
119.7098424099022
 10
115.9874060271411
 20
119.7098424099022
 10
115.9618692572339
 20
119.7085504991143
 10
115.9370753360296
 20
119.7047608941365
 10
115.9131319227607
 20
119.6986135519708
 10
115.8901897403525
 20
119.6902161318495
 10
115.8683564480371
 20
119.6796870589282
 10
115.8477612368936
 20
119.6671770561322
 10
115.8285332980005
 20
119.6527830167704
 10
115.8108018224367
 20
119.636644897845
 10
115.7946852353578
 20
119.6188918904348
 10
115.7803019619193
 20
119.5996424196953
 10
115.7677811932
 20
119.579014910782
 10
115.7572736521251
 20
119.5571493206969
 10
115.7488654660806
 20
119.5341640745958
 10
115.7427073579917
 20
119.5101775976339
 10
115.7389285189371
 20
119.4853298468135
 10
115.7376366081492
 20
119.4597284813669
 10
115.7376366081492
 20
119.4597284813669
 10
115.7389177530139
 20
119.4341809455364
 10
115.7427073579917
 20
119.4093977902554
 10
115.7488547001574
 20
119.3854543769865
 10
115.7572628862019
 20
119.362501428655
 10
115.7677811932
 20
119.3406789022629
 10
115.780291195996
 20
119.3200836911193
 10
115.7946744694345
 20
119.3008557522262
 10
115.8108018224367
 20
119.2831135107392
 10
115.8285332980005
 20
119.2669969236603
 10
115.8477612368936
 20
119.2526136502218
 10
115.8683564480371
 20
119.2401036474257
 10
115.8901897403525
 20
119.2295853404276
 10
115.913142688684
 20
119.2211879203064
 10
115.9370753360296
 20
119.2150298122174
 10
115.9618692572339
 20
119.2112509731629
 97
        0
 75
     1
 76
     1
 98
        0
  0
LWPOLYLINE
  5
A9
330
1F
100
AcDbEntity
  8
ISS138金台
  6
Continuous
 62
   250
420
  2367521
370
    50
100
AcDbPolyline
 90
       68
 70
     0
 43
0.0
 10
115.9874060271411
 20
119.209959062375
 10
116.013061222204
 20
119.2112509731629
 10
116.0379735685638
 20
119.2150405781407
 10
116.0619708114488
 20
119.2211879203064
 10
116.0849775893964
 20
119.2295961063509
 10
116.1068539454047
 20
119.2401036474257
 10
116.127481454318
 20
119.2526136502218
 10
116.1467201591343
 20
119.2669969236603
 10
116.1644516346981
 20
119.2831135107392
 10
116.1805789877002
 20
119.3008557522262
 10
116.1949407292923
 20
119.3200836911193
 10
116.2074507320883
 20
119.3406681363397
 10
116.2179475072399
 20
119.362501428655
 10
116.2263233955148
 20
119.3854543769865
 10
116.2324707376805
 20
119.4093870243321
 10
116.236249576735
 20
119.4341917114596
 10
116.2375307215997
 20
119.4597284813669
 10
116.2375307215997
 20
119.4597284813669
 10
116.2362388108118
 20
119.4853298468135
 10
116.2324707376805
 20
119.5101668317107
 10
116.2263233955148
 20
119.5341640745958
 10
116.2179475072399
 20
119.5571600866202
 10
116.2074399661651
 20
119.579014910782
 10
116.1949407292923
 20
119.5996424196953
 10
116.180568221777
 20
119.6188918904348
 10
116.1644624006213
 20
119.636644897845
 10
116.1467201591343
 20
119.6527830167704
 10
116.1274706883948
 20
119.6671662902089
 10
116.1068539454047
 20
119.6796870589282
 10
116.0849775893964
 20
119.6902053659263
 10
116.0619708114488
 20
119.6986135519708
 10
116.0379628026405
 20
119.7047608941365
 10
116.013061222204
 20
119.7085504991143
 10
115.9874060271411
 20
119.7098424099022
 10
115.9874060271411
 20
119.7098424099022
 10
115.9618692572339
 20
119.7085504991143
 10
115.9370753360296
 20
119.7047608941365
 10
115.9131319227607
 20
119.6986135519708
 10
115.8901897403525
 20
119.6902161318495
 10
115.8683564480371
 20
119.6796870589282
 10
115.8477612368936
 20
119.6671770561322
 10
115.8285332980005
 20
119.6527830167704
 10
115.8108018224367
 20
119.636644897845
 10
115.7946852353578
 20
119.6188918904348
 10
115.7803019619193
 20
119.5996424196953
 10
115.7677811932
 20
119.579014910782
 10
115.7572736521251
 20
119.5571493206969
 10
115.7488654660806
 20
119.5341640745958
 10
115.7427073579917
 20
119.5101775976339
 10
115.7389285189371
 20
119.4853298468135
 10
115.7376366081492
 20
119.4597284813669
 10
115.7376366081492
 20
119.4597284813669
 10
115.7389177530139
 20
119.4341809455364
 10
115.7427073579917
 20
119.4093977902554
 10
115.7488547001574
 20
119.3854543769865
 10
115.7572628862019
 20
119.362501428655
 10
115.7677811932
 20
119.3406789022629
 10
115.780291195996
 20
119.3200836911193
 10
115.7946744694345
 20
119.3008557522262
 10
115.8108018224367
 20
119.2831135107392
 10
115.8285332980005
 20
119.2669969236603
 10
115.8477612368936
 20
119.2526136502218
 10
115.8683564480371
 20
119.2401036474257
 10
115.8901897403525
 20
119.2295853404276
 10
115.913142688684
 20
119.2211879203064
 10
115.9370753360296
 20
119.2150298122174
 10
115.9618692572339
 20
119.2112509731629
 10
115.9874060271411
 20
119.209959062375
  0
LINE
  5
AA
330
1F
100
AcDbEntity
  8
ISS138金台
  6
UserDefined01
 62
   140
420
    44526
370
    13
100
AcDbLine
 10
130.8481696928437
 20
97.85208991699216
 30
0.0
 11
140.020391777313
 21
97.85208991699216
 31
0.0
  0
HATCH
  5
AB
330
1F
100
AcDbEntity
  8
ISS138金台
  6
Continuous
 62
   140
420
    44526
370
    13
100
AcDbHatch
 10
0.0
 20
0.0
 30
0.0
210
0.0
220
0.0
230
1.0
  2
SOLID
 70
     1
 71
     0
 91
        2
 92
        3
 72
     0
 73
     1
 93
       84
 10
135.6227382212617
 20
99.71277519517267
 10
135.610615791702
 20
99.7264371517546
 10
135.5975028972049
 20
99.7391301752456
 10
135.5834533673867
 20
99.75086503156894
 10
135.5685640955562
 20
99.76165248664782
 10
135.5529212090995
 20
99.77150330640546
 10
135.5366108354024
 20
99.78043902268837
 10
135.519729867774
 20
99.78847040141974
 10
135.5023429017537
 20
99.79558667667638
 10
135.484568362497
 20
99.80183091215116
 10
135.4664708455433
 20
99.80719234192091
 10
135.4481364782785
 20
99.81170326375528
 10
135.4296513880884
 20
99.8153636776543
 10
135.4111232342055
 20
99.81819511546442
 10
135.392616612169
 20
99.82019757718567
 10
135.374228415288
 20
99.82138182874122
 10
135.3560340050252
 20
99.82178016790081
 10
135.3560340050252
 20
99.82178016790081
 10
135.3206033516674
 20
99.82049902303616
 10
135.2866045660994
 20
99.81667712028866
 10
135.2541668394002
 20
99.81044365073708
 10
135.223397830802
 20
99.80186320992087
 10
135.1944267313835
 20
99.79104345707229
 10
135.1673612003772
 20
99.77808128550046
 10
135.1423088970154
 20
99.76305205666803
 10
135.1194097783001
 20
99.7460634298073
 10
135.0987715034636
 20
99.72720153230411
 10
135.0804909658149
 20
99.70656325746758
 10
135.0647081223562
 20
99.68423473268356
 10
135.051541398243
 20
99.66031285126115
 10
135.0410876867843
 20
99.63487297466295
 10
135.033476179059
 20
99.6080442939678
 10
135.0288253002226
 20
99.57988063879182
 10
135.0272534754307
 20
99.55050043429057
 10
135.0272534754307
 20
99.55050043429057
 10
135.0286099817579
 20
99.52136784602368
 10
135.0326687348166
 20
99.49318265900123
 10
135.0394189686833
 20
99.46609559614848
 10
135.0487960878187
 20
99.44020355077454
 10
135.0608000922228
 20
99.41564647988142
 10
135.0754094500492
 20
99.39257510639436
 10
135.0925918635282
 20
99.37108632362248
 10
135.1123150348899
 20
99.35130932264454
 10
135.1345574322881
 20
99.33338406046258
 10
135.1592759920297
 20
99.31743972815538
 10
135.186481480038
 20
99.30359475087849
 10
135.2161093007736
 20
99.29197831971072
 10
135.2481594542365
 20
99.2827303916541
 10
135.2825888767337
 20
99.2759586259409
 10
135.3193868023421
 20
99.2718029795732
 10
135.3585101673687
 20
99.27039264362975
 10
135.3585101673687
 20
99.27039264362975
 10
135.391044787377
 20
99.27157689518532
 10
135.4228042609126
 20
99.27504352246615
 10
135.4536916946664
 20
99.28057720700761
 10
135.4835671316363
 20
99.28799492811473
 10
135.5122798488972
 20
99.29711366509258
 10
135.5397329531398
 20
99.30777192909267
 10
135.5657972532855
 20
99.31974363572712
 10
135.5903327923322
 20
99.33287806207065
 10
135.6131996132778
 20
99.34697065558188
 10
135.6343115887365
 20
99.36183839556583
 10
135.6535179957831
 20
99.37729826132758
 10
135.6706896433388
 20
99.39317799809538
 10
135.6857188721713
 20
99.4092622874046
 10
135.6984549593552
 20
99.42538964040673
 10
135.7087794797351
 20
99.44136627048364
 10
135.7165740081554
 20
99.45700915694033
 10
135.7165740081554
 20
99.45700915694033
 10
135.7156912024503
 20
99.47381476310612
 10
135.7139471228867
 20
99.49086798550626
 10
135.711417130927
 20
99.50806116490841
 10
135.7081119924947
 20
99.52535123761967
 10
135.704096303129
 20
99.54265207625414
 10
135.6993808287532
 20
99.55988831934923
 10
135.6940193989835
 20
99.57699537136554
 10
135.6880443115895
 20
99.59388710491717
 10
135.6814986302642
 20
99.61050969038803
 10
135.674403886854
 20
99.62676623446896
 10
135.6668246768984
 20
99.64260290754383
 10
135.6587825322438
 20
99.65793358222678
 10
135.6503097506599
 20
99.67268289705518
 10
135.6414601617628
 20
99.68679702241288
 10
135.6322552973991
 20
99.70017906499075
 97
        0
 92
        3
 72
     0
 73
     1
 93
      171
 10
135.3313477430533
 20
98.64773470756012
 10
135.3132179283299
 20
98.64412812327727
 10
135.2951311772995
 20
98.64074762338228
 10
135.2770659581155
 20
98.63757167602873
 10
135.2590007389315
 20
98.63461104713983
 10
135.2409785834405
 20
98.63186573671555
 10
135.2229671938726
 20
98.62934651067917
 10
135.2049988679977
 20
98.62705336903068
 10
135.1870628398926
 20
98.62498631177004
 10
135.1691483436338
 20
98.6231453388973
 10
135.1512661451448
 20
98.62155198225891
 10
135.1334377762719
 20
98.62018471000839
 10
135.1156417051687
 20
98.61906505399222
 10
135.0978886977585
 20
98.61819301421039
 10
135.080167988118
 20
98.61755782473969
 10
135.0625118740168
 20
98.61718101742655
 10
135.0448880576853
 20
98.61705182634776
 10
134.8794373494497
 20
98.61705182634776
 10
134.8794373494497
 20
98.74369138133059
 10
135.0078425158426
 20
98.74369138133059
 10
135.0110615268891
 20
98.74364831763765
 10
135.0142159423962
 20
98.74349759471241
 10
135.0173272942104
 20
98.74327151032452
 10
135.0204171141781
 20
98.74297006447401
 10
135.0234638704529
 20
98.74262555493058
 10
135.0264890948812
 20
98.74223798169422
 10
135.0295035533862
 20
98.74181811068814
 10
135.0324964800449
 20
98.74139823968208
 10
135.0354894067034
 20
98.74096760275279
 10
135.0384823333621
 20
98.74055849766995
 10
135.0414860259439
 20
98.74017092443358
 10
135.0445112503722
 20
98.73982641489016
 10
135.0475472407238
 20
98.73952496903965
 10
135.0506262947682
 20
98.73929888465176
 10
135.0537268806592
 20
98.73915892764975
 10
135.0568812961663
 20
98.73910509803358
 10
135.0568812961663
 20
98.73910509803358
 10
135.0722119708492
 20
98.73922352318914
 10
135.0875211136857
 20
98.73953573496289
 10
135.1027979587525
 20
98.7400740311245
 10
135.1179886764334
 20
98.74080611390431
 10
135.1331470963447
 20
98.74175351514876
 10
135.14821938887
 20
98.74291623485786
 10
135.1631840221631
 20
98.74428350710838
 10
135.178051762147
 20
98.7458553319003
 10
135.1928226088219
 20
98.74762094331041
 10
135.2074427325715
 20
98.74960187318518
 10
135.2219336652423
 20
98.75177658967813
 10
135.2362738749879
 20
98.75414509278926
 10
135.2504418299617
 20
98.75670738251857
 10
135.2644375301639
 20
98.75946345886607
 10
135.2782394437479
 20
98.76242408775498
 10
135.2918368047904
 20
98.76556773733884
 10
135.2918368047904
 20
98.76556773733884
 10
135.3334255662372
 20
98.77708727519752
 10
135.3737977783587
 20
98.79079229547239
 10
135.4128242500762
 20
98.8068442870119
 10
135.4503004288482
 20
98.82548010012721
 10
135.4860863576727
 20
98.84688275551323
 10
135.5200313136245
 20
98.87127833755787
 10
135.5519415100854
 20
98.89883910103285
 10
135.5816877559765
 20
98.92979113032601
 10
135.6090762646798
 20
98.96431744613236
 10
135.6339563132699
 20
99.00265489876296
 10
135.6561771788216
 20
99.04497574298956
 10
135.6755558406399
 20
99.09150606320003
 10
135.6919523417229
 20
99.14242888008934
 10
135.7051836613755
 20
99.1979595121221
 10
135.7150883107493
 20
99.25830251183976
 10
135.721515566919
 20
99.3236624317837
 10
135.721515566919
 20
99.3236624317837
 10
135.7053666820704
 20
99.30224901047444
 10
135.6875275472743
 20
99.28221362733893
 10
135.6681919491489
 20
99.26353475053071
 10
135.6474244832336
 20
99.24623391189621
 10
135.6253974043001
 20
99.23028957958903
 10
135.6022183715807
 20
99.21574481730204
 10
135.5780165761543
 20
99.20255656134233
 10
135.5529319750228
 20
99.19074634355638
 10
135.527093759265
 20
99.18032492986741
 10
135.5006311199597
 20
99.17129232027543
 10
135.4736624822625
 20
99.16363774885718
 10
135.4463385690987
 20
99.15737198153592
 10
135.4187670397005
 20
99.15249501831164
 10
135.3910878510699
 20
99.14900685918434
 10
135.3634409602091
 20
99.14691827007724
 10
135.3359340263503
 20
99.14621848506714
 10
135.3359340263503
 20
99.14621848506714
 10
135.2817814324913
 20
99.14851162671565
 10
135.2312569547616
 20
99.15518649911974
 10
135.1843605931612
 20
99.16598472012184
 10
135.1410062203043
 20
99.18057254610176
 10
135.1012368998838
 20
99.1986915949019
 10
135.0650311000532
 20
99.220051186595
 10
135.0323457571196
 20
99.24434987533056
 10
135.003180871083
 20
99.27131851302774
 10
134.9775041441737
 20
99.30064488791282
 10
134.9553048104685
 20
99.33205985190499
 10
134.9365828699673
 20
99.36526195915374
 10
134.9212952589773
 20
99.39997129565504
 10
134.9094312115752
 20
99.43588641555834
 10
134.900990727761
 20
99.47272740485965
 10
134.8959307438417
 20
99.51020358363166
 10
134.8942512598175
 20
99.54802427194713
 10
134.8942512598175
 20
99.54802427194713
 10
134.8963936785407
 20
99.58694308443228
 10
134.9027455732478
 20
99.62507598452147
 10
134.9131562210136
 20
99.66220765375004
 10
134.9274748989127
 20
99.69807970996044
 10
134.9455724158664
 20
99.73244453691828
 10
134.9673088148726
 20
99.76508681615896
 10
134.9925333730062
 20
99.79574816552486
 10
135.0211168991882
 20
99.82421326655134
 10
135.0529086704935
 20
99.85021297115762
 10
135.0877794958433
 20
99.87352119495577
 10
135.125567886389
 20
99.89390108763473
 10
135.1661554169752
 20
99.91111579888334
 10
135.2093913646766
 20
99.9249177124673
 10
135.2551357724911
 20
99.9350807439987
 10
135.3032379174935
 20
99.94134651131995
 10
135.353568608605
 20
99.9434889300432
 10
135.353568608605
 20
99.9434889300432
 10
135.3757894741567
 20
99.94307982496038
 10
135.3979349782458
 20
99.94185250971188
 10
135.4200051208722
 20
99.93979621837448
 10
135.4418814768804
 20
99.93693248279467
 10
135.4635532803473
 20
99.93326130297243
 10
135.4849559357333
 20
99.92881497667744
 10
135.5060356134224
 20
99.92355044021679
 10
135.5267384837983
 20
99.91752152320663
 10
135.5469999513217
 20
99.9106959278773
 10
135.5667769522996
 20
99.9030951860752
 10
135.5860048911927
 20
99.89473006372363
 10
135.604640704308
 20
99.88560056082255
 10
135.6226305620294
 20
99.87570667737197
 10
135.6399098688174
 20
99.86505917929512
 10
135.6564247950559
 20
99.85366883251521
 10
135.672132277052
 20
99.8415356370323
 10
135.672132277052
 20
99.8415356370323
 10
135.6977874721148
 20
99.8189487300907
 10
135.721095695913
 20
99.79470387097132
 10
135.7421861395253
 20
99.76898408036908
 10
135.7611018666446
 20
99.74189701751635
 10
135.7779720683498
 20
99.71363646903127
 10
135.7928828720267
 20
99.68434239191589
 10
135.8059419369076
 20
99.65419780686514
 10
135.8172030926087
 20
99.62334267088104
 10
135.826806296132
 20
99.59194923873534
 10
135.8348053770937
 20
99.56015746743005
 10
135.8413295265725
 20
99.52813961173686
 10
135.8464433401079
 20
99.49605716050428
 10
135.8502760087787
 20
99.46407160258079
 10
135.8528813622009
 20
99.43232289496842
 10
135.8543885914534
 20
99.4009940583621
 10
135.8548622920757
 20
99.37022504976389
 10
135.8548622920757
 20
99.37022504976389
 10
135.8521815771908
 20
99.29400231327841
 10
135.8443224532311
 20
99.22192445723744
 10
135.8315110045846
 20
99.1540130134874
 10
135.8140486771016
 20
99.09024645018184
 10
135.7921292574004
 20
99.03064629916722
 10
135.7660434254083
 20
98.9751910285971
 10
135.7360495632828
 20
98.92388063847142
 10
135.7023737554118
 20
98.87669359694377
 10
135.6652851498762
 20
98.8336514358606
 10
135.6250421288334
 20
98.79473262337544
 10
135.5818923085179
 20
98.75993715948829
 10
135.5360725392408
 20
98.7292758101224
 10
135.4878627350061
 20
98.70272704343128
 10
135.4374997461248
 20
98.68029085941492
 10
135.3852419547547
 20
98.66195649215014
 97
        0
 75
     1
 76
     1
 98
        0
  0
LWPOLYLINE
  5
AC
330
1F
100
AcDbEntity
  8
ISS138金台
  6
Continuous
 62
   140
420
    44526
370
    13
100
AcDbPolyline
 90
       85
 70
     0
 43
0.0
 10
135.6227382212617
 20
99.71277519517267
 10
135.610615791702
 20
99.7264371517546
 10
135.5975028972049
 20
99.7391301752456
 10
135.5834533673867
 20
99.75086503156894
 10
135.5685640955562
 20
99.76165248664782
 10
135.5529212090995
 20
99.77150330640546
 10
135.5366108354024
 20
99.78043902268837
 10
135.519729867774
 20
99.78847040141974
 10
135.5023429017537
 20
99.79558667667638
 10
135.484568362497
 20
99.80183091215116
 10
135.4664708455433
 20
99.80719234192091
 10
135.4481364782785
 20
99.81170326375528
 10
135.4296513880884
 20
99.8153636776543
 10
135.4111232342055
 20
99.81819511546442
 10
135.392616612169
 20
99.82019757718567
 10
135.374228415288
 20
99.82138182874122
 10
135.3560340050252
 20
99.82178016790081
 10
135.3560340050252
 20
99.82178016790081
 10
135.3206033516674
 20
99.82049902303616
 10
135.2866045660994
 20
99.81667712028866
 10
135.2541668394002
 20
99.81044365073708
 10
135.223397830802
 20
99.80186320992087
 10
135.1944267313835
 20
99.79104345707229
 10
135.1673612003772
 20
99.77808128550046
 10
135.1423088970154
 20
99.76305205666803
 10
135.1194097783001
 20
99.7460634298073
 10
135.0987715034636
 20
99.72720153230411
 10
135.0804909658149
 20
99.70656325746758
 10
135.0647081223562
 20
99.68423473268356
 10
135.051541398243
 20
99.66031285126115
 10
135.0410876867843
 20
99.63487297466295
 10
135.033476179059
 20
99.6080442939678
 10
135.0288253002226
 20
99.57988063879182
 10
135.0272534754307
 20
99.55050043429057
 10
135.0272534754307
 20
99.55050043429057
 10
135.0286099817579
 20
99.52136784602368
 10
135.0326687348166
 20
99.49318265900123
 10
135.0394189686833
 20
99.46609559614848
 10
135.0487960878187
 20
99.44020355077454
 10
135.0608000922228
 20
99.41564647988142
 10
135.0754094500492
 20
99.39257510639436
 10
135.0925918635282
 20
99.37108632362248
 10
135.1123150348899
 20
99.35130932264454
 10
135.1345574322881
 20
99.33338406046258
 10
135.1592759920297
 20
99.31743972815538
 10
135.186481480038
 20
99.30359475087849
 10
135.2161093007736
 20
99.29197831971072
 10
135.2481594542365
 20
99.2827303916541
 10
135.2825888767337
 20
99.2759586259409
 10
135.3193868023421
 20
99.2718029795732
 10
135.3585101673687
 20
99.27039264362975
 10
135.3585101673687
 20
99.27039264362975
 10
135.391044787377
 20
99.27157689518532
 10
135.4228042609126
 20
99.27504352246615
 10
135.4536916946664
 20
99.28057720700761
 10
135.4835671316363
 20
99.28799492811473
 10
135.5122798488972
 20
99.29711366509258
 10
135.5397329531398
 20
99.30777192909267
 10
135.5657972532855
 20
99.31974363572712
 10
135.5903327923322
 20
99.33287806207065
 10
135.6131996132778
 20
99.34697065558188
 10
135.6343115887365
 20
99.36183839556583
 10
135.6535179957831
 20
99.37729826132758
 10
135.6706896433388
 20
99.39317799809538
 10
135.6857188721713
 20
99.4092622874046
 10
135.6984549593552
 20
99.42538964040673
 10
135.7087794797351
 20
99.44136627048364
 10
135.7165740081554
 20
99.45700915694033
 10
135.7165740081554
 20
99.45700915694033
 10
135.7156912024503
 20
99.47381476310612
 10
135.7139471228867
 20
99.49086798550626
 10
135.711417130927
 20
99.50806116490841
 10
135.7081119924947
 20
99.52535123761967
 10
135.704096303129
 20
99.54265207625414
 10
135.6993808287532
 20
99.55988831934923
 10
135.6940193989835
 20
99.57699537136554
 10
135.6880443115895
 20
99.59388710491717
 10
135.6814986302642
 20
99.61050969038803
 10
135.674403886854
 20
99.62676623446896
 10
135.6668246768984
 20
99.64260290754383
 10
135.6587825322438
 20
99.65793358222678
 10
135.6503097506599
 20
99.67268289705518
 10
135.6414601617628
 20
99.68679702241288
 10
135.6322552973991
 20
99.70017906499075
 10
135.6227382212617
 20
99.71277519517267
  0
LWPOLYLINE
  5
AD
330
1F
100
AcDbEntity
  8
ISS138金台
  6
Continuous
 62
   140
420
    44526
370
    13
100
AcDbPolyline
 90
      172
 70
     0
 43
0.0
 10
135.3313477430533
 20
98.64773470756012
 10
135.3132179283299
 20
98.64412812327727
 10
135.2951311772995
 20
98.64074762338228
 10
135.2770659581155
 20
98.63757167602873
 10
135.2590007389315
 20
98.63461104713983
 10
135.2409785834405
 20
98.63186573671555
 10
135.2229671938726
 20
98.62934651067917
 10
135.2049988679977
 20
98.62705336903068
 10
135.1870628398926
 20
98.62498631177004
 10
135.1691483436338
 20
98.6231453388973
 10
135.1512661451448
 20
98.62155198225891
 10
135.1334377762719
 20
98.62018471000839
 10
135.1156417051687
 20
98.61906505399222
 10
135.0978886977585
 20
98.61819301421039
 10
135.080167988118
 20
98.61755782473969
 10
135.0625118740168
 20
98.61718101742655
 10
135.0448880576853
 20
98.61705182634776
 10
134.8794373494497
 20
98.61705182634776
 10
134.8794373494497
 20
98.74369138133059
 10
135.0078425158426
 20
98.74369138133059
 10
135.0110615268891
 20
98.74364831763765
 10
135.0142159423962
 20
98.74349759471241
 10
135.0173272942104
 20
98.74327151032452
 10
135.0204171141781
 20
98.74297006447401
 10
135.0234638704529
 20
98.74262555493058
 10
135.0264890948812
 20
98.74223798169422
 10
135.0295035533862
 20
98.74181811068814
 10
135.0324964800449
 20
98.74139823968208
 10
135.0354894067034
 20
98.74096760275279
 10
135.0384823333621
 20
98.74055849766995
 10
135.0414860259439
 20
98.74017092443358
 10
135.0445112503722
 20
98.73982641489016
 10
135.0475472407238
 20
98.73952496903965
 10
135.0506262947682
 20
98.73929888465176
 10
135.0537268806592
 20
98.73915892764975
 10
135.0568812961663
 20
98.73910509803358
 10
135.0568812961663
 20
98.73910509803358
 10
135.0722119708492
 20
98.73922352318914
 10
135.0875211136857
 20
98.73953573496289
 10
135.1027979587525
 20
98.7400740311245
 10
135.1179886764334
 20
98.74080611390431
 10
135.1331470963447
 20
98.74175351514876
 10
135.14821938887
 20
98.74291623485786
 10
135.1631840221631
 20
98.74428350710838
 10
135.178051762147
 20
98.7458553319003
 10
135.1928226088219
 20
98.74762094331041
 10
135.2074427325715
 20
98.74960187318518
 10
135.2219336652423
 20
98.75177658967813
 10
135.2362738749879
 20
98.75414509278926
 10
135.2504418299617
 20
98.75670738251857
 10
135.2644375301639
 20
98.75946345886607
 10
135.2782394437479
 20
98.76242408775498
 10
135.2918368047904
 20
98.76556773733884
 10
135.2918368047904
 20
98.76556773733884
 10
135.3334255662372
 20
98.77708727519752
 10
135.3737977783587
 20
98.79079229547239
 10
135.4128242500762
 20
98.8068442870119
 10
135.4503004288482
 20
98.82548010012721
 10
135.4860863576727
 20
98.84688275551323
 10
135.5200313136245
 20
98.87127833755787
 10
135.5519415100854
 20
98.89883910103285
 10
135.5816877559765
 20
98.92979113032601
 10
135.6090762646798
 20
98.96431744613236
 10
135.6339563132699
 20
99.00265489876296
 10
135.6561771788216
 20
99.04497574298956
 10
135.6755558406399
 20
99.09150606320003
 10
135.6919523417229
 20
99.14242888008934
 10
135.7051836613755
 20
99.1979595121221
 10
135.7150883107493
 20
99.25830251183976
 10
135.721515566919
 20
99.3236624317837
 10
135.721515566919
 20
99.3236624317837
 10
135.7053666820704
 20
99.30224901047444
 10
135.6875275472743
 20
99.28221362733893
 10
135.6681919491489
 20
99.26353475053071
 10
135.6474244832336
 20
99.24623391189621
 10
135.6253974043001
 20
99.23028957958903
 10
135.6022183715807
 20
99.21574481730204
 10
135.5780165761543
 20
99.20255656134233
 10
135.5529319750228
 20
99.19074634355638
 10
135.527093759265
 20
99.18032492986741
 10
135.5006311199597
 20
99.17129232027543
 10
135.4736624822625
 20
99.16363774885718
 10
135.4463385690987
 20
99.15737198153592
 10
135.4187670397005
 20
99.15249501831164
 10
135.3910878510699
 20
99.14900685918434
 10
135.3634409602091
 20
99.14691827007724
 10
135.3359340263503
 20
99.14621848506714
 10
135.3359340263503
 20
99.14621848506714
 10
135.2817814324913
 20
99.14851162671565
 10
135.2312569547616
 20
99.15518649911974
 10
135.1843605931612
 20
99.16598472012184
 10
135.1410062203043
 20
99.18057254610176
 10
135.1012368998838
 20
99.1986915949019
 10
135.0650311000532
 20
99.220051186595
 10
135.0323457571196
 20
99.24434987533056
 10
135.003180871083
 20
99.27131851302774
 10
134.9775041441737
 20
99.30064488791282
 10
134.9553048104685
 20
99.33205985190499
 10
134.9365828699673
 20
99.36526195915374
 10
134.9212952589773
 20
99.39997129565504
 10
134.9094312115752
 20
99.43588641555834
 10
134.900990727761
 20
99.47272740485965
 10
134.8959307438417
 20
99.51020358363166
 10
134.8942512598175
 20
99.54802427194713
 10
134.8942512598175
 20
99.54802427194713
 10
134.8963936785407
 20
99.58694308443228
 10
134.9027455732478
 20
99.62507598452147
 10
134.9131562210136
 20
99.66220765375004
 10
134.9274748989127
 20
99.69807970996044
 10
134.9455724158664
 20
99.73244453691828
 10
134.9673088148726
 20
99.76508681615896
 10
134.9925333730062
 20
99.79574816552486
 10
135.0211168991882
 20
99.82421326655134
 10
135.0529086704935
 20
99.85021297115762
 10
135.0877794958433
 20
99.87352119495577
 10
135.125567886389
 20
99.89390108763473
 10
135.1661554169752
 20
99.91111579888334
 10
135.2093913646766
 20
99.9249177124673
 10
135.2551357724911
 20
99.9350807439987
 10
135.3032379174935
 20
99.94134651131995
 10
135.353568608605
 20
99.9434889300432
 10
135.353568608605
 20
99.9434889300432
 10
135.3757894741567
 20
99.94307982496038
 10
135.3979349782458
 20
99.94185250971188
 10
135.4200051208722
 20
99.93979621837448
 10
135.4418814768804
 20
99.93693248279467
 10
135.4635532803473
 20
99.93326130297243
 10
135.4849559357333
 20
99.92881497667744
 10
135.5060356134224
 20
99.92355044021679
 10
135.5267384837983
 20
99.91752152320663
 10
135.5469999513217
 20
99.9106959278773
 10
135.5667769522996
 20
99.9030951860752
 10
135.5860048911927
 20
99.89473006372363
 10
135.604640704308
 20
99.88560056082255
 10
135.6226305620294
 20
99.87570667737197
 10
135.6399098688174
 20
99.86505917929512
 10
135.6564247950559
 20
99.85366883251521
 10
135.672132277052
 20
99.8415356370323
 10
135.672132277052
 20
99.8415356370323
 10
135.6977874721148
 20
99.8189487300907
 10
135.721095695913
 20
99.79470387097132
 10
135.7421861395253
 20
99.76898408036908
 10
135.7611018666446
 20
99.74189701751635
 10
135.7779720683498
 20
99.71363646903127
 10
135.7928828720267
 20
99.68434239191589
 10
135.8059419369076
 20
99.65419780686514
 10
135.8172030926087
 20
99.62334267088104
 10
135.826806296132
 20
99.59194923873534
 10
135.8348053770937
 20
99.56015746743005
 10
135.8413295265725
 20
99.52813961173686
 10
135.8464433401079
 20
99.49605716050428
 10
135.8502760087787
 20
99.46407160258079
 10
135.8528813622009
 20
99.43232289496842
 10
135.8543885914534
 20
99.4009940583621
 10
135.8548622920757
 20
99.37022504976389
 10
135.8548622920757
 20
99.37022504976389
 10
135.8521815771908
 20
99.29400231327841
 10
135.8443224532311
 20
99.22192445723744
 10
135.8315110045846
 20
99.1540130134874
 10
135.8140486771016
 20
99.09024645018184
 10
135.7921292574004
 20
99.03064629916722
 10
135.7660434254083
 20
98.9751910285971
 10
135.7360495632828
 20
98.92388063847142
 10
135.7023737554118
 20
98.87669359694377
 10
135.6652851498762
 20
98.8336514358606
 10
135.6250421288334
 20
98.79473262337544
 10
135.5818923085179
 20
98.75993715948829
 10
135.5360725392408
 20
98.7292758101224
 10
135.4878627350061
 20
98.70272704343128
 10
135.4374997461248
 20
98.68029085941492
 10
135.3852419547547
 20
98.66195649215014
 10
135.3313477430533
 20
98.64773470756012
  0
HATCH
  5
AE
330
1F
100
AcDbEntity
  8
ISS138金台
  6
Continuous
 62
   140
420
    44526
370
    13
100
AcDbHatch
 10
0.0
 20
0.0
 30
0.0
210
0.0
220
0.0
230
1.0
  2
SOLID
 70
     1
 71
     0
 91
        1
 92
        3
 72
     0
 73
     1
 93
        3
 10
129.9824064442631
 20
107.0239567259948
 10
131.7145465990486
 20
107.0236014505281
 10
130.8491816896276
 20
105.5250064684232
 97
        0
 75
     1
 76
     1
 98
        0
  0
LWPOLYLINE
  5
AF
330
1F
100
AcDbEntity
  8
ISS138金台
  6
Continuous
 62
   140
420
    44526
370
    13
100
AcDbPolyline
 90
        4
 70
     0
 43
0.0
 10
129.9824064442631
 20
107.0239567259948
 10
131.7145465990486
 20
107.0236014505281
 10
130.8491816896276
 20
105.5250064684232
 10
129.9824064442631
 20
107.0239567259948
  0
ENDSEC
  0
SECTION
  2
OBJECTS
  0
DICTIONARY
  5
C
330
0
100
AcDbDictionary
281
     1
  3
ACAD_DETAILVIEWSTYLE
350
B7
  3
ACAD_GROUP
350
D
  3
ACAD_LAYOUT
350
1A
  3
ACAD_MATERIAL
350
43
  3
ACAD_MLEADERSTYLE
350
5B
  3
ACAD_MLINESTYLE
350
17
  3
ACAD_PLOTSETTINGS
350
19
  3
ACAD_PLOTSTYLENAME
350
E
  3
ACAD_SCALELIST
350
47
  3
ACAD_SECTIONVIEWSTYLE
350
B8
  3
ACAD_TABLESTYLE
350
59
  3
ACAD_VISUALSTYLE
350
2A
  3
ACDB_RECOMPOSE_DATA
350
B4
  3
AcDbVariableDictionary
350
B0
  0
SUN
  5
5D
330
29
100
AcDbSun
 90
        1
290
     0
 63
     7
421
 16777215
 40
1.0
291
     1
 91
  2455826
 92
 54000000
292
     0
 70
     2
 71
   256
280
     1
  0
DICTIONARY
  5
B7
102
{ACAD_REACTORS
330
C
102
}
330
C
100
AcDbDictionary
281
     1
  0
DICTIONARY
  5
D
102
{ACAD_REACTORS
330
C
102
}
330
C
100
AcDbDictionary
281
     1
  0
DICTIONARY
  5
1A
102
{ACAD_REACTORS
330
C
102
}
330
C
100
AcDbDictionary
281
     1
  3
Layout1
350
1E
  3
Layout2
350
26
  3
Model
350
22
  0
DICTIONARY
  5
43
102
{ACAD_REACTORS
330
C
102
}
330
C
100
AcDbDictionary
281
     1
  3
ByBlock
350
45
  3
ByLayer
350
44
  3
Global
350
46
  0
DICTIONARY
  5
5B
102
{ACAD_REACTORS
330
C
102
}
330
C
100
AcDbDictionary
281
     1
  3
Standard
350
5C
  0
DICTIONARY
  5
17
102
{ACAD_REACTORS
330
C
102
}
330
C
100
AcDbDictionary
281
     1
  3
Standard
350
18
  0
DICTIONARY
  5
19
102
{ACAD_REACTORS
330
C
102
}
330
C
100
AcDbDictionary
281
     1
  0
ACDBDICTIONARYWDFLT
  5
E
102
{ACAD_REACTORS
330
C
102
}
330
C
100
AcDbDictionary
281
     1
  3
Normal
350
F
100
AcDbDictionaryWithDefault
340
F
  0
DICTIONARY
  5
47
102
{ACAD_REACTORS
330
C
102
}
330
C
100
AcDbDictionary
281
     1
  3
A0
350
48
  3
A1
350
49
  3
A2
350
4A
  3
A3
350
4B
  3
A4
350
4C
  3
A5
350
4D
  3
A6
350
4E
  3
A7
350
4F
  3
A8
350
50
  3
A9
350
51
  3
B0
350
52
  3
B1
350
53
  3
B2
350
54
  3
B3
350
55
  3
B4
350
56
  3
B5
350
57
  3
B6
350
58
  0
DICTIONARY
  5
B8
102
{ACAD_REACTORS
330
C
102
}
330
C
100
AcDbDictionary
281
     1
  0
DICTIONARY
  5
59
102
{ACAD_REACTORS
330
C
102
}
330
C
100
AcDbDictionary
281
     1
  3
Standard
350
5A
  0
DICTIONARY
  5
2A
102
{ACAD_REACTORS
330
C
102
}
330
C
100
AcDbDictionary
281
     1
  3
2dWireframe
350
2F
  3
Basic
350
32
  3
Brighten
350
36
  3
ColorChange
350
3A
  3
Conceptual
350
34
  3
Dim
350
35
  3
EdgeColorOff
350
3D
  3
Facepattern
350
39
  3
Flat
350
2B
  3
FlatWithEdges
350
2C
  3
Gouraud
350
2D
  3
GouraudWithEdges
350
2E
  3
Hidden
350
31
  3
JitterOff
350
3B
  3
Linepattern
350
38
  3
OverhangOff
350
3C
  3
Realistic
350
33
  3
Shaded
350
42
  3
Shaded with edges
350
41
  3
Shades of Gray
350
3E
  3
Sketchy
350
3F
  3
Thicken
350
37
  3
Wireframe
350
30
  3
X-Ray
350
40
  0
XRECORD
  5
B4
102
{ACAD_REACTORS
330
C
102
}
330
C
100
AcDbXrecord
280
     1
 90
        1
330
5A
  0
DICTIONARY
  5
B0
102
{ACAD_REACTORS
330
C
102
}
330
C
100
AcDbDictionary
281
     1
  3
CANNOSCALE
350
B1
  3
CENTEREXE
350
B9
  3
CENTERLTYPEFILE
350
BA
  3
CMLEADERSTYLE
350
B6
  3
CTABLESTYLE
350
B5
  0
LAYOUT
  5
1E
102
{ACAD_REACTORS
330
1A
102
}
330
1A
100
AcDbPlotSettings
  1

  2
none_device
  4

  6

 40
0.0
 41
0.0
 42
0.0
 43
0.0
 44
0.0
 45
0.0
 46
0.0
 47
0.0
 48
0.0
 49
0.0
140
0.0
141
0.0
142
1.0
143
1.0
 70
   688
 72
     1
 73
     0
 74
     5
  7

 75
    16
 76
     0
 77
     5
 78
   300
147
1.0
148
0.0
149
0.0
100
AcDbLayout
  1
Layout1
 70
     1
 71
     1
 10
0.0
 20
0.0
 11
420.0
 21
297.0
 12
0.0
 22
0.0
 32
0.0
 14
1.000000000000000E+20
 24
1.000000000000000E+20
 34
1.000000000000000E+20
 15
-1.000000000000000E+20
 25
-1.000000000000000E+20
 35
-1.000000000000000E+20
146
0.0
 13
0.0
 23
0.0
 33
0.0
 16
1.0
 26
0.0
 36
0.0
 17
0.0
 27
1.0
 37
0.0
 76
     0
330
1B
  0
LAYOUT
  5
26
102
{ACAD_REACTORS
330
1A
102
}
330
1A
100
AcDbPlotSettings
  1

  2
none_device
  4

  6

 40
0.0
 41
0.0
 42
0.0
 43
0.0
 44
0.0
 45
0.0
 46
0.0
 47
0.0
 48
0.0
 49
0.0
140
0.0
141
0.0
142
1.0
143
1.0
 70
   688
 72
     1
 73
     0
 74
     5
  7

 75
    16
 76
     0
 77
     5
 78
   300
147
1.0
148
0.0
149
0.0
100
AcDbLayout
  1
Layout2
 70
     1
 71
     2
 10
0.0
 20
0.0
 11
0.0
 21
0.0
 12
0.0
 22
0.0
 32
0.0
 14
0.0
 24
0.0
 34
0.0
 15
0.0
 25
0.0
 35
0.0
146
0.0
 13
0.0
 23
0.0
 33
0.0
 16
1.0
 26
0.0
 36
0.0
 17
0.0
 27
1.0
 37
0.0
 76
     0
330
23
  0
LAYOUT
  5
22
102
{ACAD_REACTORS
330
1A
102
}
330
1A
100
AcDbPlotSettings
  1

  2
none_device
  4
Letter_(8.50_x_11.00_Inches)
  6

 40
6.35
 41
6.35
 42
6.35000508
 43
6.35000508
 44
215.9
 45
279.4
 46
0.0
 47
0.0
 48
0.0
 49
0.0
140
0.0
141
0.0
142
1.0
143
1.0
 70
  1712
 72
     1
 73
     0
 74
     0
  7

 75
     0
 76
     0
 77
     5
 78
   300
147
1.0
148
0.0
149
0.0
100
AcDbLayout
  1
Model
 70
     1
 71
     0
 10
0.0
 20
0.0
 11
302.9997823349792
 21
216.0016055409748
 12
0.0
 22
0.0
 32
0.0
 14
0.0
 24
0.0
 34
0.0
 15
302.9997823349792
 25
216.0016055409748
 35
0.0
146
0.0
 13
0.0
 23
0.0
 33
0.0
 16
1.0
 26
0.0
 36
0.0
 17
0.0
 27
1.0
 37
0.0
 76
     0
330
1F
331
29
  0
MATERIAL
  5
45
102
{ACAD_REACTORS
330
43
102
}
330
43
100
AcDbMaterial
  1
ByBlock
 72
     1
 94
      127
  0
MATERIAL
  5
44
102
{ACAD_REACTORS
330
43
102
}
330
43
100
AcDbMaterial
  1
ByLayer
 72
     1
 94
      127
  0
MATERIAL
  5
46
102
{ACAD_REACTORS
330
43
102
}
330
43
100
AcDbMaterial
  1
Global
 72
     1
 94
      127
  0
MLEADERSTYLE
  5
5C
102
{ACAD_REACTORS
330
5B
102
}
330
5B
100
AcDbMLeaderStyle
179
     2
170
     2
171
     1
172
     0
 90
        2
 40
0.0
 41
0.0
173
     1
 91
-1056964608
340
14
 92
       -2
290
     1
 42
2.0
291
     1
 43
8.0
  3
Standard
341
0
 44
4.0
300

342
11
174
     1
178
     6
175
     1
176
     0
 93
-1056964608
 45
4.0
292
     0
297
     0
 46
4.0
343
0
 94
-1056964608
 47
1.0
 49
1.0
140
1.0
293
     1
141
0.0
294
     1
177
     0
142
1.0
295
     0
296
     0
143
3.75
271
     0
272
     9
273
     9
298
     0
  0
MLINESTYLE
  5
18
102
{ACAD_REACTORS
330
17
102
}
330
17
100
AcDbMlineStyle
  2
Standard
 70
     0
  3

 62
   256
 51
90.0
 52
90.0
 71
     2
 49
0.5
 62
   256
  6
BYLAYER
 49
-0.5
 62
   256
  6
BYLAYER
  0
ACDBPLACEHOLDER
  5
F
102
{ACAD_REACTORS
330
E
102
}
330
E
  0
SCALE
  5
48
102
{ACAD_REACTORS
330
47
102
}
330
47
100
AcDbScale
 70
     0
300
1:1
140
1.0
141
1.0
290
     1
  0
SCALE
  5
49
102
{ACAD_REACTORS
330
47
102
}
330
47
100
AcDbScale
 70
     0
300
1:2
140
1.0
141
2.0
290
     0
  0
SCALE
  5
4A
102
{ACAD_REACTORS
330
47
102
}
330
47
100
AcDbScale
 70
     0
300
1:4
140
1.0
141
4.0
290
     0
  0
SCALE
  5
4B
102
{ACAD_REACTORS
330
47
102
}
330
47
100
AcDbScale
 70
     0
300
1:5
140
1.0
141
5.0
290
     0
  0
SCALE
  5
4C
102
{ACAD_REACTORS
330
47
102
}
330
47
100
AcDbScale
 70
     0
300
1:8
140
1.0
141
8.0
290
     0
  0
SCALE
  5
4D
102
{ACAD_REACTORS
330
47
102
}
330
47
100
AcDbScale
 70
     0
300
1:10
140
1.0
141
10.0
290
     0
  0
SCALE
  5
4E
102
{ACAD_REACTORS
330
47
102
}
330
47
100
AcDbScale
 70
     0
300
1:16
140
1.0
141
16.0
290
     0
  0
SCALE
  5
4F
102
{ACAD_REACTORS
330
47
102
}
330
47
100
AcDbScale
 70
     0
300
1:20
140
1.0
141
20.0
290
     0
  0
SCALE
  5
50
102
{ACAD_REACTORS
330
47
102
}
330
47
100
AcDbScale
 70
     0
300
1:30
140
1.0
141
30.0
290
     0
  0
SCALE
  5
51
102
{ACAD_REACTORS
330
47
102
}
330
47
100
AcDbScale
 70
     0
300
1:40
140
1.0
141
40.0
290
     0
  0
SCALE
  5
52
102
{ACAD_REACTORS
330
47
102
}
330
47
100
AcDbScale
 70
     0
300
1:50
140
1.0
141
50.0
290
     0
  0
SCALE
  5
53
102
{ACAD_REACTORS
330
47
102
}
330
47
100
AcDbScale
 70
     0
300
1:100
140
1.0
141
100.0
290
     0
  0
SCALE
  5
54
102
{ACAD_REACTORS
330
47
102
}
330
47
100
AcDbScale
 70
     0
300
2:1
140
2.0
141
1.0
290
     0
  0
SCALE
  5
55
102
{ACAD_REACTORS
330
47
102
}
330
47
100
AcDbScale
 70
     0
300
4:1
140
4.0
141
1.0
290
     0
  0
SCALE
  5
56
102
{ACAD_REACTORS
330
47
102
}
330
47
100
AcDbScale
 70
     0
300
8:1
140
8.0
141
1.0
290
     0
  0
SCALE
  5
57
102
{ACAD_REACTORS
330
47
102
}
330
47
100
AcDbScale
 70
     0
300
10:1
140
10.0
141
1.0
290
     0
  0
SCALE
  5
58
102
{ACAD_REACTORS
330
47
102
}
330
47
100
AcDbScale
 70
     0
300
100:1
140
100.0
141
1.0
290
     0
  0
TABLESTYLE
  5
5A
102
{ACAD_REACTORS
330
59
102
}
102
{ACAD_XDICTIONARY
360
B2
102
}
330
59
100
AcDbTableStyle
  3
Standard
 70
     0
 71
     0
 40
0.06
 41
0.06
280
     0
281
     0
  7
Standard
140
4.5
170
     2
 62
     0
 63
   257
283
     0
 90
        4
 91
        0
  1

274
    -2
284
     1
 64
     0
275
    -2
285
     1
 65
     0
276
    -2
286
     1
 66
     0
277
    -2
287
     1
 67
     0
278
    -2
288
     1
 68
     0
279
    -2
289
     1
 69
     0
  7
Standard
140
6.0
170
     5
 62
     0
 63
   257
283
     0
 90
        4
 91
        0
  1

274
    -2
284
     1
 64
     0
275
    -2
285
     1
 65
     0
276
    -2
286
     1
 66
     0
277
    -2
287
     1
 67
     0
278
    -2
288
     1
 68
     0
279
    -2
289
     1
 69
     0
  7
Standard
140
4.5
170
     5
 62
     0
 63
   257
283
     0
 90
        4
 91
        0
  1

274
    -2
284
     1
 64
     0
275
    -2
285
     1
 65
     0
276
    -2
286
     1
 66
     0
277
    -2
287
     1
 67
     0
278
    -2
288
     1
 68
     0
279
    -2
289
     1
 69
     0
  0
VISUALSTYLE
  5
2F
102
{ACAD_REACTORS
330
2A
102
}
330
2A
100
AcDbVisualStyle
  2
2dWireframe
 70
     4
177
     3
291
     0
 70
    58
 90
        0
176
     1
 90
        2
176
     1
 90
        0
176
     1
 90
        0
176
     1
 40
0.6
176
     1
 40
30.0
176
     1
 62
     7
420
 16777215
176
     1
 90
        1
176
     1
 90
        4
176
     1
 62
     7
176
     1
 62
   257
176
     1
 90
        1
176
     1
 90
        1
176
     1
 40
1.0
176
     1
 90
        0
176
     1
 62
   257
176
     1
 40
1.0
176
     1
 90
        1
176
     1
 90
        6
176
     1
 90
        2
176
     1
 62
     7
176
     1
 90
        5
176
     1
 90
        0
176
     1
 90
        0
176
     1
290
     0
176
     1
 90
        1
176
     1
 40
0.0
176
     1
 90
        0
176
     1
290
     1
176
     1
290
     1
176
     1
290
     0
176
     1
290
     0
176
     1
290
     0
176
     1
290
     0
176
     1
290
     0
176
     1
290
     0
176
     1
290
     0
176
     1
 90
       50
176
     1
 40
0.0
176
     1
 40
1.0
176
     1
 90
        0
176
     1
 62
    18
420
        0
176
     1
 90
       50
176
     1
 90
        3
176
     1
 62
     5
420
      255
176
     1
290
     0
176
     1
 90
       50
176
     1
 90
       50
176
     1
 90
       50
176
     1
290
     0
176
     1
 90
       50
176
     1
 62
   256
176
     0
 40
1.0
176
     0
 90
        2
176
     1
  1
strokes_ogs.tif
176
     1
290
     0
176
     1
 40
1.0
176
     1
 40
1.0
176
     1
  0
VISUALSTYLE
  5
32
102
{ACAD_REACTORS
330
2A
102
}
330
2A
100
AcDbVisualStyle
  2
Basic
 70
     7
177
     3
291
     1
 70
    58
 90
        1
176
     1
 90
        0
176
     1
 90
        1
176
     1
 90
        0
176
     1
 40
0.6
176
     1
 40
30.0
176
     1
 62
     7
420
 16777215
176
     1
 90
        0
176
     1
 90
        4
176
     1
 62
     7
176
     1
 62
   257
176
     1
 90
        1
176
     1
 90
        1
176
     1
 40
1.0
176
     1
 90
        8
176
     1
 62
     7
176
     1
 40
1.0
176
     1
 90
        1
176
     1
 90
        6
176
     1
 90
        2
176
     1
 62
     7
176
     1
 90
        5
176
     1
 90
        0
176
     1
 90
        0
176
     1
290
     0
176
     1
 90
        1
176
     1
 40
0.0
176
     1
 90
        0
176
     1
290
     0
176
     1
290
     1
176
     1
290
     1
176
     1
290
     0
176
     1
290
     0
176
     1
290
     0
176
     1
290
     0
176
     1
290
     0
176
     1
290
     0
176
     1
 90
       50
176
     1
 40
0.0
176
     1
 40
1.0
176
     1
 90
        0
176
     1
 62
    18
420
        0
176
     1
 90
       50
176
     1
 90
        3
176
     1
 62
     5
420
      255
176
     1
290
     0
176
     1
 90
       50
176
     1
 90
       50
176
     1
 90
       50
176
     1
290
     0
176
     1
 90
       50
176
     1
 62
   256
176
     0
 40
1.0
176
     0
 90
        2
176
     1
  1
strokes_ogs.tif
176
     1
290
     0
176
     1
 40
1.0
176
     1
 40
1.0
176
     1
  0
VISUALSTYLE
  5
36
102
{ACAD_REACTORS
330
2A
102
}
330
2A
100
AcDbVisualStyle
  2
Brighten
 70
    12
177
     3
291
     1
 70
    58
 90
        2
176
     1
 90
        2
176
     1
 90
        0
176
     1
 90
        0
176
     1
 40
0.6
176
     1
 40
30.0
176
     1
 62
     7
420
 16777215
176
     1
 90
        1
176
     1
 90
        4
176
     1
 62
     7
176
     1
 62
   257
176
     1
 90
        1
176
     1
 90
        1
176
     1
 40
1.0
176
     1
 90
        8
176
     1
 62
     7
176
     1
 40
1.0
176
     1
 90
        1
176
     1
 90
        6
176
     1
 90
        2
176
     1
 62
     7
176
     1
 90
        5
176
     1
 90
        0
176
     1
 90
        0
176
     1
290
     0
176
     1
 90
        1
176
     1
 40
50.0
176
     1
 90
        0
176
     1
290
     0
176
     1
290
     1
176
     1
290
     1
176
     1
290
     0
176
     1
290
     0
176
     1
290
     0
176
     1
290
     0
176
     1
290
     0
176
     1
290
     0
176
     1
 90
       50
176
     1
 40
0.0
176
     1
 40
1.0
176
     1
 90
        0
176
     1
 62
    18
420
        0
176
     1
 90
       50
176
     1
 90
        3
176
     1
 62
     5
420
      255
176
     1
290
     0
176
     1
 90
       50
176
     1
 90
       50
176
     1
 90
       50
176
     1
290
     0
176
     1
 90
       50
176
     1
 62
   256
176
     0
 40
1.0
176
     0
 90
        2
176
     1
  1
strokes_ogs.tif
176
     1
290
     0
176
     1
 40
1.0
176
     1
 40
1.0
176
     1
  0
VISUALSTYLE
  5
3A
102
{ACAD_REACTORS
330
2A
102
}
330
2A
100
AcDbVisualStyle
  2
ColorChange
 70
    16
177
     3
291
     1
 70
    58
 90
        2
176
     1
 90
        2
176
     1
 90
        3
176
     1
 90
        0
176
     1
 40
0.6
176
     1
 40
30.0
176
     1
 62
     8
420
  8421504
176
     1
 90
        1
176
     1
 90
        4
176
     1
 62
     7
176
     1
 62
   257
176
     1
 90
        1
176
     1
 90
        1
176
     1
 40
1.0
176
     1
 90
        8
176
     1
 62
     8
420
  8421504
176
     1
 40
1.0
176
     1
 90
        1
176
     1
 90
        6
176
     1
 90
        2
176
     1
 62
     7
176
     1
 90
        5
176
     1
 90
        0
176
     1
 90
        0
176
     1
290
     0
176
     1
 90
        1
176
     1
 40
0.0
176
     1
 90
        0
176
     1
290
     0
176
     1
290
     1
176
     1
290
     1
176
     1
290
     0
176
     1
290
     0
176
     1
290
     0
176
     1
290
     0
176
     1
290
     0
176
     1
290
     0
176
     1
 90
       50
176
     1
 40
0.0
176
     1
 40
1.0
176
     1
 90
        0
176
     1
 62
    18
420
        0
176
     1
 90
       50
176
     1
 90
        3
176
     1
 62
     5
420
      255
176
     1
290
     0
176
     1
 90
       50
176
     1
 90
       50
176
     1
 90
       50
176
     1
290
     0
176
     1
 90
       50
176
     1
 62
   256
176
     0
 40
1.0
176
     0
 90
        2
176
     1
  1
strokes_ogs.tif
176
     1
290
     0
176
     1
 40
1.0
176
     1
 40
1.0
176
     1
  0
VISUALSTYLE
  5
34
102
{ACAD_REACTORS
330
2A
102
}
330
2A
100
AcDbVisualStyle
  2
Conceptual
 70
     9
177
     3
291
     0
 70
    58
 90
        3
176
     1
 90
        2
176
     1
 90
        0
176
     1
 90
        0
176
     1
 40
0.6
176
     1
 40
30.0
176
     1
 62
     7
420
 16777215
176
     1
 90
        2
176
     1
 90
        2
176
     1
 62
     7
176
     1
 62
   257
176
     1
 90
        1
176
     1
 90
        1
176
     1
 40
179.0
176
     1
 90
        8
176
     1
 62
     7
176
     1
 40
1.0
176
     1
 90
        1
176
     1
 90
        6
176
     1
 90
        2
176
     1
 62
     7
176
     1
 90
        3
176
     1
 90
        0
176
     1
 90
        0
176
     1
290
     0
176
     1
 90
        1
176
     1
 40
0.0
176
     1
 90
        0
176
     1
290
     0
176
     1
290
     1
176
     1
290
     1
176
     1
290
     0
176
     1
290
     0
176
     1
290
     0
176
     1
290
     0
176
     1
290
     0
176
     1
290
     0
176
     1
 90
       50
176
     1
 40
0.0
176
     1
 40
1.0
176
     1
 90
        0
176
     1
 62
    18
420
        0
176
     1
 90
       50
176
     1
 90
        3
176
     1
 62
     5
420
      255
176
     1
290
     0
176
     1
 90
       50
176
     1
 90
       50
176
     1
 90
       50
176
     1
290
     0
176
     1
 90
       50
176
     1
 62
   256
176
     0
 40
1.0
176
     0
 90
        2
176
     1
  1
strokes_ogs.tif
176
     1
290
     0
176
     1
 40
1.0
176
     1
 40
1.0
176
     1
  0
VISUALSTYLE
  5
35
102
{ACAD_REACTORS
330
2A
102
}
330
2A
100
AcDbVisualStyle
  2
Dim
 70
    11
177
     3
291
     1
 70
    58
 90
        2
176
     1
 90
        2
176
     1
 90
        0
176
     1
 90
        0
176
     1
 40
0.6
176
     1
 40
30.0
176
     1
 62
     7
420
 16777215
176
     1
 90
        1
176
     1
 90
        4
176
     1
 62
     7
176
     1
 62
   257
176
     1
 90
        1
176
     1
 90
        1
176
     1
 40
1.0
176
     1
 90
        8
176
     1
 62
     7
176
     1
 40
1.0
176
     1
 90
        1
176
     1
 90
        6
176
     1
 90
        2
176
     1
 62
     7
176
     1
 90
        5
176
     1
 90
        0
176
     1
 90
        0
176
     1
290
     0
176
     1
 90
        1
176
     1
 40
-50.0
176
     1
 90
        0
176
     1
290
     0
176
     1
290
     1
176
     1
290
     1
176
     1
290
     0
176
     1
290
     0
176
     1
290
     0
176
     1
290
     0
176
     1
290
     0
176
     1
290
     0
176
     1
 90
       50
176
     1
 40
0.0
176
     1
 40
1.0
176
     1
 90
        0
176
     1
 62
    18
420
        0
176
     1
 90
       50
176
     1
 90
        3
176
     1
 62
     5
420
      255
176
     1
290
     0
176
     1
 90
       50
176
     1
 90
       50
176
     1
 90
       50
176
     1
290
     0
176
     1
 90
       50
176
     1
 62
   256
176
     0
 40
1.0
176
     0
 90
        2
176
     1
  1
strokes_ogs.tif
176
     1
290
     0
176
     1
 40
1.0
176
     1
 40
1.0
176
     1
  0
VISUALSTYLE
  5
3D
102
{ACAD_REACTORS
330
2A
102
}
330
2A
100
AcDbVisualStyle
  2
EdgeColorOff
 70
    22
177
     3
291
     1
 70
    58
 90
        2
176
     0
 90
        2
176
     0
 90
        0
176
     0
 90
        0
176
     0
 40
0.6
176
     0
 40
30.0
176
     0
 62
     7
420
 16777215
176
     0
 90
        1
176
     0
 90
        4
176
     0
 62
     7
176
     0
 62
   257
176
     0
 90
        1
176
     0
 90
        1
176
     0
 40
1.0
176
     0
 90
        8
176
     2
 62
     7
176
     0
 40
1.0
176
     0
 90
        1
176
     0
 90
        6
176
     0
 90
        2
176
     0
 62
     7
176
     0
 90
        5
176
     0
 90
        0
176
     0
 90
        0
176
     0
290
     0
176
     0
 90
        1
176
     0
 40
0.0
176
     0
 90
        0
176
     0
290
     0
176
     0
290
     1
176
     0
290
     1
176
     0
290
     0
176
     0
290
     0
176
     0
290
     0
176
     0
290
     0
176
     0
290
     0
176
     0
290
     0
176
     0
 90
       50
176
     0
 40
0.0
176
     0
 40
1.0
176
     0
 90
        0
176
     0
 62
    18
420
        0
176
     0
 90
       50
176
     0
 90
        3
176
     0
 62
     5
420
      255
176
     0
290
     0
176
     0
 90
       50
176
     0
 90
       50
176
     0
 90
       50
176
     0
290
     0
176
     0
 90
       50
176
     0
 62
   256
176
     0
 40
1.0
176
     0
 90
        2
176
     0
  1
strokes_ogs.tif
176
     0
290
     0
176
     0
 40
1.0
176
     0
 40
1.0
176
     0
  0
VISUALSTYLE
  5
39
102
{ACAD_REACTORS
330
2A
102
}
330
2A
100
AcDbVisualStyle
  2
Facepattern
 70
    15
177
     3
291
     1
 70
    58
 90
        2
176
     1
 90
        2
176
     1
 90
        0
176
     1
 90
        0
176
     1
 40
0.6
176
     1
 40
30.0
176
     1
 62
     7
420
 16777215
176
     1
 90
        1
176
     1
 90
        4
176
     1
 62
     7
176
     1
 62
   257
176
     1
 90
        1
176
     1
 90
        1
176
     1
 40
1.0
176
     1
 90
        8
176
     1
 62
     7
176
     1
 40
1.0
176
     1
 90
        1
176
     1
 90
        6
176
     1
 90
        2
176
     1
 62
     7
176
     1
 90
        5
176
     1
 90
        0
176
     1
 90
        0
176
     1
290
     0
176
     1
 90
        1
176
     1
 40
0.0
176
     1
 90
        0
176
     1
290
     0
176
     1
290
     1
176
     1
290
     1
176
     1
290
     0
176
     1
290
     0
176
     1
290
     0
176
     1
290
     0
176
     1
290
     0
176
     1
290
     0
176
     1
 90
       50
176
     1
 40
0.0
176
     1
 40
1.0
176
     1
 90
        0
176
     1
 62
    18
420
        0
176
     1
 90
       50
176
     1
 90
        3
176
     1
 62
     5
420
      255
176
     1
290
     0
176
     1
 90
       50
176
     1
 90
       50
176
     1
 90
       50
176
     1
290
     0
176
     1
 90
       50
176
     1
 62
   256
176
     0
 40
1.0
176
     0
 90
        2
176
     1
  1
strokes_ogs.tif
176
     1
290
     0
176
     1
 40
1.0
176
     1
 40
1.0
176
     1
  0
VISUALSTYLE
  5
2B
102
{ACAD_REACTORS
330
2A
102
}
330
2A
100
AcDbVisualStyle
  2
Flat
 70
     0
177
     3
291
     1
 70
    58
 90
        2
176
     1
 90
        1
176
     1
 90
        1
176
     1
 90
        2
176
     1
 40
0.6
176
     1
 40
30.0
176
     1
 62
     7
420
 16777215
176
     1
 90
        0
176
     1
 90
        0
176
     1
 62
     7
176
     1
 62
   257
176
     1
 90
        1
176
     1
 90
        1
176
     1
 40
1.0
176
     1
 90
        8
176
     1
 62
     7
176
     1
 40
1.0
176
     1
 90
        1
176
     1
 90
        6
176
     1
 90
        2
176
     1
 62
     7
176
     1
 90
        5
176
     1
 90
        0
176
     1
 90
        0
176
     1
290
     0
176
     1
 90
       13
176
     1
 40
0.0
176
     1
 90
        0
176
     1
290
     0
176
     1
290
     1
176
     1
290
     1
176
     1
290
     0
176
     1
290
     0
176
     1
290
     0
176
     1
290
     0
176
     1
290
     0
176
     1
290
     0
176
     1
 90
       50
176
     1
 40
0.0
176
     1
 40
1.0
176
     1
 90
        0
176
     1
 62
    18
420
        0
176
     1
 90
       50
176
     1
 90
        3
176
     1
 62
     5
420
      255
176
     1
290
     0
176
     1
 90
       50
176
     1
 90
       50
176
     1
 90
       50
176
     1
290
     0
176
     1
 90
       50
176
     1
 62
   256
176
     0
 40
1.0
176
     0
 90
        2
176
     1
  1
strokes_ogs.tif
176
     1
290
     0
176
     1
 40
1.0
176
     1
 40
1.0
176
     1
  0
VISUALSTYLE
  5
2C
102
{ACAD_REACTORS
330
2A
102
}
330
2A
100
AcDbVisualStyle
  2
FlatWithEdges
 70
     1
177
     3
291
     1
 70
    58
 90
        2
176
     1
 90
        1
176
     1
 90
        1
176
     1
 90
        2
176
     1
 40
0.6
176
     1
 40
30.0
176
     1
 62
     7
420
 16777215
176
     1
 90
        1
176
     1
 90
        0
176
     1
 62
     7
176
     1
 62
   257
176
     1
 90
        1
176
     1
 90
        1
176
     1
 40
1.0
176
     1
 90
        0
176
     1
 62
   257
176
     1
 40
1.0
176
     1
 90
        1
176
     1
 90
        6
176
     1
 90
        2
176
     1
 62
     7
176
     1
 90
        5
176
     1
 90
        0
176
     1
 90
        0
176
     1
290
     0
176
     1
 90
       13
176
     1
 40
0.0
176
     1
 90
        0
176
     1
290
     0
176
     1
290
     1
176
     1
290
     1
176
     1
290
     0
176
     1
290
     0
176
     1
290
     0
176
     1
290
     0
176
     1
290
     0
176
     1
290
     0
176
     1
 90
       50
176
     1
 40
0.0
176
     1
 40
1.0
176
     1
 90
        0
176
     1
 62
    18
420
        0
176
     1
 90
       50
176
     1
 90
        3
176
     1
 62
     5
420
      255
176
     1
290
     0
176
     1
 90
       50
176
     1
 90
       50
176
     1
 90
       50
176
     1
290
     0
176
     1
 90
       50
176
     1
 62
   256
176
     0
 40
1.0
176
     0
 90
        2
176
     1
  1
strokes_ogs.tif
176
     1
290
     0
176
     1
 40
1.0
176
     1
 40
1.0
176
     1
  0
VISUALSTYLE
  5
2D
102
{ACAD_REACTORS
330
2A
102
}
330
2A
100
AcDbVisualStyle
  2
Gouraud
 70
     2
177
     3
291
     1
 70
    58
 90
        2
176
     1
 90
        2
176
     1
 90
        1
176
     1
 90
        2
176
     1
 40
0.6
176
     1
 40
30.0
176
     1
 62
     7
420
 16777215
176
     1
 90
        0
176
     1
 90
        0
176
     1
 62
     7
176
     1
 62
   257
176
     1
 90
        1
176
     1
 90
        1
176
     1
 40
1.0
176
     1
 90
        0
176
     1
 62
     7
176
     1
 40
1.0
176
     1
 90
        1
176
     1
 90
        6
176
     1
 90
        2
176
     1
 62
     7
176
     1
 90
        5
176
     1
 90
        0
176
     1
 90
        0
176
     1
290
     0
176
     1
 90
       13
176
     1
 40
0.0
176
     1
 90
        0
176
     1
290
     0
176
     1
290
     1
176
     1
290
     1
176
     1
290
     0
176
     1
290
     0
176
     1
290
     0
176
     1
290
     0
176
     1
290
     0
176
     1
290
     0
176
     1
 90
       50
176
     1
 40
0.0
176
     1
 40
1.0
176
     1
 90
        0
176
     1
 62
    18
420
        0
176
     1
 90
       50
176
     1
 90
        3
176
     1
 62
     5
420
      255
176
     1
290
     0
176
     1
 90
       50
176
     1
 90
       50
176
     1
 90
       50
176
     1
290
     0
176
     1
 90
       50
176
     1
 62
   256
176
     0
 40
1.0
176
     0
 90
        2
176
     1
  1
strokes_ogs.tif
176
     1
290
     0
176
     1
 40
1.0
176
     1
 40
1.0
176
     1
  0
VISUALSTYLE
  5
2E
102
{ACAD_REACTORS
330
2A
102
}
330
2A
100
AcDbVisualStyle
  2
GouraudWithEdges
 70
     3
177
     3
291
     1
 70
    58
 90
        2
176
     1
 90
        2
176
     1
 90
        1
176
     1
 90
        2
176
     1
 40
0.6
176
     1
 40
30.0
176
     1
 62
     7
420
 16777215
176
     1
 90
        1
176
     1
 90
        0
176
     1
 62
     7
176
     1
 62
   257
176
     1
 90
        1
176
     1
 90
        1
176
     1
 40
1.0
176
     1
 90
        0
176
     1
 62
   257
176
     1
 40
1.0
176
     1
 90
        1
176
     1
 90
        6
176
     1
 90
        2
176
     1
 62
     7
176
     1
 90
        5
176
     1
 90
        0
176
     1
 90
        0
176
     1
290
     0
176
     1
 90
       13
176
     1
 40
0.0
176
     1
 90
        0
176
     1
290
     0
176
     1
290
     1
176
     1
290
     1
176
     1
290
     0
176
     1
290
     0
176
     1
290
     0
176
     1
290
     0
176
     1
290
     0
176
     1
290
     0
176
     1
 90
       50
176
     1
 40
0.0
176
     1
 40
1.0
176
     1
 90
        0
176
     1
 62
    18
420
        0
176
     1
 90
       50
176
     1
 90
        3
176
     1
 62
     5
420
      255
176
     1
290
     0
176
     1
 90
       50
176
     1
 90
       50
176
     1
 90
       50
176
     1
290
     0
176
     1
 90
       50
176
     1
 62
   256
176
     0
 40
1.0
176
     0
 90
        2
176
     1
  1
strokes_ogs.tif
176
     1
290
     0
176
     1
 40
1.0
176
     1
 40
1.0
176
     1
  0
VISUALSTYLE
  5
31
102
{ACAD_REACTORS
330
2A
102
}
330
2A
100
AcDbVisualStyle
  2
Hidden
 70
     6
177
     3
291
     0
 70
    58
 90
        1
176
     1
 90
        2
176
     1
 90
        2
176
     1
 90
        0
176
     1
 40
0.6
176
     1
 40
30.0
176
     1
 62
     7
420
 16777215
176
     1
 90
        2
176
     1
 90
        2
176
     1
 62
     7
176
     1
 62
   257
176
     1
 90
        2
176
     1
 90
        1
176
     1
 40
40.0
176
     1
 90
        0
176
     1
 62
   257
176
     1
 40
1.0
176
     1
 90
        1
176
     1
 90
        6
176
     1
 90
        2
176
     1
 62
     7
176
     1
 90
        3
176
     1
 90
        0
176
     1
 90
        0
176
     1
290
     0
176
     1
 90
        1
176
     1
 40
0.0
176
     1
 90
        0
176
     1
290
     0
176
     1
290
     1
176
     1
290
     1
176
     1
290
     0
176
     1
290
     0
176
     1
290
     0
176
     1
290
     0
176
     1
290
     0
176
     1
290
     0
176
     1
 90
       50
176
     1
 40
0.0
176
     1
 40
1.0
176
     1
 90
        0
176
     1
 62
    18
420
        0
176
     1
 90
       50
176
     1
 90
        3
176
     1
 62
     5
420
      255
176
     1
290
     0
176
     1
 90
       50
176
     1
 90
       50
176
     1
 90
       50
176
     1
290
     0
176
     1
 90
       50
176
     1
 62
   256
176
     0
 40
1.0
176
     0
 90
        2
176
     1
  1
strokes_ogs.tif
176
     1
290
     0
176
     1
 40
1.0
176
     1
 40
1.0
176
     1
  0
VISUALSTYLE
  5
3B
102
{ACAD_REACTORS
330
2A
102
}
330
2A
100
AcDbVisualStyle
  2
JitterOff
 70
    20
177
     3
291
     1
 70
    58
 90
        2
176
     0
 90
        2
176
     0
 90
        0
176
     0
 90
        0
176
     0
 40
0.6
176
     0
 40
30.0
176
     0
 62
     7
420
 16777215
176
     0
 90
        1
176
     0
 90
        4
176
     0
 62
     7
176
     0
 62
   257
176
     0
 90
        1
176
     0
 90
        1
176
     0
 40
1.0
176
     0
 90
       10
176
     2
 62
     7
176
     0
 40
1.0
176
     0
 90
        1
176
     0
 90
        6
176
     0
 90
        2
176
     0
 62
     7
176
     0
 90
        5
176
     0
 90
        0
176
     0
 90
        0
176
     0
290
     0
176
     0
 90
        1
176
     0
 40
0.0
176
     0
 90
        0
176
     0
290
     0
176
     0
290
     1
176
     0
290
     1
176
     0
290
     0
176
     0
290
     0
176
     0
290
     0
176
     0
290
     0
176
     0
290
     0
176
     0
290
     0
176
     0
 90
       50
176
     0
 40
0.0
176
     0
 40
1.0
176
     0
 90
        0
176
     0
 62
    18
420
        0
176
     0
 90
       50
176
     0
 90
        3
176
     0
 62
     5
420
      255
176
     0
290
     0
176
     0
 90
       50
176
     0
 90
       50
176
     0
 90
       50
176
     0
290
     0
176
     0
 90
       50
176
     0
 62
   256
176
     0
 40
1.0
176
     0
 90
        2
176
     0
  1
strokes_ogs.tif
176
     0
290
     0
176
     0
 40
1.0
176
     0
 40
1.0
176
     0
  0
VISUALSTYLE
  5
38
102
{ACAD_REACTORS
330
2A
102
}
330
2A
100
AcDbVisualStyle
  2
Linepattern
 70
    14
177
     3
291
     1
 70
    58
 90
        2
176
     1
 90
        2
176
     1
 90
        0
176
     1
 90
        0
176
     1
 40
0.6
176
     1
 40
30.0
176
     1
 62
     7
420
 16777215
176
     1
 90
        1
176
     1
 90
        4
176
     1
 62
     7
176
     1
 62
   257
176
     1
 90
        7
176
     1
 90
        7
176
     1
 40
1.0
176
     1
 90
        8
176
     1
 62
     7
176
     1
 40
1.0
176
     1
 90
        1
176
     1
 90
        6
176
     1
 90
        2
176
     1
 62
     7
176
     1
 90
        5
176
     1
 90
        0
176
     1
 90
        0
176
     1
290
     0
176
     1
 90
        1
176
     1
 40
0.0
176
     1
 90
        0
176
     1
290
     0
176
     1
290
     1
176
     1
290
     1
176
     1
290
     0
176
     1
290
     0
176
     1
290
     0
176
     1
290
     0
176
     1
290
     0
176
     1
290
     0
176
     1
 90
       50
176
     1
 40
0.0
176
     1
 40
1.0
176
     1
 90
        0
176
     1
 62
    18
420
        0
176
     1
 90
       50
176
     1
 90
        3
176
     1
 62
     5
420
      255
176
     1
290
     0
176
     1
 90
       50
176
     1
 90
       50
176
     1
 90
       50
176
     1
290
     0
176
     1
 90
       50
176
     1
 62
   256
176
     0
 40
1.0
176
     0
 90
        2
176
     1
  1
strokes_ogs.tif
176
     1
290
     0
176
     1
 40
1.0
176
     1
 40
1.0
176
     1
  0
VISUALSTYLE
  5
3C
102
{ACAD_REACTORS
330
2A
102
}
330
2A
100
AcDbVisualStyle
  2
OverhangOff
 70
    21
177
     3
291
     1
 70
    58
 90
        2
176
     0
 90
        2
176
     0
 90
        0
176
     0
 90
        0
176
     0
 40
0.6
176
     0
 40
30.0
176
     0
 62
     7
420
 16777215
176
     0
 90
        1
176
     0
 90
        4
176
     0
 62
     7
176
     0
 62
   257
176
     0
 90
        1
176
     0
 90
        1
176
     0
 40
1.0
176
     0
 90
        9
176
     2
 62
     7
176
     0
 40
1.0
176
     0
 90
        1
176
     0
 90
        6
176
     0
 90
        2
176
     0
 62
     7
176
     0
 90
        5
176
     0
 90
        0
176
     0
 90
        0
176
     0
290
     0
176
     0
 90
        1
176
     0
 40
0.0
176
     0
 90
        0
176
     0
290
     0
176
     0
290
     1
176
     0
290
     1
176
     0
290
     0
176
     0
290
     0
176
     0
290
     0
176
     0
290
     0
176
     0
290
     0
176
     0
290
     0
176
     0
 90
       50
176
     0
 40
0.0
176
     0
 40
1.0
176
     0
 90
        0
176
     0
 62
    18
420
        0
176
     0
 90
       50
176
     0
 90
        3
176
     0
 62
     5
420
      255
176
     0
290
     0
176
     0
 90
       50
176
     0
 90
       50
176
     0
 90
       50
176
     0
290
     0
176
     0
 90
       50
176
     0
 62
   256
176
     0
 40
1.0
176
     0
 90
        2
176
     0
  1
strokes_ogs.tif
176
     0
290
     0
176
     0
 40
1.0
176
     0
 40
1.0
176
     0
  0
VISUALSTYLE
  5
33
102
{ACAD_REACTORS
330
2A
102
}
330
2A
100
AcDbVisualStyle
  2
Realistic
 70
     8
177
     3
291
     0
 70
    58
 90
        2
176
     1
 90
        3
176
     1
 90
        0
176
     1
 90
        2
176
     1
 40
0.6
176
     1
 40
30.0
176
     1
 62
     7
420
 16777215
176
     1
 90
        0
176
     1
 90
        0
176
     1
 62
     7
176
     1
 62
   257
176
     1
 90
        1
176
     1
 90
        1
176
     1
 40
1.0
176
     1
 90
        8
176
     1
 62
   257
176
     1
 40
1.0
176
     1
 90
        1
176
     1
 90
        6
176
     1
 90
        2
176
     1
 62
     7
176
     1
 90
        3
176
     1
 90
        0
176
     1
 90
        0
176
     1
290
     0
176
     1
 90
       13
176
     1
 40
0.0
176
     1
 90
        0
176
     1
290
     0
176
     1
290
     1
176
     1
290
     1
176
     1
290
     0
176
     1
290
     0
176
     1
290
     0
176
     1
290
     0
176
     1
290
     0
176
     1
290
     0
176
     1
 90
       50
176
     1
 40
0.0
176
     1
 40
1.0
176
     1
 90
        0
176
     1
 62
    18
420
        0
176
     1
 90
       50
176
     1
 90
        3
176
     1
 62
     5
420
      255
176
     1
290
     0
176
     1
 90
       50
176
     1
 90
       50
176
     1
 90
       50
176
     1
290
     0
176
     1
 90
       50
176
     1
 62
   256
176
     0
 40
1.0
176
     0
 90
        2
176
     1
  1
strokes_ogs.tif
176
     1
290
     0
176
     1
 40
1.0
176
     1
 40
1.0
176
     1
  0
VISUALSTYLE
  5
42
102
{ACAD_REACTORS
330
2A
102
}
330
2A
100
AcDbVisualStyle
  2
Shaded
 70
    27
177
     3
291
     0
 70
    58
 90
        2
176
     1
 90
        2
176
     1
 90
        1
176
     1
 90
        2
176
     1
 40
0.6
176
     1
 40
30.0
176
     1
 62
     7
420
 16777215
176
     1
 90
        0
176
     1
 90
        4
176
     1
 62
     7
176
     1
 62
   257
176
     1
 90
        1
176
     1
 90
        1
176
     1
 40
1.0
176
     1
 90
        8
176
     1
 62
   257
176
     1
 40
1.0
176
     1
 90
        1
176
     1
 90
        6
176
     1
 90
        2
176
     1
 62
     8
420
  7895160
176
     1
 90
        3
176
     1
 90
        0
176
     1
 90
        0
176
     1
290
     0
176
     1
 90
        5
176
     1
 40
0.0
176
     1
 90
        0
176
     1
290
     0
176
     1
290
     1
176
     1
290
     1
176
     1
290
     0
176
     1
290
     0
176
     1
290
     0
176
     1
290
     0
176
     1
290
     0
176
     1
290
     0
176
     1
 90
       50
176
     1
 40
0.0
176
     1
 40
1.0
176
     1
 90
        0
176
     1
 62
    18
420
        0
176
     1
 90
       50
176
     1
 90
        3
176
     1
 62
     5
420
      255
176
     1
290
     0
176
     1
 90
       50
176
     1
 90
       50
176
     1
 90
       50
176
     1
290
     0
176
     1
 90
       50
176
     1
 62
   256
176
     0
 40
1.0
176
     0
 90
        2
176
     1
  1
strokes_ogs.tif
176
     1
290
     0
176
     1
 40
1.0
176
     1
 40
1.0
176
     1
  0
VISUALSTYLE
  5
41
102
{ACAD_REACTORS
330
2A
102
}
330
2A
100
AcDbVisualStyle
  2
Shaded with edges
 70
    26
177
     3
291
     0
 70
    58
 90
        2
176
     1
 90
        2
176
     1
 90
        1
176
     1
 90
        2
176
     1
 40
0.6
176
     1
 40
30.0
176
     1
 62
     7
420
 16777215
176
     1
 90
        1
176
     1
 90
       10
176
     1
 62
     7
176
     1
 62
   257
176
     1
 90
        2
176
     1
 90
        1
176
     1
 40
1.0
176
     1
 90
        8
176
     1
 62
   257
176
     1
 40
1.0
176
     1
 90
        1
176
     1
 90
        6
176
     1
 90
        2
176
     1
 62
     7
176
     1
 90
        3
176
     1
 90
        0
176
     1
 90
        0
176
     1
290
     0
176
     1
 90
        5
176
     1
 40
0.0
176
     1
 90
        0
176
     1
290
     0
176
     1
290
     1
176
     1
290
     1
176
     1
290
     0
176
     1
290
     0
176
     1
290
     0
176
     1
290
     0
176
     1
290
     0
176
     1
290
     0
176
     1
 90
       50
176
     1
 40
0.0
176
     1
 40
1.0
176
     1
 90
        0
176
     1
 62
    18
420
        0
176
     1
 90
       50
176
     1
 90
        3
176
     1
 62
     5
420
      255
176
     1
290
     0
176
     1
 90
       50
176
     1
 90
       50
176
     1
 90
       50
176
     1
290
     0
176
     1
 90
       50
176
     1
 62
   256
176
     0
 40
1.0
176
     0
 90
        2
176
     1
  1
strokes_ogs.tif
176
     1
290
     0
176
     1
 40
1.0
176
     1
 40
1.0
176
     1
  0
VISUALSTYLE
  5
3E
102
{ACAD_REACTORS
330
2A
102
}
330
2A
100
AcDbVisualStyle
  2
Shades of Gray
 70
    23
177
     3
291
     0
 70
    58
 90
        2
176
     1
 90
        2
176
     1
 90
        3
176
     1
 90
        0
176
     1
 40
0.6
176
     1
 40
30.0
176
     1
 62
     7
420
 16777215
176
     1
 90
        2
176
     1
 90
        2
176
     1
 62
     7
176
     1
 62
     7
176
     1
 90
        1
176
     1
 90
        1
176
     1
 40
40.0
176
     1
 90
        8
176
     1
 62
     7
176
     1
 40
1.0
176
     1
 90
        1
176
     1
 90
        6
176
     1
 90
        2
176
     1
 62
     7
176
     1
 90
        3
176
     1
 90
        0
176
     1
 90
        0
176
     1
290
     0
176
     1
 90
        1
176
     1
 40
0.0
176
     1
 90
        0
176
     1
290
     0
176
     1
290
     1
176
     1
290
     1
176
     1
290
     0
176
     1
290
     0
176
     1
290
     0
176
     1
290
     0
176
     1
290
     0
176
     1
290
     0
176
     1
 90
       50
176
     1
 40
0.0
176
     1
 40
1.0
176
     1
 90
        0
176
     1
 62
    18
420
        0
176
     1
 90
       50
176
     1
 90
        3
176
     1
 62
     5
420
      255
176
     1
290
     0
176
     1
 90
       50
176
     1
 90
       50
176
     1
 90
       50
176
     1
290
     0
176
     1
 90
       50
176
     1
 62
   256
176
     0
 40
1.0
176
     0
 90
        2
176
     1
  1
strokes_ogs.tif
176
     1
290
     0
176
     1
 40
1.0
176
     1
 40
1.0
176
     1
  0
VISUALSTYLE
  5
3F
102
{ACAD_REACTORS
330
2A
102
}
330
2A
100
AcDbVisualStyle
  2
Sketchy
 70
    24
177
     3
291
     0
 70
    58
 90
        1
176
     1
 90
        2
176
     1
 90
        2
176
     1
 90
        0
176
     1
 40
0.6
176
     1
 40
30.0
176
     1
 62
     7
420
 16777215
176
     1
 90
        2
176
     1
 90
        2
176
     1
 62
     7
176
     1
 62
     7
176
     1
 90
        1
176
     1
 90
        1
176
     1
 40
40.0
176
     1
 90
       11
176
     1
 62
     7
176
     1
 40
1.0
176
     1
 90
        1
176
     1
 90
        6
176
     1
 90
        2
176
     1
 62
     7
176
     1
 90
        6
176
     1
 90
        0
176
     1
 90
        0
176
     1
290
     0
176
     1
 90
        1
176
     1
 40
0.0
176
     1
 90
        0
176
     1
290
     0
176
     1
290
     1
176
     1
290
     1
176
     1
290
     0
176
     1
290
     0
176
     1
290
     0
176
     1
290
     0
176
     1
290
     0
176
     1
290
     0
176
     1
 90
       50
176
     1
 40
0.0
176
     1
 40
1.0
176
     1
 90
        0
176
     1
 62
    18
420
        0
176
     1
 90
       50
176
     1
 90
        3
176
     1
 62
     5
420
      255
176
     1
290
     0
176
     1
 90
       50
176
     1
 90
       50
176
     1
 90
       50
176
     1
290
     0
176
     1
 90
       50
176
     1
 62
   256
176
     0
 40
1.0
176
     0
 90
        2
176
     1
  1
strokes_ogs.tif
176
     1
290
     0
176
     1
 40
1.0
176
     1
 40
1.0
176
     1
  0
VISUALSTYLE
  5
37
102
{ACAD_REACTORS
330
2A
102
}
330
2A
100
AcDbVisualStyle
  2
Thicken
 70
    13
177
     3
291
     1
 70
    58
 90
        2
176
     1
 90
        2
176
     1
 90
        0
176
     1
 90
        0
176
     1
 40
0.6
176
     1
 40
30.0
176
     1
 62
     7
420
 16777215
176
     1
 90
        1
176
     1
 90
        4
176
     1
 62
     7
176
     1
 62
   257
176
     1
 90
        1
176
     1
 90
        1
176
     1
 40
1.0
176
     1
 90
       12
176
     1
 62
     7
176
     1
 40
1.0
176
     1
 90
        1
176
     1
 90
        6
176
     1
 90
        2
176
     1
 62
     7
176
     1
 90
        5
176
     1
 90
        0
176
     1
 90
        0
176
     1
290
     0
176
     1
 90
        1
176
     1
 40
0.0
176
     1
 90
        0
176
     1
290
     0
176
     1
290
     1
176
     1
290
     1
176
     1
290
     0
176
     1
290
     0
176
     1
290
     0
176
     1
290
     0
176
     1
290
     0
176
     1
290
     0
176
     1
 90
       50
176
     1
 40
0.0
176
     1
 40
1.0
176
     1
 90
        0
176
     1
 62
    18
420
        0
176
     1
 90
       50
176
     1
 90
        3
176
     1
 62
     5
420
      255
176
     1
290
     0
176
     1
 90
       50
176
     1
 90
       50
176
     1
 90
       50
176
     1
290
     0
176
     1
 90
       50
176
     1
 62
   256
176
     0
 40
1.0
176
     0
 90
        2
176
     1
  1
strokes_ogs.tif
176
     1
290
     0
176
     1
 40
1.0
176
     1
 40
1.0
176
     1
  0
VISUALSTYLE
  5
30
102
{ACAD_REACTORS
330
2A
102
}
330
2A
100
AcDbVisualStyle
  2
Wireframe
 70
     5
177
     3
291
     0
 70
    58
 90
        0
176
     1
 90
        2
176
     1
 90
        0
176
     1
 90
        0
176
     1
 40
0.6
176
     1
 40
30.0
176
     1
 62
     7
420
 16777215
176
     1
 90
        1
176
     1
 90
        4
176
     1
 62
     7
176
     1
 62
   257
176
     1
 90
        1
176
     1
 90
        1
176
     1
 40
1.0
176
     1
 90
        0
176
     1
 62
   257
176
     1
 40
1.0
176
     1
 90
        1
176
     1
 90
        6
176
     1
 90
        2
176
     1
 62
     7
176
     1
 90
        3
176
     1
 90
        0
176
     1
 90
        0
176
     1
290
     0
176
     1
 90
        1
176
     1
 40
0.0
176
     1
 90
        0
176
     1
290
     0
176
     1
290
     1
176
     1
290
     1
176
     1
290
     0
176
     1
290
     0
176
     1
290
     0
176
     1
290
     0
176
     1
290
     0
176
     1
290
     0
176
     1
 90
       50
176
     1
 40
0.0
176
     1
 40
1.0
176
     1
 90
        0
176
     1
 62
    18
420
        0
176
     1
 90
       50
176
     1
 90
        3
176
     1
 62
     5
420
      255
176
     1
290
     0
176
     1
 90
       50
176
     1
 90
       50
176
     1
 90
       50
176
     1
290
     0
176
     1
 90
       50
176
     1
 62
   256
176
     0
 40
1.0
176
     0
 90
        2
176
     1
  1
strokes_ogs.tif
176
     1
290
     0
176
     1
 40
1.0
176
     1
 40
1.0
176
     1
  0
VISUALSTYLE
  5
40
102
{ACAD_REACTORS
330
2A
102
}
330
2A
100
AcDbVisualStyle
  2
X-Ray
 70
    25
177
     3
291
     0
 70
    58
 90
        2
176
     1
 90
        2
176
     1
 90
        1
176
     1
 90
        1
176
     1
 40
0.5
176
     1
 40
30.0
176
     1
 62
     7
420
 16777215
176
     1
 90
        1
176
     1
 90
        0
176
     1
 62
     7
176
     1
 62
   257
176
     1
 90
        1
176
     1
 90
        1
176
     1
 40
1.0
176
     1
 90
        8
176
     1
 62
     7
176
     1
 40
1.0
176
     1
 90
        1
176
     1
 90
        6
176
     1
 90
        2
176
     1
 62
     7
176
     1
 90
        3
176
     1
 90
        0
176
     1
 90
        0
176
     1
290
     0
176
     1
 90
       13
176
     1
 40
0.0
176
     1
 90
        0
176
     1
290
     0
176
     1
290
     1
176
     1
290
     1
176
     1
290
     0
176
     1
290
     0
176
     1
290
     0
176
     1
290
     0
176
     1
290
     0
176
     1
290
     0
176
     1
 90
       50
176
     1
 40
0.0
176
     1
 40
1.0
176
     1
 90
        0
176
     1
 62
    18
420
        0
176
     1
 90
       50
176
     1
 90
        3
176
     1
 62
     5
420
      255
176
     1
290
     0
176
     1
 90
       50
176
     1
 90
       50
176
     1
 90
       50
176
     1
290
     0
176
     1
 90
       50
176
     1
 62
   256
176
     0
 40
1.0
176
     0
 90
        2
176
     1
  1
strokes_ogs.tif
176
     1
290
     0
176
     1
 40
1.0
176
     1
 40
1.0
176
     1
  0
DICTIONARYVAR
  5
B1
102
{ACAD_REACTORS
330
B0
102
}
330
B0
100
DictionaryVariables
280
     0
  1
1:1
  0
DICTIONARYVAR
  5
B9
102
{ACAD_REACTORS
330
B0
102
}
330
B0
100
DictionaryVariables
280
     0
  1
3.500000
  0
DICTIONARYVAR
  5
BA
102
{ACAD_REACTORS
330
B0
102
}
330
B0
100
DictionaryVariables
280
     0
  1
acadiso.lin
  0
DICTIONARYVAR
  5
B6
102
{ACAD_REACTORS
330
B0
102
}
330
B0
100
DictionaryVariables
280
     0
  1
Standard
  0
DICTIONARYVAR
  5
B5
102
{ACAD_REACTORS
330
B0
102
}
330
B0
100
DictionaryVariables
280
     0
  1
Standard
  0
DICTIONARY
  5
B2
330
5A
100
AcDbDictionary
280
     1
281
     1
  3
ACAD_ROUNDTRIP_2008_TABLESTYLE_CELLSTYLEMAP
360
B3
  0
CELLSTYLEMAP
  5
B3
102
{ACAD_REACTORS
330
B2
102
}
330
B2
100
AcDbCellStyleMap
 90
        3
300
CELLSTYLE
  1
TABLEFORMAT_BEGIN
 90
        5
170
     1
 91
        0
 92
    32768
 62
   257
 93
        1
300
CONTENTFORMAT
  1
CONTENTFORMAT_BEGIN
 90
        0
 91
        0
 92
        4
 93
        0
300

 40
0.0
140
1.0
 94
        5
 62
     0
340
11
144
6.0
309
CONTENTFORMAT_END
171
     1
301
MARGIN
  1
CELLMARGIN_BEGIN
 40
1.5
 40
1.5
 40
1.5
 40
1.5
 40
1.5
 40
1.5
309
CELLMARGIN_END
 94
        6
 95
        1
302
GRIDFORMAT
  1
GRIDFORMAT_BEGIN
 90
        0
 91
        1
 62
     0
 92
       -2
340
14
 93
        0
 40
0.045
309
GRIDFORMAT_END
 95
        2
302
GRIDFORMAT
  1
GRIDFORMAT_BEGIN
 90
        0
 91
        1
 62
     0
 92
       -2
340
14
 93
        0
 40
0.045
309
GRIDFORMAT_END
 95
        4
302
GRIDFORMAT
  1
GRIDFORMAT_BEGIN
 90
        0
 91
        1
 62
     0
 92
       -2
340
14
 93
        0
 40
0.045
309
GRIDFORMAT_END
 95
        8
302
GRIDFORMAT
  1
GRIDFORMAT_BEGIN
 90
        0
 91
        1
 62
     0
 92
       -2
340
14
 93
        0
 40
0.045
309
GRIDFORMAT_END
 95
       16
302
GRIDFORMAT
  1
GRIDFORMAT_BEGIN
 90
        0
 91
        1
 62
     0
 92
       -2
340
14
 93
        0
 40
0.045
309
GRIDFORMAT_END
 95
       32
302
GRIDFORMAT
  1
GRIDFORMAT_BEGIN
 90
        0
 91
        1
 62
     0
 92
       -2
340
14
 93
        0
 40
0.045
309
GRIDFORMAT_END
309
TABLEFORMAT_END
  1
CELLSTYLE_BEGIN
 90
        1
 91
        1
300
_TITLE
309
CELLSTYLE_END
300
CELLSTYLE
  1
TABLEFORMAT_BEGIN
 90
        5
170
     1
 91
        0
 92
        0
 62
   257
 93
        1
300
CONTENTFORMAT
  1
CONTENTFORMAT_BEGIN
 90
        0
 91
        0
 92
        4
 93
        0
300

 40
0.0
140
1.0
 94
        5
 62
     0
340
11
144
4.5
309
CONTENTFORMAT_END
171
     1
301
MARGIN
  1
CELLMARGIN_BEGIN
 40
1.5
 40
1.5
 40
1.5
 40
1.5
 40
1.5
 40
1.5
309
CELLMARGIN_END
 94
        6
 95
        1
302
GRIDFORMAT
  1
GRIDFORMAT_BEGIN
 90
        0
 91
        1
 62
     0
 92
       -2
340
14
 93
        0
 40
0.045
309
GRIDFORMAT_END
 95
        2
302
GRIDFORMAT
  1
GRIDFORMAT_BEGIN
 90
        0
 91
        1
 62
     0
 92
       -2
340
14
 93
        0
 40
0.045
309
GRIDFORMAT_END
 95
        4
302
GRIDFORMAT
  1
GRIDFORMAT_BEGIN
 90
        0
 91
        1
 62
     0
 92
       -2
340
14
 93
        0
 40
0.045
309
GRIDFORMAT_END
 95
        8
302
GRIDFORMAT
  1
GRIDFORMAT_BEGIN
 90
        0
 91
        1
 62
     0
 92
       -2
340
14
 93
        0
 40
0.045
309
GRIDFORMAT_END
 95
       16
302
GRIDFORMAT
  1
GRIDFORMAT_BEGIN
 90
        0
 91
        1
 62
     0
 92
       -2
340
14
 93
        0
 40
0.045
309
GRIDFORMAT_END
 95
       32
302
GRIDFORMAT
  1
GRIDFORMAT_BEGIN
 90
        0
 91
        1
 62
     0
 92
       -2
340
14
 93
        0
 40
0.045
309
GRIDFORMAT_END
309
TABLEFORMAT_END
  1
CELLSTYLE_BEGIN
 90
        2
 91
        1
300
_HEADER
309
CELLSTYLE_END
300
CELLSTYLE
  1
TABLEFORMAT_BEGIN
 90
        5
170
     1
 91
        0
 92
        0
 62
   257
 93
        1
300
CONTENTFORMAT
  1
CONTENTFORMAT_BEGIN
 90
        0
 91
        0
 92
        4
 93
        0
300

 40
0.0
140
1.0
 94
        2
 62
     0
340
11
144
4.5
309
CONTENTFORMAT_END
171
     1
301
MARGIN
  1
CELLMARGIN_BEGIN
 40
1.5
 40
1.5
 40
1.5
 40
1.5
 40
1.5
 40
1.5
309
CELLMARGIN_END
 94
        6
 95
        1
302
GRIDFORMAT
  1
GRIDFORMAT_BEGIN
 90
        0
 91
        1
 62
     0
 92
       -2
340
14
 93
        0
 40
0.045
309
GRIDFORMAT_END
 95
        2
302
GRIDFORMAT
  1
GRIDFORMAT_BEGIN
 90
        0
 91
        1
 62
     0
 92
       -2
340
14
 93
        0
 40
0.045
309
GRIDFORMAT_END
 95
        4
302
GRIDFORMAT
  1
GRIDFORMAT_BEGIN
 90
        0
 91
        1
 62
     0
 92
       -2
340
14
 93
        0
 40
0.045
309
GRIDFORMAT_END
 95
        8
302
GRIDFORMAT
  1
GRIDFORMAT_BEGIN
 90
        0
 91
        1
 62
     0
 92
       -2
340
14
 93
        0
 40
0.045
309
GRIDFORMAT_END
 95
       16
302
GRIDFORMAT
  1
GRIDFORMAT_BEGIN
 90
        0
 91
        1
 62
     0
 92
       -2
340
14
 93
        0
 40
0.045
309
GRIDFORMAT_END
 95
       32
302
GRIDFORMAT
  1
GRIDFORMAT_BEGIN
 90
        0
 91
        1
 62
     0
 92
       -2
340
14
 93
        0
 40
0.045
309
GRIDFORMAT_END
309
TABLEFORMAT_END
  1
CELLSTYLE_BEGIN
 90
        3
 91
        2
300
_DATA
309
CELLSTYLE_END
  0
ENDSEC
  0
EOF
