  0
SECTION
  2
HEADER
  9
$ACADVER
  1
AC1027
  9
$ACADMAINTVER
 70
   105
  9
$DWGCODEPAGE
  3
ANSI_932
  9
$LASTSAVEDBY
  1
a.yasuda
  9
$REQUIREDVERSIONS
160
                 0
  9
$INSBASE
 10
0.0
 20
0.0
 30
0.0
  9
$EXTMIN
 10
0.0
 20
0.0
 30
0.0
  9
$EXTMAX
 10
302.9997823349792
 20
216.0016055409748
 30
0.0
  9
$LIMMIN
 10
0.0
 20
0.0
  9
$LIMMAX
 10
302.9997823349792
 20
216.0016055409748
  9
$ORTHOMODE
 70
     0
  9
$REGENMODE
 70
     1
  9
$FILLMODE
 70
     1
  9
$QTEXTMODE
 70
     0
  9
$MIRRTEXT
 70
     1
  9
$LTSCALE
 40
1.0
  9
$ATTMODE
 70
     1
  9
$TEXTSIZE
 40
2.5
  9
$TRACEWID
 40
1.0
  9
$TEXTSTYLE
  7
Standard
  9
$CLAYER
  8
0
  9
$CELTYPE
  6
ByLayer
  9
$CECOLOR
 62
   256
  9
$CELTSCALE
 40
1.0
  9
$DISPSILH
 70
     0
  9
$DIMSCALE
 40
1.0
  9
$DIMASZ
 40
2.5
  9
$DIMEXO
 40
0.625
  9
$DIMDLI
 40
3.75
  9
$DIMRND
 40
0.0
  9
$DIMDLE
 40
0.0
  9
$DIMEXE
 40
1.25
  9
$DIMTP
 40
0.0
  9
$DIMTM
 40
0.0
  9
$DIMTXT
 40
2.5
  9
$DIMCEN
 40
2.5
  9
$DIMTSZ
 40
0.0
  9
$DIMTOL
 70
     0
  9
$DIMLIM
 70
     0
  9
$DIMTIH
 70
     0
  9
$DIMTOH
 70
     0
  9
$DIMSE1
 70
     0
  9
$DIMSE2
 70
     0
  9
$DIMTAD
 70
     1
  9
$DIMZIN
 70
     8
  9
$DIMBLK
  1

  9
$DIMASO
 70
     1
  9
$DIMSHO
 70
     1
  9
$DIMPOST
  1

  9
$DIMAPOST
  1

  9
$DIMALT
 70
     0
  9
$DIMALTD
 70
     3
  9
$DIMALTF
 40
0.03937007874016
  9
$DIMLFAC
 40
1.0
  9
$DIMTOFL
 70
     1
  9
$DIMTVP
 40
0.0
  9
$DIMTIX
 70
     0
  9
$DIMSOXD
 70
     0
  9
$DIMSAH
 70
     0
  9
$DIMBLK1
  1

  9
$DIMBLK2
  1

  9
$DIMSTYLE
  2
ISO-25
  9
$DIMCLRD
 70
     0
  9
$DIMCLRE
 70
     0
  9
$DIMCLRT
 70
     0
  9
$DIMTFAC
 40
1.0
  9
$DIMGAP
 40
0.625
  9
$DIMJUST
 70
     0
  9
$DIMSD1
 70
     0
  9
$DIMSD2
 70
     0
  9
$DIMTOLJ
 70
     0
  9
$DIMTZIN
 70
     8
  9
$DIMALTZ
 70
     0
  9
$DIMALTTZ
 70
     0
  9
$DIMUPT
 70
     0
  9
$DIMDEC
 70
     2
  9
$DIMTDEC
 70
     2
  9
$DIMALTU
 70
     2
  9
$DIMALTTD
 70
     3
  9
$DIMTXSTY
  7
Standard
  9
$DIMAUNIT
 70
     0
  9
$DIMADEC
 70
     0
  9
$DIMALTRND
 40
0.0
  9
$DIMAZIN
 70
     0
  9
$DIMDSEP
 70
    44
  9
$DIMATFIT
 70
     3
  9
$DIMFRAC
 70
     0
  9
$DIMLDRBLK
  1

  9
$DIMLUNIT
 70
     2
  9
$DIMLWD
 70
    -2
  9
$DIMLWE
 70
    -2
  9
$DIMTMOVE
 70
     0
  9
$DIMFXL
 40
1.0
  9
$DIMFXLON
 70
     0
  9
$DIMJOGANG
 40
0.7853981633974483
  9
$DIMTFILL
 70
     0
  9
$DIMTFILLCLR
 70
     0
  9
$DIMARCSYM
 70
     0
  9
$DIMLTYPE
  6

  9
$DIMLTEX1
  6

  9
$DIMLTEX2
  6

  9
$DIMTXTDIRECTION
 70
     0
  9
$LUNITS
 70
     2
  9
$LUPREC
 70
     4
  9
$SKETCHINC
 40
1.0
  9
$FILLETRAD
 40
0.0
  9
$AUNITS
 70
     0
  9
$AUPREC
 70
     0
  9
$MENU
  1
.
  9
$ELEVATION
 40
0.0
  9
$PELEVATION
 40
0.0
  9
$THICKNESS
 40
0.0
  9
$LIMCHECK
 70
     0
  9
$CHAMFERA
 40
0.0
  9
$CHAMFERB
 40
0.0
  9
$CHAMFERC
 40
0.0
  9
$CHAMFERD
 40
0.0
  9
$SKPOLY
 70
     0
  9
$TDCREATE
 40
2459866.620499873
  9
$TDUCREATE
 40
2459866.245499873
  9
$TDUPDATE
 40
2459866.620499908
  9
$TDUUPDATE
 40
2459866.245499908
  9
$TDINDWG
 40
0.0000000116
  9
$TDUSRTIMER
 40
0.0000000116
  9
$USRTIMER
 70
     1
  9
$ANGBASE
 50
0.0
  9
$ANGDIR
 70
     0
  9
$PDMODE
 70
     0
  9
$PDSIZE
 40
0.0
  9
$PLINEWID
 40
0.0
  9
$SPLFRAME
 70
     0
  9
$SPLINETYPE
 70
     6
  9
$SPLINESEGS
 70
     8
  9
$HANDSEED
  5
AF
  9
$SURFTAB1
 70
     6
  9
$SURFTAB2
 70
     6
  9
$SURFTYPE
 70
     6
  9
$SURFU
 70
     6
  9
$SURFV
 70
     6
  9
$UCSBASE
  2

  9
$UCSNAME
  2

  9
$UCSORG
 10
0.0
 20
0.0
 30
0.0
  9
$UCSXDIR
 10
1.0
 20
0.0
 30
0.0
  9
$UCSYDIR
 10
0.0
 20
1.0
 30
0.0
  9
$UCSORTHOREF
  2

  9
$UCSORTHOVIEW
 70
     0
  9
$UCSORGTOP
 10
0.0
 20
0.0
 30
0.0
  9
$UCSORGBOTTOM
 10
0.0
 20
0.0
 30
0.0
  9
$UCSORGLEFT
 10
0.0
 20
0.0
 30
0.0
  9
$UCSORGRIGHT
 10
0.0
 20
0.0
 30
0.0
  9
$UCSORGFRONT
 10
0.0
 20
0.0
 30
0.0
  9
$UCSORGBACK
 10
0.0
 20
0.0
 30
0.0
  9
$PUCSBASE
  2

  9
$PUCSNAME
  2

  9
$PUCSORG
 10
0.0
 20
0.0
 30
0.0
  9
$PUCSXDIR
 10
1.0
 20
0.0
 30
0.0
  9
$PUCSYDIR
 10
0.0
 20
1.0
 30
0.0
  9
$PUCSORTHOREF
  2

  9
$PUCSORTHOVIEW
 70
     0
  9
$PUCSORGTOP
 10
0.0
 20
0.0
 30
0.0
  9
$PUCSORGBOTTOM
 10
0.0
 20
0.0
 30
0.0
  9
$PUCSORGLEFT
 10
0.0
 20
0.0
 30
0.0
  9
$PUCSORGRIGHT
 10
0.0
 20
0.0
 30
0.0
  9
$PUCSORGFRONT
 10
0.0
 20
0.0
 30
0.0
  9
$PUCSORGBACK
 10
0.0
 20
0.0
 30
0.0
  9
$USERI1
 70
     0
  9
$USERI2
 70
     0
  9
$USERI3
 70
     0
  9
$USERI4
 70
     0
  9
$USERI5
 70
     0
  9
$USERR1
 40
0.0
  9
$USERR2
 40
0.0
  9
$USERR3
 40
0.0
  9
$USERR4
 40
0.0
  9
$USERR5
 40
0.0
  9
$WORLDVIEW
 70
     1
  9
$SHADEDGE
 70
     3
  9
$SHADEDIF
 70
    70
  9
$TILEMODE
 70
     1
  9
$MAXACTVP
 70
    64
  9
$PINSBASE
 10
0.0
 20
0.0
 30
0.0
  9
$PLIMCHECK
 70
     0
  9
$PEXTMIN
 10
1.000000000000000E+20
 20
1.000000000000000E+20
 30
1.000000000000000E+20
  9
$PEXTMAX
 10
-1.000000000000000E+20
 20
-1.000000000000000E+20
 30
-1.000000000000000E+20
  9
$PLIMMIN
 10
0.0
 20
0.0
  9
$PLIMMAX
 10
420.0
 20
297.0
  9
$UNITMODE
 70
     0
  9
$VISRETAIN
 70
     1
  9
$PLINEGEN
 70
     0
  9
$PSLTSCALE
 70
     1
  9
$TREEDEPTH
 70
  3020
  9
$CMLSTYLE
  2
Standard
  9
$CMLJUST
 70
     0
  9
$CMLSCALE
 40
20.0
  9
$PROXYGRAPHICS
 70
     1
  9
$MEASUREMENT
 70
     1
  9
$CELWEIGHT
370
    -1
  9
$ENDCAPS
280
     0
  9
$JOINSTYLE
280
     0
  9
$LWDISPLAY
290
     0
  9
$INSUNITS
 70
     4
  9
$HYPERLINKBASE
  1

  9
$STYLESHEET
  1

  9
$XEDIT
290
     1
  9
$CEPSNTYPE
380
     0
  9
$PSTYLEMODE
290
     1
  9
$FINGERPRINTGUID
  2
{27c95f7f-0b27-42a7-91d5-02f9cf026c40}
  9
$VERSIONGUID
  2
{FAEB1C32-E019-11D5-929B-00C0DF256EC4}
  9
$EXTNAMES
290
     1
  9
$PSVPSCALE
 40
0.0
  9
$OLESTARTUP
290
     0
  9
$SORTENTS
280
   127
  9
$INDEXCTL
280
     0
  9
$HIDETEXT
280
     1
  9
$XCLIPFRAME
280
     2
  9
$HALOGAP
280
     0
  9
$OBSCOLOR
 70
   257
  9
$OBSLTYPE
280
     0
  9
$INTERSECTIONDISPLAY
280
     0
  9
$INTERSECTIONCOLOR
 70
   257
  9
$DIMASSOC
280
     2
  9
$PROJECTNAME
  1

  9
$CAMERADISPLAY
290
     0
  9
$LENSLENGTH
 40
50.0
  9
$CAMERAHEIGHT
 40
0.0
  9
$STEPSPERSEC
 40
2.0
  9
$STEPSIZE
 40
6.0
  9
$3DDWFPREC
 40
2.0
  9
$PSOLWIDTH
 40
5.0
  9
$PSOLHEIGHT
 40
80.0
  9
$LOFTANG1
 40
1.570796326794897
  9
$LOFTANG2
 40
1.570796326794897
  9
$LOFTMAG1
 40
0.0
  9
$LOFTMAG2
 40
0.0
  9
$LOFTPARAM
 70
     7
  9
$LOFTNORMALS
280
     1
  9
$LATITUDE
 40
37.795
  9
$LONGITUDE
 40
-122.394
  9
$NORTHDIRECTION
 40
0.0
  9
$TIMEZONE
 70
 -8000
  9
$LIGHTGLYPHDISPLAY
280
     1
  9
$TILEMODELIGHTSYNCH
280
     1
  9
$CMATERIAL
347
44
  9
$SOLIDHIST
280
     0
  9
$SHOWHIST
280
     1
  9
$DWFFRAME
280
     2
  9
$DGNFRAME
280
     2
  9
$REALWORLDSCALE
290
     1
  9
$INTERFERECOLOR
 62
   256
  9
$CSHADOW
280
     0
  9
$SHADOWPLANELOCATION
 40
0.0
  0
ENDSEC
  0
SECTION
  2
CLASSES
  0
CLASS
  1
ACDBDICTIONARYWDFLT
  2
AcDbDictionaryWithDefault
  3
ObjectDBX Classes
 90
        0
 91
        3
280
     0
281
     0
  0
CLASS
  1
VISUALSTYLE
  2
AcDbVisualStyle
  3
ObjectDBX Classes
 90
     4095
 91
        3
280
     0
281
     0
  0
CLASS
  1
MATERIAL
  2
AcDbMaterial
  3
ObjectDBX Classes
 90
     1153
 91
        3
280
     0
281
     0
  0
CLASS
  1
SCALE
  2
AcDbScale
  3
ObjectDBX Classes
 90
     1153
 91
        3
280
     0
281
     0
  0
CLASS
  1
TABLESTYLE
  2
AcDbTableStyle
  3
ObjectDBX Classes
 90
     4095
 91
        3
280
     0
281
     0
  0
CLASS
  1
MLEADERSTYLE
  2
AcDbMLeaderStyle
  3
ACDB_MLEADERSTYLE_CLASS
 90
     4095
 91
        3
280
     0
281
     0
  0
CLASS
  1
SUN
  2
AcDbSun
  3
SCENEOE
 90
     1153
 91
        3
280
     0
281
     0
  0
CLASS
  1
DICTIONARYVAR
  2
AcDbDictionaryVar
  3
ObjectDBX Classes
 90
        0
 91
        3
280
     0
281
     0
  0
CLASS
  1
CELLSTYLEMAP
  2
AcDbCellStyleMap
  3
ObjectDBX Classes
 90
     1152
 91
        3
280
     0
281
     0
  0
ENDSEC
  0
SECTION
  2
TABLES
  0
TABLE
  2
VPORT
  5
8
330
0
100
AcDbSymbolTable
 70
     1
  0
VPORT
  5
29
330
8
100
AcDbSymbolTableRecord
100
AcDbViewportTableRecord
  2
*Active
 70
     0
 10
0.0
 20
0.0
 11
1.0
 21
1.0
 12
151.4998911674896
 22
108.0008027704874
 13
0.0
 23
0.0
 14
10.0
 24
10.0
 15
10.0
 25
10.0
 16
0.0
 26
0.0
 36
1.0
 17
0.0
 27
0.0
 37
0.0
 40
237.6017660950723
 41
1.402766343222857
 42
50.0
 43
0.0
 44
0.0
 50
0.0
 51
0.0
 71
     0
 72
 10000
 73
     1
 74
     3
 75
     0
 76
     0
 77
     0
 78
     0
281
     0
 65
     1
110
0.0
120
0.0
130
0.0
111
1.0
121
0.0
131
0.0
112
0.0
122
1.0
132
0.0
 79
     0
146
0.0
348
2F
 60
     3
 61
     5
292
     1
282
     1
141
0.0
142
0.0
 63
   250
361
5D
  0
ENDTAB
  0
TABLE
  2
LTYPE
  5
5
330
0
100
AcDbSymbolTable
 70
     2
  0
LTYPE
  5
14
330
5
100
AcDbSymbolTableRecord
100
AcDbLinetypeTableRecord
  2
ByBlock
 70
     0
  3

 72
    65
 73
     0
 40
0.0
  0
LTYPE
  5
15
330
5
100
AcDbSymbolTableRecord
100
AcDbLinetypeTableRecord
  2
ByLayer
 70
     0
  3

 72
    65
 73
     0
 40
0.0
  0
LTYPE
  5
16
330
5
100
AcDbSymbolTableRecord
100
AcDbLinetypeTableRecord
  2
Continuous
 70
     0
  3
Solid line
 72
    65
 73
     0
 40
0.0
  0
LTYPE
  5
5F
330
5
100
AcDbSymbolTableRecord
100
AcDbLinetypeTableRecord
  2
UserDefined01
 70
     0
  3
----------------                
 72
    65
 73
     2
 40
0.7055555449591743
 49
0.3527777724795871
 74
     0
 49
-0.3527777724795871
 74
     0
  0
ENDTAB
  0
TABLE
  2
LAYER
  5
2
330
0
100
AcDbSymbolTable
 70
     3
  0
LAYER
  5
10
330
2
100
AcDbSymbolTableRecord
100
AcDbLayerTableRecord
  2
0
 70
     0
 62
     7
  6
Continuous
370
    -3
390
F
347
46
348
0
  0
LAYER
  5
60
330
2
100
AcDbSymbolTableRecord
100
AcDbLayerTableRecord
  2
外枠
 70
     0
 62
     7
  6
Continuous
370
    -3
390
F
347
46
348
0
  0
LAYER
  5
61
330
2
100
AcDbSymbolTableRecord
100
AcDbLayerTableRecord
  2
ISS138金台
 70
     0
 62
     7
  6
Continuous
370
    -3
390
F
347
46
348
0
  0
ENDTAB
  0
TABLE
  2
STYLE
  5
3
330
0
100
AcDbSymbolTable
 70
     2
  0
STYLE
  5
11
330
3
100
AcDbSymbolTableRecord
100
AcDbTextStyleTableRecord
  2
Standard
 70
     0
 40
0.0
 41
1.0
 50
0.0
 71
     0
 42
2.5
  3

  4

  0
STYLE
  5
5E
330
3
100
AcDbSymbolTableRecord
100
AcDbTextStyleTableRecord
  2
MS Gothic
 70
     0
 40
1.0
 41
1.0
 50
0.0
 71
     0
 42
2.5
  3
msgothic.ttc
  4

1001
ACAD
1000
MS Gothic
1071
    32817
  0
ENDTAB
  0
TABLE
  2
VIEW
  5
6
330
0
100
AcDbSymbolTable
 70
     0
  0
ENDTAB
  0
TABLE
  2
UCS
  5
7
330
0
100
AcDbSymbolTable
 70
     0
  0
ENDTAB
  0
TABLE
  2
APPID
  5
9
330
0
100
AcDbSymbolTable
 70
     1
  0
APPID
  5
12
330
9
100
AcDbSymbolTableRecord
100
AcDbRegAppTableRecord
  2
ACAD
 70
     0
  0
ENDTAB
  0
TABLE
  2
DIMSTYLE
  5
A
330
0
100
AcDbSymbolTable
 70
     1
100
AcDbDimStyleTable
  0
DIMSTYLE
105
27
330
A
100
AcDbSymbolTableRecord
100
AcDbDimStyleTableRecord
  2
ISO-25
 70
     0
 41
2.5
 42
0.625
 43
3.75
 44
1.25
 73
     0
 74
     0
 77
     1
 78
     8
140
2.5
141
2.5
143
0.03937007874016
147
0.625
171
     3
172
     1
178
     0
271
     2
272
     2
274
     3
278
    44
283
     0
284
     8
340
11
  0
ENDTAB
  0
TABLE
  2
BLOCK_RECORD
  5
1
330
0
100
AcDbSymbolTable
 70
     1
  0
BLOCK_RECORD
  5
1F
330
1
100
AcDbSymbolTableRecord
100
AcDbBlockTableRecord
  2
*Model_Space
340
22
 70
     0
280
     1
281
     0
  0
BLOCK_RECORD
  5
1B
330
1
100
AcDbSymbolTableRecord
100
AcDbBlockTableRecord
  2
*Paper_Space
340
1E
 70
     0
280
     1
281
     0
  0
BLOCK_RECORD
  5
23
330
1
100
AcDbSymbolTableRecord
100
AcDbBlockTableRecord
  2
*Paper_Space0
340
26
 70
     0
280
     1
281
     0
  0
ENDTAB
  0
ENDSEC
  0
SECTION
  2
BLOCKS
  0
BLOCK
  5
20
330
1F
100
AcDbEntity
  8
0
100
AcDbBlockBegin
  2
*Model_Space
 70
     0
 10
0.0
 20
0.0
 30
0.0
  3
*Model_Space
  1

  0
ENDBLK
  5
21
330
1F
100
AcDbEntity
  8
0
100
AcDbBlockEnd
  0
BLOCK
  5
1C
330
1B
100
AcDbEntity
 67
     1
  8
0
100
AcDbBlockBegin
  2
*Paper_Space
 70
     0
 10
0.0
 20
0.0
 30
0.0
  3
*Paper_Space
  1

  0
ENDBLK
  5
1D
330
1B
100
AcDbEntity
 67
     1
  8
0
100
AcDbBlockEnd
  0
BLOCK
  5
24
330
23
100
AcDbEntity
  8
0
100
AcDbBlockBegin
  2
*Paper_Space0
 70
     0
 10
0.0
 20
0.0
 30
0.0
  3
*Paper_Space0
  1

  0
ENDBLK
  5
25
330
23
100
AcDbEntity
  8
0
100
AcDbBlockEnd
  0
ENDSEC
  0
SECTION
  2
ENTITIES
  0
LWPOLYLINE
  5
62
330
1F
100
AcDbEntity
  8
外枠
  6
Continuous
 62
   250
420
  2367521
370
   100
100
AcDbPolyline
 90
        5
 70
     0
 43
0.0
 10
281.9999662644599
 20
13.29407825637392
 10
20.99981607051935
 20
13.29407825637392
 10
20.99981607051935
 20
193.0018900389566
 10
281.9999662644599
 20
193.0018900389566
 10
281.9999662644599
 20
13.29407825637392
  0
LINE
  5
63
330
1F
100
AcDbEntity
  8
外枠
  6
Continuous
 62
   250
420
  2367521
370
    25
100
AcDbLine
 10
223.3097080177524
 20
174.0786160074276
 30
0.0
 11
281.9999232007669
 21
174.0786160074276
 31
0.0
  0
LINE
  5
64
330
1F
100
AcDbEntity
  8
外枠
  6
Continuous
 62
   250
420
  2367521
370
    25
100
AcDbLine
 10
223.3097080177524
 20
50.37109023844297
 30
0.0
 11
281.9999232007669
 21
50.37109023844297
 31
0.0
  0
LINE
  5
65
330
1F
100
AcDbEntity
  8
外枠
  6
Continuous
 62
   250
420
  2367521
370
    25
100
AcDbLine
 10
223.3097080177524
 20
36.25997933925949
 30
0.0
 11
281.9999232007669
 21
36.25997933925949
 31
0.0
  0
LINE
  5
66
330
1F
100
AcDbEntity
  8
外枠
  6
Continuous
 62
   250
420
  2367521
370
    50
100
AcDbLine
 10
223.0158413772006
 20
193.3637327187979
 30
0.0
 11
223.0158413772006
 21
13.29396655992039
 31
0.0
  0
TEXT
  5
67
330
1F
100
AcDbEntity
  8
外枠
  6
Continuous
 62
   250
420
  2367521
100
AcDbText
 10
224.7190965599536
 20
186.6888051931772
 30
0.0
 40
2.688166626294454
  1
品名：
 41
0.974166170756022
  7
MS Gothic
100
AcDbText
  0
TEXT
  5
68
330
1F
100
AcDbEntity
  8
外枠
  6
Continuous
 62
   250
420
  2367521
100
AcDbText
 10
224.7190965599536
 20
168.1080059455944
 30
0.0
 40
2.688166626294454
  1
仕様：
 41
0.9978878657023111
  7
MS Gothic
100
AcDbText
  0
TEXT
  5
69
330
1F
100
AcDbEntity
  8
外枠
  6
Continuous
 62
   250
420
  2367521
100
AcDbText
 10
224.7190965599536
 20
44.16660664327048
 30
0.0
 40
2.688166626294454
  1
縮尺：
 41
0.9939999262491861
  7
MS Gothic
100
AcDbText
  0
TEXT
  5
6A
330
1F
100
AcDbEntity
  8
外枠
  6
Continuous
 62
   250
420
  2367521
100
AcDbText
 10
250.2379519709696
 20
40.59738467878129
 30
0.0
 40
2.150533301035563
  1
1/1
 41
1.000003814697266
  7
MS Gothic
100
AcDbText
  0
TEXT
  5
6B
330
1F
100
AcDbEntity
  8
外枠
  6
Continuous
 62
   250
420
  2367521
100
AcDbText
 10
232.7757967427735
 20
181.9845273775436
 30
0.0
 40
2.688166626294454
  1
フロアーエッジ　FB-1-VR
 41
1.012790779445482
  7
MS Gothic
100
AcDbText
  0
TEXT
  5
6C
330
1F
100
AcDbEntity
  8
外枠
  6
Continuous
 62
   250
420
  2367521
100
AcDbText
 10
226.1633020978884
 20
24.25683874973963
 30
0.0
 40
2.553758294979732
  1
ヤスダインテリアサプライ株式会社
 41
1.0194908945184
  7
MS Gothic
100
AcDbText
  0
TEXT
  5
6D
330
1F
100
AcDbEntity
  8
外枠
  6
Continuous
 62
   250
420
  2367521
100
AcDbText
 10
227.7635273953072
 20
161.7763665048245
 30
0.0
 40
2.150533301035563
  1
材質
 41
1.028502464294433
  7
MS Gothic
100
AcDbText
  0
TEXT
  5
6E
330
1F
100
AcDbEntity
  8
外枠
  6
Continuous
 62
   250
420
  2367521
100
AcDbText
 10
232.7757967427735
 20
156.199681315683
 30
0.0
 40
2.016124969720841
  1
真鍮/バイブレーション仕上
 41
1.04268505859375
  7
MS Gothic
100
AcDbText
  0
LWPOLYLINE
  5
6F
330
1F
100
AcDbEntity
  8
ISS138金台
  6
Continuous
 62
   250
420
  2367521
370
    25
100
AcDbPolyline
 90
        3
 70
     0
 43
0.0
 10
112.4527488773998
 20
107.5975758817407
 10
112.3045774759521
 20
107.5337231910493
 10
112.2410800607274
 20
107.3855517896017
  0
LINE
  5
70
330
1F
100
AcDbEntity
  8
ISS138金台
  6
Continuous
 62
   250
420
  2367521
370
    25
100
AcDbLine
 10
115.247065784218
 20
107.5975758817407
 30
0.0
 11
112.4527165796301
 21
107.5975758817407
 31
0.0
  0
LINE
  5
71
330
1F
100
AcDbEntity
  8
ISS138金台
  6
Continuous
 62
   250
420
  2367521
370
    25
100
AcDbLine
 10
115.247065784218
 20
104.2954411419729
 30
0.0
 11
115.247065784218
 21
107.5974359247387
 31
0.0
  0
LINE
  5
72
330
1F
100
AcDbEntity
  8
ISS138金台
  6
Continuous
 62
   250
420
  2367521
370
    25
100
AcDbLine
 10
123.9252611833985
 20
104.2954411419729
 30
0.0
 11
115.246925827216
 21
104.2954411419729
 31
0.0
  0
LINE
  5
73
330
1F
100
AcDbEntity
  8
ISS138金台
  6
Continuous
 62
   250
420
  2367521
370
    25
100
AcDbLine
 10
124.2428989824475
 20
103.999162934617
 30
0.0
 11
123.9254011404005
 21
104.2954949715891
 31
0.0
  0
LINE
  5
74
330
1F
100
AcDbEntity
  8
ISS138金台
  6
Continuous
 62
   250
420
  2367521
370
    25
100
AcDbLine
 10
124.539155657957
 20
104.2954411419729
 30
0.0
 11
124.2428236209849
 21
103.9991091050009
 31
0.0
  0
LINE
  5
75
330
1F
100
AcDbEntity
  8
ISS138金台
  6
Continuous
 62
   250
420
  2367521
370
    25
100
AcDbLine
 10
130.9315302364323
 20
104.2954411419729
 30
0.0
 11
124.5391987216499
 21
104.2954411419729
 31
0.0
  0
LWPOLYLINE
  5
76
330
1F
100
AcDbEntity
  8
ISS138金台
  6
Continuous
 62
   250
420
  2367521
370
    25
100
AcDbPolyline
 90
        7
 70
     0
 43
0.0
 10
132.2227627711578
 20
103.0042193731707
 10
132.1804311610079
 20
103.3428830202926
 10
132.0534255646352
 20
103.6392150572647
 10
131.841767513886
 20
103.9143812891618
 10
131.5874118115971
 20
104.1260501058342
 10
131.2702584790936
 20
104.253055702207
 10
130.9315948319717
 20
104.2953873123568
  0
LINE
  5
77
330
1F
100
AcDbEntity
  8
ISS138金台
  6
Continuous
 62
   250
420
  2367521
370
    25
100
AcDbLine
 10
112.4320783047935
 20
103.0042193731707
 30
0.0
 11
132.222913494083
 21
103.0042193731707
 31
0.0
  0
LINE
  5
78
330
1F
100
AcDbEntity
  8
ISS138金台
  6
Continuous
 62
   250
420
  2367521
370
    25
100
AcDbLine
 10
112.2412200177294
 20
107.3856917466037
 30
0.0
 11
112.4320675388703
 21
103.004187075401
 31
0.0
  0
LINE
  5
79
330
1F
100
AcDbEntity
  8
ISS138金台
  6
Continuous
 62
   250
420
  2367521
370
    13
100
AcDbLine
 10
112.4317230293269
 20
92.23620755165433
 30
0.0
 11
132.4740824830951
 21
92.23620755165433
 31
0.0
  0
LINE
  5
7A
330
1F
100
AcDbEntity
  8
ISS138金台
  6
Continuous
 62
   250
420
  2367521
370
    13
100
AcDbLine
 10
112.4317230293269
 20
91.72910026963817
 30
0.0
 11
112.4317230293269
 21
101.6880206624693
 31
0.0
  0
LINE
  5
7B
330
1F
100
AcDbEntity
  8
ISS138金台
  6
Continuous
 62
   250
420
  2367521
370
    13
100
AcDbLine
 10
132.3484979885891
 20
91.72910026963817
 30
0.0
 11
132.3484979885891
 21
101.6880206624693
 31
0.0
  0
HATCH
  5
7C
330
1F
100
AcDbEntity
  8
ISS138金台
  6
Continuous
 62
   250
420
  2367521
370
    13
100
AcDbHatch
 10
0.0
 20
0.0
 30
0.0
210
0.0
220
0.0
230
1.0
  2
SOLID
 70
     1
 71
     0
 91
        1
 92
        3
 72
     0
 73
     1
 93
       67
 10
112.4317230293269
 20
91.98645966450891
 10
112.4572597992341
 20
91.9877515752968
 10
112.4820429545151
 20
91.99153041435137
 10
112.5059648359375
 20
91.99768852244031
 10
112.5288747205761
 20
92.00608594256158
 10
112.550686481045
 20
92.01660424955966
 10
112.5712493944189
 20
92.02911425235571
 10
112.5904558014655
 20
92.04349752579421
 10
112.6081549792596
 20
92.05961411287313
 10
112.624250034492
 20
92.07735635436015
 10
112.6385902442376
 20
92.09658429325322
 10
112.651067949264
 20
92.1171687384736
 10
112.6615647244156
 20
92.13901279671214
 10
112.6699406126904
 20
92.16195497912041
 10
112.6760771889328
 20
92.18588762646606
 10
112.6798560279874
 20
92.21069231359353
 10
112.6811371728521
 20
92.2362290835008
 10
112.6811371728521
 20
92.2362290835008
 10
112.6798560279874
 20
92.26183044894748
 10
112.6760771889328
 20
92.2866889656911
 10
112.6699406126904
 20
92.31066467672969
 10
112.6615539584923
 20
92.33364992283087
 10
112.651067949264
 20
92.3555155129159
 10
112.6385902442376
 20
92.3761430218292
 10
112.6242392685688
 20
92.39539249256873
 10
112.6081549792596
 20
92.41314549997898
 10
112.5904450355423
 20
92.42928361890436
 10
112.5712493944189
 20
92.44366689234286
 10
112.550686481045
 20
92.45618766106216
 10
112.5288854864993
 20
92.46670596806021
 10
112.5059648359375
 20
92.47511415410473
 10
112.4820429545151
 20
92.48127226219367
 10
112.4572490333109
 20
92.48505110124825
 10
112.4317230293269
 20
92.48634301203614
 10
112.4317230293269
 20
92.48634301203614
 10
112.406067834264
 20
92.48506186717148
 10
112.3811662538275
 20
92.48127226219367
 10
112.3571582450192
 20
92.47511415410473
 10
112.3341407011483
 20
92.46670596806021
 10
112.3122751110633
 20
92.45618766106216
 10
112.2916583680732
 20
92.44366689234286
 10
112.2724196632569
 20
92.42928361890436
 10
112.2546774217699
 20
92.41314549997898
 10
112.2385500687677
 20
92.39539249256873
 10
112.2241775612525
 20
92.3761430218292
 10
112.2116890903029
 20
92.3555155129159
 10
112.2011815492281
 20
92.33364992283087
 10
112.1928056609532
 20
92.31066467672969
 10
112.1866583187875
 20
92.28667819976786
 10
112.1828794797329
 20
92.26183044894748
 10
112.1815983348683
 20
92.2362290835008
 10
112.1815983348683
 20
92.2362290835008
 10
112.1828794797329
 20
92.21069231359353
 10
112.1866583187875
 20
92.18589839238929
 10
112.1928056609532
 20
92.16195497912041
 10
112.2011815492281
 20
92.13901279671214
 10
112.2116890903029
 20
92.11717950439683
 10
112.2241883271757
 20
92.09658429325322
 10
112.2385500687677
 20
92.07734558843691
 10
112.2546666558467
 20
92.05961411287313
 10
112.2724088973337
 20
92.04349752579421
 10
112.2916583680732
 20
92.02911425235571
 10
112.3122751110633
 20
92.01660424955966
 10
112.3341514670715
 20
92.00608594256158
 10
112.3571582450192
 20
91.99768852244031
 10
112.3811662538275
 20
91.99153041435137
 10
112.406067834264
 20
91.9877515752968
 97
        0
 75
     1
 76
     1
 98
        0
  0
LWPOLYLINE
  5
7D
330
1F
100
AcDbEntity
  8
ISS138金台
  6
Continuous
 62
   250
420
  2367521
370
    13
100
AcDbPolyline
 90
       68
 70
     0
 43
0.0
 10
112.4317230293269
 20
91.98645966450891
 10
112.4572597992341
 20
91.9877515752968
 10
112.4820429545151
 20
91.99153041435137
 10
112.5059648359375
 20
91.99768852244031
 10
112.5288747205761
 20
92.00608594256158
 10
112.550686481045
 20
92.01660424955966
 10
112.5712493944189
 20
92.02911425235571
 10
112.5904558014655
 20
92.04349752579421
 10
112.6081549792596
 20
92.05961411287313
 10
112.624250034492
 20
92.07735635436015
 10
112.6385902442376
 20
92.09658429325322
 10
112.651067949264
 20
92.1171687384736
 10
112.6615647244156
 20
92.13901279671214
 10
112.6699406126904
 20
92.16195497912041
 10
112.6760771889328
 20
92.18588762646606
 10
112.6798560279874
 20
92.21069231359353
 10
112.6811371728521
 20
92.2362290835008
 10
112.6811371728521
 20
92.2362290835008
 10
112.6798560279874
 20
92.26183044894748
 10
112.6760771889328
 20
92.2866889656911
 10
112.6699406126904
 20
92.31066467672969
 10
112.6615539584923
 20
92.33364992283087
 10
112.651067949264
 20
92.3555155129159
 10
112.6385902442376
 20
92.3761430218292
 10
112.6242392685688
 20
92.39539249256873
 10
112.6081549792596
 20
92.41314549997898
 10
112.5904450355423
 20
92.42928361890436
 10
112.5712493944189
 20
92.44366689234286
 10
112.550686481045
 20
92.45618766106216
 10
112.5288854864993
 20
92.46670596806021
 10
112.5059648359375
 20
92.47511415410473
 10
112.4820429545151
 20
92.48127226219367
 10
112.4572490333109
 20
92.48505110124825
 10
112.4317230293269
 20
92.48634301203614
 10
112.4317230293269
 20
92.48634301203614
 10
112.406067834264
 20
92.48506186717148
 10
112.3811662538275
 20
92.48127226219367
 10
112.3571582450192
 20
92.47511415410473
 10
112.3341407011483
 20
92.46670596806021
 10
112.3122751110633
 20
92.45618766106216
 10
112.2916583680732
 20
92.44366689234286
 10
112.2724196632569
 20
92.42928361890436
 10
112.2546774217699
 20
92.41314549997898
 10
112.2385500687677
 20
92.39539249256873
 10
112.2241775612525
 20
92.3761430218292
 10
112.2116890903029
 20
92.3555155129159
 10
112.2011815492281
 20
92.33364992283087
 10
112.1928056609532
 20
92.31066467672969
 10
112.1866583187875
 20
92.28667819976786
 10
112.1828794797329
 20
92.26183044894748
 10
112.1815983348683
 20
92.2362290835008
 10
112.1815983348683
 20
92.2362290835008
 10
112.1828794797329
 20
92.21069231359353
 10
112.1866583187875
 20
92.18589839238929
 10
112.1928056609532
 20
92.16195497912041
 10
112.2011815492281
 20
92.13901279671214
 10
112.2116890903029
 20
92.11717950439683
 10
112.2241883271757
 20
92.09658429325322
 10
112.2385500687677
 20
92.07734558843691
 10
112.2546666558467
 20
92.05961411287313
 10
112.2724088973337
 20
92.04349752579421
 10
112.2916583680732
 20
92.02911425235571
 10
112.3122751110633
 20
92.01660424955966
 10
112.3341514670715
 20
92.00608594256158
 10
112.3571582450192
 20
91.99768852244031
 10
112.3811662538275
 20
91.99153041435137
 10
112.406067834264
 20
91.9877515752968
 10
112.4317230293269
 20
91.98645966450891
  0
HATCH
  5
7E
330
1F
100
AcDbEntity
  8
ISS138金台
  6
Continuous
 62
   250
420
  2367521
370
    13
100
AcDbHatch
 10
0.0
 20
0.0
 30
0.0
210
0.0
220
0.0
230
1.0
  2
SOLID
 70
     1
 71
     0
 91
        1
 92
        3
 72
     0
 73
     1
 93
       67
 10
132.3488532640557
 20
91.98645966450891
 10
132.374390033963
 20
91.9877515752968
 10
132.399173189244
 20
91.99153041435137
 10
132.4230843047432
 20
91.99768852244031
 10
132.4460157212282
 20
92.00608594256158
 10
132.4678167157738
 20
92.01660424955966
 10
132.488390395071
 20
92.02911425235571
 10
132.5075860361944
 20
92.04349752579421
 10
132.5252852139885
 20
92.05961411287313
 10
132.5413802692209
 20
92.07735635436015
 10
132.5557204789665
 20
92.09658429325322
 10
132.5681981839928
 20
92.1171687384736
 10
132.5786949591445
 20
92.13901279671214
 10
132.5870708474193
 20
92.16195497912041
 10
132.5932074236617
 20
92.18588762646606
 10
132.596975496793
 20
92.21069231359353
 10
132.598267407581
 20
92.2362290835008
 10
132.598267407581
 20
92.2362290835008
 10
132.596975496793
 20
92.26183044894748
 10
132.5931966577385
 20
92.2866889656911
 10
132.5870708474193
 20
92.31066467672969
 10
132.5786949591445
 20
92.33364992283087
 10
132.5681981839928
 20
92.3555155129159
 10
132.5557204789665
 20
92.3761430218292
 10
132.5413802692209
 20
92.39539249256873
 10
132.5252852139885
 20
92.41314549997898
 10
132.5075752702712
 20
92.42928361890436
 10
132.488390395071
 20
92.44366689234286
 10
132.4678274816971
 20
92.45618766106216
 10
132.4460157212282
 20
92.46670596806021
 10
132.4230950706664
 20
92.47511415410473
 10
132.399173189244
 20
92.48127226219367
 10
132.3743792680398
 20
92.48505110124825
 10
132.3488532640557
 20
92.48634301203614
 10
132.3488532640557
 20
92.48634301203614
 10
132.3232626645323
 20
92.48506186717148
 10
132.2984041477887
 20
92.48127226219367
 10
132.2744176708268
 20
92.47511415410473
 10
132.2514324247257
 20
92.46670596806021
 10
132.2295560687174
 20
92.45618766106216
 10
132.2089500916506
 20
92.44366689234286
 10
132.1896898549878
 20
92.42928361890436
 10
132.1719368475776
 20
92.41314549997898
 10
132.1557879627289
 20
92.39539249256873
 10
132.1414154552137
 20
92.3761430218292
 10
132.1288839205711
 20
92.3555155129159
 10
132.1183656135731
 20
92.33364992283087
 10
132.1099681934518
 20
92.31066467672969
 10
132.1037993194396
 20
92.28667819976786
 10
132.1000204803851
 20
92.26183044894748
 10
132.0987285695972
 20
92.2362290835008
 10
132.0987285695972
 20
92.2362290835008
 10
132.1000204803851
 20
92.21069231359353
 10
132.1037993194396
 20
92.18589839238929
 10
132.1099574275286
 20
92.16195497912041
 10
132.1183656135731
 20
92.13901279671214
 10
132.1288839205711
 20
92.11717950439683
 10
132.1414046892904
 20
92.09658429325322
 10
132.1557987286522
 20
92.07734558843691
 10
132.1719368475776
 20
92.05961411287313
 10
132.1896898549878
 20
92.04349752579421
 10
132.2089393257273
 20
92.02911425235571
 10
132.2295668346407
 20
92.01660424955966
 10
132.2514324247257
 20
92.00608594256158
 10
132.2744176708268
 20
91.99768852244031
 10
132.2984041477887
 20
91.99153041435137
 10
132.323251898609
 20
91.9877515752968
 97
        0
 75
     1
 76
     1
 98
        0
  0
LWPOLYLINE
  5
7F
330
1F
100
AcDbEntity
  8
ISS138金台
  6
Continuous
 62
   250
420
  2367521
370
    13
100
AcDbPolyline
 90
       68
 70
     0
 43
0.0
 10
132.3488532640557
 20
91.98645966450891
 10
132.374390033963
 20
91.9877515752968
 10
132.399173189244
 20
91.99153041435137
 10
132.4230843047432
 20
91.99768852244031
 10
132.4460157212282
 20
92.00608594256158
 10
132.4678167157738
 20
92.01660424955966
 10
132.488390395071
 20
92.02911425235571
 10
132.5075860361944
 20
92.04349752579421
 10
132.5252852139885
 20
92.05961411287313
 10
132.5413802692209
 20
92.07735635436015
 10
132.5557204789665
 20
92.09658429325322
 10
132.5681981839928
 20
92.1171687384736
 10
132.5786949591445
 20
92.13901279671214
 10
132.5870708474193
 20
92.16195497912041
 10
132.5932074236617
 20
92.18588762646606
 10
132.596975496793
 20
92.21069231359353
 10
132.598267407581
 20
92.2362290835008
 10
132.598267407581
 20
92.2362290835008
 10
132.596975496793
 20
92.26183044894748
 10
132.5931966577385
 20
92.2866889656911
 10
132.5870708474193
 20
92.31066467672969
 10
132.5786949591445
 20
92.33364992283087
 10
132.5681981839928
 20
92.3555155129159
 10
132.5557204789665
 20
92.3761430218292
 10
132.5413802692209
 20
92.39539249256873
 10
132.5252852139885
 20
92.41314549997898
 10
132.5075752702712
 20
92.42928361890436
 10
132.488390395071
 20
92.44366689234286
 10
132.4678274816971
 20
92.45618766106216
 10
132.4460157212282
 20
92.46670596806021
 10
132.4230950706664
 20
92.47511415410473
 10
132.399173189244
 20
92.48127226219367
 10
132.3743792680398
 20
92.48505110124825
 10
132.3488532640557
 20
92.48634301203614
 10
132.3488532640557
 20
92.48634301203614
 10
132.3232626645323
 20
92.48506186717148
 10
132.2984041477887
 20
92.48127226219367
 10
132.2744176708268
 20
92.47511415410473
 10
132.2514324247257
 20
92.46670596806021
 10
132.2295560687174
 20
92.45618766106216
 10
132.2089500916506
 20
92.44366689234286
 10
132.1896898549878
 20
92.42928361890436
 10
132.1719368475776
 20
92.41314549997898
 10
132.1557879627289
 20
92.39539249256873
 10
132.1414154552137
 20
92.3761430218292
 10
132.1288839205711
 20
92.3555155129159
 10
132.1183656135731
 20
92.33364992283087
 10
132.1099681934518
 20
92.31066467672969
 10
132.1037993194396
 20
92.28667819976786
 10
132.1000204803851
 20
92.26183044894748
 10
132.0987285695972
 20
92.2362290835008
 10
132.0987285695972
 20
92.2362290835008
 10
132.1000204803851
 20
92.21069231359353
 10
132.1037993194396
 20
92.18589839238929
 10
132.1099574275286
 20
92.16195497912041
 10
132.1183656135731
 20
92.13901279671214
 10
132.1288839205711
 20
92.11717950439683
 10
132.1414046892904
 20
92.09658429325322
 10
132.1557987286522
 20
92.07734558843691
 10
132.1719368475776
 20
92.05961411287313
 10
132.1896898549878
 20
92.04349752579421
 10
132.2089393257273
 20
92.02911425235571
 10
132.2295668346407
 20
92.01660424955966
 10
132.2514324247257
 20
92.00608594256158
 10
132.2744176708268
 20
91.99768852244031
 10
132.2984041477887
 20
91.99153041435137
 10
132.323251898609
 20
91.9877515752968
 10
132.3488532640557
 20
91.98645966450891
  0
TEXT
  5
80
330
1F
100
AcDbEntity
  8
ISS138金台
  6
Continuous
 62
   250
420
  2367521
100
AcDbText
 10
120.633795473554
 20
93.29560996833378
 30
0.0
 40
2.150533301035563
  1
20
 41
0.9460029602050779
  7
MS Gothic
100
AcDbText
  0
LINE
  5
81
330
1F
100
AcDbEntity
  8
ISS138金台
  6
Continuous
 62
   250
420
  2367521
370
    13
100
AcDbLine
 10
110.9841046937274
 20
102.7919907284902
 30
0.0
 11
104.9868825615744
 21
102.7919907284902
 31
0.0
  0
LINE
  5
82
330
1F
100
AcDbEntity
  8
ISS138金台
  6
Continuous
 62
   250
420
  2367521
370
    13
100
AcDbLine
 10
110.9841046937274
 20
107.5985878785246
 30
0.0
 11
104.9868825615744
 21
107.5985878785246
 31
0.0
  0
LINE
  5
83
330
1F
100
AcDbEntity
  8
ISS138金台
  6
Continuous
 62
   250
420
  2367521
370
    13
100
AcDbLine
 10
105.4939898435906
 20
102.7919907284902
 30
0.0
 11
105.4939898435906
 21
107.5985878785246
 31
0.0
  0
HATCH
  5
84
330
1F
100
AcDbEntity
  8
ISS138金台
  6
Continuous
 62
   250
420
  2367521
370
    13
100
AcDbHatch
 10
0.0
 20
0.0
 30
0.0
210
0.0
220
0.0
230
1.0
  2
SOLID
 70
     1
 71
     0
 91
        1
 92
        3
 72
     0
 73
     1
 93
       67
 10
105.4939898435906
 20
107.3484739499893
 10
105.5195266134979
 20
107.3497550948539
 10
105.5443097687789
 20
107.3535339339085
 10
105.5682316502013
 20
107.359670510151
 10
105.5911415348398
 20
107.368057164349
 10
105.6129532953087
 20
107.3785647054238
 10
105.6335269746059
 20
107.3910639422967
 10
105.6527226157292
 20
107.4054256838887
 10
105.6704217935233
 20
107.4215422709676
 10
105.6865060828325
 20
107.4392845124546
 10
105.7008570585013
 20
107.4585339831942
 10
105.7133347635277
 20
107.4791507261842
 10
105.7238315386793
 20
107.5010270821925
 10
105.7322074269541
 20
107.5240338601402
 10
105.7383440031966
 20
107.5480418689484
 10
105.7421228422512
 20
107.572943449385
 10
105.7434039871158
 20
107.5985986444478
 10
105.7434039871158
 20
107.5985986444478
 10
105.7421120763279
 20
107.6241354143551
 10
105.7383440031966
 20
107.6489401014826
 10
105.7322074269541
 20
107.6728727488282
 10
105.7238207727561
 20
107.6958041653132
 10
105.7133347635277
 20
107.7176482235518
 10
105.7008570585013
 20
107.7382434346954
 10
105.6865168487558
 20
107.7574606076653
 10
105.6704217935233
 20
107.7752028491523
 10
105.6527226157292
 20
107.7913194362312
 10
105.6335162086826
 20
107.8057027096697
 10
105.6129640612319
 20
107.8182127124658
 10
105.5911523007631
 20
107.8287310194638
 10
105.5682208842781
 20
107.8371284395851
 10
105.5443097687789
 20
107.843286547674
 10
105.5195266134979
 20
107.8470653867286
 10
105.4939898435906
 20
107.8483572975165
 10
105.4939898435906
 20
107.8483572975165
 10
105.4683346485278
 20
107.8470653867286
 10
105.4434330680912
 20
107.843286547674
 10
105.4194250592829
 20
107.8371284395851
 10
105.396407515412
 20
107.8287310194638
 10
105.374541925327
 20
107.8182127124658
 10
105.353925182337
 20
107.8057027096697
 10
105.3346757115974
 20
107.7913302021544
 10
105.3169442360336
 20
107.7752028491523
 10
105.3008168830315
 20
107.7574713735885
 10
105.2864551414394
 20
107.7382434346954
 10
105.2739559045666
 20
107.7176482235518
 10
105.2634483634918
 20
107.6958149312365
 10
105.255072475217
 20
107.6728727488282
 10
105.2489251330513
 20
107.6489293355593
 10
105.2451462939967
 20
107.6241354143551
 10
105.243865149132
 20
107.5985986444478
 10
105.243865149132
 20
107.5985986444478
 10
105.2451462939967
 20
107.5729326834618
 10
105.2489251330513
 20
107.5480418689484
 10
105.2550617092937
 20
107.5240338601402
 10
105.2634483634918
 20
107.5010270821925
 10
105.2739559045666
 20
107.4791507261842
 10
105.2864443755162
 20
107.4585339831942
 10
105.3008276489547
 20
107.4392845124546
 10
105.3169334701104
 20
107.4215530368908
 10
105.3346864775206
 20
107.4054256838887
 10
105.353925182337
 20
107.3910639422967
 10
105.374541925327
 20
107.3785647054238
 10
105.3964182813353
 20
107.368057164349
 10
105.4194250592829
 20
107.3596812760742
 10
105.4434330680912
 20
107.3535339339085
 10
105.4683346485278
 20
107.3497550948539
 97
        0
 75
     1
 76
     1
 98
        0
  0
LWPOLYLINE
  5
85
330
1F
100
AcDbEntity
  8
ISS138金台
  6
Continuous
 62
   250
420
  2367521
370
    13
100
AcDbPolyline
 90
       68
 70
     0
 43
0.0
 10
105.4939898435906
 20
107.3484739499893
 10
105.5195266134979
 20
107.3497550948539
 10
105.5443097687789
 20
107.3535339339085
 10
105.5682316502013
 20
107.359670510151
 10
105.5911415348398
 20
107.368057164349
 10
105.6129532953087
 20
107.3785647054238
 10
105.6335269746059
 20
107.3910639422967
 10
105.6527226157292
 20
107.4054256838887
 10
105.6704217935233
 20
107.4215422709676
 10
105.6865060828325
 20
107.4392845124546
 10
105.7008570585013
 20
107.4585339831942
 10
105.7133347635277
 20
107.4791507261842
 10
105.7238315386793
 20
107.5010270821925
 10
105.7322074269541
 20
107.5240338601402
 10
105.7383440031966
 20
107.5480418689484
 10
105.7421228422512
 20
107.572943449385
 10
105.7434039871158
 20
107.5985986444478
 10
105.7434039871158
 20
107.5985986444478
 10
105.7421120763279
 20
107.6241354143551
 10
105.7383440031966
 20
107.6489401014826
 10
105.7322074269541
 20
107.6728727488282
 10
105.7238207727561
 20
107.6958041653132
 10
105.7133347635277
 20
107.7176482235518
 10
105.7008570585013
 20
107.7382434346954
 10
105.6865168487558
 20
107.7574606076653
 10
105.6704217935233
 20
107.7752028491523
 10
105.6527226157292
 20
107.7913194362312
 10
105.6335162086826
 20
107.8057027096697
 10
105.6129640612319
 20
107.8182127124658
 10
105.5911523007631
 20
107.8287310194638
 10
105.5682208842781
 20
107.8371284395851
 10
105.5443097687789
 20
107.843286547674
 10
105.5195266134979
 20
107.8470653867286
 10
105.4939898435906
 20
107.8483572975165
 10
105.4939898435906
 20
107.8483572975165
 10
105.4683346485278
 20
107.8470653867286
 10
105.4434330680912
 20
107.843286547674
 10
105.4194250592829
 20
107.8371284395851
 10
105.396407515412
 20
107.8287310194638
 10
105.374541925327
 20
107.8182127124658
 10
105.353925182337
 20
107.8057027096697
 10
105.3346757115974
 20
107.7913302021544
 10
105.3169442360336
 20
107.7752028491523
 10
105.3008168830315
 20
107.7574713735885
 10
105.2864551414394
 20
107.7382434346954
 10
105.2739559045666
 20
107.7176482235518
 10
105.2634483634918
 20
107.6958149312365
 10
105.255072475217
 20
107.6728727488282
 10
105.2489251330513
 20
107.6489293355593
 10
105.2451462939967
 20
107.6241354143551
 10
105.243865149132
 20
107.5985986444478
 10
105.243865149132
 20
107.5985986444478
 10
105.2451462939967
 20
107.5729326834618
 10
105.2489251330513
 20
107.5480418689484
 10
105.2550617092937
 20
107.5240338601402
 10
105.2634483634918
 20
107.5010270821925
 10
105.2739559045666
 20
107.4791507261842
 10
105.2864443755162
 20
107.4585339831942
 10
105.3008276489547
 20
107.4392845124546
 10
105.3169334701104
 20
107.4215530368908
 10
105.3346864775206
 20
107.4054256838887
 10
105.353925182337
 20
107.3910639422967
 10
105.374541925327
 20
107.3785647054238
 10
105.3964182813353
 20
107.368057164349
 10
105.4194250592829
 20
107.3596812760742
 10
105.4434330680912
 20
107.3535339339085
 10
105.4683346485278
 20
107.3497550948539
 10
105.4939898435906
 20
107.3484739499893
  0
HATCH
  5
86
330
1F
100
AcDbEntity
  8
ISS138金台
  6
Continuous
 62
   250
420
  2367521
370
    13
100
AcDbHatch
 10
0.0
 20
0.0
 30
0.0
210
0.0
220
0.0
230
1.0
  2
SOLID
 70
     1
 71
     0
 91
        1
 92
        3
 72
     0
 73
     1
 93
       67
 10
105.4939898435906
 20
102.5418767999549
 10
105.5195266134979
 20
102.5431579448195
 10
105.5443097687789
 20
102.5469475497973
 10
105.5682316502013
 20
102.5531056578863
 10
105.5911415348398
 20
102.5615138439308
 10
105.6129532953087
 20
102.5720321509289
 10
105.6335269746059
 20
102.5845529196482
 10
105.6527226157292
 20
102.5989469590099
 10
105.6704217935233
 20
102.615074312012
 10
105.6865060828325
 20
102.6328273194223
 10
105.7008570585013
 20
102.6520875560851
 10
105.7133347635277
 20
102.6727042990751
 10
105.7238315386793
 20
102.6945698891601
 10
105.7322074269541
 20
102.7175659011846
 10
105.7383440031966
 20
102.7415523781464
 10
105.7421228422512
 20
102.7664001289668
 10
105.7434039871158
 20
102.7920014944135
 10
105.7434039871158
 20
102.7920014944135
 10
105.7421120763279
 20
102.8175382643207
 10
105.7383440031966
 20
102.8423429514482
 10
105.7322074269541
 20
102.8662755987938
 10
105.7238207727561
 20
102.8892070152789
 10
105.7133347635277
 20
102.9110510735174
 10
105.7008570585013
 20
102.931646284661
 10
105.6865168487558
 20
102.9508634576309
 10
105.6704217935233
 20
102.9686056991179
 10
105.6527226157292
 20
102.9847222861968
 10
105.6335162086826
 20
102.9991055596353
 10
105.6129640612319
 20
103.0116155624314
 10
105.5911523007631
 20
103.0221338694294
 10
105.5682208842781
 20
103.0305312895507
 10
105.5443097687789
 20
103.0366893976396
 10
105.5195266134979
 20
103.0404682366942
 10
105.4939898435906
 20
103.0417601474821
 10
105.4939898435906
 20
103.0417601474821
 10
105.4683346485278
 20
103.0404682366942
 10
105.4434330680912
 20
103.0366893976396
 10
105.4194250592829
 20
103.0305312895507
 10
105.396407515412
 20
103.0221338694294
 10
105.374541925327
 20
103.0116155624314
 10
105.353925182337
 20
102.9991055596353
 10
105.3346757115974
 20
102.98473305212
 10
105.3169442360336
 20
102.9686056991179
 10
105.3008168830315
 20
102.9508742235541
 10
105.2864551414394
 20
102.931646284661
 10
105.2739559045666
 20
102.9110510735174
 10
105.2634483634918
 20
102.8892177812021
 10
105.255072475217
 20
102.8662755987938
 10
105.2489251330513
 20
102.842332185525
 10
105.2451462939967
 20
102.8175382643207
 10
105.243865149132
 20
102.7920014944135
 10
105.243865149132
 20
102.7920014944135
 10
105.2451462939967
 20
102.7664001289668
 10
105.2489251330513
 20
102.7415523781464
 10
105.2550617092937
 20
102.7175659011846
 10
105.2634483634918
 20
102.6945698891601
 10
105.2739559045666
 20
102.6727042990751
 10
105.2864443755162
 20
102.6520875560851
 10
105.3008276489547
 20
102.6328273194223
 10
105.3169334701104
 20
102.615074312012
 10
105.3346864775206
 20
102.5989361930867
 10
105.353925182337
 20
102.5845529196482
 10
105.374541925327
 20
102.5720321509289
 10
105.3964182813353
 20
102.5615138439308
 10
105.4194250592829
 20
102.5531056578863
 10
105.4434330680912
 20
102.5469475497973
 10
105.4683346485278
 20
102.5431687107428
 97
        0
 75
     1
 76
     1
 98
        0
  0
LWPOLYLINE
  5
87
330
1F
100
AcDbEntity
  8
ISS138金台
  6
Continuous
 62
   250
420
  2367521
370
    13
100
AcDbPolyline
 90
       68
 70
     0
 43
0.0
 10
105.4939898435906
 20
102.5418767999549
 10
105.5195266134979
 20
102.5431579448195
 10
105.5443097687789
 20
102.5469475497973
 10
105.5682316502013
 20
102.5531056578863
 10
105.5911415348398
 20
102.5615138439308
 10
105.6129532953087
 20
102.5720321509289
 10
105.6335269746059
 20
102.5845529196482
 10
105.6527226157292
 20
102.5989469590099
 10
105.6704217935233
 20
102.615074312012
 10
105.6865060828325
 20
102.6328273194223
 10
105.7008570585013
 20
102.6520875560851
 10
105.7133347635277
 20
102.6727042990751
 10
105.7238315386793
 20
102.6945698891601
 10
105.7322074269541
 20
102.7175659011846
 10
105.7383440031966
 20
102.7415523781464
 10
105.7421228422512
 20
102.7664001289668
 10
105.7434039871158
 20
102.7920014944135
 10
105.7434039871158
 20
102.7920014944135
 10
105.7421120763279
 20
102.8175382643207
 10
105.7383440031966
 20
102.8423429514482
 10
105.7322074269541
 20
102.8662755987938
 10
105.7238207727561
 20
102.8892070152789
 10
105.7133347635277
 20
102.9110510735174
 10
105.7008570585013
 20
102.931646284661
 10
105.6865168487558
 20
102.9508634576309
 10
105.6704217935233
 20
102.9686056991179
 10
105.6527226157292
 20
102.9847222861968
 10
105.6335162086826
 20
102.9991055596353
 10
105.6129640612319
 20
103.0116155624314
 10
105.5911523007631
 20
103.0221338694294
 10
105.5682208842781
 20
103.0305312895507
 10
105.5443097687789
 20
103.0366893976396
 10
105.5195266134979
 20
103.0404682366942
 10
105.4939898435906
 20
103.0417601474821
 10
105.4939898435906
 20
103.0417601474821
 10
105.4683346485278
 20
103.0404682366942
 10
105.4434330680912
 20
103.0366893976396
 10
105.4194250592829
 20
103.0305312895507
 10
105.396407515412
 20
103.0221338694294
 10
105.374541925327
 20
103.0116155624314
 10
105.353925182337
 20
102.9991055596353
 10
105.3346757115974
 20
102.98473305212
 10
105.3169442360336
 20
102.9686056991179
 10
105.3008168830315
 20
102.9508742235541
 10
105.2864551414394
 20
102.931646284661
 10
105.2739559045666
 20
102.9110510735174
 10
105.2634483634918
 20
102.8892177812021
 10
105.255072475217
 20
102.8662755987938
 10
105.2489251330513
 20
102.842332185525
 10
105.2451462939967
 20
102.8175382643207
 10
105.243865149132
 20
102.7920014944135
 10
105.243865149132
 20
102.7920014944135
 10
105.2451462939967
 20
102.7664001289668
 10
105.2489251330513
 20
102.7415523781464
 10
105.2550617092937
 20
102.7175659011846
 10
105.2634483634918
 20
102.6945698891601
 10
105.2739559045666
 20
102.6727042990751
 10
105.2864443755162
 20
102.6520875560851
 10
105.3008276489547
 20
102.6328273194223
 10
105.3169334701104
 20
102.615074312012
 10
105.3346864775206
 20
102.5989361930867
 10
105.353925182337
 20
102.5845529196482
 10
105.374541925327
 20
102.5720321509289
 10
105.3964182813353
 20
102.5615138439308
 10
105.4194250592829
 20
102.5531056578863
 10
105.4434330680912
 20
102.5469475497973
 10
105.4683346485278
 20
102.5431687107428
 10
105.4939898435906
 20
102.5418767999549
  0
TEXT
  5
88
330
1F
100
AcDbEntity
  8
ISS138金台
  6
Continuous
 62
   250
420
  2367521
100
AcDbText
 10
104.4786954143944
 20
103.8503240285348
 30
0.0
 40
2.150533301035563
  1
4 .  6
 50
90.00000250447816
 41
0.4403330485026041
  7
MS Gothic
100
AcDbText
  0
LINE
  5
89
330
1F
100
AcDbEntity
  8
ISS138金台
  6
Continuous
 62
   250
420
  2367521
370
    13
100
AcDbLine
 10
112.2629241189659
 20
109.0545067409362
 30
0.0
 11
112.2629241189659
 21
114.0597136427621
 31
0.0
  0
LINE
  5
8A
330
1F
100
AcDbEntity
  8
ISS138金台
  6
Continuous
 62
   250
420
  2367521
370
    13
100
AcDbLine
 10
115.4379240712822
 20
109.0545067409362
 30
0.0
 11
115.4379240712822
 21
114.0597136427621
 31
0.0
  0
LINE
  5
8B
330
1F
100
AcDbEntity
  8
ISS138金台
  6
Continuous
 62
   250
420
  2367521
370
    13
100
AcDbLine
 10
115.4379240712822
 20
113.5524125741277
 30
0.0
 11
112.2629241189659
 21
113.5524125741277
 31
0.0
  0
HATCH
  5
8C
330
1F
100
AcDbEntity
  8
ISS138金台
  6
Continuous
 62
   250
420
  2367521
370
    13
100
AcDbHatch
 10
0.0
 20
0.0
 30
0.0
210
0.0
220
0.0
230
1.0
  2
SOLID
 70
     1
 71
     0
 91
        1
 92
        3
 72
     0
 73
     1
 93
       67
 10
112.2629241189659
 20
113.3023094115156
 10
112.2884608888732
 20
113.3035905563803
 10
112.3132440441542
 20
113.3073693954349
 10
112.3371551596534
 20
113.3135059716773
 10
112.3600865761384
 20
113.3218926258754
 10
112.3818983366073
 20
113.3324001669502
 10
112.4024612499812
 20
113.3448886378998
 10
112.4216461251813
 20
113.3592611454151
 10
112.4393560688986
 20
113.375377732494
 10
112.4554403582079
 20
113.3931307399042
 10
112.4697913338766
 20
113.4123586787973
 10
112.4822798048262
 20
113.4329861877106
 10
112.4927658140546
 20
113.4548625437189
 10
112.5011417023294
 20
113.4778693216665
 10
112.5072782785719
 20
113.5018773304748
 10
112.5110571176265
 20
113.5267789109114
 10
112.5123382624911
 20
113.5524341059742
 10
112.5123382624911
 20
113.5524341059742
 10
112.5110571176265
 20
113.5779708758815
 10
112.5072782785719
 20
113.6027647970857
 10
112.5011417023294
 20
113.6267082103546
 10
112.4927658140546
 20
113.6496611586861
 10
112.4822798048262
 20
113.6714836850782
 10
112.4697913338766
 20
113.6920788962218
 10
112.4554403582079
 20
113.7112960691916
 10
112.4393560688986
 20
113.7290383106786
 10
112.4216568911045
 20
113.7451548977576
 10
112.4024504840579
 20
113.759538171196
 10
112.381887570684
 20
113.7720481739921
 10
112.3600865761384
 20
113.7825664809902
 10
112.3371551596534
 20
113.7909639011115
 10
112.3132440441542
 20
113.7971220092004
 10
112.2884608888732
 20
113.800900848255
 10
112.2629241189659
 20
113.8021927590429
 10
112.2629241189659
 20
113.8021927590429
 10
112.2372689239031
 20
113.800900848255
 10
112.2123673434665
 20
113.7971112432772
 10
112.1883701005815
 20
113.7909639011115
 10
112.1653525567106
 20
113.7825664809902
 10
112.1434869666256
 20
113.7720481739921
 10
112.1228594577123
 20
113.759538171196
 10
112.1036207528959
 20
113.7451548977576
 10
112.0858677454857
 20
113.7290383106786
 10
112.0697511584068
 20
113.7113068351149
 10
112.0553894168148
 20
113.6920788962218
 10
112.0428901799419
 20
113.6714836850782
 10
112.0323934047903
 20
113.6496503927629
 10
112.0239959846691
 20
113.6267082103546
 10
112.0178594084266
 20
113.6027647970857
 10
112.014080569372
 20
113.5779708758815
 10
112.0127994245073
 20
113.5524341059742
 10
112.0127994245073
 20
113.5524341059742
 10
112.0140913352952
 20
113.5267789109114
 10
112.0178594084266
 20
113.5018773304748
 10
112.0240067505923
 20
113.4778693216665
 10
112.0323934047903
 20
113.4548625437189
 10
112.0428901799419
 20
113.4329861877106
 10
112.0553894168148
 20
113.4123586787973
 10
112.0697511584068
 20
113.393119973981
 10
112.0858677454857
 20
113.375377732494
 10
112.1036207528959
 20
113.3592719113383
 10
112.122848691789
 20
113.3448886378998
 10
112.1434762007023
 20
113.3324001669502
 10
112.1653525567106
 20
113.3218926258754
 10
112.1883593346582
 20
113.3135059716773
 10
112.2123673434665
 20
113.3073693954349
 10
112.2372689239031
 20
113.3035905563803
 97
        0
 75
     1
 76
     1
 98
        0
  0
LWPOLYLINE
  5
8D
330
1F
100
AcDbEntity
  8
ISS138金台
  6
Continuous
 62
   250
420
  2367521
370
    13
100
AcDbPolyline
 90
       68
 70
     0
 43
0.0
 10
112.2629241189659
 20
113.3023094115156
 10
112.2884608888732
 20
113.3035905563803
 10
112.3132440441542
 20
113.3073693954349
 10
112.3371551596534
 20
113.3135059716773
 10
112.3600865761384
 20
113.3218926258754
 10
112.3818983366073
 20
113.3324001669502
 10
112.4024612499812
 20
113.3448886378998
 10
112.4216461251813
 20
113.3592611454151
 10
112.4393560688986
 20
113.375377732494
 10
112.4554403582079
 20
113.3931307399042
 10
112.4697913338766
 20
113.4123586787973
 10
112.4822798048262
 20
113.4329861877106
 10
112.4927658140546
 20
113.4548625437189
 10
112.5011417023294
 20
113.4778693216665
 10
112.5072782785719
 20
113.5018773304748
 10
112.5110571176265
 20
113.5267789109114
 10
112.5123382624911
 20
113.5524341059742
 10
112.5123382624911
 20
113.5524341059742
 10
112.5110571176265
 20
113.5779708758815
 10
112.5072782785719
 20
113.6027647970857
 10
112.5011417023294
 20
113.6267082103546
 10
112.4927658140546
 20
113.6496611586861
 10
112.4822798048262
 20
113.6714836850782
 10
112.4697913338766
 20
113.6920788962218
 10
112.4554403582079
 20
113.7112960691916
 10
112.4393560688986
 20
113.7290383106786
 10
112.4216568911045
 20
113.7451548977576
 10
112.4024504840579
 20
113.759538171196
 10
112.381887570684
 20
113.7720481739921
 10
112.3600865761384
 20
113.7825664809902
 10
112.3371551596534
 20
113.7909639011115
 10
112.3132440441542
 20
113.7971220092004
 10
112.2884608888732
 20
113.800900848255
 10
112.2629241189659
 20
113.8021927590429
 10
112.2629241189659
 20
113.8021927590429
 10
112.2372689239031
 20
113.800900848255
 10
112.2123673434665
 20
113.7971112432772
 10
112.1883701005815
 20
113.7909639011115
 10
112.1653525567106
 20
113.7825664809902
 10
112.1434869666256
 20
113.7720481739921
 10
112.1228594577123
 20
113.759538171196
 10
112.1036207528959
 20
113.7451548977576
 10
112.0858677454857
 20
113.7290383106786
 10
112.0697511584068
 20
113.7113068351149
 10
112.0553894168148
 20
113.6920788962218
 10
112.0428901799419
 20
113.6714836850782
 10
112.0323934047903
 20
113.6496503927629
 10
112.0239959846691
 20
113.6267082103546
 10
112.0178594084266
 20
113.6027647970857
 10
112.014080569372
 20
113.5779708758815
 10
112.0127994245073
 20
113.5524341059742
 10
112.0127994245073
 20
113.5524341059742
 10
112.0140913352952
 20
113.5267789109114
 10
112.0178594084266
 20
113.5018773304748
 10
112.0240067505923
 20
113.4778693216665
 10
112.0323934047903
 20
113.4548625437189
 10
112.0428901799419
 20
113.4329861877106
 10
112.0553894168148
 20
113.4123586787973
 10
112.0697511584068
 20
113.393119973981
 10
112.0858677454857
 20
113.375377732494
 10
112.1036207528959
 20
113.3592719113383
 10
112.122848691789
 20
113.3448886378998
 10
112.1434762007023
 20
113.3324001669502
 10
112.1653525567106
 20
113.3218926258754
 10
112.1883593346582
 20
113.3135059716773
 10
112.2123673434665
 20
113.3073693954349
 10
112.2372689239031
 20
113.3035905563803
 10
112.2629241189659
 20
113.3023094115156
  0
HATCH
  5
8E
330
1F
100
AcDbEntity
  8
ISS138金台
  6
Continuous
 62
   250
420
  2367521
370
    13
100
AcDbHatch
 10
0.0
 20
0.0
 30
0.0
210
0.0
220
0.0
230
1.0
  2
SOLID
 70
     1
 71
     0
 91
        1
 92
        3
 72
     0
 73
     1
 93
       67
 10
115.4379240712822
 20
113.3023094115156
 10
115.4634608411895
 20
113.3035905563803
 10
115.4882439964705
 20
113.3073693954349
 10
115.5121551119697
 20
113.3135059716773
 10
115.5350865284547
 20
113.3218926258754
 10
115.5568982889235
 20
113.3324001669502
 10
115.5774612022975
 20
113.3448886378998
 10
115.5966460774976
 20
113.3592611454151
 10
115.6143560212149
 20
113.375377732494
 10
115.6304403105241
 20
113.3931307399042
 10
115.6447912861929
 20
113.4123586787973
 10
115.6572797571425
 20
113.4329861877106
 10
115.6677657663709
 20
113.4548625437189
 10
115.6761416546457
 20
113.4778693216665
 10
115.6822782308882
 20
113.5018773304748
 10
115.6860570699428
 20
113.5267789109114
 10
115.6873382148074
 20
113.5524341059742
 10
115.6873382148074
 20
113.5524341059742
 10
115.6860570699428
 20
113.5779708758815
 10
115.6822782308882
 20
113.6027647970857
 10
115.6761416546457
 20
113.6267082103546
 10
115.6677657663709
 20
113.6496611586861
 10
115.6572797571425
 20
113.6714836850782
 10
115.6447912861929
 20
113.6920788962218
 10
115.6304403105241
 20
113.7112960691916
 10
115.6143560212149
 20
113.7290383106786
 10
115.5966568434208
 20
113.7451548977576
 10
115.5774504363742
 20
113.759538171196
 10
115.5568875230003
 20
113.7720481739921
 10
115.5350865284547
 20
113.7825664809902
 10
115.5121551119697
 20
113.7909639011115
 10
115.4882439964705
 20
113.7971220092004
 10
115.4634608411895
 20
113.800900848255
 10
115.4379240712822
 20
113.8021927590429
 10
115.4379240712822
 20
113.8021927590429
 10
115.4122688762194
 20
113.800900848255
 10
115.3873672957828
 20
113.7971112432772
 10
115.3633700528978
 20
113.7909639011115
 10
115.3403525090269
 20
113.7825664809902
 10
115.3184869189418
 20
113.7720481739921
 10
115.2978594100286
 20
113.759538171196
 10
115.2786207052122
 20
113.7451548977576
 10
115.260867697802
 20
113.7290383106786
 10
115.2447511107231
 20
113.7113068351149
 10
115.230389369131
 20
113.6920788962218
 10
115.2178901322582
 20
113.6714836850782
 10
115.2073933571066
 20
113.6496503927629
 10
115.1989959369853
 20
113.6267082103546
 10
115.1928593607429
 20
113.6027647970857
 10
115.1890805216883
 20
113.5779708758815
 10
115.1877993768236
 20
113.5524341059742
 10
115.1877993768236
 20
113.5524341059742
 10
115.1890912876115
 20
113.5267789109114
 10
115.1928593607429
 20
113.5018773304748
 10
115.1990067029086
 20
113.4778693216665
 10
115.2073933571066
 20
113.4548625437189
 10
115.2178901322582
 20
113.4329861877106
 10
115.230389369131
 20
113.4123586787973
 10
115.2447511107231
 20
113.393119973981
 10
115.260867697802
 20
113.375377732494
 10
115.2786207052122
 20
113.3592719113383
 10
115.2978486441053
 20
113.3448886378998
 10
115.3184761530186
 20
113.3324001669502
 10
115.3403525090269
 20
113.3218926258754
 10
115.3633592869745
 20
113.3135059716773
 10
115.3873672957828
 20
113.3073693954349
 10
115.4122688762194
 20
113.3035905563803
 97
        0
 75
     1
 76
     1
 98
        0
  0
LWPOLYLINE
  5
8F
330
1F
100
AcDbEntity
  8
ISS138金台
  6
Continuous
 62
   250
420
  2367521
370
    13
100
AcDbPolyline
 90
       68
 70
     0
 43
0.0
 10
115.4379240712822
 20
113.3023094115156
 10
115.4634608411895
 20
113.3035905563803
 10
115.4882439964705
 20
113.3073693954349
 10
115.5121551119697
 20
113.3135059716773
 10
115.5350865284547
 20
113.3218926258754
 10
115.5568982889235
 20
113.3324001669502
 10
115.5774612022975
 20
113.3448886378998
 10
115.5966460774976
 20
113.3592611454151
 10
115.6143560212149
 20
113.375377732494
 10
115.6304403105241
 20
113.3931307399042
 10
115.6447912861929
 20
113.4123586787973
 10
115.6572797571425
 20
113.4329861877106
 10
115.6677657663709
 20
113.4548625437189
 10
115.6761416546457
 20
113.4778693216665
 10
115.6822782308882
 20
113.5018773304748
 10
115.6860570699428
 20
113.5267789109114
 10
115.6873382148074
 20
113.5524341059742
 10
115.6873382148074
 20
113.5524341059742
 10
115.6860570699428
 20
113.5779708758815
 10
115.6822782308882
 20
113.6027647970857
 10
115.6761416546457
 20
113.6267082103546
 10
115.6677657663709
 20
113.6496611586861
 10
115.6572797571425
 20
113.6714836850782
 10
115.6447912861929
 20
113.6920788962218
 10
115.6304403105241
 20
113.7112960691916
 10
115.6143560212149
 20
113.7290383106786
 10
115.5966568434208
 20
113.7451548977576
 10
115.5774504363742
 20
113.759538171196
 10
115.5568875230003
 20
113.7720481739921
 10
115.5350865284547
 20
113.7825664809902
 10
115.5121551119697
 20
113.7909639011115
 10
115.4882439964705
 20
113.7971220092004
 10
115.4634608411895
 20
113.800900848255
 10
115.4379240712822
 20
113.8021927590429
 10
115.4379240712822
 20
113.8021927590429
 10
115.4122688762194
 20
113.800900848255
 10
115.3873672957828
 20
113.7971112432772
 10
115.3633700528978
 20
113.7909639011115
 10
115.3403525090269
 20
113.7825664809902
 10
115.3184869189418
 20
113.7720481739921
 10
115.2978594100286
 20
113.759538171196
 10
115.2786207052122
 20
113.7451548977576
 10
115.260867697802
 20
113.7290383106786
 10
115.2447511107231
 20
113.7113068351149
 10
115.230389369131
 20
113.6920788962218
 10
115.2178901322582
 20
113.6714836850782
 10
115.2073933571066
 20
113.6496503927629
 10
115.1989959369853
 20
113.6267082103546
 10
115.1928593607429
 20
113.6027647970857
 10
115.1890805216883
 20
113.5779708758815
 10
115.1877993768236
 20
113.5524341059742
 10
115.1877993768236
 20
113.5524341059742
 10
115.1890912876115
 20
113.5267789109114
 10
115.1928593607429
 20
113.5018773304748
 10
115.1990067029086
 20
113.4778693216665
 10
115.2073933571066
 20
113.4548625437189
 10
115.2178901322582
 20
113.4329861877106
 10
115.230389369131
 20
113.4123586787973
 10
115.2447511107231
 20
113.393119973981
 10
115.260867697802
 20
113.375377732494
 10
115.2786207052122
 20
113.3592719113383
 10
115.2978486441053
 20
113.3448886378998
 10
115.3184761530186
 20
113.3324001669502
 10
115.3403525090269
 20
113.3218926258754
 10
115.3633592869745
 20
113.3135059716773
 10
115.3873672957828
 20
113.3073693954349
 10
115.4122688762194
 20
113.3035905563803
 10
115.4379240712822
 20
113.3023094115156
  0
TEXT
  5
90
330
1F
100
AcDbEntity
  8
ISS138金台
  6
Continuous
 62
   250
420
  2367521
100
AcDbText
 10
113.1007713286049
 20
114.6118149908072
 30
0.0
 40
2.150533301035563
  1
3
 41
0.8120040893554685
  7
MS Gothic
100
AcDbText
  0
LINE
  5
91
330
1F
100
AcDbEntity
  8
ISS138金台
  6
Continuous
 62
   250
420
  2367521
370
    13
100
AcDbLine
 10
133.9876743962628
 20
103.0042193731707
 30
0.0
 11
138.9928812980886
 21
103.0042193731707
 31
0.0
  0
LINE
  5
92
330
1F
100
AcDbEntity
  8
ISS138金台
  6
Continuous
 62
   250
420
  2367521
370
    13
100
AcDbLine
 10
134.031782383746
 20
104.5035356721322
 30
0.0
 11
143.4908086631266
 21
104.5035356721322
 31
0.0
  0
LINE
  5
93
330
1F
100
AcDbEntity
  8
ISS138金台
  6
Continuous
 62
   250
420
  2367521
370
    13
100
AcDbLine
 10
138.5076396061575
 20
102.1663829294549
 30
0.0
 11
138.5076396061575
 21
104.5698537592438
 31
0.0
  0
HATCH
  5
94
330
1F
100
AcDbEntity
  8
ISS138金台
  6
Continuous
 62
   250
420
  2367521
370
    13
100
AcDbHatch
 10
0.0
 20
0.0
 30
0.0
210
0.0
220
0.0
230
1.0
  2
SOLID
 70
     1
 71
     0
 91
        1
 92
        3
 72
     0
 73
     1
 93
       67
 10
138.5076396061575
 20
102.7541162105586
 10
138.5331763760648
 20
102.7554081213465
 10
138.557970297269
 20
102.7591977263243
 10
138.5819029446146
 20
102.7653558344132
 10
138.6048558929461
 20
102.7737532545345
 10
138.6266891852615
 20
102.7842823274558
 10
138.647284396405
 20
102.7967923302519
 10
138.6665123352981
 20
102.8111863696136
 10
138.6842545767852
 20
102.8273137226158
 10
138.7003603979408
 20
102.845066730026
 10
138.7147544373026
 20
102.8643269666888
 10
138.7272644400986
 20
102.8849437096788
 10
138.7377827470967
 20
102.9068092997639
 10
138.746180167218
 20
102.9298053117883
 10
138.7523382753069
 20
102.9537917887501
 10
138.7561171143615
 20
102.9786395395705
 10
138.7574090251494
 20
103.0042409050172
 10
138.7574090251494
 20
103.0042409050172
 10
138.7561278802847
 20
103.0298422704638
 10
138.7523382753069
 20
103.0546684894378
 10
138.746180167218
 20
103.0786442004763
 10
138.7377719811735
 20
103.1016079147311
 10
138.7272536741754
 20
103.1234519729696
 10
138.7147544373026
 20
103.14403641819
 10
138.7003711638641
 20
103.1632535911598
 10
138.6842545767852
 20
103.1809850667236
 10
138.6665123352981
 20
103.1970801219561
 10
138.647284396405
 20
103.2114418635481
 10
138.6266891852615
 20
103.2239303344977
 10
138.6048558929461
 20
103.2344163437261
 10
138.5819137105379
 20
103.2428029979241
 10
138.557970297269
 20
103.2489395741666
 10
138.5331763760648
 20
103.2527184132212
 10
138.5076396061575
 20
103.2539995580858
 10
138.5076396061575
 20
103.2539995580858
 10
138.4820382407108
 20
103.2527076472979
 10
138.4571797239672
 20
103.2489395741666
 10
138.4332040129286
 20
103.2428029979241
 10
138.4102080009042
 20
103.2344271096493
 10
138.3883531767424
 20
103.2239303344977
 10
138.3677256678291
 20
103.2114310976249
 10
138.3484761970896
 20
103.1970801219561
 10
138.3307231896793
 20
103.1809743008004
 10
138.3145743048307
 20
103.1632535911598
 10
138.3002017973154
 20
103.14403641819
 10
138.2876702626729
 20
103.1234519729696
 10
138.2771519556748
 20
103.1016079147311
 10
138.2687437696303
 20
103.0786442004763
 10
138.2625856615414
 20
103.054679255361
 10
138.2588068224868
 20
103.0298315045406
 10
138.2575149116989
 20
103.0042409050172
 10
138.2575149116989
 20
103.0042409050172
 10
138.2588068224868
 20
102.9786395395705
 10
138.2625964274646
 20
102.9537810228269
 10
138.2687437696303
 20
102.9298053117883
 10
138.2771411897516
 20
102.9068092997639
 10
138.2876702626729
 20
102.8849544756021
 10
138.3002017973154
 20
102.8643162007655
 10
138.3145850707539
 20
102.8450774959492
 10
138.3307231896793
 20
102.827324488539
 10
138.3484761970896
 20
102.8111756036904
 10
138.3677256678291
 20
102.7967923302519
 10
138.3883531767424
 20
102.7842715615326
 10
138.4102187668274
 20
102.7737532545345
 10
138.4332040129286
 20
102.76534506849
 10
138.4571904898904
 20
102.7591869604011
 10
138.4820382407108
 20
102.7554081213465
 97
        0
 75
     1
 76
     1
 98
        0
  0
LWPOLYLINE
  5
95
330
1F
100
AcDbEntity
  8
ISS138金台
  6
Continuous
 62
   250
420
  2367521
370
    13
100
AcDbPolyline
 90
       68
 70
     0
 43
0.0
 10
138.5076396061575
 20
102.7541162105586
 10
138.5331763760648
 20
102.7554081213465
 10
138.557970297269
 20
102.7591977263243
 10
138.5819029446146
 20
102.7653558344132
 10
138.6048558929461
 20
102.7737532545345
 10
138.6266891852615
 20
102.7842823274558
 10
138.647284396405
 20
102.7967923302519
 10
138.6665123352981
 20
102.8111863696136
 10
138.6842545767852
 20
102.8273137226158
 10
138.7003603979408
 20
102.845066730026
 10
138.7147544373026
 20
102.8643269666888
 10
138.7272644400986
 20
102.8849437096788
 10
138.7377827470967
 20
102.9068092997639
 10
138.746180167218
 20
102.9298053117883
 10
138.7523382753069
 20
102.9537917887501
 10
138.7561171143615
 20
102.9786395395705
 10
138.7574090251494
 20
103.0042409050172
 10
138.7574090251494
 20
103.0042409050172
 10
138.7561278802847
 20
103.0298422704638
 10
138.7523382753069
 20
103.0546684894378
 10
138.746180167218
 20
103.0786442004763
 10
138.7377719811735
 20
103.1016079147311
 10
138.7272536741754
 20
103.1234519729696
 10
138.7147544373026
 20
103.14403641819
 10
138.7003711638641
 20
103.1632535911598
 10
138.6842545767852
 20
103.1809850667236
 10
138.6665123352981
 20
103.1970801219561
 10
138.647284396405
 20
103.2114418635481
 10
138.6266891852615
 20
103.2239303344977
 10
138.6048558929461
 20
103.2344163437261
 10
138.5819137105379
 20
103.2428029979241
 10
138.557970297269
 20
103.2489395741666
 10
138.5331763760648
 20
103.2527184132212
 10
138.5076396061575
 20
103.2539995580858
 10
138.5076396061575
 20
103.2539995580858
 10
138.4820382407108
 20
103.2527076472979
 10
138.4571797239672
 20
103.2489395741666
 10
138.4332040129286
 20
103.2428029979241
 10
138.4102080009042
 20
103.2344271096493
 10
138.3883531767424
 20
103.2239303344977
 10
138.3677256678291
 20
103.2114310976249
 10
138.3484761970896
 20
103.1970801219561
 10
138.3307231896793
 20
103.1809743008004
 10
138.3145743048307
 20
103.1632535911598
 10
138.3002017973154
 20
103.14403641819
 10
138.2876702626729
 20
103.1234519729696
 10
138.2771519556748
 20
103.1016079147311
 10
138.2687437696303
 20
103.0786442004763
 10
138.2625856615414
 20
103.054679255361
 10
138.2588068224868
 20
103.0298315045406
 10
138.2575149116989
 20
103.0042409050172
 10
138.2575149116989
 20
103.0042409050172
 10
138.2588068224868
 20
102.9786395395705
 10
138.2625964274646
 20
102.9537810228269
 10
138.2687437696303
 20
102.9298053117883
 10
138.2771411897516
 20
102.9068092997639
 10
138.2876702626729
 20
102.8849544756021
 10
138.3002017973154
 20
102.8643162007655
 10
138.3145850707539
 20
102.8450774959492
 10
138.3307231896793
 20
102.827324488539
 10
138.3484761970896
 20
102.8111756036904
 10
138.3677256678291
 20
102.7967923302519
 10
138.3883531767424
 20
102.7842715615326
 10
138.4102187668274
 20
102.7737532545345
 10
138.4332040129286
 20
102.76534506849
 10
138.4571904898904
 20
102.7591869604011
 10
138.4820382407108
 20
102.7554081213465
 10
138.5076396061575
 20
102.7541162105586
  0
HATCH
  5
96
330
1F
100
AcDbEntity
  8
ISS138金台
  6
Continuous
 62
   250
420
  2367521
370
    13
100
AcDbHatch
 10
0.0
 20
0.0
 30
0.0
210
0.0
220
0.0
230
1.0
  2
SOLID
 70
     1
 71
     0
 91
        1
 92
        3
 72
     0
 73
     1
 93
       67
 10
138.5076396061575
 20
104.2537662531403
 10
138.5331763760648
 20
104.2550581639282
 10
138.557970297269
 20
104.2588262370595
 10
138.5819029446146
 20
104.2649735792252
 10
138.6048558929461
 20
104.2733494675
 10
138.6266891852615
 20
104.2838354767284
 10
138.647284396405
 20
104.2963347136012
 10
138.6665123352981
 20
104.31068568927
 10
138.6842545767852
 20
104.3267915104257
 10
138.7003603979408
 20
104.3445122200662
 10
138.7147544373026
 20
104.3637293930361
 10
138.7272644400986
 20
104.3843246041797
 10
138.7377827470967
 20
104.4061686624183
 10
138.746180167218
 20
104.429132376673
 10
138.7523382753069
 20
104.4530973217883
 10
138.7561171143615
 20
104.4779450726087
 10
138.7574090251494
 20
104.5035356721322
 10
138.7574090251494
 20
104.5035356721322
 10
138.7561278802847
 20
104.5291370375788
 10
138.7523382753069
 20
104.5539632565528
 10
138.746180167218
 20
104.5779389675914
 10
138.7377719811735
 20
104.6008919159228
 10
138.7272536741754
 20
104.6227359741614
 10
138.7147544373026
 20
104.643331185305
 10
138.7003711638641
 20
104.6625483582749
 10
138.6842545767852
 20
104.6802798338386
 10
138.6665123352981
 20
104.6963748890711
 10
138.647284396405
 20
104.7107366306631
 10
138.6266891852615
 20
104.7232143356895
 10
138.6048558929461
 20
104.7337218767643
 10
138.5819137105379
 20
104.7420977650391
 10
138.557970297269
 20
104.7482343412816
 10
138.5331763760648
 20
104.7520131803362
 10
138.5076396061575
 20
104.7532943252008
 10
138.5076396061575
 20
104.7532943252008
 10
138.4820382407108
 20
104.7520131803362
 10
138.4571797239672
 20
104.7482451072049
 10
138.4332040129286
 20
104.7420977650391
 10
138.4102080009042
 20
104.7337111108411
 10
138.3883531767424
 20
104.7232143356895
 10
138.3677256678291
 20
104.7107258647399
 10
138.3484761970896
 20
104.6963748890711
 10
138.3307231896793
 20
104.6802690679154
 10
138.3145743048307
 20
104.6625483582749
 10
138.3002017973154
 20
104.643331185305
 10
138.2876702626729
 20
104.6227359741614
 10
138.2771519556748
 20
104.6009026818461
 10
138.2687437696303
 20
104.5779389675914
 10
138.2625856615414
 20
104.553974022476
 10
138.2588068224868
 20
104.5291262716556
 10
138.2575149116989
 20
104.5035356721322
 10
138.2575149116989
 20
104.5035356721322
 10
138.2588068224868
 20
104.4779343066855
 10
138.2625964274646
 20
104.4530973217883
 10
138.2687437696303
 20
104.429132376673
 10
138.2771411897516
 20
104.4061794283415
 10
138.2876702626729
 20
104.3843246041797
 10
138.3002017973154
 20
104.3637401589593
 10
138.3145850707539
 20
104.3445229859895
 10
138.3307231896793
 20
104.3267915104257
 10
138.3484761970896
 20
104.3106964551933
 10
138.3677256678291
 20
104.2963347136012
 10
138.3883531767424
 20
104.2838354767284
 10
138.4102187668274
 20
104.2733494675
 10
138.4332040129286
 20
104.264962813302
 10
138.4571904898904
 20
104.2588262370595
 10
138.4820382407108
 20
104.2550473980049
 97
        0
 75
     1
 76
     1
 98
        0
  0
LWPOLYLINE
  5
97
330
1F
100
AcDbEntity
  8
ISS138金台
  6
Continuous
 62
   250
420
  2367521
370
    13
100
AcDbPolyline
 90
       68
 70
     0
 43
0.0
 10
138.5076396061575
 20
104.2537662531403
 10
138.5331763760648
 20
104.2550581639282
 10
138.557970297269
 20
104.2588262370595
 10
138.5819029446146
 20
104.2649735792252
 10
138.6048558929461
 20
104.2733494675
 10
138.6266891852615
 20
104.2838354767284
 10
138.647284396405
 20
104.2963347136012
 10
138.6665123352981
 20
104.31068568927
 10
138.6842545767852
 20
104.3267915104257
 10
138.7003603979408
 20
104.3445122200662
 10
138.7147544373026
 20
104.3637293930361
 10
138.7272644400986
 20
104.3843246041797
 10
138.7377827470967
 20
104.4061686624183
 10
138.746180167218
 20
104.429132376673
 10
138.7523382753069
 20
104.4530973217883
 10
138.7561171143615
 20
104.4779450726087
 10
138.7574090251494
 20
104.5035356721322
 10
138.7574090251494
 20
104.5035356721322
 10
138.7561278802847
 20
104.5291370375788
 10
138.7523382753069
 20
104.5539632565528
 10
138.746180167218
 20
104.5779389675914
 10
138.7377719811735
 20
104.6008919159228
 10
138.7272536741754
 20
104.6227359741614
 10
138.7147544373026
 20
104.643331185305
 10
138.7003711638641
 20
104.6625483582749
 10
138.6842545767852
 20
104.6802798338386
 10
138.6665123352981
 20
104.6963748890711
 10
138.647284396405
 20
104.7107366306631
 10
138.6266891852615
 20
104.7232143356895
 10
138.6048558929461
 20
104.7337218767643
 10
138.5819137105379
 20
104.7420977650391
 10
138.557970297269
 20
104.7482343412816
 10
138.5331763760648
 20
104.7520131803362
 10
138.5076396061575
 20
104.7532943252008
 10
138.5076396061575
 20
104.7532943252008
 10
138.4820382407108
 20
104.7520131803362
 10
138.4571797239672
 20
104.7482451072049
 10
138.4332040129286
 20
104.7420977650391
 10
138.4102080009042
 20
104.7337111108411
 10
138.3883531767424
 20
104.7232143356895
 10
138.3677256678291
 20
104.7107258647399
 10
138.3484761970896
 20
104.6963748890711
 10
138.3307231896793
 20
104.6802690679154
 10
138.3145743048307
 20
104.6625483582749
 10
138.3002017973154
 20
104.643331185305
 10
138.2876702626729
 20
104.6227359741614
 10
138.2771519556748
 20
104.6009026818461
 10
138.2687437696303
 20
104.5779389675914
 10
138.2625856615414
 20
104.553974022476
 10
138.2588068224868
 20
104.5291262716556
 10
138.2575149116989
 20
104.5035356721322
 10
138.2575149116989
 20
104.5035356721322
 10
138.2588068224868
 20
104.4779343066855
 10
138.2625964274646
 20
104.4530973217883
 10
138.2687437696303
 20
104.429132376673
 10
138.2771411897516
 20
104.4061794283415
 10
138.2876702626729
 20
104.3843246041797
 10
138.3002017973154
 20
104.3637401589593
 10
138.3145850707539
 20
104.3445229859895
 10
138.3307231896793
 20
104.3267915104257
 10
138.3484761970896
 20
104.3106964551933
 10
138.3677256678291
 20
104.2963347136012
 10
138.3883531767424
 20
104.2838354767284
 10
138.4102187668274
 20
104.2733494675
 10
138.4332040129286
 20
104.264962813302
 10
138.4571904898904
 20
104.2588262370595
 10
138.4820382407108
 20
104.2550473980049
 10
138.5076396061575
 20
104.2537662531403
  0
TEXT
  5
98
330
1F
100
AcDbEntity
  8
ISS138金台
  6
Continuous
 62
   250
420
  2367521
100
AcDbText
 10
139.3664878591823
 20
96.85266771408692
 30
0.0
 40
2.150533301035563
  1
1 .  3
 50
90.00000250447816
 41
0.4166669448216756
  7
MS Gothic
100
AcDbText
  0
LINE
  5
99
330
1F
100
AcDbEntity
  8
ISS138金台
  6
Continuous
 62
   250
420
  2367521
370
    13
100
AcDbLine
 10
134.031782383746
 20
107.5021467382087
 30
0.0
 11
143.5790031062465
 21
107.5021467382087
 31
0.0
  0
LINE
  5
9A
330
1F
100
AcDbEntity
  8
ISS138金台
  6
Continuous
 62
   250
420
  2367521
370
    13
100
AcDbLine
 10
143.4792783593447
 20
104.50732527711
 30
0.0
 11
143.4792783593447
 21
108.2337127536973
 31
0.0
  0
HATCH
  5
9B
330
1F
100
AcDbEntity
  8
ISS138金台
  6
Continuous
 62
   250
420
  2367521
370
    13
100
AcDbHatch
 10
0.0
 20
0.0
 30
0.0
210
0.0
220
0.0
230
1.0
  2
SOLID
 70
     1
 71
     0
 91
        1
 92
        3
 72
     0
 73
     1
 93
       67
 10
143.4906364083549
 20
107.2523773192168
 10
143.5161731782621
 20
107.2536692300047
 10
143.5409778653896
 20
107.257437303136
 10
143.564899746812
 20
107.2635846453017
 10
143.5878526951435
 20
107.2719605335765
 10
143.6096859874589
 20
107.2824465428049
 10
143.6302811986025
 20
107.2949457796777
 10
143.6494983715723
 20
107.3092967553465
 10
143.6672406130593
 20
107.3254025765022
 10
143.6833679660615
 20
107.3431232861428
 10
143.6977404735767
 20
107.3623404591126
 10
143.710261242296
 20
107.3829356702562
 10
143.7207795492941
 20
107.4047797284948
 10
143.7291769694154
 20
107.4277434427495
 10
143.7353243115811
 20
107.4517083878648
 10
143.7391139165589
 20
107.4765561386852
 10
143.7404058273468
 20
107.5021467382087
 10
143.7404058273468
 20
107.5021467382087
 10
143.7391139165589
 20
107.5277481036553
 10
143.7353350775043
 20
107.5525743226293
 10
143.7291769694154
 20
107.5765500336678
 10
143.7207687833709
 20
107.5995029819994
 10
143.7102504763728
 20
107.6213470402379
 10
143.6977512395
 20
107.6419422513815
 10
143.6833679660615
 20
107.6611594243514
 10
143.6672406130593
 20
107.6788908999151
 10
143.6495091374956
 20
107.6949859551476
 10
143.6302811986025
 20
107.7093476967396
 10
143.6096859874589
 20
107.721825401766
 10
143.5878526951435
 20
107.7323329428408
 10
143.5649105127353
 20
107.7407088311156
 10
143.5409670994664
 20
107.7468454073581
 10
143.5161731782621
 20
107.7506242464127
 10
143.4906364083549
 20
107.7519053912773
 10
143.4906364083549
 20
107.7519053912773
 10
143.4650350429082
 20
107.7506242464127
 10
143.4401872920878
 20
107.7468561732813
 10
143.416200815126
 20
107.7407088311156
 10
143.3932048031016
 20
107.7323221769176
 10
143.3713392130165
 20
107.721825401766
 10
143.3507224700265
 20
107.7093369308164
 10
143.3314729992869
 20
107.6949859551476
 10
143.3137199918767
 20
107.6788801339919
 10
143.2975818729513
 20
107.6611594243514
 10
143.2831878335896
 20
107.6419422513815
 10
143.2706670648703
 20
107.6213470402379
 10
143.2601487578722
 20
107.5995137479226
 10
143.2517513377509
 20
107.5765500336678
 10
143.245593229662
 20
107.5525850885525
 10
143.2418036246842
 20
107.5277373377321
 10
143.2405117138963
 20
107.5021467382087
 10
143.2405117138963
 20
107.5021467382087
 10
143.2418036246842
 20
107.476545372762
 10
143.2456039955852
 20
107.4517083878648
 10
143.2517513377509
 20
107.4277434427495
 10
143.260137991949
 20
107.404790494418
 10
143.2706778307935
 20
107.3829356702562
 10
143.2831985995128
 20
107.3623512250358
 10
143.2975818729513
 20
107.343134052066
 10
143.3137199918767
 20
107.3254025765022
 10
143.3314729992869
 20
107.3093075212698
 10
143.3507224700265
 20
107.2949457796777
 10
143.3713499789398
 20
107.2824465428049
 10
143.3932155690248
 20
107.2719605335765
 10
143.416200815126
 20
107.2635738793785
 10
143.4401872920878
 20
107.257437303136
 10
143.4650350429082
 20
107.2536584640814
 97
        0
 75
     1
 76
     1
 98
        0
  0
LWPOLYLINE
  5
9C
330
1F
100
AcDbEntity
  8
ISS138金台
  6
Continuous
 62
   250
420
  2367521
370
    13
100
AcDbPolyline
 90
       68
 70
     0
 43
0.0
 10
143.4906364083549
 20
107.2523773192168
 10
143.5161731782621
 20
107.2536692300047
 10
143.5409778653896
 20
107.257437303136
 10
143.564899746812
 20
107.2635846453017
 10
143.5878526951435
 20
107.2719605335765
 10
143.6096859874589
 20
107.2824465428049
 10
143.6302811986025
 20
107.2949457796777
 10
143.6494983715723
 20
107.3092967553465
 10
143.6672406130593
 20
107.3254025765022
 10
143.6833679660615
 20
107.3431232861428
 10
143.6977404735767
 20
107.3623404591126
 10
143.710261242296
 20
107.3829356702562
 10
143.7207795492941
 20
107.4047797284948
 10
143.7291769694154
 20
107.4277434427495
 10
143.7353243115811
 20
107.4517083878648
 10
143.7391139165589
 20
107.4765561386852
 10
143.7404058273468
 20
107.5021467382087
 10
143.7404058273468
 20
107.5021467382087
 10
143.7391139165589
 20
107.5277481036553
 10
143.7353350775043
 20
107.5525743226293
 10
143.7291769694154
 20
107.5765500336678
 10
143.7207687833709
 20
107.5995029819994
 10
143.7102504763728
 20
107.6213470402379
 10
143.6977512395
 20
107.6419422513815
 10
143.6833679660615
 20
107.6611594243514
 10
143.6672406130593
 20
107.6788908999151
 10
143.6495091374956
 20
107.6949859551476
 10
143.6302811986025
 20
107.7093476967396
 10
143.6096859874589
 20
107.721825401766
 10
143.5878526951435
 20
107.7323329428408
 10
143.5649105127353
 20
107.7407088311156
 10
143.5409670994664
 20
107.7468454073581
 10
143.5161731782621
 20
107.7506242464127
 10
143.4906364083549
 20
107.7519053912773
 10
143.4906364083549
 20
107.7519053912773
 10
143.4650350429082
 20
107.7506242464127
 10
143.4401872920878
 20
107.7468561732813
 10
143.416200815126
 20
107.7407088311156
 10
143.3932048031016
 20
107.7323221769176
 10
143.3713392130165
 20
107.721825401766
 10
143.3507224700265
 20
107.7093369308164
 10
143.3314729992869
 20
107.6949859551476
 10
143.3137199918767
 20
107.6788801339919
 10
143.2975818729513
 20
107.6611594243514
 10
143.2831878335896
 20
107.6419422513815
 10
143.2706670648703
 20
107.6213470402379
 10
143.2601487578722
 20
107.5995137479226
 10
143.2517513377509
 20
107.5765500336678
 10
143.245593229662
 20
107.5525850885525
 10
143.2418036246842
 20
107.5277373377321
 10
143.2405117138963
 20
107.5021467382087
 10
143.2405117138963
 20
107.5021467382087
 10
143.2418036246842
 20
107.476545372762
 10
143.2456039955852
 20
107.4517083878648
 10
143.2517513377509
 20
107.4277434427495
 10
143.260137991949
 20
107.404790494418
 10
143.2706778307935
 20
107.3829356702562
 10
143.2831985995128
 20
107.3623512250358
 10
143.2975818729513
 20
107.343134052066
 10
143.3137199918767
 20
107.3254025765022
 10
143.3314729992869
 20
107.3093075212698
 10
143.3507224700265
 20
107.2949457796777
 10
143.3713499789398
 20
107.2824465428049
 10
143.3932155690248
 20
107.2719605335765
 10
143.416200815126
 20
107.2635738793785
 10
143.4401872920878
 20
107.257437303136
 10
143.4650350429082
 20
107.2536584640814
 10
143.4906364083549
 20
107.2523773192168
  0
HATCH
  5
9D
330
1F
100
AcDbEntity
  8
ISS138金台
  6
Continuous
 62
   250
420
  2367521
370
    13
100
AcDbHatch
 10
0.0
 20
0.0
 30
0.0
210
0.0
220
0.0
230
1.0
  2
SOLID
 70
     1
 71
     0
 91
        1
 92
        3
 72
     0
 73
     1
 93
       67
 10
143.4465284208717
 20
104.2537662531403
 10
143.472065190779
 20
104.2550581639282
 10
143.4968591119832
 20
104.2588262370595
 10
143.5207917593289
 20
104.2649735792252
 10
143.5437447076604
 20
104.2733494675
 10
143.5655672340525
 20
104.2838354767284
 10
143.5861732111193
 20
104.2963347136012
 10
143.6054011500124
 20
104.31068568927
 10
143.6231433914994
 20
104.3267915104257
 10
143.639249212655
 20
104.3445122200662
 10
143.6536432520168
 20
104.3637293930361
 10
143.6661532548129
 20
104.3843246041797
 10
143.6766715618109
 20
104.4061686624183
 10
143.6850689819322
 20
104.429132376673
 10
143.6912270900211
 20
104.4530973217883
 10
143.6950059290757
 20
104.4779450726087
 10
143.6962978398636
 20
104.5035356721322
 10
143.6962978398636
 20
104.5035356721322
 10
143.6950166949989
 20
104.5291370375788
 10
143.6912270900211
 20
104.5539632565528
 10
143.6850689819322
 20
104.5779389675914
 10
143.6766607958877
 20
104.6008919159228
 10
143.6661424888896
 20
104.6227359741614
 10
143.6536432520168
 20
104.643331185305
 10
143.6392599785783
 20
104.6625483582749
 10
143.6231433914994
 20
104.6802798338386
 10
143.6054011500124
 20
104.6963748890711
 10
143.5861732111193
 20
104.7107366306631
 10
143.5655779999757
 20
104.7232143356895
 10
143.5437447076604
 20
104.7337218767643
 10
143.5208025252521
 20
104.7420977650391
 10
143.4968591119832
 20
104.7482343412816
 10
143.472065190779
 20
104.7520131803362
 10
143.4465284208717
 20
104.7532943252008
 10
143.4465284208717
 20
104.7532943252008
 10
143.420927055425
 20
104.7520131803362
 10
143.3960685386814
 20
104.7482451072049
 10
143.3720928276428
 20
104.7420977650391
 10
143.3490968156184
 20
104.7337111108411
 10
143.3272312255334
 20
104.7232143356895
 10
143.3066144825433
 20
104.7107258647399
 10
143.2873650118038
 20
104.6963748890711
 10
143.2696120043935
 20
104.6802690679154
 10
143.2534631195449
 20
104.6625483582749
 10
143.2390798461064
 20
104.643331185305
 10
143.2265590773871
 20
104.6227359741614
 10
143.216040770389
 20
104.6009026818461
 10
143.2076325843445
 20
104.5779389675914
 10
143.2014744762556
 20
104.553974022476
 10
143.197695637201
 20
104.5291262716556
 10
143.1964037264131
 20
104.5035356721322
 10
143.1964037264131
 20
104.5035356721322
 10
143.197695637201
 20
104.4779343066855
 10
143.2014852421788
 20
104.4530973217883
 10
143.2076325843445
 20
104.429132376673
 10
143.2160300044658
 20
104.4061794283415
 10
143.2265590773871
 20
104.3843246041797
 10
143.2390906120297
 20
104.3637401589593
 10
143.2534738854681
 20
104.3445229859895
 10
143.2696120043935
 20
104.3267915104257
 10
143.2873650118038
 20
104.3106964551933
 10
143.3066144825433
 20
104.2963347136012
 10
143.3272419914566
 20
104.2838354767284
 10
143.3491075815416
 20
104.2733494675
 10
143.3720928276428
 20
104.264962813302
 10
143.3960793046046
 20
104.2588262370595
 10
143.420927055425
 20
104.2550473980049
 97
        0
 75
     1
 76
     1
 98
        0
  0
LWPOLYLINE
  5
9E
330
1F
100
AcDbEntity
  8
ISS138金台
  6
Continuous
 62
   250
420
  2367521
370
    13
100
AcDbPolyline
 90
       68
 70
     0
 43
0.0
 10
143.4465284208717
 20
104.2537662531403
 10
143.472065190779
 20
104.2550581639282
 10
143.4968591119832
 20
104.2588262370595
 10
143.5207917593289
 20
104.2649735792252
 10
143.5437447076604
 20
104.2733494675
 10
143.5655672340525
 20
104.2838354767284
 10
143.5861732111193
 20
104.2963347136012
 10
143.6054011500124
 20
104.31068568927
 10
143.6231433914994
 20
104.3267915104257
 10
143.639249212655
 20
104.3445122200662
 10
143.6536432520168
 20
104.3637293930361
 10
143.6661532548129
 20
104.3843246041797
 10
143.6766715618109
 20
104.4061686624183
 10
143.6850689819322
 20
104.429132376673
 10
143.6912270900211
 20
104.4530973217883
 10
143.6950059290757
 20
104.4779450726087
 10
143.6962978398636
 20
104.5035356721322
 10
143.6962978398636
 20
104.5035356721322
 10
143.6950166949989
 20
104.5291370375788
 10
143.6912270900211
 20
104.5539632565528
 10
143.6850689819322
 20
104.5779389675914
 10
143.6766607958877
 20
104.6008919159228
 10
143.6661424888896
 20
104.6227359741614
 10
143.6536432520168
 20
104.643331185305
 10
143.6392599785783
 20
104.6625483582749
 10
143.6231433914994
 20
104.6802798338386
 10
143.6054011500124
 20
104.6963748890711
 10
143.5861732111193
 20
104.7107366306631
 10
143.5655779999757
 20
104.7232143356895
 10
143.5437447076604
 20
104.7337218767643
 10
143.5208025252521
 20
104.7420977650391
 10
143.4968591119832
 20
104.7482343412816
 10
143.472065190779
 20
104.7520131803362
 10
143.4465284208717
 20
104.7532943252008
 10
143.4465284208717
 20
104.7532943252008
 10
143.420927055425
 20
104.7520131803362
 10
143.3960685386814
 20
104.7482451072049
 10
143.3720928276428
 20
104.7420977650391
 10
143.3490968156184
 20
104.7337111108411
 10
143.3272312255334
 20
104.7232143356895
 10
143.3066144825433
 20
104.7107258647399
 10
143.2873650118038
 20
104.6963748890711
 10
143.2696120043935
 20
104.6802690679154
 10
143.2534631195449
 20
104.6625483582749
 10
143.2390798461064
 20
104.643331185305
 10
143.2265590773871
 20
104.6227359741614
 10
143.216040770389
 20
104.6009026818461
 10
143.2076325843445
 20
104.5779389675914
 10
143.2014744762556
 20
104.553974022476
 10
143.197695637201
 20
104.5291262716556
 10
143.1964037264131
 20
104.5035356721322
 10
143.1964037264131
 20
104.5035356721322
 10
143.197695637201
 20
104.4779343066855
 10
143.2014852421788
 20
104.4530973217883
 10
143.2076325843445
 20
104.429132376673
 10
143.2160300044658
 20
104.4061794283415
 10
143.2265590773871
 20
104.3843246041797
 10
143.2390906120297
 20
104.3637401589593
 10
143.2534738854681
 20
104.3445229859895
 10
143.2696120043935
 20
104.3267915104257
 10
143.2873650118038
 20
104.3106964551933
 10
143.3066144825433
 20
104.2963347136012
 10
143.3272419914566
 20
104.2838354767284
 10
143.3491075815416
 20
104.2733494675
 10
143.3720928276428
 20
104.264962813302
 10
143.3960793046046
 20
104.2588262370595
 10
143.420927055425
 20
104.2550473980049
 10
143.4465284208717
 20
104.2537662531403
  0
TEXT
  5
9F
330
1F
100
AcDbEntity
  8
ISS138金台
  6
Continuous
 62
   250
420
  2367521
100
AcDbText
 10
144.3494631295332
 20
108.4502369843533
 30
0.0
 40
2.150533301035563
  1
3 .  3
 50
90.00000250447816
 41
0.4206670125325521
  7
MS Gothic
100
AcDbText
  0
LINE
  5
A0
330
1F
100
AcDbEntity
  8
ISS138金台
  6
UserDefined01
 62
   142
420
  2332884
370
    13
100
AcDbLine
 10
124.2428989824475
 20
97.90305579757438
 30
0.0
 11
132.2227304733881
 21
97.90305579757438
 31
0.0
  0
TEXT
  5
A1
330
1F
100
AcDbEntity
  8
ISS138金台
  6
Continuous
 62
   142
420
  2332884
100
AcDbText
 10
127.3498475340117
 20
98.81005270438993
 30
0.0
 40
1.881716638406118
  1
8
 41
1.097499302455357
  7
MS Gothic
100
AcDbText
  0
HATCH
  5
A2
330
1F
100
AcDbEntity
  8
ISS138金台
  6
Continuous
 62
   142
420
  2332884
370
    13
100
AcDbHatch
 10
0.0
 20
0.0
 30
0.0
210
0.0
220
0.0
230
1.0
  2
SOLID
 70
     1
 71
     0
 91
        1
 92
        3
 72
     0
 73
     1
 93
        3
 10
123.3767912243234
 20
107.5982433689812
 10
125.108931379109
 20
107.5975328180478
 10
124.2435664696879
 20
106.0996483868763
 97
        0
 75
     1
 76
     1
 98
        0
  0
LWPOLYLINE
  5
A3
330
1F
100
AcDbEntity
  8
ISS138金台
  6
Continuous
 62
   142
420
  2332884
370
    13
100
AcDbPolyline
 90
        4
 70
     0
 43
0.0
 10
123.3767912243234
 20
107.5982433689812
 10
125.108931379109
 20
107.5975328180478
 10
124.2435664696879
 20
106.0996483868763
 10
123.3767912243234
 20
107.5982433689812
  0
ENDSEC
  0
SECTION
  2
OBJECTS
  0
DICTIONARY
  5
C
330
0
100
AcDbDictionary
281
     1
  3
ACAD_DETAILVIEWSTYLE
350
AB
  3
ACAD_GROUP
350
D
  3
ACAD_LAYOUT
350
1A
  3
ACAD_MATERIAL
350
43
  3
ACAD_MLEADERSTYLE
350
5B
  3
ACAD_MLINESTYLE
350
17
  3
ACAD_PLOTSETTINGS
350
19
  3
ACAD_PLOTSTYLENAME
350
E
  3
ACAD_SCALELIST
350
47
  3
ACAD_SECTIONVIEWSTYLE
350
AC
  3
ACAD_TABLESTYLE
350
59
  3
ACAD_VISUALSTYLE
350
2A
  3
ACDB_RECOMPOSE_DATA
350
A8
  3
AcDbVariableDictionary
350
A4
  0
SUN
  5
5D
330
29
100
AcDbSun
 90
        1
290
     0
 63
     7
421
 16777215
 40
1.0
291
     1
 91
  2455826
 92
 54000000
292
     0
 70
     2
 71
   256
280
     1
  0
DICTIONARY
  5
AB
102
{ACAD_REACTORS
330
C
102
}
330
C
100
AcDbDictionary
281
     1
  0
DICTIONARY
  5
D
102
{ACAD_REACTORS
330
C
102
}
330
C
100
AcDbDictionary
281
     1
  0
DICTIONARY
  5
1A
102
{ACAD_REACTORS
330
C
102
}
330
C
100
AcDbDictionary
281
     1
  3
Layout1
350
1E
  3
Layout2
350
26
  3
Model
350
22
  0
DICTIONARY
  5
43
102
{ACAD_REACTORS
330
C
102
}
330
C
100
AcDbDictionary
281
     1
  3
ByBlock
350
45
  3
ByLayer
350
44
  3
Global
350
46
  0
DICTIONARY
  5
5B
102
{ACAD_REACTORS
330
C
102
}
330
C
100
AcDbDictionary
281
     1
  3
Standard
350
5C
  0
DICTIONARY
  5
17
102
{ACAD_REACTORS
330
C
102
}
330
C
100
AcDbDictionary
281
     1
  3
Standard
350
18
  0
DICTIONARY
  5
19
102
{ACAD_REACTORS
330
C
102
}
330
C
100
AcDbDictionary
281
     1
  0
ACDBDICTIONARYWDFLT
  5
E
102
{ACAD_REACTORS
330
C
102
}
330
C
100
AcDbDictionary
281
     1
  3
Normal
350
F
100
AcDbDictionaryWithDefault
340
F
  0
DICTIONARY
  5
47
102
{ACAD_REACTORS
330
C
102
}
330
C
100
AcDbDictionary
281
     1
  3
A0
350
48
  3
A1
350
49
  3
A2
350
4A
  3
A3
350
4B
  3
A4
350
4C
  3
A5
350
4D
  3
A6
350
4E
  3
A7
350
4F
  3
A8
350
50
  3
A9
350
51
  3
B0
350
52
  3
B1
350
53
  3
B2
350
54
  3
B3
350
55
  3
B4
350
56
  3
B5
350
57
  3
B6
350
58
  0
DICTIONARY
  5
AC
102
{ACAD_REACTORS
330
C
102
}
330
C
100
AcDbDictionary
281
     1
  0
DICTIONARY
  5
59
102
{ACAD_REACTORS
330
C
102
}
330
C
100
AcDbDictionary
281
     1
  3
Standard
350
5A
  0
DICTIONARY
  5
2A
102
{ACAD_REACTORS
330
C
102
}
330
C
100
AcDbDictionary
281
     1
  3
2dWireframe
350
2F
  3
Basic
350
32
  3
Brighten
350
36
  3
ColorChange
350
3A
  3
Conceptual
350
34
  3
Dim
350
35
  3
EdgeColorOff
350
3D
  3
Facepattern
350
39
  3
Flat
350
2B
  3
FlatWithEdges
350
2C
  3
Gouraud
350
2D
  3
GouraudWithEdges
350
2E
  3
Hidden
350
31
  3
JitterOff
350
3B
  3
Linepattern
350
38
  3
OverhangOff
350
3C
  3
Realistic
350
33
  3
Shaded
350
42
  3
Shaded with edges
350
41
  3
Shades of Gray
350
3E
  3
Sketchy
350
3F
  3
Thicken
350
37
  3
Wireframe
350
30
  3
X-Ray
350
40
  0
XRECORD
  5
A8
102
{ACAD_REACTORS
330
C
102
}
330
C
100
AcDbXrecord
280
     1
 90
        1
330
5A
  0
DICTIONARY
  5
A4
102
{ACAD_REACTORS
330
C
102
}
330
C
100
AcDbDictionary
281
     1
  3
CANNOSCALE
350
A5
  3
CENTEREXE
350
AD
  3
CENTERLTYPEFILE
350
AE
  3
CMLEADERSTYLE
350
AA
  3
CTABLESTYLE
350
A9
  0
LAYOUT
  5
1E
102
{ACAD_REACTORS
330
1A
102
}
330
1A
100
AcDbPlotSettings
  1

  2
none_device
  4

  6

 40
0.0
 41
0.0
 42
0.0
 43
0.0
 44
0.0
 45
0.0
 46
0.0
 47
0.0
 48
0.0
 49
0.0
140
0.0
141
0.0
142
1.0
143
1.0
 70
   688
 72
     1
 73
     0
 74
     5
  7

 75
    16
 76
     0
 77
     5
 78
   300
147
1.0
148
0.0
149
0.0
100
AcDbLayout
  1
Layout1
 70
     1
 71
     1
 10
0.0
 20
0.0
 11
420.0
 21
297.0
 12
0.0
 22
0.0
 32
0.0
 14
1.000000000000000E+20
 24
1.000000000000000E+20
 34
1.000000000000000E+20
 15
-1.000000000000000E+20
 25
-1.000000000000000E+20
 35
-1.000000000000000E+20
146
0.0
 13
0.0
 23
0.0
 33
0.0
 16
1.0
 26
0.0
 36
0.0
 17
0.0
 27
1.0
 37
0.0
 76
     0
330
1B
  0
LAYOUT
  5
26
102
{ACAD_REACTORS
330
1A
102
}
330
1A
100
AcDbPlotSettings
  1

  2
none_device
  4

  6

 40
0.0
 41
0.0
 42
0.0
 43
0.0
 44
0.0
 45
0.0
 46
0.0
 47
0.0
 48
0.0
 49
0.0
140
0.0
141
0.0
142
1.0
143
1.0
 70
   688
 72
     1
 73
     0
 74
     5
  7

 75
    16
 76
     0
 77
     5
 78
   300
147
1.0
148
0.0
149
0.0
100
AcDbLayout
  1
Layout2
 70
     1
 71
     2
 10
0.0
 20
0.0
 11
0.0
 21
0.0
 12
0.0
 22
0.0
 32
0.0
 14
0.0
 24
0.0
 34
0.0
 15
0.0
 25
0.0
 35
0.0
146
0.0
 13
0.0
 23
0.0
 33
0.0
 16
1.0
 26
0.0
 36
0.0
 17
0.0
 27
1.0
 37
0.0
 76
     0
330
23
  0
LAYOUT
  5
22
102
{ACAD_REACTORS
330
1A
102
}
330
1A
100
AcDbPlotSettings
  1

  2
none_device
  4
Letter_(8.50_x_11.00_Inches)
  6

 40
6.35
 41
6.35
 42
6.35000508
 43
6.35000508
 44
215.9
 45
279.4
 46
0.0
 47
0.0
 48
0.0
 49
0.0
140
0.0
141
0.0
142
1.0
143
1.0
 70
  1712
 72
     1
 73
     0
 74
     0
  7

 75
     0
 76
     0
 77
     5
 78
   300
147
1.0
148
0.0
149
0.0
100
AcDbLayout
  1
Model
 70
     1
 71
     0
 10
0.0
 20
0.0
 11
302.9997823349792
 21
216.0016055409748
 12
0.0
 22
0.0
 32
0.0
 14
0.0
 24
0.0
 34
0.0
 15
302.9997823349792
 25
216.0016055409748
 35
0.0
146
0.0
 13
0.0
 23
0.0
 33
0.0
 16
1.0
 26
0.0
 36
0.0
 17
0.0
 27
1.0
 37
0.0
 76
     0
330
1F
331
29
  0
MATERIAL
  5
45
102
{ACAD_REACTORS
330
43
102
}
330
43
100
AcDbMaterial
  1
ByBlock
 72
     1
 94
      127
  0
MATERIAL
  5
44
102
{ACAD_REACTORS
330
43
102
}
330
43
100
AcDbMaterial
  1
ByLayer
 72
     1
 94
      127
  0
MATERIAL
  5
46
102
{ACAD_REACTORS
330
43
102
}
330
43
100
AcDbMaterial
  1
Global
 72
     1
 94
      127
  0
MLEADERSTYLE
  5
5C
102
{ACAD_REACTORS
330
5B
102
}
330
5B
100
AcDbMLeaderStyle
179
     2
170
     2
171
     1
172
     0
 90
        2
 40
0.0
 41
0.0
173
     1
 91
-1056964608
340
14
 92
       -2
290
     1
 42
2.0
291
     1
 43
8.0
  3
Standard
341
0
 44
4.0
300

342
11
174
     1
178
     6
175
     1
176
     0
 93
-1056964608
 45
4.0
292
     0
297
     0
 46
4.0
343
0
 94
-1056964608
 47
1.0
 49
1.0
140
1.0
293
     1
141
0.0
294
     1
177
     0
142
1.0
295
     0
296
     0
143
3.75
271
     0
272
     9
273
     9
298
     0
  0
MLINESTYLE
  5
18
102
{ACAD_REACTORS
330
17
102
}
330
17
100
AcDbMlineStyle
  2
Standard
 70
     0
  3

 62
   256
 51
90.0
 52
90.0
 71
     2
 49
0.5
 62
   256
  6
BYLAYER
 49
-0.5
 62
   256
  6
BYLAYER
  0
ACDBPLACEHOLDER
  5
F
102
{ACAD_REACTORS
330
E
102
}
330
E
  0
SCALE
  5
48
102
{ACAD_REACTORS
330
47
102
}
330
47
100
AcDbScale
 70
     0
300
1:1
140
1.0
141
1.0
290
     1
  0
SCALE
  5
49
102
{ACAD_REACTORS
330
47
102
}
330
47
100
AcDbScale
 70
     0
300
1:2
140
1.0
141
2.0
290
     0
  0
SCALE
  5
4A
102
{ACAD_REACTORS
330
47
102
}
330
47
100
AcDbScale
 70
     0
300
1:4
140
1.0
141
4.0
290
     0
  0
SCALE
  5
4B
102
{ACAD_REACTORS
330
47
102
}
330
47
100
AcDbScale
 70
     0
300
1:5
140
1.0
141
5.0
290
     0
  0
SCALE
  5
4C
102
{ACAD_REACTORS
330
47
102
}
330
47
100
AcDbScale
 70
     0
300
1:8
140
1.0
141
8.0
290
     0
  0
SCALE
  5
4D
102
{ACAD_REACTORS
330
47
102
}
330
47
100
AcDbScale
 70
     0
300
1:10
140
1.0
141
10.0
290
     0
  0
SCALE
  5
4E
102
{ACAD_REACTORS
330
47
102
}
330
47
100
AcDbScale
 70
     0
300
1:16
140
1.0
141
16.0
290
     0
  0
SCALE
  5
4F
102
{ACAD_REACTORS
330
47
102
}
330
47
100
AcDbScale
 70
     0
300
1:20
140
1.0
141
20.0
290
     0
  0
SCALE
  5
50
102
{ACAD_REACTORS
330
47
102
}
330
47
100
AcDbScale
 70
     0
300
1:30
140
1.0
141
30.0
290
     0
  0
SCALE
  5
51
102
{ACAD_REACTORS
330
47
102
}
330
47
100
AcDbScale
 70
     0
300
1:40
140
1.0
141
40.0
290
     0
  0
SCALE
  5
52
102
{ACAD_REACTORS
330
47
102
}
330
47
100
AcDbScale
 70
     0
300
1:50
140
1.0
141
50.0
290
     0
  0
SCALE
  5
53
102
{ACAD_REACTORS
330
47
102
}
330
47
100
AcDbScale
 70
     0
300
1:100
140
1.0
141
100.0
290
     0
  0
SCALE
  5
54
102
{ACAD_REACTORS
330
47
102
}
330
47
100
AcDbScale
 70
     0
300
2:1
140
2.0
141
1.0
290
     0
  0
SCALE
  5
55
102
{ACAD_REACTORS
330
47
102
}
330
47
100
AcDbScale
 70
     0
300
4:1
140
4.0
141
1.0
290
     0
  0
SCALE
  5
56
102
{ACAD_REACTORS
330
47
102
}
330
47
100
AcDbScale
 70
     0
300
8:1
140
8.0
141
1.0
290
     0
  0
SCALE
  5
57
102
{ACAD_REACTORS
330
47
102
}
330
47
100
AcDbScale
 70
     0
300
10:1
140
10.0
141
1.0
290
     0
  0
SCALE
  5
58
102
{ACAD_REACTORS
330
47
102
}
330
47
100
AcDbScale
 70
     0
300
100:1
140
100.0
141
1.0
290
     0
  0
TABLESTYLE
  5
5A
102
{ACAD_REACTORS
330
59
102
}
102
{ACAD_XDICTIONARY
360
A6
102
}
330
59
100
AcDbTableStyle
  3
Standard
 70
     0
 71
     0
 40
0.06
 41
0.06
280
     0
281
     0
  7
Standard
140
4.5
170
     2
 62
     0
 63
   257
283
     0
 90
        4
 91
        0
  1

274
    -2
284
     1
 64
     0
275
    -2
285
     1
 65
     0
276
    -2
286
     1
 66
     0
277
    -2
287
     1
 67
     0
278
    -2
288
     1
 68
     0
279
    -2
289
     1
 69
     0
  7
Standard
140
6.0
170
     5
 62
     0
 63
   257
283
     0
 90
        4
 91
        0
  1

274
    -2
284
     1
 64
     0
275
    -2
285
     1
 65
     0
276
    -2
286
     1
 66
     0
277
    -2
287
     1
 67
     0
278
    -2
288
     1
 68
     0
279
    -2
289
     1
 69
     0
  7
Standard
140
4.5
170
     5
 62
     0
 63
   257
283
     0
 90
        4
 91
        0
  1

274
    -2
284
     1
 64
     0
275
    -2
285
     1
 65
     0
276
    -2
286
     1
 66
     0
277
    -2
287
     1
 67
     0
278
    -2
288
     1
 68
     0
279
    -2
289
     1
 69
     0
  0
VISUALSTYLE
  5
2F
102
{ACAD_REACTORS
330
2A
102
}
330
2A
100
AcDbVisualStyle
  2
2dWireframe
 70
     4
177
     3
291
     0
 70
    58
 90
        0
176
     1
 90
        2
176
     1
 90
        0
176
     1
 90
        0
176
     1
 40
0.6
176
     1
 40
30.0
176
     1
 62
     7
420
 16777215
176
     1
 90
        1
176
     1
 90
        4
176
     1
 62
     7
176
     1
 62
   257
176
     1
 90
        1
176
     1
 90
        1
176
     1
 40
1.0
176
     1
 90
        0
176
     1
 62
   257
176
     1
 40
1.0
176
     1
 90
        1
176
     1
 90
        6
176
     1
 90
        2
176
     1
 62
     7
176
     1
 90
        5
176
     1
 90
        0
176
     1
 90
        0
176
     1
290
     0
176
     1
 90
        1
176
     1
 40
0.0
176
     1
 90
        0
176
     1
290
     1
176
     1
290
     1
176
     1
290
     0
176
     1
290
     0
176
     1
290
     0
176
     1
290
     0
176
     1
290
     0
176
     1
290
     0
176
     1
290
     0
176
     1
 90
       50
176
     1
 40
0.0
176
     1
 40
1.0
176
     1
 90
        0
176
     1
 62
    18
420
        0
176
     1
 90
       50
176
     1
 90
        3
176
     1
 62
     5
420
      255
176
     1
290
     0
176
     1
 90
       50
176
     1
 90
       50
176
     1
 90
       50
176
     1
290
     0
176
     1
 90
       50
176
     1
 62
   256
176
     0
 40
1.0
176
     0
 90
        2
176
     1
  1
strokes_ogs.tif
176
     1
290
     0
176
     1
 40
1.0
176
     1
 40
1.0
176
     1
  0
VISUALSTYLE
  5
32
102
{ACAD_REACTORS
330
2A
102
}
330
2A
100
AcDbVisualStyle
  2
Basic
 70
     7
177
     3
291
     1
 70
    58
 90
        1
176
     1
 90
        0
176
     1
 90
        1
176
     1
 90
        0
176
     1
 40
0.6
176
     1
 40
30.0
176
     1
 62
     7
420
 16777215
176
     1
 90
        0
176
     1
 90
        4
176
     1
 62
     7
176
     1
 62
   257
176
     1
 90
        1
176
     1
 90
        1
176
     1
 40
1.0
176
     1
 90
        8
176
     1
 62
     7
176
     1
 40
1.0
176
     1
 90
        1
176
     1
 90
        6
176
     1
 90
        2
176
     1
 62
     7
176
     1
 90
        5
176
     1
 90
        0
176
     1
 90
        0
176
     1
290
     0
176
     1
 90
        1
176
     1
 40
0.0
176
     1
 90
        0
176
     1
290
     0
176
     1
290
     1
176
     1
290
     1
176
     1
290
     0
176
     1
290
     0
176
     1
290
     0
176
     1
290
     0
176
     1
290
     0
176
     1
290
     0
176
     1
 90
       50
176
     1
 40
0.0
176
     1
 40
1.0
176
     1
 90
        0
176
     1
 62
    18
420
        0
176
     1
 90
       50
176
     1
 90
        3
176
     1
 62
     5
420
      255
176
     1
290
     0
176
     1
 90
       50
176
     1
 90
       50
176
     1
 90
       50
176
     1
290
     0
176
     1
 90
       50
176
     1
 62
   256
176
     0
 40
1.0
176
     0
 90
        2
176
     1
  1
strokes_ogs.tif
176
     1
290
     0
176
     1
 40
1.0
176
     1
 40
1.0
176
     1
  0
VISUALSTYLE
  5
36
102
{ACAD_REACTORS
330
2A
102
}
330
2A
100
AcDbVisualStyle
  2
Brighten
 70
    12
177
     3
291
     1
 70
    58
 90
        2
176
     1
 90
        2
176
     1
 90
        0
176
     1
 90
        0
176
     1
 40
0.6
176
     1
 40
30.0
176
     1
 62
     7
420
 16777215
176
     1
 90
        1
176
     1
 90
        4
176
     1
 62
     7
176
     1
 62
   257
176
     1
 90
        1
176
     1
 90
        1
176
     1
 40
1.0
176
     1
 90
        8
176
     1
 62
     7
176
     1
 40
1.0
176
     1
 90
        1
176
     1
 90
        6
176
     1
 90
        2
176
     1
 62
     7
176
     1
 90
        5
176
     1
 90
        0
176
     1
 90
        0
176
     1
290
     0
176
     1
 90
        1
176
     1
 40
50.0
176
     1
 90
        0
176
     1
290
     0
176
     1
290
     1
176
     1
290
     1
176
     1
290
     0
176
     1
290
     0
176
     1
290
     0
176
     1
290
     0
176
     1
290
     0
176
     1
290
     0
176
     1
 90
       50
176
     1
 40
0.0
176
     1
 40
1.0
176
     1
 90
        0
176
     1
 62
    18
420
        0
176
     1
 90
       50
176
     1
 90
        3
176
     1
 62
     5
420
      255
176
     1
290
     0
176
     1
 90
       50
176
     1
 90
       50
176
     1
 90
       50
176
     1
290
     0
176
     1
 90
       50
176
     1
 62
   256
176
     0
 40
1.0
176
     0
 90
        2
176
     1
  1
strokes_ogs.tif
176
     1
290
     0
176
     1
 40
1.0
176
     1
 40
1.0
176
     1
  0
VISUALSTYLE
  5
3A
102
{ACAD_REACTORS
330
2A
102
}
330
2A
100
AcDbVisualStyle
  2
ColorChange
 70
    16
177
     3
291
     1
 70
    58
 90
        2
176
     1
 90
        2
176
     1
 90
        3
176
     1
 90
        0
176
     1
 40
0.6
176
     1
 40
30.0
176
     1
 62
     8
420
  8421504
176
     1
 90
        1
176
     1
 90
        4
176
     1
 62
     7
176
     1
 62
   257
176
     1
 90
        1
176
     1
 90
        1
176
     1
 40
1.0
176
     1
 90
        8
176
     1
 62
     8
420
  8421504
176
     1
 40
1.0
176
     1
 90
        1
176
     1
 90
        6
176
     1
 90
        2
176
     1
 62
     7
176
     1
 90
        5
176
     1
 90
        0
176
     1
 90
        0
176
     1
290
     0
176
     1
 90
        1
176
     1
 40
0.0
176
     1
 90
        0
176
     1
290
     0
176
     1
290
     1
176
     1
290
     1
176
     1
290
     0
176
     1
290
     0
176
     1
290
     0
176
     1
290
     0
176
     1
290
     0
176
     1
290
     0
176
     1
 90
       50
176
     1
 40
0.0
176
     1
 40
1.0
176
     1
 90
        0
176
     1
 62
    18
420
        0
176
     1
 90
       50
176
     1
 90
        3
176
     1
 62
     5
420
      255
176
     1
290
     0
176
     1
 90
       50
176
     1
 90
       50
176
     1
 90
       50
176
     1
290
     0
176
     1
 90
       50
176
     1
 62
   256
176
     0
 40
1.0
176
     0
 90
        2
176
     1
  1
strokes_ogs.tif
176
     1
290
     0
176
     1
 40
1.0
176
     1
 40
1.0
176
     1
  0
VISUALSTYLE
  5
34
102
{ACAD_REACTORS
330
2A
102
}
330
2A
100
AcDbVisualStyle
  2
Conceptual
 70
     9
177
     3
291
     0
 70
    58
 90
        3
176
     1
 90
        2
176
     1
 90
        0
176
     1
 90
        0
176
     1
 40
0.6
176
     1
 40
30.0
176
     1
 62
     7
420
 16777215
176
     1
 90
        2
176
     1
 90
        2
176
     1
 62
     7
176
     1
 62
   257
176
     1
 90
        1
176
     1
 90
        1
176
     1
 40
179.0
176
     1
 90
        8
176
     1
 62
     7
176
     1
 40
1.0
176
     1
 90
        1
176
     1
 90
        6
176
     1
 90
        2
176
     1
 62
     7
176
     1
 90
        3
176
     1
 90
        0
176
     1
 90
        0
176
     1
290
     0
176
     1
 90
        1
176
     1
 40
0.0
176
     1
 90
        0
176
     1
290
     0
176
     1
290
     1
176
     1
290
     1
176
     1
290
     0
176
     1
290
     0
176
     1
290
     0
176
     1
290
     0
176
     1
290
     0
176
     1
290
     0
176
     1
 90
       50
176
     1
 40
0.0
176
     1
 40
1.0
176
     1
 90
        0
176
     1
 62
    18
420
        0
176
     1
 90
       50
176
     1
 90
        3
176
     1
 62
     5
420
      255
176
     1
290
     0
176
     1
 90
       50
176
     1
 90
       50
176
     1
 90
       50
176
     1
290
     0
176
     1
 90
       50
176
     1
 62
   256
176
     0
 40
1.0
176
     0
 90
        2
176
     1
  1
strokes_ogs.tif
176
     1
290
     0
176
     1
 40
1.0
176
     1
 40
1.0
176
     1
  0
VISUALSTYLE
  5
35
102
{ACAD_REACTORS
330
2A
102
}
330
2A
100
AcDbVisualStyle
  2
Dim
 70
    11
177
     3
291
     1
 70
    58
 90
        2
176
     1
 90
        2
176
     1
 90
        0
176
     1
 90
        0
176
     1
 40
0.6
176
     1
 40
30.0
176
     1
 62
     7
420
 16777215
176
     1
 90
        1
176
     1
 90
        4
176
     1
 62
     7
176
     1
 62
   257
176
     1
 90
        1
176
     1
 90
        1
176
     1
 40
1.0
176
     1
 90
        8
176
     1
 62
     7
176
     1
 40
1.0
176
     1
 90
        1
176
     1
 90
        6
176
     1
 90
        2
176
     1
 62
     7
176
     1
 90
        5
176
     1
 90
        0
176
     1
 90
        0
176
     1
290
     0
176
     1
 90
        1
176
     1
 40
-50.0
176
     1
 90
        0
176
     1
290
     0
176
     1
290
     1
176
     1
290
     1
176
     1
290
     0
176
     1
290
     0
176
     1
290
     0
176
     1
290
     0
176
     1
290
     0
176
     1
290
     0
176
     1
 90
       50
176
     1
 40
0.0
176
     1
 40
1.0
176
     1
 90
        0
176
     1
 62
    18
420
        0
176
     1
 90
       50
176
     1
 90
        3
176
     1
 62
     5
420
      255
176
     1
290
     0
176
     1
 90
       50
176
     1
 90
       50
176
     1
 90
       50
176
     1
290
     0
176
     1
 90
       50
176
     1
 62
   256
176
     0
 40
1.0
176
     0
 90
        2
176
     1
  1
strokes_ogs.tif
176
     1
290
     0
176
     1
 40
1.0
176
     1
 40
1.0
176
     1
  0
VISUALSTYLE
  5
3D
102
{ACAD_REACTORS
330
2A
102
}
330
2A
100
AcDbVisualStyle
  2
EdgeColorOff
 70
    22
177
     3
291
     1
 70
    58
 90
        2
176
     0
 90
        2
176
     0
 90
        0
176
     0
 90
        0
176
     0
 40
0.6
176
     0
 40
30.0
176
     0
 62
     7
420
 16777215
176
     0
 90
        1
176
     0
 90
        4
176
     0
 62
     7
176
     0
 62
   257
176
     0
 90
        1
176
     0
 90
        1
176
     0
 40
1.0
176
     0
 90
        8
176
     2
 62
     7
176
     0
 40
1.0
176
     0
 90
        1
176
     0
 90
        6
176
     0
 90
        2
176
     0
 62
     7
176
     0
 90
        5
176
     0
 90
        0
176
     0
 90
        0
176
     0
290
     0
176
     0
 90
        1
176
     0
 40
0.0
176
     0
 90
        0
176
     0
290
     0
176
     0
290
     1
176
     0
290
     1
176
     0
290
     0
176
     0
290
     0
176
     0
290
     0
176
     0
290
     0
176
     0
290
     0
176
     0
290
     0
176
     0
 90
       50
176
     0
 40
0.0
176
     0
 40
1.0
176
     0
 90
        0
176
     0
 62
    18
420
        0
176
     0
 90
       50
176
     0
 90
        3
176
     0
 62
     5
420
      255
176
     0
290
     0
176
     0
 90
       50
176
     0
 90
       50
176
     0
 90
       50
176
     0
290
     0
176
     0
 90
       50
176
     0
 62
   256
176
     0
 40
1.0
176
     0
 90
        2
176
     0
  1
strokes_ogs.tif
176
     0
290
     0
176
     0
 40
1.0
176
     0
 40
1.0
176
     0
  0
VISUALSTYLE
  5
39
102
{ACAD_REACTORS
330
2A
102
}
330
2A
100
AcDbVisualStyle
  2
Facepattern
 70
    15
177
     3
291
     1
 70
    58
 90
        2
176
     1
 90
        2
176
     1
 90
        0
176
     1
 90
        0
176
     1
 40
0.6
176
     1
 40
30.0
176
     1
 62
     7
420
 16777215
176
     1
 90
        1
176
     1
 90
        4
176
     1
 62
     7
176
     1
 62
   257
176
     1
 90
        1
176
     1
 90
        1
176
     1
 40
1.0
176
     1
 90
        8
176
     1
 62
     7
176
     1
 40
1.0
176
     1
 90
        1
176
     1
 90
        6
176
     1
 90
        2
176
     1
 62
     7
176
     1
 90
        5
176
     1
 90
        0
176
     1
 90
        0
176
     1
290
     0
176
     1
 90
        1
176
     1
 40
0.0
176
     1
 90
        0
176
     1
290
     0
176
     1
290
     1
176
     1
290
     1
176
     1
290
     0
176
     1
290
     0
176
     1
290
     0
176
     1
290
     0
176
     1
290
     0
176
     1
290
     0
176
     1
 90
       50
176
     1
 40
0.0
176
     1
 40
1.0
176
     1
 90
        0
176
     1
 62
    18
420
        0
176
     1
 90
       50
176
     1
 90
        3
176
     1
 62
     5
420
      255
176
     1
290
     0
176
     1
 90
       50
176
     1
 90
       50
176
     1
 90
       50
176
     1
290
     0
176
     1
 90
       50
176
     1
 62
   256
176
     0
 40
1.0
176
     0
 90
        2
176
     1
  1
strokes_ogs.tif
176
     1
290
     0
176
     1
 40
1.0
176
     1
 40
1.0
176
     1
  0
VISUALSTYLE
  5
2B
102
{ACAD_REACTORS
330
2A
102
}
330
2A
100
AcDbVisualStyle
  2
Flat
 70
     0
177
     3
291
     1
 70
    58
 90
        2
176
     1
 90
        1
176
     1
 90
        1
176
     1
 90
        2
176
     1
 40
0.6
176
     1
 40
30.0
176
     1
 62
     7
420
 16777215
176
     1
 90
        0
176
     1
 90
        0
176
     1
 62
     7
176
     1
 62
   257
176
     1
 90
        1
176
     1
 90
        1
176
     1
 40
1.0
176
     1
 90
        8
176
     1
 62
     7
176
     1
 40
1.0
176
     1
 90
        1
176
     1
 90
        6
176
     1
 90
        2
176
     1
 62
     7
176
     1
 90
        5
176
     1
 90
        0
176
     1
 90
        0
176
     1
290
     0
176
     1
 90
       13
176
     1
 40
0.0
176
     1
 90
        0
176
     1
290
     0
176
     1
290
     1
176
     1
290
     1
176
     1
290
     0
176
     1
290
     0
176
     1
290
     0
176
     1
290
     0
176
     1
290
     0
176
     1
290
     0
176
     1
 90
       50
176
     1
 40
0.0
176
     1
 40
1.0
176
     1
 90
        0
176
     1
 62
    18
420
        0
176
     1
 90
       50
176
     1
 90
        3
176
     1
 62
     5
420
      255
176
     1
290
     0
176
     1
 90
       50
176
     1
 90
       50
176
     1
 90
       50
176
     1
290
     0
176
     1
 90
       50
176
     1
 62
   256
176
     0
 40
1.0
176
     0
 90
        2
176
     1
  1
strokes_ogs.tif
176
     1
290
     0
176
     1
 40
1.0
176
     1
 40
1.0
176
     1
  0
VISUALSTYLE
  5
2C
102
{ACAD_REACTORS
330
2A
102
}
330
2A
100
AcDbVisualStyle
  2
FlatWithEdges
 70
     1
177
     3
291
     1
 70
    58
 90
        2
176
     1
 90
        1
176
     1
 90
        1
176
     1
 90
        2
176
     1
 40
0.6
176
     1
 40
30.0
176
     1
 62
     7
420
 16777215
176
     1
 90
        1
176
     1
 90
        0
176
     1
 62
     7
176
     1
 62
   257
176
     1
 90
        1
176
     1
 90
        1
176
     1
 40
1.0
176
     1
 90
        0
176
     1
 62
   257
176
     1
 40
1.0
176
     1
 90
        1
176
     1
 90
        6
176
     1
 90
        2
176
     1
 62
     7
176
     1
 90
        5
176
     1
 90
        0
176
     1
 90
        0
176
     1
290
     0
176
     1
 90
       13
176
     1
 40
0.0
176
     1
 90
        0
176
     1
290
     0
176
     1
290
     1
176
     1
290
     1
176
     1
290
     0
176
     1
290
     0
176
     1
290
     0
176
     1
290
     0
176
     1
290
     0
176
     1
290
     0
176
     1
 90
       50
176
     1
 40
0.0
176
     1
 40
1.0
176
     1
 90
        0
176
     1
 62
    18
420
        0
176
     1
 90
       50
176
     1
 90
        3
176
     1
 62
     5
420
      255
176
     1
290
     0
176
     1
 90
       50
176
     1
 90
       50
176
     1
 90
       50
176
     1
290
     0
176
     1
 90
       50
176
     1
 62
   256
176
     0
 40
1.0
176
     0
 90
        2
176
     1
  1
strokes_ogs.tif
176
     1
290
     0
176
     1
 40
1.0
176
     1
 40
1.0
176
     1
  0
VISUALSTYLE
  5
2D
102
{ACAD_REACTORS
330
2A
102
}
330
2A
100
AcDbVisualStyle
  2
Gouraud
 70
     2
177
     3
291
     1
 70
    58
 90
        2
176
     1
 90
        2
176
     1
 90
        1
176
     1
 90
        2
176
     1
 40
0.6
176
     1
 40
30.0
176
     1
 62
     7
420
 16777215
176
     1
 90
        0
176
     1
 90
        0
176
     1
 62
     7
176
     1
 62
   257
176
     1
 90
        1
176
     1
 90
        1
176
     1
 40
1.0
176
     1
 90
        0
176
     1
 62
     7
176
     1
 40
1.0
176
     1
 90
        1
176
     1
 90
        6
176
     1
 90
        2
176
     1
 62
     7
176
     1
 90
        5
176
     1
 90
        0
176
     1
 90
        0
176
     1
290
     0
176
     1
 90
       13
176
     1
 40
0.0
176
     1
 90
        0
176
     1
290
     0
176
     1
290
     1
176
     1
290
     1
176
     1
290
     0
176
     1
290
     0
176
     1
290
     0
176
     1
290
     0
176
     1
290
     0
176
     1
290
     0
176
     1
 90
       50
176
     1
 40
0.0
176
     1
 40
1.0
176
     1
 90
        0
176
     1
 62
    18
420
        0
176
     1
 90
       50
176
     1
 90
        3
176
     1
 62
     5
420
      255
176
     1
290
     0
176
     1
 90
       50
176
     1
 90
       50
176
     1
 90
       50
176
     1
290
     0
176
     1
 90
       50
176
     1
 62
   256
176
     0
 40
1.0
176
     0
 90
        2
176
     1
  1
strokes_ogs.tif
176
     1
290
     0
176
     1
 40
1.0
176
     1
 40
1.0
176
     1
  0
VISUALSTYLE
  5
2E
102
{ACAD_REACTORS
330
2A
102
}
330
2A
100
AcDbVisualStyle
  2
GouraudWithEdges
 70
     3
177
     3
291
     1
 70
    58
 90
        2
176
     1
 90
        2
176
     1
 90
        1
176
     1
 90
        2
176
     1
 40
0.6
176
     1
 40
30.0
176
     1
 62
     7
420
 16777215
176
     1
 90
        1
176
     1
 90
        0
176
     1
 62
     7
176
     1
 62
   257
176
     1
 90
        1
176
     1
 90
        1
176
     1
 40
1.0
176
     1
 90
        0
176
     1
 62
   257
176
     1
 40
1.0
176
     1
 90
        1
176
     1
 90
        6
176
     1
 90
        2
176
     1
 62
     7
176
     1
 90
        5
176
     1
 90
        0
176
     1
 90
        0
176
     1
290
     0
176
     1
 90
       13
176
     1
 40
0.0
176
     1
 90
        0
176
     1
290
     0
176
     1
290
     1
176
     1
290
     1
176
     1
290
     0
176
     1
290
     0
176
     1
290
     0
176
     1
290
     0
176
     1
290
     0
176
     1
290
     0
176
     1
 90
       50
176
     1
 40
0.0
176
     1
 40
1.0
176
     1
 90
        0
176
     1
 62
    18
420
        0
176
     1
 90
       50
176
     1
 90
        3
176
     1
 62
     5
420
      255
176
     1
290
     0
176
     1
 90
       50
176
     1
 90
       50
176
     1
 90
       50
176
     1
290
     0
176
     1
 90
       50
176
     1
 62
   256
176
     0
 40
1.0
176
     0
 90
        2
176
     1
  1
strokes_ogs.tif
176
     1
290
     0
176
     1
 40
1.0
176
     1
 40
1.0
176
     1
  0
VISUALSTYLE
  5
31
102
{ACAD_REACTORS
330
2A
102
}
330
2A
100
AcDbVisualStyle
  2
Hidden
 70
     6
177
     3
291
     0
 70
    58
 90
        1
176
     1
 90
        2
176
     1
 90
        2
176
     1
 90
        0
176
     1
 40
0.6
176
     1
 40
30.0
176
     1
 62
     7
420
 16777215
176
     1
 90
        2
176
     1
 90
        2
176
     1
 62
     7
176
     1
 62
   257
176
     1
 90
        2
176
     1
 90
        1
176
     1
 40
40.0
176
     1
 90
        0
176
     1
 62
   257
176
     1
 40
1.0
176
     1
 90
        1
176
     1
 90
        6
176
     1
 90
        2
176
     1
 62
     7
176
     1
 90
        3
176
     1
 90
        0
176
     1
 90
        0
176
     1
290
     0
176
     1
 90
        1
176
     1
 40
0.0
176
     1
 90
        0
176
     1
290
     0
176
     1
290
     1
176
     1
290
     1
176
     1
290
     0
176
     1
290
     0
176
     1
290
     0
176
     1
290
     0
176
     1
290
     0
176
     1
290
     0
176
     1
 90
       50
176
     1
 40
0.0
176
     1
 40
1.0
176
     1
 90
        0
176
     1
 62
    18
420
        0
176
     1
 90
       50
176
     1
 90
        3
176
     1
 62
     5
420
      255
176
     1
290
     0
176
     1
 90
       50
176
     1
 90
       50
176
     1
 90
       50
176
     1
290
     0
176
     1
 90
       50
176
     1
 62
   256
176
     0
 40
1.0
176
     0
 90
        2
176
     1
  1
strokes_ogs.tif
176
     1
290
     0
176
     1
 40
1.0
176
     1
 40
1.0
176
     1
  0
VISUALSTYLE
  5
3B
102
{ACAD_REACTORS
330
2A
102
}
330
2A
100
AcDbVisualStyle
  2
JitterOff
 70
    20
177
     3
291
     1
 70
    58
 90
        2
176
     0
 90
        2
176
     0
 90
        0
176
     0
 90
        0
176
     0
 40
0.6
176
     0
 40
30.0
176
     0
 62
     7
420
 16777215
176
     0
 90
        1
176
     0
 90
        4
176
     0
 62
     7
176
     0
 62
   257
176
     0
 90
        1
176
     0
 90
        1
176
     0
 40
1.0
176
     0
 90
       10
176
     2
 62
     7
176
     0
 40
1.0
176
     0
 90
        1
176
     0
 90
        6
176
     0
 90
        2
176
     0
 62
     7
176
     0
 90
        5
176
     0
 90
        0
176
     0
 90
        0
176
     0
290
     0
176
     0
 90
        1
176
     0
 40
0.0
176
     0
 90
        0
176
     0
290
     0
176
     0
290
     1
176
     0
290
     1
176
     0
290
     0
176
     0
290
     0
176
     0
290
     0
176
     0
290
     0
176
     0
290
     0
176
     0
290
     0
176
     0
 90
       50
176
     0
 40
0.0
176
     0
 40
1.0
176
     0
 90
        0
176
     0
 62
    18
420
        0
176
     0
 90
       50
176
     0
 90
        3
176
     0
 62
     5
420
      255
176
     0
290
     0
176
     0
 90
       50
176
     0
 90
       50
176
     0
 90
       50
176
     0
290
     0
176
     0
 90
       50
176
     0
 62
   256
176
     0
 40
1.0
176
     0
 90
        2
176
     0
  1
strokes_ogs.tif
176
     0
290
     0
176
     0
 40
1.0
176
     0
 40
1.0
176
     0
  0
VISUALSTYLE
  5
38
102
{ACAD_REACTORS
330
2A
102
}
330
2A
100
AcDbVisualStyle
  2
Linepattern
 70
    14
177
     3
291
     1
 70
    58
 90
        2
176
     1
 90
        2
176
     1
 90
        0
176
     1
 90
        0
176
     1
 40
0.6
176
     1
 40
30.0
176
     1
 62
     7
420
 16777215
176
     1
 90
        1
176
     1
 90
        4
176
     1
 62
     7
176
     1
 62
   257
176
     1
 90
        7
176
     1
 90
        7
176
     1
 40
1.0
176
     1
 90
        8
176
     1
 62
     7
176
     1
 40
1.0
176
     1
 90
        1
176
     1
 90
        6
176
     1
 90
        2
176
     1
 62
     7
176
     1
 90
        5
176
     1
 90
        0
176
     1
 90
        0
176
     1
290
     0
176
     1
 90
        1
176
     1
 40
0.0
176
     1
 90
        0
176
     1
290
     0
176
     1
290
     1
176
     1
290
     1
176
     1
290
     0
176
     1
290
     0
176
     1
290
     0
176
     1
290
     0
176
     1
290
     0
176
     1
290
     0
176
     1
 90
       50
176
     1
 40
0.0
176
     1
 40
1.0
176
     1
 90
        0
176
     1
 62
    18
420
        0
176
     1
 90
       50
176
     1
 90
        3
176
     1
 62
     5
420
      255
176
     1
290
     0
176
     1
 90
       50
176
     1
 90
       50
176
     1
 90
       50
176
     1
290
     0
176
     1
 90
       50
176
     1
 62
   256
176
     0
 40
1.0
176
     0
 90
        2
176
     1
  1
strokes_ogs.tif
176
     1
290
     0
176
     1
 40
1.0
176
     1
 40
1.0
176
     1
  0
VISUALSTYLE
  5
3C
102
{ACAD_REACTORS
330
2A
102
}
330
2A
100
AcDbVisualStyle
  2
OverhangOff
 70
    21
177
     3
291
     1
 70
    58
 90
        2
176
     0
 90
        2
176
     0
 90
        0
176
     0
 90
        0
176
     0
 40
0.6
176
     0
 40
30.0
176
     0
 62
     7
420
 16777215
176
     0
 90
        1
176
     0
 90
        4
176
     0
 62
     7
176
     0
 62
   257
176
     0
 90
        1
176
     0
 90
        1
176
     0
 40
1.0
176
     0
 90
        9
176
     2
 62
     7
176
     0
 40
1.0
176
     0
 90
        1
176
     0
 90
        6
176
     0
 90
        2
176
     0
 62
     7
176
     0
 90
        5
176
     0
 90
        0
176
     0
 90
        0
176
     0
290
     0
176
     0
 90
        1
176
     0
 40
0.0
176
     0
 90
        0
176
     0
290
     0
176
     0
290
     1
176
     0
290
     1
176
     0
290
     0
176
     0
290
     0
176
     0
290
     0
176
     0
290
     0
176
     0
290
     0
176
     0
290
     0
176
     0
 90
       50
176
     0
 40
0.0
176
     0
 40
1.0
176
     0
 90
        0
176
     0
 62
    18
420
        0
176
     0
 90
       50
176
     0
 90
        3
176
     0
 62
     5
420
      255
176
     0
290
     0
176
     0
 90
       50
176
     0
 90
       50
176
     0
 90
       50
176
     0
290
     0
176
     0
 90
       50
176
     0
 62
   256
176
     0
 40
1.0
176
     0
 90
        2
176
     0
  1
strokes_ogs.tif
176
     0
290
     0
176
     0
 40
1.0
176
     0
 40
1.0
176
     0
  0
VISUALSTYLE
  5
33
102
{ACAD_REACTORS
330
2A
102
}
330
2A
100
AcDbVisualStyle
  2
Realistic
 70
     8
177
     3
291
     0
 70
    58
 90
        2
176
     1
 90
        3
176
     1
 90
        0
176
     1
 90
        2
176
     1
 40
0.6
176
     1
 40
30.0
176
     1
 62
     7
420
 16777215
176
     1
 90
        0
176
     1
 90
        0
176
     1
 62
     7
176
     1
 62
   257
176
     1
 90
        1
176
     1
 90
        1
176
     1
 40
1.0
176
     1
 90
        8
176
     1
 62
   257
176
     1
 40
1.0
176
     1
 90
        1
176
     1
 90
        6
176
     1
 90
        2
176
     1
 62
     7
176
     1
 90
        3
176
     1
 90
        0
176
     1
 90
        0
176
     1
290
     0
176
     1
 90
       13
176
     1
 40
0.0
176
     1
 90
        0
176
     1
290
     0
176
     1
290
     1
176
     1
290
     1
176
     1
290
     0
176
     1
290
     0
176
     1
290
     0
176
     1
290
     0
176
     1
290
     0
176
     1
290
     0
176
     1
 90
       50
176
     1
 40
0.0
176
     1
 40
1.0
176
     1
 90
        0
176
     1
 62
    18
420
        0
176
     1
 90
       50
176
     1
 90
        3
176
     1
 62
     5
420
      255
176
     1
290
     0
176
     1
 90
       50
176
     1
 90
       50
176
     1
 90
       50
176
     1
290
     0
176
     1
 90
       50
176
     1
 62
   256
176
     0
 40
1.0
176
     0
 90
        2
176
     1
  1
strokes_ogs.tif
176
     1
290
     0
176
     1
 40
1.0
176
     1
 40
1.0
176
     1
  0
VISUALSTYLE
  5
42
102
{ACAD_REACTORS
330
2A
102
}
330
2A
100
AcDbVisualStyle
  2
Shaded
 70
    27
177
     3
291
     0
 70
    58
 90
        2
176
     1
 90
        2
176
     1
 90
        1
176
     1
 90
        2
176
     1
 40
0.6
176
     1
 40
30.0
176
     1
 62
     7
420
 16777215
176
     1
 90
        0
176
     1
 90
        4
176
     1
 62
     7
176
     1
 62
   257
176
     1
 90
        1
176
     1
 90
        1
176
     1
 40
1.0
176
     1
 90
        8
176
     1
 62
   257
176
     1
 40
1.0
176
     1
 90
        1
176
     1
 90
        6
176
     1
 90
        2
176
     1
 62
     8
420
  7895160
176
     1
 90
        3
176
     1
 90
        0
176
     1
 90
        0
176
     1
290
     0
176
     1
 90
        5
176
     1
 40
0.0
176
     1
 90
        0
176
     1
290
     0
176
     1
290
     1
176
     1
290
     1
176
     1
290
     0
176
     1
290
     0
176
     1
290
     0
176
     1
290
     0
176
     1
290
     0
176
     1
290
     0
176
     1
 90
       50
176
     1
 40
0.0
176
     1
 40
1.0
176
     1
 90
        0
176
     1
 62
    18
420
        0
176
     1
 90
       50
176
     1
 90
        3
176
     1
 62
     5
420
      255
176
     1
290
     0
176
     1
 90
       50
176
     1
 90
       50
176
     1
 90
       50
176
     1
290
     0
176
     1
 90
       50
176
     1
 62
   256
176
     0
 40
1.0
176
     0
 90
        2
176
     1
  1
strokes_ogs.tif
176
     1
290
     0
176
     1
 40
1.0
176
     1
 40
1.0
176
     1
  0
VISUALSTYLE
  5
41
102
{ACAD_REACTORS
330
2A
102
}
330
2A
100
AcDbVisualStyle
  2
Shaded with edges
 70
    26
177
     3
291
     0
 70
    58
 90
        2
176
     1
 90
        2
176
     1
 90
        1
176
     1
 90
        2
176
     1
 40
0.6
176
     1
 40
30.0
176
     1
 62
     7
420
 16777215
176
     1
 90
        1
176
     1
 90
       10
176
     1
 62
     7
176
     1
 62
   257
176
     1
 90
        2
176
     1
 90
        1
176
     1
 40
1.0
176
     1
 90
        8
176
     1
 62
   257
176
     1
 40
1.0
176
     1
 90
        1
176
     1
 90
        6
176
     1
 90
        2
176
     1
 62
     7
176
     1
 90
        3
176
     1
 90
        0
176
     1
 90
        0
176
     1
290
     0
176
     1
 90
        5
176
     1
 40
0.0
176
     1
 90
        0
176
     1
290
     0
176
     1
290
     1
176
     1
290
     1
176
     1
290
     0
176
     1
290
     0
176
     1
290
     0
176
     1
290
     0
176
     1
290
     0
176
     1
290
     0
176
     1
 90
       50
176
     1
 40
0.0
176
     1
 40
1.0
176
     1
 90
        0
176
     1
 62
    18
420
        0
176
     1
 90
       50
176
     1
 90
        3
176
     1
 62
     5
420
      255
176
     1
290
     0
176
     1
 90
       50
176
     1
 90
       50
176
     1
 90
       50
176
     1
290
     0
176
     1
 90
       50
176
     1
 62
   256
176
     0
 40
1.0
176
     0
 90
        2
176
     1
  1
strokes_ogs.tif
176
     1
290
     0
176
     1
 40
1.0
176
     1
 40
1.0
176
     1
  0
VISUALSTYLE
  5
3E
102
{ACAD_REACTORS
330
2A
102
}
330
2A
100
AcDbVisualStyle
  2
Shades of Gray
 70
    23
177
     3
291
     0
 70
    58
 90
        2
176
     1
 90
        2
176
     1
 90
        3
176
     1
 90
        0
176
     1
 40
0.6
176
     1
 40
30.0
176
     1
 62
     7
420
 16777215
176
     1
 90
        2
176
     1
 90
        2
176
     1
 62
     7
176
     1
 62
     7
176
     1
 90
        1
176
     1
 90
        1
176
     1
 40
40.0
176
     1
 90
        8
176
     1
 62
     7
176
     1
 40
1.0
176
     1
 90
        1
176
     1
 90
        6
176
     1
 90
        2
176
     1
 62
     7
176
     1
 90
        3
176
     1
 90
        0
176
     1
 90
        0
176
     1
290
     0
176
     1
 90
        1
176
     1
 40
0.0
176
     1
 90
        0
176
     1
290
     0
176
     1
290
     1
176
     1
290
     1
176
     1
290
     0
176
     1
290
     0
176
     1
290
     0
176
     1
290
     0
176
     1
290
     0
176
     1
290
     0
176
     1
 90
       50
176
     1
 40
0.0
176
     1
 40
1.0
176
     1
 90
        0
176
     1
 62
    18
420
        0
176
     1
 90
       50
176
     1
 90
        3
176
     1
 62
     5
420
      255
176
     1
290
     0
176
     1
 90
       50
176
     1
 90
       50
176
     1
 90
       50
176
     1
290
     0
176
     1
 90
       50
176
     1
 62
   256
176
     0
 40
1.0
176
     0
 90
        2
176
     1
  1
strokes_ogs.tif
176
     1
290
     0
176
     1
 40
1.0
176
     1
 40
1.0
176
     1
  0
VISUALSTYLE
  5
3F
102
{ACAD_REACTORS
330
2A
102
}
330
2A
100
AcDbVisualStyle
  2
Sketchy
 70
    24
177
     3
291
     0
 70
    58
 90
        1
176
     1
 90
        2
176
     1
 90
        2
176
     1
 90
        0
176
     1
 40
0.6
176
     1
 40
30.0
176
     1
 62
     7
420
 16777215
176
     1
 90
        2
176
     1
 90
        2
176
     1
 62
     7
176
     1
 62
     7
176
     1
 90
        1
176
     1
 90
        1
176
     1
 40
40.0
176
     1
 90
       11
176
     1
 62
     7
176
     1
 40
1.0
176
     1
 90
        1
176
     1
 90
        6
176
     1
 90
        2
176
     1
 62
     7
176
     1
 90
        6
176
     1
 90
        0
176
     1
 90
        0
176
     1
290
     0
176
     1
 90
        1
176
     1
 40
0.0
176
     1
 90
        0
176
     1
290
     0
176
     1
290
     1
176
     1
290
     1
176
     1
290
     0
176
     1
290
     0
176
     1
290
     0
176
     1
290
     0
176
     1
290
     0
176
     1
290
     0
176
     1
 90
       50
176
     1
 40
0.0
176
     1
 40
1.0
176
     1
 90
        0
176
     1
 62
    18
420
        0
176
     1
 90
       50
176
     1
 90
        3
176
     1
 62
     5
420
      255
176
     1
290
     0
176
     1
 90
       50
176
     1
 90
       50
176
     1
 90
       50
176
     1
290
     0
176
     1
 90
       50
176
     1
 62
   256
176
     0
 40
1.0
176
     0
 90
        2
176
     1
  1
strokes_ogs.tif
176
     1
290
     0
176
     1
 40
1.0
176
     1
 40
1.0
176
     1
  0
VISUALSTYLE
  5
37
102
{ACAD_REACTORS
330
2A
102
}
330
2A
100
AcDbVisualStyle
  2
Thicken
 70
    13
177
     3
291
     1
 70
    58
 90
        2
176
     1
 90
        2
176
     1
 90
        0
176
     1
 90
        0
176
     1
 40
0.6
176
     1
 40
30.0
176
     1
 62
     7
420
 16777215
176
     1
 90
        1
176
     1
 90
        4
176
     1
 62
     7
176
     1
 62
   257
176
     1
 90
        1
176
     1
 90
        1
176
     1
 40
1.0
176
     1
 90
       12
176
     1
 62
     7
176
     1
 40
1.0
176
     1
 90
        1
176
     1
 90
        6
176
     1
 90
        2
176
     1
 62
     7
176
     1
 90
        5
176
     1
 90
        0
176
     1
 90
        0
176
     1
290
     0
176
     1
 90
        1
176
     1
 40
0.0
176
     1
 90
        0
176
     1
290
     0
176
     1
290
     1
176
     1
290
     1
176
     1
290
     0
176
     1
290
     0
176
     1
290
     0
176
     1
290
     0
176
     1
290
     0
176
     1
290
     0
176
     1
 90
       50
176
     1
 40
0.0
176
     1
 40
1.0
176
     1
 90
        0
176
     1
 62
    18
420
        0
176
     1
 90
       50
176
     1
 90
        3
176
     1
 62
     5
420
      255
176
     1
290
     0
176
     1
 90
       50
176
     1
 90
       50
176
     1
 90
       50
176
     1
290
     0
176
     1
 90
       50
176
     1
 62
   256
176
     0
 40
1.0
176
     0
 90
        2
176
     1
  1
strokes_ogs.tif
176
     1
290
     0
176
     1
 40
1.0
176
     1
 40
1.0
176
     1
  0
VISUALSTYLE
  5
30
102
{ACAD_REACTORS
330
2A
102
}
330
2A
100
AcDbVisualStyle
  2
Wireframe
 70
     5
177
     3
291
     0
 70
    58
 90
        0
176
     1
 90
        2
176
     1
 90
        0
176
     1
 90
        0
176
     1
 40
0.6
176
     1
 40
30.0
176
     1
 62
     7
420
 16777215
176
     1
 90
        1
176
     1
 90
        4
176
     1
 62
     7
176
     1
 62
   257
176
     1
 90
        1
176
     1
 90
        1
176
     1
 40
1.0
176
     1
 90
        0
176
     1
 62
   257
176
     1
 40
1.0
176
     1
 90
        1
176
     1
 90
        6
176
     1
 90
        2
176
     1
 62
     7
176
     1
 90
        3
176
     1
 90
        0
176
     1
 90
        0
176
     1
290
     0
176
     1
 90
        1
176
     1
 40
0.0
176
     1
 90
        0
176
     1
290
     0
176
     1
290
     1
176
     1
290
     1
176
     1
290
     0
176
     1
290
     0
176
     1
290
     0
176
     1
290
     0
176
     1
290
     0
176
     1
290
     0
176
     1
 90
       50
176
     1
 40
0.0
176
     1
 40
1.0
176
     1
 90
        0
176
     1
 62
    18
420
        0
176
     1
 90
       50
176
     1
 90
        3
176
     1
 62
     5
420
      255
176
     1
290
     0
176
     1
 90
       50
176
     1
 90
       50
176
     1
 90
       50
176
     1
290
     0
176
     1
 90
       50
176
     1
 62
   256
176
     0
 40
1.0
176
     0
 90
        2
176
     1
  1
strokes_ogs.tif
176
     1
290
     0
176
     1
 40
1.0
176
     1
 40
1.0
176
     1
  0
VISUALSTYLE
  5
40
102
{ACAD_REACTORS
330
2A
102
}
330
2A
100
AcDbVisualStyle
  2
X-Ray
 70
    25
177
     3
291
     0
 70
    58
 90
        2
176
     1
 90
        2
176
     1
 90
        1
176
     1
 90
        1
176
     1
 40
0.5
176
     1
 40
30.0
176
     1
 62
     7
420
 16777215
176
     1
 90
        1
176
     1
 90
        0
176
     1
 62
     7
176
     1
 62
   257
176
     1
 90
        1
176
     1
 90
        1
176
     1
 40
1.0
176
     1
 90
        8
176
     1
 62
     7
176
     1
 40
1.0
176
     1
 90
        1
176
     1
 90
        6
176
     1
 90
        2
176
     1
 62
     7
176
     1
 90
        3
176
     1
 90
        0
176
     1
 90
        0
176
     1
290
     0
176
     1
 90
       13
176
     1
 40
0.0
176
     1
 90
        0
176
     1
290
     0
176
     1
290
     1
176
     1
290
     1
176
     1
290
     0
176
     1
290
     0
176
     1
290
     0
176
     1
290
     0
176
     1
290
     0
176
     1
290
     0
176
     1
 90
       50
176
     1
 40
0.0
176
     1
 40
1.0
176
     1
 90
        0
176
     1
 62
    18
420
        0
176
     1
 90
       50
176
     1
 90
        3
176
     1
 62
     5
420
      255
176
     1
290
     0
176
     1
 90
       50
176
     1
 90
       50
176
     1
 90
       50
176
     1
290
     0
176
     1
 90
       50
176
     1
 62
   256
176
     0
 40
1.0
176
     0
 90
        2
176
     1
  1
strokes_ogs.tif
176
     1
290
     0
176
     1
 40
1.0
176
     1
 40
1.0
176
     1
  0
DICTIONARYVAR
  5
A5
102
{ACAD_REACTORS
330
A4
102
}
330
A4
100
DictionaryVariables
280
     0
  1
1:1
  0
DICTIONARYVAR
  5
AD
102
{ACAD_REACTORS
330
A4
102
}
330
A4
100
DictionaryVariables
280
     0
  1
3.500000
  0
DICTIONARYVAR
  5
AE
102
{ACAD_REACTORS
330
A4
102
}
330
A4
100
DictionaryVariables
280
     0
  1
acadiso.lin
  0
DICTIONARYVAR
  5
AA
102
{ACAD_REACTORS
330
A4
102
}
330
A4
100
DictionaryVariables
280
     0
  1
Standard
  0
DICTIONARYVAR
  5
A9
102
{ACAD_REACTORS
330
A4
102
}
330
A4
100
DictionaryVariables
280
     0
  1
Standard
  0
DICTIONARY
  5
A6
330
5A
100
AcDbDictionary
280
     1
281
     1
  3
ACAD_ROUNDTRIP_2008_TABLESTYLE_CELLSTYLEMAP
360
A7
  0
CELLSTYLEMAP
  5
A7
102
{ACAD_REACTORS
330
A6
102
}
330
A6
100
AcDbCellStyleMap
 90
        3
300
CELLSTYLE
  1
TABLEFORMAT_BEGIN
 90
        5
170
     1
 91
        0
 92
    32768
 62
   257
 93
        1
300
CONTENTFORMAT
  1
CONTENTFORMAT_BEGIN
 90
        0
 91
        0
 92
        4
 93
        0
300

 40
0.0
140
1.0
 94
        5
 62
     0
340
11
144
6.0
309
CONTENTFORMAT_END
171
     1
301
MARGIN
  1
CELLMARGIN_BEGIN
 40
1.5
 40
1.5
 40
1.5
 40
1.5
 40
1.5
 40
1.5
309
CELLMARGIN_END
 94
        6
 95
        1
302
GRIDFORMAT
  1
GRIDFORMAT_BEGIN
 90
        0
 91
        1
 62
     0
 92
       -2
340
14
 93
        0
 40
0.045
309
GRIDFORMAT_END
 95
        2
302
GRIDFORMAT
  1
GRIDFORMAT_BEGIN
 90
        0
 91
        1
 62
     0
 92
       -2
340
14
 93
        0
 40
0.045
309
GRIDFORMAT_END
 95
        4
302
GRIDFORMAT
  1
GRIDFORMAT_BEGIN
 90
        0
 91
        1
 62
     0
 92
       -2
340
14
 93
        0
 40
0.045
309
GRIDFORMAT_END
 95
        8
302
GRIDFORMAT
  1
GRIDFORMAT_BEGIN
 90
        0
 91
        1
 62
     0
 92
       -2
340
14
 93
        0
 40
0.045
309
GRIDFORMAT_END
 95
       16
302
GRIDFORMAT
  1
GRIDFORMAT_BEGIN
 90
        0
 91
        1
 62
     0
 92
       -2
340
14
 93
        0
 40
0.045
309
GRIDFORMAT_END
 95
       32
302
GRIDFORMAT
  1
GRIDFORMAT_BEGIN
 90
        0
 91
        1
 62
     0
 92
       -2
340
14
 93
        0
 40
0.045
309
GRIDFORMAT_END
309
TABLEFORMAT_END
  1
CELLSTYLE_BEGIN
 90
        1
 91
        1
300
_TITLE
309
CELLSTYLE_END
300
CELLSTYLE
  1
TABLEFORMAT_BEGIN
 90
        5
170
     1
 91
        0
 92
        0
 62
   257
 93
        1
300
CONTENTFORMAT
  1
CONTENTFORMAT_BEGIN
 90
        0
 91
        0
 92
        4
 93
        0
300

 40
0.0
140
1.0
 94
        5
 62
     0
340
11
144
4.5
309
CONTENTFORMAT_END
171
     1
301
MARGIN
  1
CELLMARGIN_BEGIN
 40
1.5
 40
1.5
 40
1.5
 40
1.5
 40
1.5
 40
1.5
309
CELLMARGIN_END
 94
        6
 95
        1
302
GRIDFORMAT
  1
GRIDFORMAT_BEGIN
 90
        0
 91
        1
 62
     0
 92
       -2
340
14
 93
        0
 40
0.045
309
GRIDFORMAT_END
 95
        2
302
GRIDFORMAT
  1
GRIDFORMAT_BEGIN
 90
        0
 91
        1
 62
     0
 92
       -2
340
14
 93
        0
 40
0.045
309
GRIDFORMAT_END
 95
        4
302
GRIDFORMAT
  1
GRIDFORMAT_BEGIN
 90
        0
 91
        1
 62
     0
 92
       -2
340
14
 93
        0
 40
0.045
309
GRIDFORMAT_END
 95
        8
302
GRIDFORMAT
  1
GRIDFORMAT_BEGIN
 90
        0
 91
        1
 62
     0
 92
       -2
340
14
 93
        0
 40
0.045
309
GRIDFORMAT_END
 95
       16
302
GRIDFORMAT
  1
GRIDFORMAT_BEGIN
 90
        0
 91
        1
 62
     0
 92
       -2
340
14
 93
        0
 40
0.045
309
GRIDFORMAT_END
 95
       32
302
GRIDFORMAT
  1
GRIDFORMAT_BEGIN
 90
        0
 91
        1
 62
     0
 92
       -2
340
14
 93
        0
 40
0.045
309
GRIDFORMAT_END
309
TABLEFORMAT_END
  1
CELLSTYLE_BEGIN
 90
        2
 91
        1
300
_HEADER
309
CELLSTYLE_END
300
CELLSTYLE
  1
TABLEFORMAT_BEGIN
 90
        5
170
     1
 91
        0
 92
        0
 62
   257
 93
        1
300
CONTENTFORMAT
  1
CONTENTFORMAT_BEGIN
 90
        0
 91
        0
 92
        4
 93
        0
300

 40
0.0
140
1.0
 94
        2
 62
     0
340
11
144
4.5
309
CONTENTFORMAT_END
171
     1
301
MARGIN
  1
CELLMARGIN_BEGIN
 40
1.5
 40
1.5
 40
1.5
 40
1.5
 40
1.5
 40
1.5
309
CELLMARGIN_END
 94
        6
 95
        1
302
GRIDFORMAT
  1
GRIDFORMAT_BEGIN
 90
        0
 91
        1
 62
     0
 92
       -2
340
14
 93
        0
 40
0.045
309
GRIDFORMAT_END
 95
        2
302
GRIDFORMAT
  1
GRIDFORMAT_BEGIN
 90
        0
 91
        1
 62
     0
 92
       -2
340
14
 93
        0
 40
0.045
309
GRIDFORMAT_END
 95
        4
302
GRIDFORMAT
  1
GRIDFORMAT_BEGIN
 90
        0
 91
        1
 62
     0
 92
       -2
340
14
 93
        0
 40
0.045
309
GRIDFORMAT_END
 95
        8
302
GRIDFORMAT
  1
GRIDFORMAT_BEGIN
 90
        0
 91
        1
 62
     0
 92
       -2
340
14
 93
        0
 40
0.045
309
GRIDFORMAT_END
 95
       16
302
GRIDFORMAT
  1
GRIDFORMAT_BEGIN
 90
        0
 91
        1
 62
     0
 92
       -2
340
14
 93
        0
 40
0.045
309
GRIDFORMAT_END
 95
       32
302
GRIDFORMAT
  1
GRIDFORMAT_BEGIN
 90
        0
 91
        1
 62
     0
 92
       -2
340
14
 93
        0
 40
0.045
309
GRIDFORMAT_END
309
TABLEFORMAT_END
  1
CELLSTYLE_BEGIN
 90
        3
 91
        2
300
_DATA
309
CELLSTYLE_END
  0
ENDSEC
  0
EOF
