  0
SECTION
  2
HEADER
  9
$ACADVER
  1
AC1027
  9
$ACADMAINTVER
 70
   105
  9
$DWGCODEPAGE
  3
ANSI_932
  9
$LASTSAVEDBY
  1
a.yasuda
  9
$REQUIREDVERSIONS
160
                 0
  9
$INSBASE
 10
0.0
 20
0.0
 30
0.0
  9
$EXTMIN
 10
0.0
 20
0.0
 30
0.0
  9
$EXTMAX
 10
302.9997823349792
 20
216.0016055409748
 30
0.0
  9
$LIMMIN
 10
0.0
 20
0.0
  9
$LIMMAX
 10
302.9997823349792
 20
216.0016055409748
  9
$ORTHOMODE
 70
     0
  9
$REGENMODE
 70
     1
  9
$FILLMODE
 70
     1
  9
$QTEXTMODE
 70
     0
  9
$MIRRTEXT
 70
     1
  9
$LTSCALE
 40
1.0
  9
$ATTMODE
 70
     1
  9
$TEXTSIZE
 40
2.5
  9
$TRACEWID
 40
1.0
  9
$TEXTSTYLE
  7
Standard
  9
$CLAYER
  8
0
  9
$CELTYPE
  6
ByLayer
  9
$CECOLOR
 62
   256
  9
$CELTSCALE
 40
1.0
  9
$DISPSILH
 70
     0
  9
$DIMSCALE
 40
1.0
  9
$DIMASZ
 40
2.5
  9
$DIMEXO
 40
0.625
  9
$DIMDLI
 40
3.75
  9
$DIMRND
 40
0.0
  9
$DIMDLE
 40
0.0
  9
$DIMEXE
 40
1.25
  9
$DIMTP
 40
0.0
  9
$DIMTM
 40
0.0
  9
$DIMTXT
 40
2.5
  9
$DIMCEN
 40
2.5
  9
$DIMTSZ
 40
0.0
  9
$DIMTOL
 70
     0
  9
$DIMLIM
 70
     0
  9
$DIMTIH
 70
     0
  9
$DIMTOH
 70
     0
  9
$DIMSE1
 70
     0
  9
$DIMSE2
 70
     0
  9
$DIMTAD
 70
     1
  9
$DIMZIN
 70
     8
  9
$DIMBLK
  1

  9
$DIMASO
 70
     1
  9
$DIMSHO
 70
     1
  9
$DIMPOST
  1

  9
$DIMAPOST
  1

  9
$DIMALT
 70
     0
  9
$DIMALTD
 70
     3
  9
$DIMALTF
 40
0.03937007874016
  9
$DIMLFAC
 40
1.0
  9
$DIMTOFL
 70
     1
  9
$DIMTVP
 40
0.0
  9
$DIMTIX
 70
     0
  9
$DIMSOXD
 70
     0
  9
$DIMSAH
 70
     0
  9
$DIMBLK1
  1

  9
$DIMBLK2
  1

  9
$DIMSTYLE
  2
ISO-25
  9
$DIMCLRD
 70
     0
  9
$DIMCLRE
 70
     0
  9
$DIMCLRT
 70
     0
  9
$DIMTFAC
 40
1.0
  9
$DIMGAP
 40
0.625
  9
$DIMJUST
 70
     0
  9
$DIMSD1
 70
     0
  9
$DIMSD2
 70
     0
  9
$DIMTOLJ
 70
     0
  9
$DIMTZIN
 70
     8
  9
$DIMALTZ
 70
     0
  9
$DIMALTTZ
 70
     0
  9
$DIMUPT
 70
     0
  9
$DIMDEC
 70
     2
  9
$DIMTDEC
 70
     2
  9
$DIMALTU
 70
     2
  9
$DIMALTTD
 70
     3
  9
$DIMTXSTY
  7
Standard
  9
$DIMAUNIT
 70
     0
  9
$DIMADEC
 70
     0
  9
$DIMALTRND
 40
0.0
  9
$DIMAZIN
 70
     0
  9
$DIMDSEP
 70
    44
  9
$DIMATFIT
 70
     3
  9
$DIMFRAC
 70
     0
  9
$DIMLDRBLK
  1

  9
$DIMLUNIT
 70
     2
  9
$DIMLWD
 70
    -2
  9
$DIMLWE
 70
    -2
  9
$DIMTMOVE
 70
     0
  9
$DIMFXL
 40
1.0
  9
$DIMFXLON
 70
     0
  9
$DIMJOGANG
 40
0.7853981633974483
  9
$DIMTFILL
 70
     0
  9
$DIMTFILLCLR
 70
     0
  9
$DIMARCSYM
 70
     0
  9
$DIMLTYPE
  6

  9
$DIMLTEX1
  6

  9
$DIMLTEX2
  6

  9
$DIMTXTDIRECTION
 70
     0
  9
$LUNITS
 70
     2
  9
$LUPREC
 70
     4
  9
$SKETCHINC
 40
1.0
  9
$FILLETRAD
 40
0.0
  9
$AUNITS
 70
     0
  9
$AUPREC
 70
     0
  9
$MENU
  1
.
  9
$ELEVATION
 40
0.0
  9
$PELEVATION
 40
0.0
  9
$THICKNESS
 40
0.0
  9
$LIMCHECK
 70
     0
  9
$CHAMFERA
 40
0.0
  9
$CHAMFERB
 40
0.0
  9
$CHAMFERC
 40
0.0
  9
$CHAMFERD
 40
0.0
  9
$SKPOLY
 70
     0
  9
$TDCREATE
 40
2459873.457575023
  9
$TDUCREATE
 40
2459873.082575023
  9
$TDUPDATE
 40
2459873.457575069
  9
$TDUUPDATE
 40
2459873.082575069
  9
$TDINDWG
 40
0.0000000116
  9
$TDUSRTIMER
 40
0.0000000116
  9
$USRTIMER
 70
     1
  9
$ANGBASE
 50
0.0
  9
$ANGDIR
 70
     0
  9
$PDMODE
 70
     0
  9
$PDSIZE
 40
0.0
  9
$PLINEWID
 40
0.0
  9
$SPLFRAME
 70
     0
  9
$SPLINETYPE
 70
     6
  9
$SPLINESEGS
 70
     8
  9
$HANDSEED
  5
AA
  9
$SURFTAB1
 70
     6
  9
$SURFTAB2
 70
     6
  9
$SURFTYPE
 70
     6
  9
$SURFU
 70
     6
  9
$SURFV
 70
     6
  9
$UCSBASE
  2

  9
$UCSNAME
  2

  9
$UCSORG
 10
0.0
 20
0.0
 30
0.0
  9
$UCSXDIR
 10
1.0
 20
0.0
 30
0.0
  9
$UCSYDIR
 10
0.0
 20
1.0
 30
0.0
  9
$UCSORTHOREF
  2

  9
$UCSORTHOVIEW
 70
     0
  9
$UCSORGTOP
 10
0.0
 20
0.0
 30
0.0
  9
$UCSORGBOTTOM
 10
0.0
 20
0.0
 30
0.0
  9
$UCSORGLEFT
 10
0.0
 20
0.0
 30
0.0
  9
$UCSORGRIGHT
 10
0.0
 20
0.0
 30
0.0
  9
$UCSORGFRONT
 10
0.0
 20
0.0
 30
0.0
  9
$UCSORGBACK
 10
0.0
 20
0.0
 30
0.0
  9
$PUCSBASE
  2

  9
$PUCSNAME
  2

  9
$PUCSORG
 10
0.0
 20
0.0
 30
0.0
  9
$PUCSXDIR
 10
1.0
 20
0.0
 30
0.0
  9
$PUCSYDIR
 10
0.0
 20
1.0
 30
0.0
  9
$PUCSORTHOREF
  2

  9
$PUCSORTHOVIEW
 70
     0
  9
$PUCSORGTOP
 10
0.0
 20
0.0
 30
0.0
  9
$PUCSORGBOTTOM
 10
0.0
 20
0.0
 30
0.0
  9
$PUCSORGLEFT
 10
0.0
 20
0.0
 30
0.0
  9
$PUCSORGRIGHT
 10
0.0
 20
0.0
 30
0.0
  9
$PUCSORGFRONT
 10
0.0
 20
0.0
 30
0.0
  9
$PUCSORGBACK
 10
0.0
 20
0.0
 30
0.0
  9
$USERI1
 70
     0
  9
$USERI2
 70
     0
  9
$USERI3
 70
     0
  9
$USERI4
 70
     0
  9
$USERI5
 70
     0
  9
$USERR1
 40
0.0
  9
$USERR2
 40
0.0
  9
$USERR3
 40
0.0
  9
$USERR4
 40
0.0
  9
$USERR5
 40
0.0
  9
$WORLDVIEW
 70
     1
  9
$SHADEDGE
 70
     3
  9
$SHADEDIF
 70
    70
  9
$TILEMODE
 70
     1
  9
$MAXACTVP
 70
    64
  9
$PINSBASE
 10
0.0
 20
0.0
 30
0.0
  9
$PLIMCHECK
 70
     0
  9
$PEXTMIN
 10
1.000000000000000E+20
 20
1.000000000000000E+20
 30
1.000000000000000E+20
  9
$PEXTMAX
 10
-1.000000000000000E+20
 20
-1.000000000000000E+20
 30
-1.000000000000000E+20
  9
$PLIMMIN
 10
0.0
 20
0.0
  9
$PLIMMAX
 10
420.0
 20
297.0
  9
$UNITMODE
 70
     0
  9
$VISRETAIN
 70
     1
  9
$PLINEGEN
 70
     0
  9
$PSLTSCALE
 70
     1
  9
$TREEDEPTH
 70
  3020
  9
$CMLSTYLE
  2
Standard
  9
$CMLJUST
 70
     0
  9
$CMLSCALE
 40
20.0
  9
$PROXYGRAPHICS
 70
     1
  9
$MEASUREMENT
 70
     1
  9
$CELWEIGHT
370
    -1
  9
$ENDCAPS
280
     0
  9
$JOINSTYLE
280
     0
  9
$LWDISPLAY
290
     0
  9
$INSUNITS
 70
     4
  9
$HYPERLINKBASE
  1

  9
$STYLESHEET
  1

  9
$XEDIT
290
     1
  9
$CEPSNTYPE
380
     0
  9
$PSTYLEMODE
290
     1
  9
$FINGERPRINTGUID
  2
{52bb13f0-39c4-447b-8b8b-54421f520f16}
  9
$VERSIONGUID
  2
{FAEB1C32-E019-11D5-929B-00C0DF256EC4}
  9
$EXTNAMES
290
     1
  9
$PSVPSCALE
 40
0.0
  9
$OLESTARTUP
290
     0
  9
$SORTENTS
280
   127
  9
$INDEXCTL
280
     0
  9
$HIDETEXT
280
     1
  9
$XCLIPFRAME
280
     2
  9
$HALOGAP
280
     0
  9
$OBSCOLOR
 70
   257
  9
$OBSLTYPE
280
     0
  9
$INTERSECTIONDISPLAY
280
     0
  9
$INTERSECTIONCOLOR
 70
   257
  9
$DIMASSOC
280
     2
  9
$PROJECTNAME
  1

  9
$CAMERADISPLAY
290
     0
  9
$LENSLENGTH
 40
50.0
  9
$CAMERAHEIGHT
 40
0.0
  9
$STEPSPERSEC
 40
2.0
  9
$STEPSIZE
 40
6.0
  9
$3DDWFPREC
 40
2.0
  9
$PSOLWIDTH
 40
5.0
  9
$PSOLHEIGHT
 40
80.0
  9
$LOFTANG1
 40
1.570796326794897
  9
$LOFTANG2
 40
1.570796326794897
  9
$LOFTMAG1
 40
0.0
  9
$LOFTMAG2
 40
0.0
  9
$LOFTPARAM
 70
     7
  9
$LOFTNORMALS
280
     1
  9
$LATITUDE
 40
37.795
  9
$LONGITUDE
 40
-122.394
  9
$NORTHDIRECTION
 40
0.0
  9
$TIMEZONE
 70
 -8000
  9
$LIGHTGLYPHDISPLAY
280
     1
  9
$TILEMODELIGHTSYNCH
280
     1
  9
$CMATERIAL
347
44
  9
$SOLIDHIST
280
     0
  9
$SHOWHIST
280
     1
  9
$DWFFRAME
280
     2
  9
$DGNFRAME
280
     2
  9
$REALWORLDSCALE
290
     1
  9
$INTERFERECOLOR
 62
   256
  9
$CSHADOW
280
     0
  9
$SHADOWPLANELOCATION
 40
0.0
  0
ENDSEC
  0
SECTION
  2
CLASSES
  0
CLASS
  1
ACDBDICTIONARYWDFLT
  2
AcDbDictionaryWithDefault
  3
ObjectDBX Classes
 90
        0
 91
        3
280
     0
281
     0
  0
CLASS
  1
VISUALSTYLE
  2
AcDbVisualStyle
  3
ObjectDBX Classes
 90
     4095
 91
        3
280
     0
281
     0
  0
CLASS
  1
MATERIAL
  2
AcDbMaterial
  3
ObjectDBX Classes
 90
     1153
 91
        3
280
     0
281
     0
  0
CLASS
  1
SCALE
  2
AcDbScale
  3
ObjectDBX Classes
 90
     1153
 91
        3
280
     0
281
     0
  0
CLASS
  1
TABLESTYLE
  2
AcDbTableStyle
  3
ObjectDBX Classes
 90
     4095
 91
        3
280
     0
281
     0
  0
CLASS
  1
MLEADERSTYLE
  2
AcDbMLeaderStyle
  3
ACDB_MLEADERSTYLE_CLASS
 90
     4095
 91
        3
280
     0
281
     0
  0
CLASS
  1
SUN
  2
AcDbSun
  3
SCENEOE
 90
     1153
 91
        3
280
     0
281
     0
  0
CLASS
  1
DICTIONARYVAR
  2
AcDbDictionaryVar
  3
ObjectDBX Classes
 90
        0
 91
        3
280
     0
281
     0
  0
CLASS
  1
CELLSTYLEMAP
  2
AcDbCellStyleMap
  3
ObjectDBX Classes
 90
     1152
 91
        3
280
     0
281
     0
  0
ENDSEC
  0
SECTION
  2
TABLES
  0
TABLE
  2
VPORT
  5
8
330
0
100
AcDbSymbolTable
 70
     1
  0
VPORT
  5
29
330
8
100
AcDbSymbolTableRecord
100
AcDbViewportTableRecord
  2
*Active
 70
     0
 10
0.0
 20
0.0
 11
1.0
 21
1.0
 12
151.4998911674896
 22
108.0008027704874
 13
0.0
 23
0.0
 14
10.0
 24
10.0
 15
10.0
 25
10.0
 16
0.0
 26
0.0
 36
1.0
 17
0.0
 27
0.0
 37
0.0
 40
237.6017660950723
 41
1.402766343222857
 42
50.0
 43
0.0
 44
0.0
 50
0.0
 51
0.0
 71
     0
 72
 10000
 73
     1
 74
     3
 75
     0
 76
     0
 77
     0
 78
     0
281
     0
 65
     1
110
0.0
120
0.0
130
0.0
111
1.0
121
0.0
131
0.0
112
0.0
122
1.0
132
0.0
 79
     0
146
0.0
348
2F
 60
     3
 61
     5
292
     1
282
     1
141
0.0
142
0.0
 63
   250
361
5D
  0
ENDTAB
  0
TABLE
  2
LTYPE
  5
5
330
0
100
AcDbSymbolTable
 70
     2
  0
LTYPE
  5
14
330
5
100
AcDbSymbolTableRecord
100
AcDbLinetypeTableRecord
  2
ByBlock
 70
     0
  3

 72
    65
 73
     0
 40
0.0
  0
LTYPE
  5
15
330
5
100
AcDbSymbolTableRecord
100
AcDbLinetypeTableRecord
  2
ByLayer
 70
     0
  3

 72
    65
 73
     0
 40
0.0
  0
LTYPE
  5
16
330
5
100
AcDbSymbolTableRecord
100
AcDbLinetypeTableRecord
  2
Continuous
 70
     0
  3
Solid line
 72
    65
 73
     0
 40
0.0
  0
LTYPE
  5
5F
330
5
100
AcDbSymbolTableRecord
100
AcDbLinetypeTableRecord
  2
UserDefined01
 70
     0
  3
----------------                
 72
    65
 73
     2
 40
0.7055555449591743
 49
0.3527777724795871
 74
     0
 49
-0.3527777724795871
 74
     0
  0
ENDTAB
  0
TABLE
  2
LAYER
  5
2
330
0
100
AcDbSymbolTable
 70
     3
  0
LAYER
  5
10
330
2
100
AcDbSymbolTableRecord
100
AcDbLayerTableRecord
  2
0
 70
     0
 62
     7
  6
Continuous
370
    -3
390
F
347
46
348
0
  0
LAYER
  5
60
330
2
100
AcDbSymbolTableRecord
100
AcDbLayerTableRecord
  2
外枠
 70
     0
 62
     7
  6
Continuous
370
    -3
390
F
347
46
348
0
  0
LAYER
  5
61
330
2
100
AcDbSymbolTableRecord
100
AcDbLayerTableRecord
  2
ISS138金台
 70
     0
 62
     7
  6
Continuous
370
    -3
390
F
347
46
348
0
  0
ENDTAB
  0
TABLE
  2
STYLE
  5
3
330
0
100
AcDbSymbolTable
 70
     2
  0
STYLE
  5
11
330
3
100
AcDbSymbolTableRecord
100
AcDbTextStyleTableRecord
  2
Standard
 70
     0
 40
0.0
 41
1.0
 50
0.0
 71
     0
 42
2.5
  3

  4

  0
STYLE
  5
5E
330
3
100
AcDbSymbolTableRecord
100
AcDbTextStyleTableRecord
  2
MS Gothic
 70
     0
 40
1.0
 41
1.0
 50
0.0
 71
     0
 42
2.5
  3
msgothic.ttc
  4

1001
ACAD
1000
MS Gothic
1071
    32817
  0
ENDTAB
  0
TABLE
  2
VIEW
  5
6
330
0
100
AcDbSymbolTable
 70
     0
  0
ENDTAB
  0
TABLE
  2
UCS
  5
7
330
0
100
AcDbSymbolTable
 70
     0
  0
ENDTAB
  0
TABLE
  2
APPID
  5
9
330
0
100
AcDbSymbolTable
 70
     1
  0
APPID
  5
12
330
9
100
AcDbSymbolTableRecord
100
AcDbRegAppTableRecord
  2
ACAD
 70
     0
  0
ENDTAB
  0
TABLE
  2
DIMSTYLE
  5
A
330
0
100
AcDbSymbolTable
 70
     1
100
AcDbDimStyleTable
  0
DIMSTYLE
105
27
330
A
100
AcDbSymbolTableRecord
100
AcDbDimStyleTableRecord
  2
ISO-25
 70
     0
 41
2.5
 42
0.625
 43
3.75
 44
1.25
 73
     0
 74
     0
 77
     1
 78
     8
140
2.5
141
2.5
143
0.03937007874016
147
0.625
171
     3
172
     1
178
     0
271
     2
272
     2
274
     3
278
    44
283
     0
284
     8
340
11
  0
ENDTAB
  0
TABLE
  2
BLOCK_RECORD
  5
1
330
0
100
AcDbSymbolTable
 70
     1
  0
BLOCK_RECORD
  5
1F
330
1
100
AcDbSymbolTableRecord
100
AcDbBlockTableRecord
  2
*Model_Space
340
22
 70
     0
280
     1
281
     0
  0
BLOCK_RECORD
  5
1B
330
1
100
AcDbSymbolTableRecord
100
AcDbBlockTableRecord
  2
*Paper_Space
340
1E
 70
     0
280
     1
281
     0
  0
BLOCK_RECORD
  5
23
330
1
100
AcDbSymbolTableRecord
100
AcDbBlockTableRecord
  2
*Paper_Space0
340
26
 70
     0
280
     1
281
     0
  0
ENDTAB
  0
ENDSEC
  0
SECTION
  2
BLOCKS
  0
BLOCK
  5
20
330
1F
100
AcDbEntity
  8
0
100
AcDbBlockBegin
  2
*Model_Space
 70
     0
 10
0.0
 20
0.0
 30
0.0
  3
*Model_Space
  1

  0
ENDBLK
  5
21
330
1F
100
AcDbEntity
  8
0
100
AcDbBlockEnd
  0
BLOCK
  5
1C
330
1B
100
AcDbEntity
 67
     1
  8
0
100
AcDbBlockBegin
  2
*Paper_Space
 70
     0
 10
0.0
 20
0.0
 30
0.0
  3
*Paper_Space
  1

  0
ENDBLK
  5
1D
330
1B
100
AcDbEntity
 67
     1
  8
0
100
AcDbBlockEnd
  0
BLOCK
  5
24
330
23
100
AcDbEntity
  8
0
100
AcDbBlockBegin
  2
*Paper_Space0
 70
     0
 10
0.0
 20
0.0
 30
0.0
  3
*Paper_Space0
  1

  0
ENDBLK
  5
25
330
23
100
AcDbEntity
  8
0
100
AcDbBlockEnd
  0
ENDSEC
  0
SECTION
  2
ENTITIES
  0
LWPOLYLINE
  5
62
330
1F
100
AcDbEntity
  8
外枠
  6
Continuous
 62
   250
420
  2367521
370
   100
100
AcDbPolyline
 90
        5
 70
     0
 43
0.0
 10
281.9999662644599
 20
13.29407825637392
 10
20.99981607051935
 20
13.29407825637392
 10
20.99981607051935
 20
193.0018900389566
 10
281.9999662644599
 20
193.0018900389566
 10
281.9999662644599
 20
13.29407825637392
  0
LINE
  5
63
330
1F
100
AcDbEntity
  8
外枠
  6
Continuous
 62
   250
420
  2367521
370
    25
100
AcDbLine
 10
223.3097080177524
 20
174.0786160074276
 30
0.0
 11
281.9999232007669
 21
174.0786160074276
 31
0.0
  0
LINE
  5
64
330
1F
100
AcDbEntity
  8
外枠
  6
Continuous
 62
   250
420
  2367521
370
    25
100
AcDbLine
 10
223.3097080177524
 20
50.37109023844297
 30
0.0
 11
281.9999232007669
 21
50.37109023844297
 31
0.0
  0
LINE
  5
65
330
1F
100
AcDbEntity
  8
外枠
  6
Continuous
 62
   250
420
  2367521
370
    25
100
AcDbLine
 10
223.3097080177524
 20
36.25997933925949
 30
0.0
 11
281.9999232007669
 21
36.25997933925949
 31
0.0
  0
LINE
  5
66
330
1F
100
AcDbEntity
  8
外枠
  6
Continuous
 62
   250
420
  2367521
370
    50
100
AcDbLine
 10
223.0158413772006
 20
193.3637327187979
 30
0.0
 11
223.0158413772006
 21
13.29396655992039
 31
0.0
  0
TEXT
  5
67
330
1F
100
AcDbEntity
  8
外枠
  6
Continuous
 62
   250
420
  2367521
100
AcDbText
 10
224.7190965599536
 20
186.6888051931772
 30
0.0
 40
2.688166626294454
  1
品名：
 41
0.974166170756022
  7
MS Gothic
100
AcDbText
  0
TEXT
  5
68
330
1F
100
AcDbEntity
  8
外枠
  6
Continuous
 62
   250
420
  2367521
100
AcDbText
 10
224.7190965599536
 20
168.1080059455944
 30
0.0
 40
2.688166626294454
  1
仕様：
 41
0.9978878657023111
  7
MS Gothic
100
AcDbText
  0
TEXT
  5
69
330
1F
100
AcDbEntity
  8
外枠
  6
Continuous
 62
   250
420
  2367521
100
AcDbText
 10
224.7190965599536
 20
44.16660664327048
 30
0.0
 40
2.688166626294454
  1
縮尺：
 41
0.9939999262491861
  7
MS Gothic
100
AcDbText
  0
TEXT
  5
6A
330
1F
100
AcDbEntity
  8
外枠
  6
Continuous
 62
   250
420
  2367521
100
AcDbText
 10
250.2379519709696
 20
40.59738467878129
 30
0.0
 40
2.150533301035563
  1
1/1
 41
1.000003814697266
  7
MS Gothic
100
AcDbText
  0
TEXT
  5
6B
330
1F
100
AcDbEntity
  8
外枠
  6
Continuous
 62
   250
420
  2367521
100
AcDbText
 10
232.7757967427735
 20
181.9845273775436
 30
0.0
 40
2.688166626294454
  1
フロアーエッジ　FB-3-VR
 41
1.012790779445482
  7
MS Gothic
100
AcDbText
  0
TEXT
  5
6C
330
1F
100
AcDbEntity
  8
外枠
  6
Continuous
 62
   250
420
  2367521
100
AcDbText
 10
226.1633020978884
 20
24.25683874973963
 30
0.0
 40
2.553758294979732
  1
ヤスダインテリアサプライ株式会社
 41
1.0194908945184
  7
MS Gothic
100
AcDbText
  0
TEXT
  5
6D
330
1F
100
AcDbEntity
  8
外枠
  6
Continuous
 62
   250
420
  2367521
100
AcDbText
 10
227.7635273953072
 20
161.7763665048245
 30
0.0
 40
2.150533301035563
  1
材質
 41
1.028502464294433
  7
MS Gothic
100
AcDbText
  0
TEXT
  5
6E
330
1F
100
AcDbEntity
  8
外枠
  6
Continuous
 62
   250
420
  2367521
100
AcDbText
 10
232.7757967427735
 20
156.199681315683
 30
0.0
 40
2.016124969720841
  1
真鍮/バイブレーション磨き仕上
 41
1.03674456716954
  7
MS Gothic
100
AcDbText
  0
HATCH
  5
6F
330
1F
100
AcDbEntity
  8
ISS138金台
  6
Continuous
 62
     7
420
 16777215
370
    50
100
AcDbHatch
 10
0.0
 20
0.0
 30
0.0
210
0.0
220
0.0
230
1.0
  2
SOLID
 70
     1
 71
     0
 91
        1
 92
        3
 72
     0
 73
     1
 93
       61
 10
111.6931161000442
 20
103.2881167688093
 10
111.6931161000442
 20
110.4311561105876
 10
117.6709380385324
 20
110.4311561105876
 10
117.6709380385324
 20
104.6664240906385
 10
130.1486861285877
 20
104.3831403526241
 10
130.6489247515815
 20
103.9220573924265
 10
131.1488080991087
 20
104.3880819113878
 10
131.1693602465594
 20
104.3881572728504
 10
131.2283898036428
 20
104.388275698006
 10
131.3219564424556
 20
104.3882541661595
 10
131.446076771402
 20
104.3879204225393
 10
131.5967996966558
 20
104.387069914604
 10
131.7701848903137
 20
104.3855303875817
 10
131.9622704926264
 20
104.3831188207777
 10
132.1690946438442
 20
104.3796521934968
 10
132.3866954842177
 20
104.3749582509675
 10
132.6111326858437
 20
104.3688324406483
 10
132.8384443889728
 20
104.3611132736906
 10
133.0646687338554
 20
104.3516177293996
 10
133.2858653925885
 20
104.3401412552339
 10
133.4980617394993
 20
104.3265331282681
 10
133.6973174466847
 20
104.3105887959609
 10
133.879659888472
 20
104.2921252376174
 10
133.879659888472
 20
104.2921252376174
 10
134.0579435772007
 20
104.2700012653747
 10
134.2450445570568
 20
104.2435816897624
 10
134.4385404953128
 20
104.2133402114026
 10
134.6360844207043
 20
104.1796428716851
 10
134.8352970641968
 20
104.1429633712323
 10
135.0338099226792
 20
104.103710815127
 10
135.2292329611939
 20
104.0622943084519
 10
135.4191869107065
 20
104.0191552540596
 10
135.601303268106
 20
103.9747242888795
 10
135.7732027643578
 20
103.9294212839175
 10
135.932516896351
 20
103.8836661101798
 10
136.0768663950512
 20
103.8379001705188
 10
136.2038612255007
 20
103.7925325700174
 10
136.3111436505116
 20
103.7479939456049
 10
136.3963344010497
 20
103.7047149342106
 10
136.4570542080805
 20
103.6631154068406
 10
136.4570542080805
 20
103.6631154068406
 10
136.5006992608647
 20
103.6241427647393
 10
136.5382615670225
 20
103.5864297356562
 10
136.569504276243
 20
103.5501808721326
 10
136.5942658996775
 20
103.5155253652475
 10
136.6123311188615
 20
103.482657001619
 10
136.6235061471768
 20
103.4517588019419
 10
136.6275971980051
 20
103.4229814891417
 10
136.6244104847283
 20
103.3965080839132
 10
136.613741454805
 20
103.372500075105
 10
136.5953963216169
 20
103.3511404834119
 10
136.569181298546
 20
103.3326015636056
 10
136.534902598974
 20
103.3170448045348
 10
136.4923449044363
 20
103.3046424609711
 10
136.4413251942379
 20
103.2955775536094
 10
136.3816604476839
 20
103.2900115712982
 10
136.3131245803864
 20
103.2881167688093
 10
116.2206605198945
 20
103.2881167688093
 10
116.2206605198945
 20
109.1078949542458
 10
113.1550315816963
 20
109.1078949542458
 10
113.1550315816963
 20
103.2881167688093
 97
        0
 75
     1
 76
     1
 98
        0
  0
LWPOLYLINE
  5
70
330
1F
100
AcDbEntity
  8
ISS138金台
  6
Continuous
 62
     7
420
 16777215
370
    50
100
AcDbPolyline
 90
       62
 70
     0
 43
0.0
 10
111.6931161000442
 20
103.2881167688093
 10
111.6931161000442
 20
110.4311561105876
 10
117.6709380385324
 20
110.4311561105876
 10
117.6709380385324
 20
104.6664240906385
 10
130.1486861285877
 20
104.3831403526241
 10
130.6489247515815
 20
103.9220573924265
 10
131.1488080991087
 20
104.3880819113878
 10
131.1693602465594
 20
104.3881572728504
 10
131.2283898036428
 20
104.388275698006
 10
131.3219564424556
 20
104.3882541661595
 10
131.446076771402
 20
104.3879204225393
 10
131.5967996966558
 20
104.387069914604
 10
131.7701848903137
 20
104.3855303875817
 10
131.9622704926264
 20
104.3831188207777
 10
132.1690946438442
 20
104.3796521934968
 10
132.3866954842177
 20
104.3749582509675
 10
132.6111326858437
 20
104.3688324406483
 10
132.8384443889728
 20
104.3611132736906
 10
133.0646687338554
 20
104.3516177293996
 10
133.2858653925885
 20
104.3401412552339
 10
133.4980617394993
 20
104.3265331282681
 10
133.6973174466847
 20
104.3105887959609
 10
133.879659888472
 20
104.2921252376174
 10
133.879659888472
 20
104.2921252376174
 10
134.0579435772007
 20
104.2700012653747
 10
134.2450445570568
 20
104.2435816897624
 10
134.4385404953128
 20
104.2133402114026
 10
134.6360844207043
 20
104.1796428716851
 10
134.8352970641968
 20
104.1429633712323
 10
135.0338099226792
 20
104.103710815127
 10
135.2292329611939
 20
104.0622943084519
 10
135.4191869107065
 20
104.0191552540596
 10
135.601303268106
 20
103.9747242888795
 10
135.7732027643578
 20
103.9294212839175
 10
135.932516896351
 20
103.8836661101798
 10
136.0768663950512
 20
103.8379001705188
 10
136.2038612255007
 20
103.7925325700174
 10
136.3111436505116
 20
103.7479939456049
 10
136.3963344010497
 20
103.7047149342106
 10
136.4570542080805
 20
103.6631154068406
 10
136.4570542080805
 20
103.6631154068406
 10
136.5006992608647
 20
103.6241427647393
 10
136.5382615670225
 20
103.5864297356562
 10
136.569504276243
 20
103.5501808721326
 10
136.5942658996775
 20
103.5155253652475
 10
136.6123311188615
 20
103.482657001619
 10
136.6235061471768
 20
103.4517588019419
 10
136.6275971980051
 20
103.4229814891417
 10
136.6244104847283
 20
103.3965080839132
 10
136.613741454805
 20
103.372500075105
 10
136.5953963216169
 20
103.3511404834119
 10
136.569181298546
 20
103.3326015636056
 10
136.534902598974
 20
103.3170448045348
 10
136.4923449044363
 20
103.3046424609711
 10
136.4413251942379
 20
103.2955775536094
 10
136.3816604476839
 20
103.2900115712982
 10
136.3131245803864
 20
103.2881167688093
 10
116.2206605198945
 20
103.2881167688093
 10
116.2206605198945
 20
109.1078949542458
 10
113.1550315816963
 20
109.1078949542458
 10
113.1550315816963
 20
103.2881167688093
 10
111.6931161000442
 20
103.2881167688093
  0
LWPOLYLINE
  5
71
330
1F
100
AcDbEntity
  8
ISS138金台
  6
Continuous
 62
   250
420
  2367521
370
    25
100
AcDbPolyline
 90
       62
 70
     0
 43
0.0
 10
111.6931161000442
 20
103.2881167688093
 10
111.6931161000442
 20
110.4311561105876
 10
117.6709380385324
 20
110.4311561105876
 10
117.6709380385324
 20
104.6664240906385
 10
130.1486861285877
 20
104.3831403526241
 10
130.6489247515815
 20
103.9220573924265
 10
131.1488080991087
 20
104.3880819113878
 10
131.1693602465594
 20
104.3881572728504
 10
131.2283898036428
 20
104.388275698006
 10
131.3219564424556
 20
104.3882541661595
 10
131.446076771402
 20
104.3879204225393
 10
131.5967996966558
 20
104.387069914604
 10
131.7701848903137
 20
104.3855303875817
 10
131.9622704926264
 20
104.3831188207777
 10
132.1690946438442
 20
104.3796521934968
 10
132.3866954842177
 20
104.3749582509675
 10
132.6111326858437
 20
104.3688324406483
 10
132.8384443889728
 20
104.3611132736906
 10
133.0646687338554
 20
104.3516177293996
 10
133.2858653925885
 20
104.3401412552339
 10
133.4980617394993
 20
104.3265331282681
 10
133.6973174466847
 20
104.3105887959609
 10
133.879659888472
 20
104.2921252376174
 10
133.879659888472
 20
104.2921252376174
 10
134.0579435772007
 20
104.2700012653747
 10
134.2450445570568
 20
104.2435816897624
 10
134.4385404953128
 20
104.2133402114026
 10
134.6360844207043
 20
104.1796428716851
 10
134.8352970641968
 20
104.1429633712323
 10
135.0338099226792
 20
104.103710815127
 10
135.2292329611939
 20
104.0622943084519
 10
135.4191869107065
 20
104.0191552540596
 10
135.601303268106
 20
103.9747242888795
 10
135.7732027643578
 20
103.9294212839175
 10
135.932516896351
 20
103.8836661101798
 10
136.0768663950512
 20
103.8379001705188
 10
136.2038612255007
 20
103.7925325700174
 10
136.3111436505116
 20
103.7479939456049
 10
136.3963344010497
 20
103.7047149342106
 10
136.4570542080805
 20
103.6631154068406
 10
136.4570542080805
 20
103.6631154068406
 10
136.5006992608647
 20
103.6241427647393
 10
136.5382615670225
 20
103.5864297356562
 10
136.569504276243
 20
103.5501808721326
 10
136.5942658996775
 20
103.5155253652475
 10
136.6123311188615
 20
103.482657001619
 10
136.6235061471768
 20
103.4517588019419
 10
136.6275971980051
 20
103.4229814891417
 10
136.6244104847283
 20
103.3965080839132
 10
136.613741454805
 20
103.372500075105
 10
136.5953963216169
 20
103.3511404834119
 10
136.569181298546
 20
103.3326015636056
 10
136.534902598974
 20
103.3170448045348
 10
136.4923449044363
 20
103.3046424609711
 10
136.4413251942379
 20
103.2955775536094
 10
136.3816604476839
 20
103.2900115712982
 10
136.3131245803864
 20
103.2881167688093
 10
116.2206605198945
 20
103.2881167688093
 10
116.2206605198945
 20
109.1078949542458
 10
113.1550315816963
 20
109.1078949542458
 10
113.1550315816963
 20
103.2881167688093
 10
111.6931161000442
 20
103.2881167688093
  0
LINE
  5
72
330
1F
100
AcDbEntity
  8
ISS138金台
  6
Continuous
 62
   250
420
  2367521
370
    13
100
AcDbLine
 10
137.6732482578761
 20
103.2412311731322
 30
0.0
 11
142.6784551597019
 21
103.2412311731322
 31
0.0
  0
LINE
  5
73
330
1F
100
AcDbEntity
  8
ISS138金台
  6
Continuous
 62
   250
420
  2367521
370
    13
100
AcDbLine
 10
142.1932134677708
 20
102.6459079161497
 30
0.0
 11
142.1932134677708
 21
104.7625745510272
 31
0.0
  0
LINE
  5
74
330
1F
100
AcDbEntity
  8
ISS138金台
  6
Continuous
 62
   250
420
  2367521
370
    13
100
AcDbLine
 10
137.6732482578761
 20
104.8066717725871
 30
0.0
 11
147.4409550881763
 21
104.8066717725871
 31
0.0
  0
LINE
  5
75
330
1F
100
AcDbEntity
  8
ISS138金台
  6
Continuous
 62
   250
420
  2367521
370
    13
100
AcDbLine
 10
136.6590121619973
 20
102.2269950772534
 30
0.0
 11
136.6590121619973
 21
91.81264383392167
 31
0.0
  0
LINE
  5
76
330
1F
100
AcDbEntity
  8
ISS138金台
  6
Continuous
 62
   250
420
  2367521
370
    13
100
AcDbLine
 10
111.6117903159466
 20
92.29756254815584
 30
0.0
 11
136.6590121619973
 21
92.29756254815584
 31
0.0
  0
LINE
  5
77
330
1F
100
AcDbEntity
  8
ISS138金台
  6
Continuous
 62
   250
420
  2367521
370
    13
100
AcDbLine
 10
111.6117903159466
 20
91.8124931109964
 30
0.0
 11
111.6117903159466
 21
102.2268443543281
 31
0.0
  0
LINE
  5
78
330
1F
100
AcDbEntity
  8
ISS138金台
  6
Continuous
 62
   250
420
  2367521
370
    13
100
AcDbLine
 10
110.5975542200677
 20
103.2412311731322
 30
0.0
 11
105.6145681837936
 21
103.2412311731322
 31
0.0
  0
LINE
  5
79
330
1F
100
AcDbEntity
  8
ISS138金台
  6
Continuous
 62
   250
420
  2367521
370
    13
100
AcDbLine
 10
106.099637620953
 20
110.5834077969404
 30
0.0
 11
106.099637620953
 21
103.2410481524372
 31
0.0
  0
LINE
  5
7A
330
1F
100
AcDbEntity
  8
ISS138金台
  6
Continuous
 62
   250
420
  2367521
370
    13
100
AcDbLine
 10
105.6145681837936
 20
110.5834077969404
 30
0.0
 11
110.5975542200677
 21
110.5834077969404
 31
0.0
  0
LINE
  5
7B
330
1F
100
AcDbEntity
  8
ISS138金台
  6
Continuous
 62
   250
420
  2367521
370
    13
100
AcDbLine
 10
111.6117903159466
 20
111.5756060479624
 30
0.0
 11
111.6117903159466
 21
116.5808129497883
 31
0.0
  0
LINE
  5
7C
330
1F
100
AcDbEntity
  8
ISS138金台
  6
Continuous
 62
   250
420
  2367521
370
    13
100
AcDbLine
 10
117.7413041127794
 20
116.5806299290933
 30
0.0
 11
117.7413041127794
 21
111.5754230272675
 31
0.0
  0
LINE
  5
7D
330
1F
100
AcDbEntity
  8
ISS138金台
  6
Continuous
 62
   250
420
  2367521
370
    13
100
AcDbLine
 10
117.7413041127794
 20
116.0735118811539
 30
0.0
 11
111.6117903159466
 21
116.0735118811539
 31
0.0
  0
HATCH
  5
7E
330
1F
100
AcDbEntity
  8
ISS138金台
  6
Continuous
 62
   250
420
  2367521
370
    13
100
AcDbHatch
 10
0.0
 20
0.0
 30
0.0
210
0.0
220
0.0
230
1.0
  2
SOLID
 70
     1
 71
     0
 91
        1
 92
        3
 72
     0
 73
     1
 93
       67
 10
111.6117903159466
 20
115.8234302503883
 10
111.6373378517771
 20
115.8247221611762
 10
111.6621317729813
 20
115.828511766154
 10
111.6860967180967
 20
115.8346591083197
 10
111.7090711982746
 20
115.8430672943642
 10
111.7309260224364
 20
115.8535856013623
 10
111.7515535313497
 20
115.8661063700816
 10
111.7708030020892
 20
115.8804896435201
 10
111.788577541346
 20
115.8966277624455
 10
111.8047264261946
 20
115.9143915357789
 10
111.8191419974028
 20
115.9336410065185
 10
111.8316842979685
 20
115.9542577495085
 10
111.8422241368131
 20
115.9761233395936
 10
111.850653854704
 20
115.999119351618
 10
111.8568227287162
 20
116.0231058285798
 10
111.8606230996172
 20
116.0479535794002
 10
111.8619150104051
 20
116.0735549448469
 10
111.8619150104051
 20
116.0735549448469
 10
111.8606230996172
 20
116.0990917147541
 10
111.8568227287162
 20
116.1238856359584
 10
111.850653854704
 20
116.1478290492273
 10
111.8422241368131
 20
116.1707819975588
 10
111.8316842979685
 20
116.1926045239509
 10
111.8191419974028
 20
116.2131997350944
 10
111.8047264261946
 20
116.2324276739875
 10
111.788577541346
 20
116.2501591495513
 10
111.7708030020892
 20
116.2662865025535
 10
111.7515535313497
 20
116.2806590100687
 10
111.7309260224364
 20
116.2931690128648
 10
111.7090604323514
 20
116.3036873198628
 10
111.6860967180967
 20
116.3120847399841
 10
111.6621425389045
 20
116.3182428480731
 10
111.6373270858538
 20
116.3220216871276
 10
111.6117903159466
 20
116.3233135979155
 10
111.6117903159466
 20
116.3233135979155
 10
111.5862535460393
 20
116.3220216871276
 10
111.5614380929886
 20
116.3182320821498
 10
111.5374946797197
 20
116.3120847399841
 10
111.5145094336185
 20
116.3036873198628
 10
111.4926546094567
 20
116.2931582469416
 10
111.4720271005434
 20
116.2806482441455
 10
111.4527776298039
 20
116.2662757366302
 10
111.4350030905472
 20
116.2501591495513
 10
111.4188542056986
 20
116.2324276739875
 10
111.4044386344904
 20
116.2131997350944
 10
111.3918963339246
 20
116.1926045239509
 10
111.3813564950801
 20
116.1707712316355
 10
111.3729267771891
 20
116.1478290492273
 10
111.3667579031769
 20
116.1238856359584
 10
111.3629575322759
 20
116.0990917147541
 10
111.361665621488
 20
116.0735549448469
 10
111.361665621488
 20
116.0735549448469
 10
111.3629575322759
 20
116.0479643453234
 10
111.3667579031769
 20
116.0230950626566
 10
111.3729267771891
 20
115.999119351618
 10
111.3813564950801
 20
115.9761233395936
 10
111.3918963339246
 20
115.9542577495085
 10
111.4044386344904
 20
115.9336302405952
 10
111.4188434397753
 20
115.9143915357789
 10
111.4350030905472
 20
115.8966277624455
 10
111.4527668638806
 20
115.8805004094433
 10
111.4720378664667
 20
115.8661063700816
 10
111.4926546094567
 20
115.8535856013623
 10
111.5145201995417
 20
115.8430672943642
 10
111.5374839137965
 20
115.8346591083197
 10
111.5614380929886
 20
115.8285010002308
 10
111.5862535460393
 20
115.8247221611762
 97
        0
 75
     1
 76
     1
 98
        0
  0
LWPOLYLINE
  5
7F
330
1F
100
AcDbEntity
  8
ISS138金台
  6
Continuous
 62
   250
420
  2367521
370
    13
100
AcDbPolyline
 90
       68
 70
     0
 43
0.0
 10
111.6117903159466
 20
115.8234302503883
 10
111.6373378517771
 20
115.8247221611762
 10
111.6621317729813
 20
115.828511766154
 10
111.6860967180967
 20
115.8346591083197
 10
111.7090711982746
 20
115.8430672943642
 10
111.7309260224364
 20
115.8535856013623
 10
111.7515535313497
 20
115.8661063700816
 10
111.7708030020892
 20
115.8804896435201
 10
111.788577541346
 20
115.8966277624455
 10
111.8047264261946
 20
115.9143915357789
 10
111.8191419974028
 20
115.9336410065185
 10
111.8316842979685
 20
115.9542577495085
 10
111.8422241368131
 20
115.9761233395936
 10
111.850653854704
 20
115.999119351618
 10
111.8568227287162
 20
116.0231058285798
 10
111.8606230996172
 20
116.0479535794002
 10
111.8619150104051
 20
116.0735549448469
 10
111.8619150104051
 20
116.0735549448469
 10
111.8606230996172
 20
116.0990917147541
 10
111.8568227287162
 20
116.1238856359584
 10
111.850653854704
 20
116.1478290492273
 10
111.8422241368131
 20
116.1707819975588
 10
111.8316842979685
 20
116.1926045239509
 10
111.8191419974028
 20
116.2131997350944
 10
111.8047264261946
 20
116.2324276739875
 10
111.788577541346
 20
116.2501591495513
 10
111.7708030020892
 20
116.2662865025535
 10
111.7515535313497
 20
116.2806590100687
 10
111.7309260224364
 20
116.2931690128648
 10
111.7090604323514
 20
116.3036873198628
 10
111.6860967180967
 20
116.3120847399841
 10
111.6621425389045
 20
116.3182428480731
 10
111.6373270858538
 20
116.3220216871276
 10
111.6117903159466
 20
116.3233135979155
 10
111.6117903159466
 20
116.3233135979155
 10
111.5862535460393
 20
116.3220216871276
 10
111.5614380929886
 20
116.3182320821498
 10
111.5374946797197
 20
116.3120847399841
 10
111.5145094336185
 20
116.3036873198628
 10
111.4926546094567
 20
116.2931582469416
 10
111.4720271005434
 20
116.2806482441455
 10
111.4527776298039
 20
116.2662757366302
 10
111.4350030905472
 20
116.2501591495513
 10
111.4188542056986
 20
116.2324276739875
 10
111.4044386344904
 20
116.2131997350944
 10
111.3918963339246
 20
116.1926045239509
 10
111.3813564950801
 20
116.1707712316355
 10
111.3729267771891
 20
116.1478290492273
 10
111.3667579031769
 20
116.1238856359584
 10
111.3629575322759
 20
116.0990917147541
 10
111.361665621488
 20
116.0735549448469
 10
111.361665621488
 20
116.0735549448469
 10
111.3629575322759
 20
116.0479643453234
 10
111.3667579031769
 20
116.0230950626566
 10
111.3729267771891
 20
115.999119351618
 10
111.3813564950801
 20
115.9761233395936
 10
111.3918963339246
 20
115.9542577495085
 10
111.4044386344904
 20
115.9336302405952
 10
111.4188434397753
 20
115.9143915357789
 10
111.4350030905472
 20
115.8966277624455
 10
111.4527668638806
 20
115.8805004094433
 10
111.4720378664667
 20
115.8661063700816
 10
111.4926546094567
 20
115.8535856013623
 10
111.5145201995417
 20
115.8430672943642
 10
111.5374839137965
 20
115.8346591083197
 10
111.5614380929886
 20
115.8285010002308
 10
111.5862535460393
 20
115.8247221611762
 10
111.6117903159466
 20
115.8234302503883
  0
HATCH
  5
80
330
1F
100
AcDbEntity
  8
ISS138金台
  6
Continuous
 62
   250
420
  2367521
370
    13
100
AcDbHatch
 10
0.0
 20
0.0
 30
0.0
210
0.0
220
0.0
230
1.0
  2
SOLID
 70
     1
 71
     0
 91
        1
 92
        3
 72
     0
 73
     1
 93
       67
 10
117.7413041127794
 20
115.8234302503883
 10
117.7668516486099
 20
115.8247221611762
 10
117.7916455698141
 20
115.828511766154
 10
117.8156105149295
 20
115.8346591083197
 10
117.8385849951074
 20
115.8430672943642
 10
117.8604398192692
 20
115.8535856013623
 10
117.8810673281825
 20
115.8661063700816
 10
117.9003167989221
 20
115.8804896435201
 10
117.9180913381788
 20
115.8966277624455
 10
117.9342402230274
 20
115.9143915357789
 10
117.9486557942356
 20
115.9336410065185
 10
117.9611980948014
 20
115.9542577495085
 10
117.9717379336459
 20
115.9761233395936
 10
117.9801676515369
 20
115.999119351618
 10
117.986336525549
 20
116.0231058285798
 10
117.9901368964501
 20
116.0479535794002
 10
117.991428807238
 20
116.0735549448469
 10
117.991428807238
 20
116.0735549448469
 10
117.9901368964501
 20
116.0990917147541
 10
117.986336525549
 20
116.1238856359584
 10
117.9801676515369
 20
116.1478290492273
 10
117.9717379336459
 20
116.1707819975588
 10
117.9611980948014
 20
116.1926045239509
 10
117.9486557942356
 20
116.2131997350944
 10
117.9342402230274
 20
116.2324276739875
 10
117.9180913381788
 20
116.2501591495513
 10
117.9003167989221
 20
116.2662865025535
 10
117.8810673281825
 20
116.2806590100687
 10
117.8604398192692
 20
116.2931690128648
 10
117.8385742291842
 20
116.3036873198628
 10
117.8156105149295
 20
116.3120847399841
 10
117.7916563357374
 20
116.3182428480731
 10
117.7668408826867
 20
116.3220216871276
 10
117.7413041127794
 20
116.3233135979155
 10
117.7413041127794
 20
116.3233135979155
 10
117.7157673428721
 20
116.3220216871276
 10
117.6909518898214
 20
116.3182320821498
 10
117.6670084765525
 20
116.3120847399841
 10
117.6440232304513
 20
116.3036873198628
 10
117.6221791722128
 20
116.2931582469416
 10
117.6015408973763
 20
116.2806482441455
 10
117.5822914266367
 20
116.2662757366302
 10
117.56451688738
 20
116.2501591495513
 10
117.5483680025314
 20
116.2324276739875
 10
117.5339524313232
 20
116.2131997350944
 10
117.5214101307574
 20
116.1926045239509
 10
117.5108702919129
 20
116.1707712316355
 10
117.5024405740219
 20
116.1478290492273
 10
117.4962717000098
 20
116.1238856359584
 10
117.4924713291087
 20
116.0990917147541
 10
117.4911794183208
 20
116.0735549448469
 10
117.4911794183208
 20
116.0735549448469
 10
117.4924713291087
 20
116.0479643453234
 10
117.4962717000098
 20
116.0230950626566
 10
117.5024405740219
 20
115.999119351618
 10
117.5108702919129
 20
115.9761233395936
 10
117.5214101307574
 20
115.9542577495085
 10
117.5339524313232
 20
115.9336302405952
 10
117.5483572366081
 20
115.9143915357789
 10
117.56451688738
 20
115.8966277624455
 10
117.5822806607135
 20
115.8805004094433
 10
117.6015516632995
 20
115.8661063700816
 10
117.6221684062896
 20
115.8535856013623
 10
117.6440339963746
 20
115.8430672943642
 10
117.6669977106293
 20
115.8346591083197
 10
117.6909518898214
 20
115.8285010002308
 10
117.7157673428721
 20
115.8247221611762
 97
        0
 75
     1
 76
     1
 98
        0
  0
LWPOLYLINE
  5
81
330
1F
100
AcDbEntity
  8
ISS138金台
  6
Continuous
 62
   250
420
  2367521
370
    13
100
AcDbPolyline
 90
       68
 70
     0
 43
0.0
 10
117.7413041127794
 20
115.8234302503883
 10
117.7668516486099
 20
115.8247221611762
 10
117.7916455698141
 20
115.828511766154
 10
117.8156105149295
 20
115.8346591083197
 10
117.8385849951074
 20
115.8430672943642
 10
117.8604398192692
 20
115.8535856013623
 10
117.8810673281825
 20
115.8661063700816
 10
117.9003167989221
 20
115.8804896435201
 10
117.9180913381788
 20
115.8966277624455
 10
117.9342402230274
 20
115.9143915357789
 10
117.9486557942356
 20
115.9336410065185
 10
117.9611980948014
 20
115.9542577495085
 10
117.9717379336459
 20
115.9761233395936
 10
117.9801676515369
 20
115.999119351618
 10
117.986336525549
 20
116.0231058285798
 10
117.9901368964501
 20
116.0479535794002
 10
117.991428807238
 20
116.0735549448469
 10
117.991428807238
 20
116.0735549448469
 10
117.9901368964501
 20
116.0990917147541
 10
117.986336525549
 20
116.1238856359584
 10
117.9801676515369
 20
116.1478290492273
 10
117.9717379336459
 20
116.1707819975588
 10
117.9611980948014
 20
116.1926045239509
 10
117.9486557942356
 20
116.2131997350944
 10
117.9342402230274
 20
116.2324276739875
 10
117.9180913381788
 20
116.2501591495513
 10
117.9003167989221
 20
116.2662865025535
 10
117.8810673281825
 20
116.2806590100687
 10
117.8604398192692
 20
116.2931690128648
 10
117.8385742291842
 20
116.3036873198628
 10
117.8156105149295
 20
116.3120847399841
 10
117.7916563357374
 20
116.3182428480731
 10
117.7668408826867
 20
116.3220216871276
 10
117.7413041127794
 20
116.3233135979155
 10
117.7413041127794
 20
116.3233135979155
 10
117.7157673428721
 20
116.3220216871276
 10
117.6909518898214
 20
116.3182320821498
 10
117.6670084765525
 20
116.3120847399841
 10
117.6440232304513
 20
116.3036873198628
 10
117.6221791722128
 20
116.2931582469416
 10
117.6015408973763
 20
116.2806482441455
 10
117.5822914266367
 20
116.2662757366302
 10
117.56451688738
 20
116.2501591495513
 10
117.5483680025314
 20
116.2324276739875
 10
117.5339524313232
 20
116.2131997350944
 10
117.5214101307574
 20
116.1926045239509
 10
117.5108702919129
 20
116.1707712316355
 10
117.5024405740219
 20
116.1478290492273
 10
117.4962717000098
 20
116.1238856359584
 10
117.4924713291087
 20
116.0990917147541
 10
117.4911794183208
 20
116.0735549448469
 10
117.4911794183208
 20
116.0735549448469
 10
117.4924713291087
 20
116.0479643453234
 10
117.4962717000098
 20
116.0230950626566
 10
117.5024405740219
 20
115.999119351618
 10
117.5108702919129
 20
115.9761233395936
 10
117.5214101307574
 20
115.9542577495085
 10
117.5339524313232
 20
115.9336302405952
 10
117.5483572366081
 20
115.9143915357789
 10
117.56451688738
 20
115.8966277624455
 10
117.5822806607135
 20
115.8805004094433
 10
117.6015516632995
 20
115.8661063700816
 10
117.6221684062896
 20
115.8535856013623
 10
117.6440339963746
 20
115.8430672943642
 10
117.6669977106293
 20
115.8346591083197
 10
117.6909518898214
 20
115.8285010002308
 10
117.7157673428721
 20
115.8247221611762
 10
117.7413041127794
 20
115.8234302503883
  0
HATCH
  5
82
330
1F
100
AcDbEntity
  8
ISS138金台
  6
Continuous
 62
   250
420
  2367521
370
    13
100
AcDbHatch
 10
0.0
 20
0.0
 30
0.0
210
0.0
220
0.0
230
1.0
  2
SOLID
 70
     1
 71
     0
 91
        1
 92
        3
 72
     0
 73
     1
 93
       67
 10
106.099637620953
 20
110.3333261661747
 10
106.1251851567835
 20
110.3346180769626
 10
106.1499790779878
 20
110.3384076819404
 10
106.1739440231031
 20
110.3445550241061
 10
106.1969185032811
 20
110.3529632101506
 10
106.2187733274429
 20
110.3634815171487
 10
106.2394008363562
 20
110.376002285868
 10
106.2586503070957
 20
110.3903963252297
 10
106.2764248463524
 20
110.4065236782319
 10
106.292573731201
 20
110.4242766856421
 10
106.3069893024092
 20
110.4435369223049
 10
106.319531602975
 20
110.464153665295
 10
106.3300714418195
 20
110.48601925538
 10
106.3385011597105
 20
110.5090152674044
 10
106.3446700337227
 20
110.5330017443662
 10
106.3484704046237
 20
110.5578494951866
 10
106.3497623154116
 20
110.5834508606333
 10
106.3497623154116
 20
110.5834508606333
 10
106.3484704046237
 20
110.6089768646173
 10
106.3446700337227
 20
110.6337815517448
 10
106.3385011597105
 20
110.6577141990904
 10
106.3300714418195
 20
110.6806779133452
 10
106.319531602975
 20
110.7025004397373
 10
106.3069893024092
 20
110.7230956508809
 10
106.292573731201
 20
110.7423128238507
 10
106.2764248463524
 20
110.7600550653377
 10
106.2586503070957
 20
110.7761716524167
 10
106.2394008363562
 20
110.7905549258551
 10
106.2187733274429
 20
110.8030649286512
 10
106.1969077373578
 20
110.8135832356493
 10
106.1739440231031
 20
110.8219806557706
 10
106.149989843911
 20
110.8281387638595
 10
106.1251743908603
 20
110.8319176029141
 10
106.099637620953
 20
110.833209513702
 10
106.099637620953
 20
110.833209513702
 10
106.0741008510457
 20
110.8319283688373
 10
106.049285397995
 20
110.8281279979362
 10
106.0253419847262
 20
110.8219698898473
 10
106.002356738625
 20
110.8135832356493
 10
105.9805019144632
 20
110.8030649286512
 10
105.9598744055499
 20
110.7905441599319
 10
105.9406249348103
 20
110.7761824183399
 10
105.9228503955536
 20
110.7600550653377
 10
105.906701510705
 20
110.7423128238507
 10
105.8922859394968
 20
110.7230956508809
 10
105.8797436389311
 20
110.7025004397373
 10
105.8692038000865
 20
110.680667147422
 10
105.8607740821956
 20
110.6577249650137
 10
105.8546052081834
 20
110.6337815517448
 10
105.8508048372823
 20
110.6089876305406
 10
105.8495129264945
 20
110.5834508606333
 10
105.8495129264945
 20
110.5834508606333
 10
105.8508048372823
 20
110.5578494951866
 10
105.8546052081834
 20
110.532990978443
 10
105.8607740821956
 20
110.5090152674044
 10
105.8692038000865
 20
110.48601925538
 10
105.8797436389311
 20
110.464153665295
 10
105.8922859394968
 20
110.4435261563817
 10
105.9066907447818
 20
110.4242766856421
 10
105.9228503955536
 20
110.4065236782319
 10
105.9406141688871
 20
110.3903855593065
 10
105.9598851714731
 20
110.376002285868
 10
105.9805019144632
 20
110.3634815171487
 10
106.0023675045482
 20
110.3529632101506
 10
106.0253312188029
 20
110.3445550241061
 10
106.049285397995
 20
110.3383969160172
 10
106.0741008510457
 20
110.3346180769626
 97
        0
 75
     1
 76
     1
 98
        0
  0
LWPOLYLINE
  5
83
330
1F
100
AcDbEntity
  8
ISS138金台
  6
Continuous
 62
   250
420
  2367521
370
    13
100
AcDbPolyline
 90
       68
 70
     0
 43
0.0
 10
106.099637620953
 20
110.3333261661747
 10
106.1251851567835
 20
110.3346180769626
 10
106.1499790779878
 20
110.3384076819404
 10
106.1739440231031
 20
110.3445550241061
 10
106.1969185032811
 20
110.3529632101506
 10
106.2187733274429
 20
110.3634815171487
 10
106.2394008363562
 20
110.376002285868
 10
106.2586503070957
 20
110.3903963252297
 10
106.2764248463524
 20
110.4065236782319
 10
106.292573731201
 20
110.4242766856421
 10
106.3069893024092
 20
110.4435369223049
 10
106.319531602975
 20
110.464153665295
 10
106.3300714418195
 20
110.48601925538
 10
106.3385011597105
 20
110.5090152674044
 10
106.3446700337227
 20
110.5330017443662
 10
106.3484704046237
 20
110.5578494951866
 10
106.3497623154116
 20
110.5834508606333
 10
106.3497623154116
 20
110.5834508606333
 10
106.3484704046237
 20
110.6089768646173
 10
106.3446700337227
 20
110.6337815517448
 10
106.3385011597105
 20
110.6577141990904
 10
106.3300714418195
 20
110.6806779133452
 10
106.319531602975
 20
110.7025004397373
 10
106.3069893024092
 20
110.7230956508809
 10
106.292573731201
 20
110.7423128238507
 10
106.2764248463524
 20
110.7600550653377
 10
106.2586503070957
 20
110.7761716524167
 10
106.2394008363562
 20
110.7905549258551
 10
106.2187733274429
 20
110.8030649286512
 10
106.1969077373578
 20
110.8135832356493
 10
106.1739440231031
 20
110.8219806557706
 10
106.149989843911
 20
110.8281387638595
 10
106.1251743908603
 20
110.8319176029141
 10
106.099637620953
 20
110.833209513702
 10
106.099637620953
 20
110.833209513702
 10
106.0741008510457
 20
110.8319283688373
 10
106.049285397995
 20
110.8281279979362
 10
106.0253419847262
 20
110.8219698898473
 10
106.002356738625
 20
110.8135832356493
 10
105.9805019144632
 20
110.8030649286512
 10
105.9598744055499
 20
110.7905441599319
 10
105.9406249348103
 20
110.7761824183399
 10
105.9228503955536
 20
110.7600550653377
 10
105.906701510705
 20
110.7423128238507
 10
105.8922859394968
 20
110.7230956508809
 10
105.8797436389311
 20
110.7025004397373
 10
105.8692038000865
 20
110.680667147422
 10
105.8607740821956
 20
110.6577249650137
 10
105.8546052081834
 20
110.6337815517448
 10
105.8508048372823
 20
110.6089876305406
 10
105.8495129264945
 20
110.5834508606333
 10
105.8495129264945
 20
110.5834508606333
 10
105.8508048372823
 20
110.5578494951866
 10
105.8546052081834
 20
110.532990978443
 10
105.8607740821956
 20
110.5090152674044
 10
105.8692038000865
 20
110.48601925538
 10
105.8797436389311
 20
110.464153665295
 10
105.8922859394968
 20
110.4435261563817
 10
105.9066907447818
 20
110.4242766856421
 10
105.9228503955536
 20
110.4065236782319
 10
105.9406141688871
 20
110.3903855593065
 10
105.9598851714731
 20
110.376002285868
 10
105.9805019144632
 20
110.3634815171487
 10
106.0023675045482
 20
110.3529632101506
 10
106.0253312188029
 20
110.3445550241061
 10
106.049285397995
 20
110.3383969160172
 10
106.0741008510457
 20
110.3346180769626
 10
106.099637620953
 20
110.3333261661747
  0
HATCH
  5
84
330
1F
100
AcDbEntity
  8
ISS138金台
  6
Continuous
 62
   250
420
  2367521
370
    13
100
AcDbHatch
 10
0.0
 20
0.0
 30
0.0
210
0.0
220
0.0
230
1.0
  2
SOLID
 70
     1
 71
     0
 91
        1
 92
        3
 72
     0
 73
     1
 93
       67
 10
106.099637620953
 20
102.9911387764433
 10
106.1251851567835
 20
102.9924306872312
 10
106.1499790779878
 20
102.996220292209
 10
106.1739440231031
 20
103.0023676343747
 10
106.1969185032811
 20
103.0107758204192
 10
106.2187733274429
 20
103.0212941274173
 10
106.2394008363562
 20
103.0338148961366
 10
106.2586503070957
 20
103.0481981695751
 10
106.2764248463524
 20
103.0643362885005
 10
106.292573731201
 20
103.0820892959107
 10
106.3069893024092
 20
103.1013495325735
 10
106.319531602975
 20
103.1219662755636
 10
106.3300714418195
 20
103.1438318656486
 10
106.3385011597105
 20
103.166827877673
 10
106.3446700337227
 20
103.1908143546348
 10
106.3484704046237
 20
103.2156621054552
 10
106.3497623154116
 20
103.2412634709019
 10
106.3497623154116
 20
103.2412634709019
 10
106.3484704046237
 20
103.2668002408092
 10
106.3446700337227
 20
103.2915941620134
 10
106.3385011597105
 20
103.3155375752823
 10
106.3300714418195
 20
103.3384797576905
 10
106.319531602975
 20
103.3603130500059
 10
106.3069893024092
 20
103.3809082611495
 10
106.292573731201
 20
103.4001362000426
 10
106.2764248463524
 20
103.4178676756063
 10
106.2586503070957
 20
103.4339842626853
 10
106.2394008363562
 20
103.4483675361237
 10
106.2187733274429
 20
103.4608775389198
 10
106.1969077373578
 20
103.4713958459179
 10
106.1739440231031
 20
103.4797932660392
 10
106.149989843911
 20
103.4859513741281
 10
106.1251743908603
 20
103.4897302131827
 10
106.099637620953
 20
103.4910221239706
 10
106.099637620953
 20
103.4910221239706
 10
106.0741008510457
 20
103.4897409791059
 10
106.049285397995
 20
103.4859406082048
 10
106.0253419847262
 20
103.4797932660392
 10
106.002356738625
 20
103.4713958459179
 10
105.9805019144632
 20
103.4608667729966
 10
105.9598744055499
 20
103.4483567702005
 10
105.9406249348103
 20
103.4339842626853
 10
105.9228503955536
 20
103.4178676756063
 10
105.906701510705
 20
103.4001362000426
 10
105.8922859394968
 20
103.3809082611495
 10
105.8797436389311
 20
103.3603130500059
 10
105.8692038000865
 20
103.3384797576905
 10
105.8607740821956
 20
103.3155375752823
 10
105.8546052081834
 20
103.2915941620134
 10
105.8508048372823
 20
103.2668002408092
 10
105.8495129264945
 20
103.2412634709019
 10
105.8495129264945
 20
103.2412634709019
 10
105.8508048372823
 20
103.2156728713784
 10
105.8546052081834
 20
103.1908035887116
 10
105.8607740821956
 20
103.166827877673
 10
105.8692038000865
 20
103.1438318656486
 10
105.8797436389311
 20
103.1219662755636
 10
105.8922859394968
 20
103.1013387666503
 10
105.9066907447818
 20
103.082100061834
 10
105.9228503955536
 20
103.0643470544237
 10
105.9406141688871
 20
103.0481981695751
 10
105.9598851714731
 20
103.0338148961366
 10
105.9805019144632
 20
103.0212941274173
 10
106.0023675045482
 20
103.0107758204192
 10
106.0253312188029
 20
103.0023676343747
 10
106.049285397995
 20
102.9962095262858
 10
106.0741008510457
 20
102.9924306872312
 97
        0
 75
     1
 76
     1
 98
        0
  0
LWPOLYLINE
  5
85
330
1F
100
AcDbEntity
  8
ISS138金台
  6
Continuous
 62
   250
420
  2367521
370
    13
100
AcDbPolyline
 90
       68
 70
     0
 43
0.0
 10
106.099637620953
 20
102.9911387764433
 10
106.1251851567835
 20
102.9924306872312
 10
106.1499790779878
 20
102.996220292209
 10
106.1739440231031
 20
103.0023676343747
 10
106.1969185032811
 20
103.0107758204192
 10
106.2187733274429
 20
103.0212941274173
 10
106.2394008363562
 20
103.0338148961366
 10
106.2586503070957
 20
103.0481981695751
 10
106.2764248463524
 20
103.0643362885005
 10
106.292573731201
 20
103.0820892959107
 10
106.3069893024092
 20
103.1013495325735
 10
106.319531602975
 20
103.1219662755636
 10
106.3300714418195
 20
103.1438318656486
 10
106.3385011597105
 20
103.166827877673
 10
106.3446700337227
 20
103.1908143546348
 10
106.3484704046237
 20
103.2156621054552
 10
106.3497623154116
 20
103.2412634709019
 10
106.3497623154116
 20
103.2412634709019
 10
106.3484704046237
 20
103.2668002408092
 10
106.3446700337227
 20
103.2915941620134
 10
106.3385011597105
 20
103.3155375752823
 10
106.3300714418195
 20
103.3384797576905
 10
106.319531602975
 20
103.3603130500059
 10
106.3069893024092
 20
103.3809082611495
 10
106.292573731201
 20
103.4001362000426
 10
106.2764248463524
 20
103.4178676756063
 10
106.2586503070957
 20
103.4339842626853
 10
106.2394008363562
 20
103.4483675361237
 10
106.2187733274429
 20
103.4608775389198
 10
106.1969077373578
 20
103.4713958459179
 10
106.1739440231031
 20
103.4797932660392
 10
106.149989843911
 20
103.4859513741281
 10
106.1251743908603
 20
103.4897302131827
 10
106.099637620953
 20
103.4910221239706
 10
106.099637620953
 20
103.4910221239706
 10
106.0741008510457
 20
103.4897409791059
 10
106.049285397995
 20
103.4859406082048
 10
106.0253419847262
 20
103.4797932660392
 10
106.002356738625
 20
103.4713958459179
 10
105.9805019144632
 20
103.4608667729966
 10
105.9598744055499
 20
103.4483567702005
 10
105.9406249348103
 20
103.4339842626853
 10
105.9228503955536
 20
103.4178676756063
 10
105.906701510705
 20
103.4001362000426
 10
105.8922859394968
 20
103.3809082611495
 10
105.8797436389311
 20
103.3603130500059
 10
105.8692038000865
 20
103.3384797576905
 10
105.8607740821956
 20
103.3155375752823
 10
105.8546052081834
 20
103.2915941620134
 10
105.8508048372823
 20
103.2668002408092
 10
105.8495129264945
 20
103.2412634709019
 10
105.8495129264945
 20
103.2412634709019
 10
105.8508048372823
 20
103.2156728713784
 10
105.8546052081834
 20
103.1908035887116
 10
105.8607740821956
 20
103.166827877673
 10
105.8692038000865
 20
103.1438318656486
 10
105.8797436389311
 20
103.1219662755636
 10
105.8922859394968
 20
103.1013387666503
 10
105.9066907447818
 20
103.082100061834
 10
105.9228503955536
 20
103.0643470544237
 10
105.9406141688871
 20
103.0481981695751
 10
105.9598851714731
 20
103.0338148961366
 10
105.9805019144632
 20
103.0212941274173
 10
106.0023675045482
 20
103.0107758204192
 10
106.0253312188029
 20
103.0023676343747
 10
106.049285397995
 20
102.9962095262858
 10
106.0741008510457
 20
102.9924306872312
 10
106.099637620953
 20
102.9911387764433
  0
HATCH
  5
86
330
1F
100
AcDbEntity
  8
ISS138金台
  6
Continuous
 62
   250
420
  2367521
370
    13
100
AcDbHatch
 10
0.0
 20
0.0
 30
0.0
210
0.0
220
0.0
230
1.0
  2
SOLID
 70
     1
 71
     0
 91
        1
 92
        3
 72
     0
 73
     1
 93
       67
 10
111.6117903159466
 20
92.04743785369728
 10
111.6373378517771
 20
92.04872976448516
 10
111.6621317729813
 20
92.05251936946297
 10
111.6860967180967
 20
92.05869900939837
 10
111.7090711982746
 20
92.06711796136611
 10
111.7309260224364
 20
92.07765780021064
 10
111.7515535313497
 20
92.09021086669964
 10
111.7708030020892
 20
92.10461567198459
 10
111.788577541346
 20
92.12077532275644
 10
111.8047264261946
 20
92.13853909608991
 10
111.8191419974028
 20
92.1577993327527
 10
111.8316842979685
 20
92.178426841666
 10
111.8422241368131
 20
92.20028166582779
 10
111.850653854704
 20
92.22325614600575
 10
111.8568227287162
 20
92.24721032519787
 10
111.8606230996172
 20
92.27202577824856
 10
111.8619150104051
 20
92.29756254815584
 10
111.8619150104051
 20
92.29756254815584
 10
111.8606230996172
 20
92.32309931806311
 10
111.8568227287162
 20
92.3479147711138
 10
111.850653854704
 20
92.37185818438269
 10
111.8422241368131
 20
92.39483266456065
 10
111.8316842979685
 20
92.41668748872245
 10
111.8191419974028
 20
92.43731499763575
 10
111.8047264261946
 20
92.45657523429853
 10
111.788577541346
 20
92.47434977355523
 10
111.7708030020892
 20
92.49049865840385
 10
111.7515535313497
 20
92.5049034636888
 10
111.7309260224364
 20
92.51744576425457
 10
111.7090604323514
 20
92.52799636902233
 10
111.6860967180967
 20
92.53641532099007
 10
111.6621425389045
 20
92.54258419500223
 10
111.6373270858538
 20
92.54638456590328
 10
111.6117903159466
 20
92.54767647669118
 10
111.6117903159466
 20
92.54767647669118
 10
111.5862535460393
 20
92.54638456590328
 10
111.5614380929886
 20
92.54258419500223
 10
111.5374946797197
 20
92.53640455506684
 10
111.5145094336185
 20
92.52799636902233
 10
111.4926546094567
 20
92.51744576425457
 10
111.4720271005434
 20
92.5049034636888
 10
111.4527776298039
 20
92.49049865840385
 10
111.4350030905472
 20
92.47434977355523
 10
111.4188542056986
 20
92.45657523429853
 10
111.4044386344904
 20
92.43731499763575
 10
111.3918963339246
 20
92.41668748872245
 10
111.3813564950801
 20
92.39483266456065
 10
111.3729267771891
 20
92.37186895030592
 10
111.3667579031769
 20
92.3479147711138
 10
111.3629575322759
 20
92.32309931806311
 10
111.361665621488
 20
92.29756254815584
 10
111.361665621488
 20
92.29756254815584
 10
111.3629575322759
 20
92.27201501232534
 10
111.3667579031769
 20
92.24721032519787
 10
111.3729267771891
 20
92.22325614600575
 10
111.3813564950801
 20
92.20029243175102
 10
111.3918963339246
 20
92.178426841666
 10
111.4044386344904
 20
92.1577993327527
 10
111.4188434397753
 20
92.13853909608991
 10
111.4350030905472
 20
92.12077532275644
 10
111.4527668638806
 20
92.10461567198459
 10
111.4720378664667
 20
92.09021086669964
 10
111.4926546094567
 20
92.07766856613388
 10
111.5145201995417
 20
92.06711796136611
 10
111.5374839137965
 20
92.05869900939837
 10
111.5614380929886
 20
92.0525301353862
 10
111.5862535460393
 20
92.04872976448516
 97
        0
 75
     1
 76
     1
 98
        0
  0
LWPOLYLINE
  5
87
330
1F
100
AcDbEntity
  8
ISS138金台
  6
Continuous
 62
   250
420
  2367521
370
    13
100
AcDbPolyline
 90
       68
 70
     0
 43
0.0
 10
111.6117903159466
 20
92.04743785369728
 10
111.6373378517771
 20
92.04872976448516
 10
111.6621317729813
 20
92.05251936946297
 10
111.6860967180967
 20
92.05869900939837
 10
111.7090711982746
 20
92.06711796136611
 10
111.7309260224364
 20
92.07765780021064
 10
111.7515535313497
 20
92.09021086669964
 10
111.7708030020892
 20
92.10461567198459
 10
111.788577541346
 20
92.12077532275644
 10
111.8047264261946
 20
92.13853909608991
 10
111.8191419974028
 20
92.1577993327527
 10
111.8316842979685
 20
92.178426841666
 10
111.8422241368131
 20
92.20028166582779
 10
111.850653854704
 20
92.22325614600575
 10
111.8568227287162
 20
92.24721032519787
 10
111.8606230996172
 20
92.27202577824856
 10
111.8619150104051
 20
92.29756254815584
 10
111.8619150104051
 20
92.29756254815584
 10
111.8606230996172
 20
92.32309931806311
 10
111.8568227287162
 20
92.3479147711138
 10
111.850653854704
 20
92.37185818438269
 10
111.8422241368131
 20
92.39483266456065
 10
111.8316842979685
 20
92.41668748872245
 10
111.8191419974028
 20
92.43731499763575
 10
111.8047264261946
 20
92.45657523429853
 10
111.788577541346
 20
92.47434977355523
 10
111.7708030020892
 20
92.49049865840385
 10
111.7515535313497
 20
92.5049034636888
 10
111.7309260224364
 20
92.51744576425457
 10
111.7090604323514
 20
92.52799636902233
 10
111.6860967180967
 20
92.53641532099007
 10
111.6621425389045
 20
92.54258419500223
 10
111.6373270858538
 20
92.54638456590328
 10
111.6117903159466
 20
92.54767647669118
 10
111.6117903159466
 20
92.54767647669118
 10
111.5862535460393
 20
92.54638456590328
 10
111.5614380929886
 20
92.54258419500223
 10
111.5374946797197
 20
92.53640455506684
 10
111.5145094336185
 20
92.52799636902233
 10
111.4926546094567
 20
92.51744576425457
 10
111.4720271005434
 20
92.5049034636888
 10
111.4527776298039
 20
92.49049865840385
 10
111.4350030905472
 20
92.47434977355523
 10
111.4188542056986
 20
92.45657523429853
 10
111.4044386344904
 20
92.43731499763575
 10
111.3918963339246
 20
92.41668748872245
 10
111.3813564950801
 20
92.39483266456065
 10
111.3729267771891
 20
92.37186895030592
 10
111.3667579031769
 20
92.3479147711138
 10
111.3629575322759
 20
92.32309931806311
 10
111.361665621488
 20
92.29756254815584
 10
111.361665621488
 20
92.29756254815584
 10
111.3629575322759
 20
92.27201501232534
 10
111.3667579031769
 20
92.24721032519787
 10
111.3729267771891
 20
92.22325614600575
 10
111.3813564950801
 20
92.20029243175102
 10
111.3918963339246
 20
92.178426841666
 10
111.4044386344904
 20
92.1577993327527
 10
111.4188434397753
 20
92.13853909608991
 10
111.4350030905472
 20
92.12077532275644
 10
111.4527668638806
 20
92.10461567198459
 10
111.4720378664667
 20
92.09021086669964
 10
111.4926546094567
 20
92.07766856613388
 10
111.5145201995417
 20
92.06711796136611
 10
111.5374839137965
 20
92.05869900939837
 10
111.5614380929886
 20
92.0525301353862
 10
111.5862535460393
 20
92.04872976448516
 10
111.6117903159466
 20
92.04743785369728
  0
HATCH
  5
88
330
1F
100
AcDbEntity
  8
ISS138金台
  6
Continuous
 62
   250
420
  2367521
370
    13
100
AcDbHatch
 10
0.0
 20
0.0
 30
0.0
210
0.0
220
0.0
230
1.0
  2
SOLID
 70
     1
 71
     0
 91
        1
 92
        3
 72
     0
 73
     1
 93
       67
 10
136.6590121619973
 20
92.04743785369728
 10
136.6845596978278
 20
92.04872976448516
 10
136.709353619032
 20
92.05251936946297
 10
136.7333185641473
 20
92.05869900939837
 10
136.7562930443253
 20
92.06711796136611
 10
136.7781478684871
 20
92.07765780021064
 10
136.7987753774004
 20
92.09021086669964
 10
136.8180248481399
 20
92.10461567198459
 10
136.8357993873967
 20
92.12077532275644
 10
136.8519482722452
 20
92.13853909608991
 10
136.8663638434535
 20
92.1577993327527
 10
136.8789169099425
 20
92.178426841666
 10
136.8894459828637
 20
92.20028166582779
 10
136.8978757007547
 20
92.22325614600575
 10
136.9040445747669
 20
92.24721032519787
 10
136.9078449456679
 20
92.27202577824856
 10
136.9091368564558
 20
92.29756254815584
 10
136.9091368564558
 20
92.29756254815584
 10
136.9078449456679
 20
92.32309931806311
 10
136.9040338088436
 20
92.3479147711138
 10
136.8978757007547
 20
92.37185818438269
 10
136.8894459828637
 20
92.39483266456065
 10
136.8789061440192
 20
92.41668748872245
 10
136.8663530775302
 20
92.43731499763575
 10
136.8519482722452
 20
92.45657523429853
 10
136.8357993873967
 20
92.47434977355523
 10
136.8180248481399
 20
92.49049865840385
 10
136.7987646114772
 20
92.5049034636888
 10
136.7781478684871
 20
92.51744576425457
 10
136.7562822784021
 20
92.52799636902233
 10
136.7333185641473
 20
92.53641532099007
 10
136.7093643849552
 20
92.54258419500223
 10
136.6845489319045
 20
92.54638456590328
 10
136.6590121619973
 20
92.54767647669118
 10
136.6590121619973
 20
92.54767647669118
 10
136.63347539209
 20
92.54638456590328
 10
136.6086599390393
 20
92.54258419500223
 10
136.5847165257704
 20
92.53640455506684
 10
136.5617312796692
 20
92.52799636902233
 10
136.5398872214307
 20
92.51744576425457
 10
136.5192489465941
 20
92.5049034636888
 10
136.4999994758546
 20
92.49049865840385
 10
136.4822249365978
 20
92.47434977355523
 10
136.4660760517492
 20
92.45657523429853
 10
136.4516604805411
 20
92.43731499763575
 10
136.4391181799753
 20
92.41668748872245
 10
136.4285783411308
 20
92.39483266456065
 10
136.4201486232398
 20
92.37186895030592
 10
136.4139797492276
 20
92.3479147711138
 10
136.4101793783266
 20
92.32309931806311
 10
136.4088874675387
 20
92.29756254815584
 10
136.4088874675387
 20
92.29756254815584
 10
136.4101793783266
 20
92.27201501232534
 10
136.4139797492276
 20
92.24721032519787
 10
136.4201486232398
 20
92.22325614600575
 10
136.4285783411308
 20
92.20029243175102
 10
136.4391289458985
 20
92.178426841666
 10
136.4516497146178
 20
92.1577993327527
 10
136.466065285826
 20
92.13853909608991
 10
136.4822249365978
 20
92.12077532275644
 10
136.4999887099313
 20
92.10461567198459
 10
136.5192597125173
 20
92.09021086669964
 10
136.5398764555074
 20
92.07766856613388
 10
136.5617420455924
 20
92.06711796136611
 10
136.5847057598472
 20
92.05869900939837
 10
136.6086599390393
 20
92.0525301353862
 10
136.63347539209
 20
92.04872976448516
 97
        0
 75
     1
 76
     1
 98
        0
  0
LWPOLYLINE
  5
89
330
1F
100
AcDbEntity
  8
ISS138金台
  6
Continuous
 62
   250
420
  2367521
370
    13
100
AcDbPolyline
 90
       68
 70
     0
 43
0.0
 10
136.6590121619973
 20
92.04743785369728
 10
136.6845596978278
 20
92.04872976448516
 10
136.709353619032
 20
92.05251936946297
 10
136.7333185641473
 20
92.05869900939837
 10
136.7562930443253
 20
92.06711796136611
 10
136.7781478684871
 20
92.07765780021064
 10
136.7987753774004
 20
92.09021086669964
 10
136.8180248481399
 20
92.10461567198459
 10
136.8357993873967
 20
92.12077532275644
 10
136.8519482722452
 20
92.13853909608991
 10
136.8663638434535
 20
92.1577993327527
 10
136.8789169099425
 20
92.178426841666
 10
136.8894459828637
 20
92.20028166582779
 10
136.8978757007547
 20
92.22325614600575
 10
136.9040445747669
 20
92.24721032519787
 10
136.9078449456679
 20
92.27202577824856
 10
136.9091368564558
 20
92.29756254815584
 10
136.9091368564558
 20
92.29756254815584
 10
136.9078449456679
 20
92.32309931806311
 10
136.9040338088436
 20
92.3479147711138
 10
136.8978757007547
 20
92.37185818438269
 10
136.8894459828637
 20
92.39483266456065
 10
136.8789061440192
 20
92.41668748872245
 10
136.8663530775302
 20
92.43731499763575
 10
136.8519482722452
 20
92.45657523429853
 10
136.8357993873967
 20
92.47434977355523
 10
136.8180248481399
 20
92.49049865840385
 10
136.7987646114772
 20
92.5049034636888
 10
136.7781478684871
 20
92.51744576425457
 10
136.7562822784021
 20
92.52799636902233
 10
136.7333185641473
 20
92.53641532099007
 10
136.7093643849552
 20
92.54258419500223
 10
136.6845489319045
 20
92.54638456590328
 10
136.6590121619973
 20
92.54767647669118
 10
136.6590121619973
 20
92.54767647669118
 10
136.63347539209
 20
92.54638456590328
 10
136.6086599390393
 20
92.54258419500223
 10
136.5847165257704
 20
92.53640455506684
 10
136.5617312796692
 20
92.52799636902233
 10
136.5398872214307
 20
92.51744576425457
 10
136.5192489465941
 20
92.5049034636888
 10
136.4999994758546
 20
92.49049865840385
 10
136.4822249365978
 20
92.47434977355523
 10
136.4660760517492
 20
92.45657523429853
 10
136.4516604805411
 20
92.43731499763575
 10
136.4391181799753
 20
92.41668748872245
 10
136.4285783411308
 20
92.39483266456065
 10
136.4201486232398
 20
92.37186895030592
 10
136.4139797492276
 20
92.3479147711138
 10
136.4101793783266
 20
92.32309931806311
 10
136.4088874675387
 20
92.29756254815584
 10
136.4088874675387
 20
92.29756254815584
 10
136.4101793783266
 20
92.27201501232534
 10
136.4139797492276
 20
92.24721032519787
 10
136.4201486232398
 20
92.22325614600575
 10
136.4285783411308
 20
92.20029243175102
 10
136.4391289458985
 20
92.178426841666
 10
136.4516497146178
 20
92.1577993327527
 10
136.466065285826
 20
92.13853909608991
 10
136.4822249365978
 20
92.12077532275644
 10
136.4999887099313
 20
92.10461567198459
 10
136.5192597125173
 20
92.09021086669964
 10
136.5398764555074
 20
92.07766856613388
 10
136.5617420455924
 20
92.06711796136611
 10
136.5847057598472
 20
92.05869900939837
 10
136.6086599390393
 20
92.0525301353862
 10
136.63347539209
 20
92.04872976448516
 10
136.6590121619973
 20
92.04743785369728
  0
HATCH
  5
8A
330
1F
100
AcDbEntity
  8
ISS138金台
  6
Continuous
 62
   250
420
  2367521
370
    13
100
AcDbHatch
 10
0.0
 20
0.0
 30
0.0
210
0.0
220
0.0
230
1.0
  2
SOLID
 70
     1
 71
     0
 91
        1
 92
        3
 72
     0
 73
     1
 93
       67
 10
142.2152620785508
 20
102.9690793997401
 10
142.2408096143812
 20
102.970371310528
 10
142.2656035355855
 20
102.9741609155058
 10
142.2895684807008
 20
102.9803082576715
 10
142.3125429608788
 20
102.988716443716
 10
142.3343977850406
 20
102.9992347507141
 10
142.3550252939539
 20
103.0117555194334
 10
142.3742747646934
 20
103.0261495587951
 10
142.3920493039502
 20
103.0422769117973
 10
142.4081981887987
 20
103.0600406851307
 10
142.422613760007
 20
103.079279389947
 10
142.435166826496
 20
103.0999068988604
 10
142.4456958994172
 20
103.1217724889454
 10
142.4541256173082
 20
103.1447685009698
 10
142.4602944913204
 20
103.1687442120084
 10
142.4640948622214
 20
103.193602728752
 10
142.4653867730093
 20
103.2192040941987
 10
142.4653867730093
 20
103.2192040941987
 10
142.4640948622214
 20
103.2447300981827
 10
142.4602837253971
 20
103.2695347853102
 10
142.4541256173082
 20
103.2934674326558
 10
142.4456958994172
 20
103.3164096150641
 10
142.4351560605727
 20
103.3382536733027
 10
142.4226029940837
 20
103.3588488844463
 10
142.4081981887987
 20
103.3780660574161
 10
142.3920493039502
 20
103.3958082989031
 10
142.3742747646934
 20
103.411924885982
 10
142.3550145280307
 20
103.4263081594205
 10
142.3343977850406
 20
103.4388181622166
 10
142.3125321949556
 20
103.4493364692147
 10
142.2895684807008
 20
103.4577338893359
 10
142.2656143015087
 20
103.4638919974249
 10
142.240798848458
 20
103.4676708364795
 10
142.2152620785508
 20
103.4689627472674
 10
142.2152620785508
 20
103.4689627472674
 10
142.1897253086435
 20
103.4676708364795
 10
142.1649098555928
 20
103.4638919974249
 10
142.1409664423239
 20
103.4577231234127
 10
142.1179811962227
 20
103.4493364692147
 10
142.0961371379842
 20
103.4388181622166
 10
142.0754988631476
 20
103.4263081594205
 10
142.0562493924081
 20
103.4119356519053
 10
142.0384748531513
 20
103.3958082989031
 10
142.0223259683027
 20
103.3780768233394
 10
142.0079103970945
 20
103.358838118523
 10
141.9953680965288
 20
103.3382536733027
 10
141.9848282576843
 20
103.3164203809873
 10
141.9763985397933
 20
103.2934781985791
 10
141.9702296657811
 20
103.2695347853102
 10
141.9664292948801
 20
103.2447408641059
 10
141.9651373840922
 20
103.2192040941987
 10
141.9651373840922
 20
103.2192040941987
 10
141.9664292948801
 20
103.193602728752
 10
141.9702296657811
 20
103.1687442120084
 10
141.9763985397933
 20
103.1447577350466
 10
141.9848282576843
 20
103.1217724889454
 10
141.995378862452
 20
103.0999068988604
 10
142.0078996311713
 20
103.0792901558703
 10
142.0223152023795
 20
103.0600406851307
 10
142.0384748531513
 20
103.0422769117973
 10
142.0562386264848
 20
103.0261387928719
 10
142.0755096290708
 20
103.0117555194334
 10
142.0961263720609
 20
102.9992347507141
 10
142.1179919621459
 20
102.988716443716
 10
142.1409556764007
 20
102.9803082576715
 10
142.1649098555928
 20
102.9741501495826
 10
142.1897253086435
 20
102.970371310528
 97
        0
 75
     1
 76
     1
 98
        0
  0
LWPOLYLINE
  5
8B
330
1F
100
AcDbEntity
  8
ISS138金台
  6
Continuous
 62
   250
420
  2367521
370
    13
100
AcDbPolyline
 90
       68
 70
     0
 43
0.0
 10
142.2152620785508
 20
102.9690793997401
 10
142.2408096143812
 20
102.970371310528
 10
142.2656035355855
 20
102.9741609155058
 10
142.2895684807008
 20
102.9803082576715
 10
142.3125429608788
 20
102.988716443716
 10
142.3343977850406
 20
102.9992347507141
 10
142.3550252939539
 20
103.0117555194334
 10
142.3742747646934
 20
103.0261495587951
 10
142.3920493039502
 20
103.0422769117973
 10
142.4081981887987
 20
103.0600406851307
 10
142.422613760007
 20
103.079279389947
 10
142.435166826496
 20
103.0999068988604
 10
142.4456958994172
 20
103.1217724889454
 10
142.4541256173082
 20
103.1447685009698
 10
142.4602944913204
 20
103.1687442120084
 10
142.4640948622214
 20
103.193602728752
 10
142.4653867730093
 20
103.2192040941987
 10
142.4653867730093
 20
103.2192040941987
 10
142.4640948622214
 20
103.2447300981827
 10
142.4602837253971
 20
103.2695347853102
 10
142.4541256173082
 20
103.2934674326558
 10
142.4456958994172
 20
103.3164096150641
 10
142.4351560605727
 20
103.3382536733027
 10
142.4226029940837
 20
103.3588488844463
 10
142.4081981887987
 20
103.3780660574161
 10
142.3920493039502
 20
103.3958082989031
 10
142.3742747646934
 20
103.411924885982
 10
142.3550145280307
 20
103.4263081594205
 10
142.3343977850406
 20
103.4388181622166
 10
142.3125321949556
 20
103.4493364692147
 10
142.2895684807008
 20
103.4577338893359
 10
142.2656143015087
 20
103.4638919974249
 10
142.240798848458
 20
103.4676708364795
 10
142.2152620785508
 20
103.4689627472674
 10
142.2152620785508
 20
103.4689627472674
 10
142.1897253086435
 20
103.4676708364795
 10
142.1649098555928
 20
103.4638919974249
 10
142.1409664423239
 20
103.4577231234127
 10
142.1179811962227
 20
103.4493364692147
 10
142.0961371379842
 20
103.4388181622166
 10
142.0754988631476
 20
103.4263081594205
 10
142.0562493924081
 20
103.4119356519053
 10
142.0384748531513
 20
103.3958082989031
 10
142.0223259683027
 20
103.3780768233394
 10
142.0079103970945
 20
103.358838118523
 10
141.9953680965288
 20
103.3382536733027
 10
141.9848282576843
 20
103.3164203809873
 10
141.9763985397933
 20
103.2934781985791
 10
141.9702296657811
 20
103.2695347853102
 10
141.9664292948801
 20
103.2447408641059
 10
141.9651373840922
 20
103.2192040941987
 10
141.9651373840922
 20
103.2192040941987
 10
141.9664292948801
 20
103.193602728752
 10
141.9702296657811
 20
103.1687442120084
 10
141.9763985397933
 20
103.1447577350466
 10
141.9848282576843
 20
103.1217724889454
 10
141.995378862452
 20
103.0999068988604
 10
142.0078996311713
 20
103.0792901558703
 10
142.0223152023795
 20
103.0600406851307
 10
142.0384748531513
 20
103.0422769117973
 10
142.0562386264848
 20
103.0261387928719
 10
142.0755096290708
 20
103.0117555194334
 10
142.0961263720609
 20
102.9992347507141
 10
142.1179919621459
 20
102.988716443716
 10
142.1409556764007
 20
102.9803082576715
 10
142.1649098555928
 20
102.9741501495826
 10
142.1897253086435
 20
102.970371310528
 10
142.2152620785508
 20
102.9690793997401
  0
HATCH
  5
8C
330
1F
100
AcDbEntity
  8
ISS138金台
  6
Continuous
 62
   250
420
  2367521
370
    13
100
AcDbHatch
 10
0.0
 20
0.0
 30
0.0
210
0.0
220
0.0
230
1.0
  2
SOLID
 70
     1
 71
     0
 91
        1
 92
        3
 72
     0
 73
     1
 93
       67
 10
142.2152620785508
 20
104.5786387526015
 10
142.2408096143812
 20
104.5799306633893
 10
142.2656035355855
 20
104.5837202683672
 10
142.2895684807008
 20
104.5898676105329
 10
142.3125429608788
 20
104.5982757965774
 10
142.3343977850406
 20
104.6087941035754
 10
142.3550252939539
 20
104.6213148722947
 10
142.3742747646934
 20
104.6356981457332
 10
142.3920493039502
 20
104.6518362646586
 10
142.4081981887987
 20
104.6695892720688
 10
142.422613760007
 20
104.6888495087316
 10
142.435166826496
 20
104.7094662517217
 10
142.4456958994172
 20
104.7313318418067
 10
142.4541256173082
 20
104.7543278538312
 10
142.4602944913204
 20
104.778314330793
 10
142.4640948622214
 20
104.8031620816134
 10
142.4653867730093
 20
104.82876344706
 10
142.4653867730093
 20
104.82876344706
 10
142.4640948622214
 20
104.8543002169673
 10
142.4602837253971
 20
104.8790941381715
 10
142.4541256173082
 20
104.9030375514404
 10
142.4456958994172
 20
104.9259797338487
 10
142.4351560605727
 20
104.947813026164
 10
142.4226029940837
 20
104.9684082373076
 10
142.4081981887987
 20
104.9876361762007
 10
142.3920493039502
 20
105.0053676517645
 10
142.3742747646934
 20
105.0214842388434
 10
142.3550145280307
 20
105.0358675122819
 10
142.3343977850406
 20
105.0483775150779
 10
142.3125321949556
 20
105.058895822076
 10
142.2895684807008
 20
105.0672932421973
 10
142.2656143015087
 20
105.0734513502862
 10
142.240798848458
 20
105.0772301893408
 10
142.2152620785508
 20
105.0785221001287
 10
142.2152620785508
 20
105.0785221001287
 10
142.1897253086435
 20
105.077240955264
 10
142.1649098555928
 20
105.073440584363
 10
142.1409664423239
 20
105.0672932421973
 10
142.1179811962227
 20
105.058895822076
 10
142.0961371379842
 20
105.0483667491547
 10
142.0754988631476
 20
105.0358567463587
 10
142.0562493924081
 20
105.0214842388434
 10
142.0384748531513
 20
105.0053676517645
 10
142.0223259683027
 20
104.9876361762007
 10
142.0079103970945
 20
104.9684082373076
 10
141.9953680965288
 20
104.947813026164
 10
141.9848282576843
 20
104.9259797338487
 10
141.9763985397933
 20
104.9030375514404
 10
141.9702296657811
 20
104.8790941381715
 10
141.9664292948801
 20
104.8543002169673
 10
141.9651373840922
 20
104.82876344706
 10
141.9651373840922
 20
104.82876344706
 10
141.9664292948801
 20
104.8031728475366
 10
141.9702296657811
 20
104.7783035648697
 10
141.9763985397933
 20
104.7543278538312
 10
141.9848282576843
 20
104.7313318418067
 10
141.995378862452
 20
104.7094662517217
 10
142.0078996311713
 20
104.6888387428084
 10
142.0223152023795
 20
104.6696000379921
 10
142.0384748531513
 20
104.6518362646586
 10
142.0562386264848
 20
104.6356981457332
 10
142.0755096290708
 20
104.6213148722947
 10
142.0961263720609
 20
104.6087941035754
 10
142.1179919621459
 20
104.5982757965774
 10
142.1409556764007
 20
104.5898676105329
 10
142.1649098555928
 20
104.5837095024439
 10
142.1897253086435
 20
104.5799306633893
 97
        0
 75
     1
 76
     1
 98
        0
  0
LWPOLYLINE
  5
8D
330
1F
100
AcDbEntity
  8
ISS138金台
  6
Continuous
 62
   250
420
  2367521
370
    13
100
AcDbPolyline
 90
       68
 70
     0
 43
0.0
 10
142.2152620785508
 20
104.5786387526015
 10
142.2408096143812
 20
104.5799306633893
 10
142.2656035355855
 20
104.5837202683672
 10
142.2895684807008
 20
104.5898676105329
 10
142.3125429608788
 20
104.5982757965774
 10
142.3343977850406
 20
104.6087941035754
 10
142.3550252939539
 20
104.6213148722947
 10
142.3742747646934
 20
104.6356981457332
 10
142.3920493039502
 20
104.6518362646586
 10
142.4081981887987
 20
104.6695892720688
 10
142.422613760007
 20
104.6888495087316
 10
142.435166826496
 20
104.7094662517217
 10
142.4456958994172
 20
104.7313318418067
 10
142.4541256173082
 20
104.7543278538312
 10
142.4602944913204
 20
104.778314330793
 10
142.4640948622214
 20
104.8031620816134
 10
142.4653867730093
 20
104.82876344706
 10
142.4653867730093
 20
104.82876344706
 10
142.4640948622214
 20
104.8543002169673
 10
142.4602837253971
 20
104.8790941381715
 10
142.4541256173082
 20
104.9030375514404
 10
142.4456958994172
 20
104.9259797338487
 10
142.4351560605727
 20
104.947813026164
 10
142.4226029940837
 20
104.9684082373076
 10
142.4081981887987
 20
104.9876361762007
 10
142.3920493039502
 20
105.0053676517645
 10
142.3742747646934
 20
105.0214842388434
 10
142.3550145280307
 20
105.0358675122819
 10
142.3343977850406
 20
105.0483775150779
 10
142.3125321949556
 20
105.058895822076
 10
142.2895684807008
 20
105.0672932421973
 10
142.2656143015087
 20
105.0734513502862
 10
142.240798848458
 20
105.0772301893408
 10
142.2152620785508
 20
105.0785221001287
 10
142.2152620785508
 20
105.0785221001287
 10
142.1897253086435
 20
105.077240955264
 10
142.1649098555928
 20
105.073440584363
 10
142.1409664423239
 20
105.0672932421973
 10
142.1179811962227
 20
105.058895822076
 10
142.0961371379842
 20
105.0483667491547
 10
142.0754988631476
 20
105.0358567463587
 10
142.0562493924081
 20
105.0214842388434
 10
142.0384748531513
 20
105.0053676517645
 10
142.0223259683027
 20
104.9876361762007
 10
142.0079103970945
 20
104.9684082373076
 10
141.9953680965288
 20
104.947813026164
 10
141.9848282576843
 20
104.9259797338487
 10
141.9763985397933
 20
104.9030375514404
 10
141.9702296657811
 20
104.8790941381715
 10
141.9664292948801
 20
104.8543002169673
 10
141.9651373840922
 20
104.82876344706
 10
141.9651373840922
 20
104.82876344706
 10
141.9664292948801
 20
104.8031728475366
 10
141.9702296657811
 20
104.7783035648697
 10
141.9763985397933
 20
104.7543278538312
 10
141.9848282576843
 20
104.7313318418067
 10
141.995378862452
 20
104.7094662517217
 10
142.0078996311713
 20
104.6888387428084
 10
142.0223152023795
 20
104.6696000379921
 10
142.0384748531513
 20
104.6518362646586
 10
142.0562386264848
 20
104.6356981457332
 10
142.0755096290708
 20
104.6213148722947
 10
142.0961263720609
 20
104.6087941035754
 10
142.1179919621459
 20
104.5982757965774
 10
142.1409556764007
 20
104.5898676105329
 10
142.1649098555928
 20
104.5837095024439
 10
142.1897253086435
 20
104.5799306633893
 10
142.2152620785508
 20
104.5786387526015
  0
TEXT
  5
8E
330
1F
100
AcDbEntity
  8
ISS138金台
  6
Continuous
 62
   250
420
  2367521
100
AcDbText
 10
113.772554172384
 20
117.1329142978334
 30
0.0
 40
2.150533301035563
  1
6
 41
0.7580032348632811
  7
MS Gothic
100
AcDbText
  0
TEXT
  5
8F
330
1F
100
AcDbEntity
  8
ISS138金台
  6
Continuous
 62
   250
420
  2367521
100
AcDbText
 10
104.6874681977172
 20
104.2554564856936
 30
0.0
 40
2.150533301035563
  1
7
 50
90.00000250447816
 41
0.9399986267089843
  7
MS Gothic
100
AcDbText
  0
TEXT
  5
90
330
1F
100
AcDbEntity
  8
ISS138金台
  6
Continuous
 62
   250
420
  2367521
100
AcDbText
 10
104.6874681977172
 20
105.6665675756119
 30
0.0
 40
2.150533301035563
  1
.
 50
90.00000250447816
 41
0.5250053405761718
  7
MS Gothic
100
AcDbText
  0
TEXT
  5
91
330
1F
100
AcDbEntity
  8
ISS138金台
  6
Continuous
 62
   250
420
  2367521
100
AcDbText
 10
104.6874681977172
 20
106.2310141647639
 30
0.0
 40
2.150533301035563
  1
 2
 50
90.00000250447816
 41
0.9799995422363279
  7
MS Gothic
100
AcDbText
  0
TEXT
  5
92
330
1F
100
AcDbEntity
  8
ISS138金台
  6
Continuous
 62
   250
420
  2367521
100
AcDbText
 10
122.5479012628138
 20
93.31284621142886
 30
0.0
 40
2.150533301035563
  1
25
 41
1.016998291015625
  7
MS Gothic
100
AcDbText
  0
TEXT
  5
93
330
1F
100
AcDbEntity
  8
ISS138金台
  6
Continuous
 62
   250
420
  2367521
100
AcDbText
 10
142.2142037452333
 20
97.46449513138474
 30
0.0
 40
2.150533301035563
  1
1.2
 50
90.00000250447816
 41
0.9887218475341795
  7
MS Gothic
100
AcDbText
  0
LINE
  5
94
330
1F
100
AcDbEntity
  8
ISS138金台
  6
Continuous
 62
   250
420
  2367521
370
    13
100
AcDbLine
 10
137.6732482578761
 20
110.5393105753804
 30
0.0
 11
147.6614411959761
 21
110.5393105753804
 31
0.0
  0
LINE
  5
95
330
1F
100
AcDbEntity
  8
ISS138金台
  6
Continuous
 62
   250
420
  2367521
370
    13
100
AcDbLine
 10
147.1762102699682
 20
104.8066717725871
 30
0.0
 11
147.1762102699682
 21
110.5393105753804
 31
0.0
  0
HATCH
  5
96
330
1F
100
AcDbEntity
  8
ISS138金台
  6
Continuous
 62
   250
420
  2367521
370
    13
100
AcDbHatch
 10
0.0
 20
0.0
 30
0.0
210
0.0
220
0.0
230
1.0
  2
SOLID
 70
     1
 71
     0
 91
        1
 92
        3
 72
     0
 73
     1
 93
       67
 10
147.154150893265
 20
110.2671803338348
 10
147.1796984290955
 20
110.2684722446227
 10
147.2044923502997
 20
110.2722618496005
 10
147.2284572954151
 20
110.2784091917662
 10
147.251431775593
 20
110.2868173778107
 10
147.2732865997548
 20
110.2973356848088
 10
147.2939141086681
 20
110.3098564535281
 10
147.3131635794077
 20
110.3242397269666
 10
147.3309381186644
 20
110.340377845892
 10
147.347087003513
 20
110.3581416192254
 10
147.3615025747212
 20
110.377391089965
 10
147.3740556412102
 20
110.398007832955
 10
147.3845847141314
 20
110.4198734230401
 10
147.3930144320224
 20
110.4428694350645
 10
147.3991833060346
 20
110.4668559120263
 10
147.4029836769357
 20
110.4917036628467
 10
147.4042755877235
 20
110.5173050282934
 10
147.4042755877235
 20
110.5173050282934
 10
147.4029836769357
 20
110.5428417982006
 10
147.3991725401114
 20
110.5676357194049
 10
147.3930144320224
 20
110.5915791326738
 10
147.3845847141314
 20
110.6145320810053
 10
147.3740448752869
 20
110.6363546073974
 10
147.361491808798
 20
110.656949818541
 10
147.347087003513
 20
110.676177757434
 10
147.3309381186644
 20
110.6939092329978
 10
147.3131635794077
 20
110.710036586
 10
147.2939033427449
 20
110.7244090935152
 10
147.2732865997548
 20
110.7369190963113
 10
147.251431775593
 20
110.7474374033093
 10
147.2284572954151
 20
110.7558348234306
 10
147.204503116223
 20
110.7619929315196
 10
147.1796876631722
 20
110.7657717705741
 10
147.154150893265
 20
110.767063681362
 10
147.154150893265
 20
110.767063681362
 10
147.1286141233577
 20
110.7657717705741
 10
147.103798670307
 20
110.7619821655963
 10
147.0798552570381
 20
110.7558348234306
 10
147.0568700109369
 20
110.7474374033093
 10
147.0350259526984
 20
110.7369083303881
 10
147.0143876778618
 20
110.724398327592
 10
146.9951382071223
 20
110.7100258200767
 10
146.9773636678656
 20
110.6939092329978
 10
146.9612147830169
 20
110.676177757434
 10
146.9467992118088
 20
110.656949818541
 10
146.934256911243
 20
110.6363546073974
 10
146.9237170723985
 20
110.614521315082
 10
146.9152873545075
 20
110.5915791326738
 10
146.9091184804954
 20
110.5676357194049
 10
146.9053181095943
 20
110.5428417982006
 10
146.9040261988064
 20
110.5173050282934
 10
146.9040261988064
 20
110.5173050282934
 10
146.9053181095943
 20
110.4917144287699
 10
146.9091184804954
 20
110.4668451461031
 10
146.9152873545075
 20
110.4428694350645
 10
146.9237170723985
 20
110.4198734230401
 10
146.9342676771662
 20
110.398007832955
 10
146.9467884458855
 20
110.3773803240417
 10
146.9612040170937
 20
110.3581416192254
 10
146.9773636678656
 20
110.340377845892
 10
146.995127441199
 20
110.3242504928898
 10
147.0143984437851
 20
110.3098564535281
 10
147.0350151867751
 20
110.2973356848088
 10
147.0568700109369
 20
110.2868173778107
 10
147.0798444911149
 20
110.2784091917662
 10
147.103798670307
 20
110.2722510836773
 10
147.1286141233577
 20
110.2684722446227
 97
        0
 75
     1
 76
     1
 98
        0
  0
LWPOLYLINE
  5
97
330
1F
100
AcDbEntity
  8
ISS138金台
  6
Continuous
 62
   250
420
  2367521
370
    13
100
AcDbPolyline
 90
       68
 70
     0
 43
0.0
 10
147.154150893265
 20
110.2671803338348
 10
147.1796984290955
 20
110.2684722446227
 10
147.2044923502997
 20
110.2722618496005
 10
147.2284572954151
 20
110.2784091917662
 10
147.251431775593
 20
110.2868173778107
 10
147.2732865997548
 20
110.2973356848088
 10
147.2939141086681
 20
110.3098564535281
 10
147.3131635794077
 20
110.3242397269666
 10
147.3309381186644
 20
110.340377845892
 10
147.347087003513
 20
110.3581416192254
 10
147.3615025747212
 20
110.377391089965
 10
147.3740556412102
 20
110.398007832955
 10
147.3845847141314
 20
110.4198734230401
 10
147.3930144320224
 20
110.4428694350645
 10
147.3991833060346
 20
110.4668559120263
 10
147.4029836769357
 20
110.4917036628467
 10
147.4042755877235
 20
110.5173050282934
 10
147.4042755877235
 20
110.5173050282934
 10
147.4029836769357
 20
110.5428417982006
 10
147.3991725401114
 20
110.5676357194049
 10
147.3930144320224
 20
110.5915791326738
 10
147.3845847141314
 20
110.6145320810053
 10
147.3740448752869
 20
110.6363546073974
 10
147.361491808798
 20
110.656949818541
 10
147.347087003513
 20
110.676177757434
 10
147.3309381186644
 20
110.6939092329978
 10
147.3131635794077
 20
110.710036586
 10
147.2939033427449
 20
110.7244090935152
 10
147.2732865997548
 20
110.7369190963113
 10
147.251431775593
 20
110.7474374033093
 10
147.2284572954151
 20
110.7558348234306
 10
147.204503116223
 20
110.7619929315196
 10
147.1796876631722
 20
110.7657717705741
 10
147.154150893265
 20
110.767063681362
 10
147.154150893265
 20
110.767063681362
 10
147.1286141233577
 20
110.7657717705741
 10
147.103798670307
 20
110.7619821655963
 10
147.0798552570381
 20
110.7558348234306
 10
147.0568700109369
 20
110.7474374033093
 10
147.0350259526984
 20
110.7369083303881
 10
147.0143876778618
 20
110.724398327592
 10
146.9951382071223
 20
110.7100258200767
 10
146.9773636678656
 20
110.6939092329978
 10
146.9612147830169
 20
110.676177757434
 10
146.9467992118088
 20
110.656949818541
 10
146.934256911243
 20
110.6363546073974
 10
146.9237170723985
 20
110.614521315082
 10
146.9152873545075
 20
110.5915791326738
 10
146.9091184804954
 20
110.5676357194049
 10
146.9053181095943
 20
110.5428417982006
 10
146.9040261988064
 20
110.5173050282934
 10
146.9040261988064
 20
110.5173050282934
 10
146.9053181095943
 20
110.4917144287699
 10
146.9091184804954
 20
110.4668451461031
 10
146.9152873545075
 20
110.4428694350645
 10
146.9237170723985
 20
110.4198734230401
 10
146.9342676771662
 20
110.398007832955
 10
146.9467884458855
 20
110.3773803240417
 10
146.9612040170937
 20
110.3581416192254
 10
146.9773636678656
 20
110.340377845892
 10
146.995127441199
 20
110.3242504928898
 10
147.0143984437851
 20
110.3098564535281
 10
147.0350151867751
 20
110.2973356848088
 10
147.0568700109369
 20
110.2868173778107
 10
147.0798444911149
 20
110.2784091917662
 10
147.103798670307
 20
110.2722510836773
 10
147.1286141233577
 20
110.2684722446227
 10
147.154150893265
 20
110.2671803338348
  0
HATCH
  5
98
330
1F
100
AcDbEntity
  8
ISS138金台
  6
Continuous
 62
   250
420
  2367521
370
    13
100
AcDbHatch
 10
0.0
 20
0.0
 30
0.0
210
0.0
220
0.0
230
1.0
  2
SOLID
 70
     1
 71
     0
 91
        1
 92
        3
 72
     0
 73
     1
 93
       67
 10
147.1762102699682
 20
104.5345415310415
 10
147.2017470398754
 20
104.5358334418294
 10
147.2265732588494
 20
104.5396230468072
 10
147.2505166721183
 20
104.5457703889729
 10
147.2734911522962
 20
104.5541785750174
 10
147.2953352105348
 20
104.5646968820155
 10
147.3159627194481
 20
104.5772176507348
 10
147.3352337220341
 20
104.5916009241733
 10
147.3529974953676
 20
104.6077390430987
 10
147.3691571461394
 20
104.6254920505089
 10
147.3835619514244
 20
104.6447522871717
 10
147.3961042519902
 20
104.6653690301618
 10
147.4066440908347
 20
104.6872346202468
 10
147.4150738087257
 20
104.7102306322712
 10
147.4212426827378
 20
104.734217109233
 10
147.4250430536388
 20
104.7590648600534
 10
147.4263349644268
 20
104.7846662255001
 10
147.4263349644268
 20
104.7846662255001
 10
147.4250538195621
 20
104.8102029954074
 10
147.4212426827378
 20
104.8349969166116
 10
147.4150738087257
 20
104.8589403298805
 10
147.4066548567579
 20
104.8818825122887
 10
147.3960934860669
 20
104.9037158046041
 10
147.3835619514244
 20
104.9243110157477
 10
147.3691571461394
 20
104.9435389546407
 10
147.3529974953676
 20
104.9612704302045
 10
147.3352229561108
 20
104.9773870172834
 10
147.3159627194481
 20
104.9917702907219
 10
147.295345976458
 20
105.004280293518
 10
147.273480386373
 20
105.0147986005161
 10
147.250505906195
 20
105.0231960206373
 10
147.2265624929261
 20
105.0293541287263
 10
147.2017470398754
 20
105.0331329677808
 10
147.1762102699682
 20
105.0344248785687
 10
147.1762102699682
 20
105.0344248785687
 10
147.1506735000609
 20
105.0331437337041
 10
147.1258688129334
 20
105.029343362803
 10
147.1019038678181
 20
105.0231960206373
 10
147.0789401535633
 20
105.0147986005161
 10
147.0570745634784
 20
105.0042695275948
 10
147.0364578204883
 20
104.9917595247987
 10
147.0171868179023
 20
104.9773870172834
 10
146.9994230445688
 20
104.9612704302045
 10
146.9832741597202
 20
104.9435389546407
 10
146.968858588512
 20
104.9243110157477
 10
146.9563162879462
 20
104.9037158046041
 10
146.9457656831785
 20
104.8818825122887
 10
146.9373467312107
 20
104.8589403298805
 10
146.9311778571985
 20
104.8349969166116
 10
146.9273774862975
 20
104.8102029954074
 10
146.9260855755096
 20
104.7846662255001
 10
146.9260855755096
 20
104.7846662255001
 10
146.9273882522207
 20
104.7590756259766
 10
146.9311778571985
 20
104.7342063433098
 10
146.9373467312107
 20
104.7102306322712
 10
146.9457764491017
 20
104.6872346202468
 10
146.956305522023
 20
104.6653690301618
 10
146.9688478225887
 20
104.6447415212485
 10
146.9832741597202
 20
104.6255028164321
 10
146.9994230445688
 20
104.6077390430987
 10
147.0171975838255
 20
104.5916009241733
 10
147.036447054565
 20
104.5772176507348
 10
147.0570745634784
 20
104.5646968820155
 10
147.0789401535633
 20
104.5541785750174
 10
147.1019038678181
 20
104.5457703889729
 10
147.1258580470102
 20
104.539612280884
 10
147.1506735000609
 20
104.5358334418294
 97
        0
 75
     1
 76
     1
 98
        0
  0
LWPOLYLINE
  5
99
330
1F
100
AcDbEntity
  8
ISS138金台
  6
Continuous
 62
   250
420
  2367521
370
    13
100
AcDbPolyline
 90
       68
 70
     0
 43
0.0
 10
147.1762102699682
 20
104.5345415310415
 10
147.2017470398754
 20
104.5358334418294
 10
147.2265732588494
 20
104.5396230468072
 10
147.2505166721183
 20
104.5457703889729
 10
147.2734911522962
 20
104.5541785750174
 10
147.2953352105348
 20
104.5646968820155
 10
147.3159627194481
 20
104.5772176507348
 10
147.3352337220341
 20
104.5916009241733
 10
147.3529974953676
 20
104.6077390430987
 10
147.3691571461394
 20
104.6254920505089
 10
147.3835619514244
 20
104.6447522871717
 10
147.3961042519902
 20
104.6653690301618
 10
147.4066440908347
 20
104.6872346202468
 10
147.4150738087257
 20
104.7102306322712
 10
147.4212426827378
 20
104.734217109233
 10
147.4250430536388
 20
104.7590648600534
 10
147.4263349644268
 20
104.7846662255001
 10
147.4263349644268
 20
104.7846662255001
 10
147.4250538195621
 20
104.8102029954074
 10
147.4212426827378
 20
104.8349969166116
 10
147.4150738087257
 20
104.8589403298805
 10
147.4066548567579
 20
104.8818825122887
 10
147.3960934860669
 20
104.9037158046041
 10
147.3835619514244
 20
104.9243110157477
 10
147.3691571461394
 20
104.9435389546407
 10
147.3529974953676
 20
104.9612704302045
 10
147.3352229561108
 20
104.9773870172834
 10
147.3159627194481
 20
104.9917702907219
 10
147.295345976458
 20
105.004280293518
 10
147.273480386373
 20
105.0147986005161
 10
147.250505906195
 20
105.0231960206373
 10
147.2265624929261
 20
105.0293541287263
 10
147.2017470398754
 20
105.0331329677808
 10
147.1762102699682
 20
105.0344248785687
 10
147.1762102699682
 20
105.0344248785687
 10
147.1506735000609
 20
105.0331437337041
 10
147.1258688129334
 20
105.029343362803
 10
147.1019038678181
 20
105.0231960206373
 10
147.0789401535633
 20
105.0147986005161
 10
147.0570745634784
 20
105.0042695275948
 10
147.0364578204883
 20
104.9917595247987
 10
147.0171868179023
 20
104.9773870172834
 10
146.9994230445688
 20
104.9612704302045
 10
146.9832741597202
 20
104.9435389546407
 10
146.968858588512
 20
104.9243110157477
 10
146.9563162879462
 20
104.9037158046041
 10
146.9457656831785
 20
104.8818825122887
 10
146.9373467312107
 20
104.8589403298805
 10
146.9311778571985
 20
104.8349969166116
 10
146.9273774862975
 20
104.8102029954074
 10
146.9260855755096
 20
104.7846662255001
 10
146.9260855755096
 20
104.7846662255001
 10
146.9273882522207
 20
104.7590756259766
 10
146.9311778571985
 20
104.7342063433098
 10
146.9373467312107
 20
104.7102306322712
 10
146.9457764491017
 20
104.6872346202468
 10
146.956305522023
 20
104.6653690301618
 10
146.9688478225887
 20
104.6447415212485
 10
146.9832741597202
 20
104.6255028164321
 10
146.9994230445688
 20
104.6077390430987
 10
147.0171975838255
 20
104.5916009241733
 10
147.036447054565
 20
104.5772176507348
 10
147.0570745634784
 20
104.5646968820155
 10
147.0789401535633
 20
104.5541785750174
 10
147.1019038678181
 20
104.5457703889729
 10
147.1258580470102
 20
104.539612280884
 10
147.1506735000609
 20
104.5358334418294
 10
147.1762102699682
 20
104.5345415310415
  0
TEXT
  5
9A
330
1F
100
AcDbEntity
  8
ISS138金台
  6
Continuous
 62
   250
420
  2367521
100
AcDbText
 10
146.3152453503085
 20
106.8131061020938
 30
0.0
 40
2.150533301035563
  1
6
 50
90.00000250447816
 41
0.7580032348632811
  7
MS Gothic
100
AcDbText
  0
LINE
  5
9B
330
1F
100
AcDbEntity
  8
ISS138金台
  6
UserDefined01
 62
   140
420
    44526
370
    13
100
AcDbLine
 10
130.5370883410433
 20
98.31683329108878
 30
0.0
 11
136.5928663296573
 21
98.31683329108878
 31
0.0
  0
TEXT
  5
9C
330
1F
100
AcDbEntity
  8
ISS138金台
  6
Continuous
 62
   140
420
    44526
100
AcDbText
 10
132.794723974726
 20
99.10599716812563
 30
0.0
 40
1.881716638406118
  1
6
 41
0.947505405970982
  7
MS Gothic
100
AcDbText
  0
HATCH
  5
9D
330
1F
100
AcDbEntity
  8
ISS138金台
  6
Continuous
 62
   140
420
    44526
370
    50
100
AcDbHatch
 10
0.0
 20
0.0
 30
0.0
210
0.0
220
0.0
230
1.0
  2
SOLID
 70
     1
 71
     0
 91
        1
 92
        3
 72
     0
 73
     1
 93
        3
 10
129.6706360733758
 20
107.4887108660146
 10
131.4027762281613
 20
107.4880003150813
 10
130.5377665942069
 20
105.989760608443
 97
        0
 75
     1
 76
     1
 98
        0
  0
LWPOLYLINE
  5
9E
330
1F
100
AcDbEntity
  8
ISS138金台
  6
Continuous
 62
   140
420
    44526
370
    50
100
AcDbPolyline
 90
        4
 70
     0
 43
0.0
 10
129.6706360733758
 20
107.4887108660146
 10
131.4027762281613
 20
107.4880003150813
 10
130.5377665942069
 20
105.989760608443
 10
129.6706360733758
 20
107.4887108660146
  0
ENDSEC
  0
SECTION
  2
OBJECTS
  0
DICTIONARY
  5
C
330
0
100
AcDbDictionary
281
     1
  3
ACAD_DETAILVIEWSTYLE
350
A6
  3
ACAD_GROUP
350
D
  3
ACAD_LAYOUT
350
1A
  3
ACAD_MATERIAL
350
43
  3
ACAD_MLEADERSTYLE
350
5B
  3
ACAD_MLINESTYLE
350
17
  3
ACAD_PLOTSETTINGS
350
19
  3
ACAD_PLOTSTYLENAME
350
E
  3
ACAD_SCALELIST
350
47
  3
ACAD_SECTIONVIEWSTYLE
350
A7
  3
ACAD_TABLESTYLE
350
59
  3
ACAD_VISUALSTYLE
350
2A
  3
ACDB_RECOMPOSE_DATA
350
A3
  3
AcDbVariableDictionary
350
9F
  0
SUN
  5
5D
330
29
100
AcDbSun
 90
        1
290
     0
 63
     7
421
 16777215
 40
1.0
291
     1
 91
  2455826
 92
 54000000
292
     0
 70
     2
 71
   256
280
     1
  0
DICTIONARY
  5
A6
102
{ACAD_REACTORS
330
C
102
}
330
C
100
AcDbDictionary
281
     1
  0
DICTIONARY
  5
D
102
{ACAD_REACTORS
330
C
102
}
330
C
100
AcDbDictionary
281
     1
  0
DICTIONARY
  5
1A
102
{ACAD_REACTORS
330
C
102
}
330
C
100
AcDbDictionary
281
     1
  3
Layout1
350
1E
  3
Layout2
350
26
  3
Model
350
22
  0
DICTIONARY
  5
43
102
{ACAD_REACTORS
330
C
102
}
330
C
100
AcDbDictionary
281
     1
  3
ByBlock
350
45
  3
ByLayer
350
44
  3
Global
350
46
  0
DICTIONARY
  5
5B
102
{ACAD_REACTORS
330
C
102
}
330
C
100
AcDbDictionary
281
     1
  3
Standard
350
5C
  0
DICTIONARY
  5
17
102
{ACAD_REACTORS
330
C
102
}
330
C
100
AcDbDictionary
281
     1
  3
Standard
350
18
  0
DICTIONARY
  5
19
102
{ACAD_REACTORS
330
C
102
}
330
C
100
AcDbDictionary
281
     1
  0
ACDBDICTIONARYWDFLT
  5
E
102
{ACAD_REACTORS
330
C
102
}
330
C
100
AcDbDictionary
281
     1
  3
Normal
350
F
100
AcDbDictionaryWithDefault
340
F
  0
DICTIONARY
  5
47
102
{ACAD_REACTORS
330
C
102
}
330
C
100
AcDbDictionary
281
     1
  3
A0
350
48
  3
A1
350
49
  3
A2
350
4A
  3
A3
350
4B
  3
A4
350
4C
  3
A5
350
4D
  3
A6
350
4E
  3
A7
350
4F
  3
A8
350
50
  3
A9
350
51
  3
B0
350
52
  3
B1
350
53
  3
B2
350
54
  3
B3
350
55
  3
B4
350
56
  3
B5
350
57
  3
B6
350
58
  0
DICTIONARY
  5
A7
102
{ACAD_REACTORS
330
C
102
}
330
C
100
AcDbDictionary
281
     1
  0
DICTIONARY
  5
59
102
{ACAD_REACTORS
330
C
102
}
330
C
100
AcDbDictionary
281
     1
  3
Standard
350
5A
  0
DICTIONARY
  5
2A
102
{ACAD_REACTORS
330
C
102
}
330
C
100
AcDbDictionary
281
     1
  3
2dWireframe
350
2F
  3
Basic
350
32
  3
Brighten
350
36
  3
ColorChange
350
3A
  3
Conceptual
350
34
  3
Dim
350
35
  3
EdgeColorOff
350
3D
  3
Facepattern
350
39
  3
Flat
350
2B
  3
FlatWithEdges
350
2C
  3
Gouraud
350
2D
  3
GouraudWithEdges
350
2E
  3
Hidden
350
31
  3
JitterOff
350
3B
  3
Linepattern
350
38
  3
OverhangOff
350
3C
  3
Realistic
350
33
  3
Shaded
350
42
  3
Shaded with edges
350
41
  3
Shades of Gray
350
3E
  3
Sketchy
350
3F
  3
Thicken
350
37
  3
Wireframe
350
30
  3
X-Ray
350
40
  0
XRECORD
  5
A3
102
{ACAD_REACTORS
330
C
102
}
330
C
100
AcDbXrecord
280
     1
 90
        1
330
5A
  0
DICTIONARY
  5
9F
102
{ACAD_REACTORS
330
C
102
}
330
C
100
AcDbDictionary
281
     1
  3
CANNOSCALE
350
A0
  3
CENTEREXE
350
A8
  3
CENTERLTYPEFILE
350
A9
  3
CMLEADERSTYLE
350
A5
  3
CTABLESTYLE
350
A4
  0
LAYOUT
  5
1E
102
{ACAD_REACTORS
330
1A
102
}
330
1A
100
AcDbPlotSettings
  1

  2
none_device
  4

  6

 40
0.0
 41
0.0
 42
0.0
 43
0.0
 44
0.0
 45
0.0
 46
0.0
 47
0.0
 48
0.0
 49
0.0
140
0.0
141
0.0
142
1.0
143
1.0
 70
   688
 72
     1
 73
     0
 74
     5
  7

 75
    16
 76
     0
 77
     5
 78
   300
147
1.0
148
0.0
149
0.0
100
AcDbLayout
  1
Layout1
 70
     1
 71
     1
 10
0.0
 20
0.0
 11
420.0
 21
297.0
 12
0.0
 22
0.0
 32
0.0
 14
1.000000000000000E+20
 24
1.000000000000000E+20
 34
1.000000000000000E+20
 15
-1.000000000000000E+20
 25
-1.000000000000000E+20
 35
-1.000000000000000E+20
146
0.0
 13
0.0
 23
0.0
 33
0.0
 16
1.0
 26
0.0
 36
0.0
 17
0.0
 27
1.0
 37
0.0
 76
     0
330
1B
  0
LAYOUT
  5
26
102
{ACAD_REACTORS
330
1A
102
}
330
1A
100
AcDbPlotSettings
  1

  2
none_device
  4

  6

 40
0.0
 41
0.0
 42
0.0
 43
0.0
 44
0.0
 45
0.0
 46
0.0
 47
0.0
 48
0.0
 49
0.0
140
0.0
141
0.0
142
1.0
143
1.0
 70
   688
 72
     1
 73
     0
 74
     5
  7

 75
    16
 76
     0
 77
     5
 78
   300
147
1.0
148
0.0
149
0.0
100
AcDbLayout
  1
Layout2
 70
     1
 71
     2
 10
0.0
 20
0.0
 11
0.0
 21
0.0
 12
0.0
 22
0.0
 32
0.0
 14
0.0
 24
0.0
 34
0.0
 15
0.0
 25
0.0
 35
0.0
146
0.0
 13
0.0
 23
0.0
 33
0.0
 16
1.0
 26
0.0
 36
0.0
 17
0.0
 27
1.0
 37
0.0
 76
     0
330
23
  0
LAYOUT
  5
22
102
{ACAD_REACTORS
330
1A
102
}
330
1A
100
AcDbPlotSettings
  1

  2
none_device
  4
Letter_(8.50_x_11.00_Inches)
  6

 40
6.35
 41
6.35
 42
6.35000508
 43
6.35000508
 44
215.9
 45
279.4
 46
0.0
 47
0.0
 48
0.0
 49
0.0
140
0.0
141
0.0
142
1.0
143
1.0
 70
  1712
 72
     1
 73
     0
 74
     0
  7

 75
     0
 76
     0
 77
     5
 78
   300
147
1.0
148
0.0
149
0.0
100
AcDbLayout
  1
Model
 70
     1
 71
     0
 10
0.0
 20
0.0
 11
302.9997823349792
 21
216.0016055409748
 12
0.0
 22
0.0
 32
0.0
 14
0.0
 24
0.0
 34
0.0
 15
302.9997823349792
 25
216.0016055409748
 35
0.0
146
0.0
 13
0.0
 23
0.0
 33
0.0
 16
1.0
 26
0.0
 36
0.0
 17
0.0
 27
1.0
 37
0.0
 76
     0
330
1F
331
29
  0
MATERIAL
  5
45
102
{ACAD_REACTORS
330
43
102
}
330
43
100
AcDbMaterial
  1
ByBlock
 72
     1
 94
      127
  0
MATERIAL
  5
44
102
{ACAD_REACTORS
330
43
102
}
330
43
100
AcDbMaterial
  1
ByLayer
 72
     1
 94
      127
  0
MATERIAL
  5
46
102
{ACAD_REACTORS
330
43
102
}
330
43
100
AcDbMaterial
  1
Global
 72
     1
 94
      127
  0
MLEADERSTYLE
  5
5C
102
{ACAD_REACTORS
330
5B
102
}
330
5B
100
AcDbMLeaderStyle
179
     2
170
     2
171
     1
172
     0
 90
        2
 40
0.0
 41
0.0
173
     1
 91
-1056964608
340
14
 92
       -2
290
     1
 42
2.0
291
     1
 43
8.0
  3
Standard
341
0
 44
4.0
300

342
11
174
     1
178
     6
175
     1
176
     0
 93
-1056964608
 45
4.0
292
     0
297
     0
 46
4.0
343
0
 94
-1056964608
 47
1.0
 49
1.0
140
1.0
293
     1
141
0.0
294
     1
177
     0
142
1.0
295
     0
296
     0
143
3.75
271
     0
272
     9
273
     9
298
     0
  0
MLINESTYLE
  5
18
102
{ACAD_REACTORS
330
17
102
}
330
17
100
AcDbMlineStyle
  2
Standard
 70
     0
  3

 62
   256
 51
90.0
 52
90.0
 71
     2
 49
0.5
 62
   256
  6
BYLAYER
 49
-0.5
 62
   256
  6
BYLAYER
  0
ACDBPLACEHOLDER
  5
F
102
{ACAD_REACTORS
330
E
102
}
330
E
  0
SCALE
  5
48
102
{ACAD_REACTORS
330
47
102
}
330
47
100
AcDbScale
 70
     0
300
1:1
140
1.0
141
1.0
290
     1
  0
SCALE
  5
49
102
{ACAD_REACTORS
330
47
102
}
330
47
100
AcDbScale
 70
     0
300
1:2
140
1.0
141
2.0
290
     0
  0
SCALE
  5
4A
102
{ACAD_REACTORS
330
47
102
}
330
47
100
AcDbScale
 70
     0
300
1:4
140
1.0
141
4.0
290
     0
  0
SCALE
  5
4B
102
{ACAD_REACTORS
330
47
102
}
330
47
100
AcDbScale
 70
     0
300
1:5
140
1.0
141
5.0
290
     0
  0
SCALE
  5
4C
102
{ACAD_REACTORS
330
47
102
}
330
47
100
AcDbScale
 70
     0
300
1:8
140
1.0
141
8.0
290
     0
  0
SCALE
  5
4D
102
{ACAD_REACTORS
330
47
102
}
330
47
100
AcDbScale
 70
     0
300
1:10
140
1.0
141
10.0
290
     0
  0
SCALE
  5
4E
102
{ACAD_REACTORS
330
47
102
}
330
47
100
AcDbScale
 70
     0
300
1:16
140
1.0
141
16.0
290
     0
  0
SCALE
  5
4F
102
{ACAD_REACTORS
330
47
102
}
330
47
100
AcDbScale
 70
     0
300
1:20
140
1.0
141
20.0
290
     0
  0
SCALE
  5
50
102
{ACAD_REACTORS
330
47
102
}
330
47
100
AcDbScale
 70
     0
300
1:30
140
1.0
141
30.0
290
     0
  0
SCALE
  5
51
102
{ACAD_REACTORS
330
47
102
}
330
47
100
AcDbScale
 70
     0
300
1:40
140
1.0
141
40.0
290
     0
  0
SCALE
  5
52
102
{ACAD_REACTORS
330
47
102
}
330
47
100
AcDbScale
 70
     0
300
1:50
140
1.0
141
50.0
290
     0
  0
SCALE
  5
53
102
{ACAD_REACTORS
330
47
102
}
330
47
100
AcDbScale
 70
     0
300
1:100
140
1.0
141
100.0
290
     0
  0
SCALE
  5
54
102
{ACAD_REACTORS
330
47
102
}
330
47
100
AcDbScale
 70
     0
300
2:1
140
2.0
141
1.0
290
     0
  0
SCALE
  5
55
102
{ACAD_REACTORS
330
47
102
}
330
47
100
AcDbScale
 70
     0
300
4:1
140
4.0
141
1.0
290
     0
  0
SCALE
  5
56
102
{ACAD_REACTORS
330
47
102
}
330
47
100
AcDbScale
 70
     0
300
8:1
140
8.0
141
1.0
290
     0
  0
SCALE
  5
57
102
{ACAD_REACTORS
330
47
102
}
330
47
100
AcDbScale
 70
     0
300
10:1
140
10.0
141
1.0
290
     0
  0
SCALE
  5
58
102
{ACAD_REACTORS
330
47
102
}
330
47
100
AcDbScale
 70
     0
300
100:1
140
100.0
141
1.0
290
     0
  0
TABLESTYLE
  5
5A
102
{ACAD_REACTORS
330
59
102
}
102
{ACAD_XDICTIONARY
360
A1
102
}
330
59
100
AcDbTableStyle
  3
Standard
 70
     0
 71
     0
 40
0.06
 41
0.06
280
     0
281
     0
  7
Standard
140
4.5
170
     2
 62
     0
 63
   257
283
     0
 90
        4
 91
        0
  1

274
    -2
284
     1
 64
     0
275
    -2
285
     1
 65
     0
276
    -2
286
     1
 66
     0
277
    -2
287
     1
 67
     0
278
    -2
288
     1
 68
     0
279
    -2
289
     1
 69
     0
  7
Standard
140
6.0
170
     5
 62
     0
 63
   257
283
     0
 90
        4
 91
        0
  1

274
    -2
284
     1
 64
     0
275
    -2
285
     1
 65
     0
276
    -2
286
     1
 66
     0
277
    -2
287
     1
 67
     0
278
    -2
288
     1
 68
     0
279
    -2
289
     1
 69
     0
  7
Standard
140
4.5
170
     5
 62
     0
 63
   257
283
     0
 90
        4
 91
        0
  1

274
    -2
284
     1
 64
     0
275
    -2
285
     1
 65
     0
276
    -2
286
     1
 66
     0
277
    -2
287
     1
 67
     0
278
    -2
288
     1
 68
     0
279
    -2
289
     1
 69
     0
  0
VISUALSTYLE
  5
2F
102
{ACAD_REACTORS
330
2A
102
}
330
2A
100
AcDbVisualStyle
  2
2dWireframe
 70
     4
177
     3
291
     0
 70
    58
 90
        0
176
     1
 90
        2
176
     1
 90
        0
176
     1
 90
        0
176
     1
 40
0.6
176
     1
 40
30.0
176
     1
 62
     7
420
 16777215
176
     1
 90
        1
176
     1
 90
        4
176
     1
 62
     7
176
     1
 62
   257
176
     1
 90
        1
176
     1
 90
        1
176
     1
 40
1.0
176
     1
 90
        0
176
     1
 62
   257
176
     1
 40
1.0
176
     1
 90
        1
176
     1
 90
        6
176
     1
 90
        2
176
     1
 62
     7
176
     1
 90
        5
176
     1
 90
        0
176
     1
 90
        0
176
     1
290
     0
176
     1
 90
        1
176
     1
 40
0.0
176
     1
 90
        0
176
     1
290
     1
176
     1
290
     1
176
     1
290
     0
176
     1
290
     0
176
     1
290
     0
176
     1
290
     0
176
     1
290
     0
176
     1
290
     0
176
     1
290
     0
176
     1
 90
       50
176
     1
 40
0.0
176
     1
 40
1.0
176
     1
 90
        0
176
     1
 62
    18
420
        0
176
     1
 90
       50
176
     1
 90
        3
176
     1
 62
     5
420
      255
176
     1
290
     0
176
     1
 90
       50
176
     1
 90
       50
176
     1
 90
       50
176
     1
290
     0
176
     1
 90
       50
176
     1
 62
   256
176
     0
 40
1.0
176
     0
 90
        2
176
     1
  1
strokes_ogs.tif
176
     1
290
     0
176
     1
 40
1.0
176
     1
 40
1.0
176
     1
  0
VISUALSTYLE
  5
32
102
{ACAD_REACTORS
330
2A
102
}
330
2A
100
AcDbVisualStyle
  2
Basic
 70
     7
177
     3
291
     1
 70
    58
 90
        1
176
     1
 90
        0
176
     1
 90
        1
176
     1
 90
        0
176
     1
 40
0.6
176
     1
 40
30.0
176
     1
 62
     7
420
 16777215
176
     1
 90
        0
176
     1
 90
        4
176
     1
 62
     7
176
     1
 62
   257
176
     1
 90
        1
176
     1
 90
        1
176
     1
 40
1.0
176
     1
 90
        8
176
     1
 62
     7
176
     1
 40
1.0
176
     1
 90
        1
176
     1
 90
        6
176
     1
 90
        2
176
     1
 62
     7
176
     1
 90
        5
176
     1
 90
        0
176
     1
 90
        0
176
     1
290
     0
176
     1
 90
        1
176
     1
 40
0.0
176
     1
 90
        0
176
     1
290
     0
176
     1
290
     1
176
     1
290
     1
176
     1
290
     0
176
     1
290
     0
176
     1
290
     0
176
     1
290
     0
176
     1
290
     0
176
     1
290
     0
176
     1
 90
       50
176
     1
 40
0.0
176
     1
 40
1.0
176
     1
 90
        0
176
     1
 62
    18
420
        0
176
     1
 90
       50
176
     1
 90
        3
176
     1
 62
     5
420
      255
176
     1
290
     0
176
     1
 90
       50
176
     1
 90
       50
176
     1
 90
       50
176
     1
290
     0
176
     1
 90
       50
176
     1
 62
   256
176
     0
 40
1.0
176
     0
 90
        2
176
     1
  1
strokes_ogs.tif
176
     1
290
     0
176
     1
 40
1.0
176
     1
 40
1.0
176
     1
  0
VISUALSTYLE
  5
36
102
{ACAD_REACTORS
330
2A
102
}
330
2A
100
AcDbVisualStyle
  2
Brighten
 70
    12
177
     3
291
     1
 70
    58
 90
        2
176
     1
 90
        2
176
     1
 90
        0
176
     1
 90
        0
176
     1
 40
0.6
176
     1
 40
30.0
176
     1
 62
     7
420
 16777215
176
     1
 90
        1
176
     1
 90
        4
176
     1
 62
     7
176
     1
 62
   257
176
     1
 90
        1
176
     1
 90
        1
176
     1
 40
1.0
176
     1
 90
        8
176
     1
 62
     7
176
     1
 40
1.0
176
     1
 90
        1
176
     1
 90
        6
176
     1
 90
        2
176
     1
 62
     7
176
     1
 90
        5
176
     1
 90
        0
176
     1
 90
        0
176
     1
290
     0
176
     1
 90
        1
176
     1
 40
50.0
176
     1
 90
        0
176
     1
290
     0
176
     1
290
     1
176
     1
290
     1
176
     1
290
     0
176
     1
290
     0
176
     1
290
     0
176
     1
290
     0
176
     1
290
     0
176
     1
290
     0
176
     1
 90
       50
176
     1
 40
0.0
176
     1
 40
1.0
176
     1
 90
        0
176
     1
 62
    18
420
        0
176
     1
 90
       50
176
     1
 90
        3
176
     1
 62
     5
420
      255
176
     1
290
     0
176
     1
 90
       50
176
     1
 90
       50
176
     1
 90
       50
176
     1
290
     0
176
     1
 90
       50
176
     1
 62
   256
176
     0
 40
1.0
176
     0
 90
        2
176
     1
  1
strokes_ogs.tif
176
     1
290
     0
176
     1
 40
1.0
176
     1
 40
1.0
176
     1
  0
VISUALSTYLE
  5
3A
102
{ACAD_REACTORS
330
2A
102
}
330
2A
100
AcDbVisualStyle
  2
ColorChange
 70
    16
177
     3
291
     1
 70
    58
 90
        2
176
     1
 90
        2
176
     1
 90
        3
176
     1
 90
        0
176
     1
 40
0.6
176
     1
 40
30.0
176
     1
 62
     8
420
  8421504
176
     1
 90
        1
176
     1
 90
        4
176
     1
 62
     7
176
     1
 62
   257
176
     1
 90
        1
176
     1
 90
        1
176
     1
 40
1.0
176
     1
 90
        8
176
     1
 62
     8
420
  8421504
176
     1
 40
1.0
176
     1
 90
        1
176
     1
 90
        6
176
     1
 90
        2
176
     1
 62
     7
176
     1
 90
        5
176
     1
 90
        0
176
     1
 90
        0
176
     1
290
     0
176
     1
 90
        1
176
     1
 40
0.0
176
     1
 90
        0
176
     1
290
     0
176
     1
290
     1
176
     1
290
     1
176
     1
290
     0
176
     1
290
     0
176
     1
290
     0
176
     1
290
     0
176
     1
290
     0
176
     1
290
     0
176
     1
 90
       50
176
     1
 40
0.0
176
     1
 40
1.0
176
     1
 90
        0
176
     1
 62
    18
420
        0
176
     1
 90
       50
176
     1
 90
        3
176
     1
 62
     5
420
      255
176
     1
290
     0
176
     1
 90
       50
176
     1
 90
       50
176
     1
 90
       50
176
     1
290
     0
176
     1
 90
       50
176
     1
 62
   256
176
     0
 40
1.0
176
     0
 90
        2
176
     1
  1
strokes_ogs.tif
176
     1
290
     0
176
     1
 40
1.0
176
     1
 40
1.0
176
     1
  0
VISUALSTYLE
  5
34
102
{ACAD_REACTORS
330
2A
102
}
330
2A
100
AcDbVisualStyle
  2
Conceptual
 70
     9
177
     3
291
     0
 70
    58
 90
        3
176
     1
 90
        2
176
     1
 90
        0
176
     1
 90
        0
176
     1
 40
0.6
176
     1
 40
30.0
176
     1
 62
     7
420
 16777215
176
     1
 90
        2
176
     1
 90
        2
176
     1
 62
     7
176
     1
 62
   257
176
     1
 90
        1
176
     1
 90
        1
176
     1
 40
179.0
176
     1
 90
        8
176
     1
 62
     7
176
     1
 40
1.0
176
     1
 90
        1
176
     1
 90
        6
176
     1
 90
        2
176
     1
 62
     7
176
     1
 90
        3
176
     1
 90
        0
176
     1
 90
        0
176
     1
290
     0
176
     1
 90
        1
176
     1
 40
0.0
176
     1
 90
        0
176
     1
290
     0
176
     1
290
     1
176
     1
290
     1
176
     1
290
     0
176
     1
290
     0
176
     1
290
     0
176
     1
290
     0
176
     1
290
     0
176
     1
290
     0
176
     1
 90
       50
176
     1
 40
0.0
176
     1
 40
1.0
176
     1
 90
        0
176
     1
 62
    18
420
        0
176
     1
 90
       50
176
     1
 90
        3
176
     1
 62
     5
420
      255
176
     1
290
     0
176
     1
 90
       50
176
     1
 90
       50
176
     1
 90
       50
176
     1
290
     0
176
     1
 90
       50
176
     1
 62
   256
176
     0
 40
1.0
176
     0
 90
        2
176
     1
  1
strokes_ogs.tif
176
     1
290
     0
176
     1
 40
1.0
176
     1
 40
1.0
176
     1
  0
VISUALSTYLE
  5
35
102
{ACAD_REACTORS
330
2A
102
}
330
2A
100
AcDbVisualStyle
  2
Dim
 70
    11
177
     3
291
     1
 70
    58
 90
        2
176
     1
 90
        2
176
     1
 90
        0
176
     1
 90
        0
176
     1
 40
0.6
176
     1
 40
30.0
176
     1
 62
     7
420
 16777215
176
     1
 90
        1
176
     1
 90
        4
176
     1
 62
     7
176
     1
 62
   257
176
     1
 90
        1
176
     1
 90
        1
176
     1
 40
1.0
176
     1
 90
        8
176
     1
 62
     7
176
     1
 40
1.0
176
     1
 90
        1
176
     1
 90
        6
176
     1
 90
        2
176
     1
 62
     7
176
     1
 90
        5
176
     1
 90
        0
176
     1
 90
        0
176
     1
290
     0
176
     1
 90
        1
176
     1
 40
-50.0
176
     1
 90
        0
176
     1
290
     0
176
     1
290
     1
176
     1
290
     1
176
     1
290
     0
176
     1
290
     0
176
     1
290
     0
176
     1
290
     0
176
     1
290
     0
176
     1
290
     0
176
     1
 90
       50
176
     1
 40
0.0
176
     1
 40
1.0
176
     1
 90
        0
176
     1
 62
    18
420
        0
176
     1
 90
       50
176
     1
 90
        3
176
     1
 62
     5
420
      255
176
     1
290
     0
176
     1
 90
       50
176
     1
 90
       50
176
     1
 90
       50
176
     1
290
     0
176
     1
 90
       50
176
     1
 62
   256
176
     0
 40
1.0
176
     0
 90
        2
176
     1
  1
strokes_ogs.tif
176
     1
290
     0
176
     1
 40
1.0
176
     1
 40
1.0
176
     1
  0
VISUALSTYLE
  5
3D
102
{ACAD_REACTORS
330
2A
102
}
330
2A
100
AcDbVisualStyle
  2
EdgeColorOff
 70
    22
177
     3
291
     1
 70
    58
 90
        2
176
     0
 90
        2
176
     0
 90
        0
176
     0
 90
        0
176
     0
 40
0.6
176
     0
 40
30.0
176
     0
 62
     7
420
 16777215
176
     0
 90
        1
176
     0
 90
        4
176
     0
 62
     7
176
     0
 62
   257
176
     0
 90
        1
176
     0
 90
        1
176
     0
 40
1.0
176
     0
 90
        8
176
     2
 62
     7
176
     0
 40
1.0
176
     0
 90
        1
176
     0
 90
        6
176
     0
 90
        2
176
     0
 62
     7
176
     0
 90
        5
176
     0
 90
        0
176
     0
 90
        0
176
     0
290
     0
176
     0
 90
        1
176
     0
 40
0.0
176
     0
 90
        0
176
     0
290
     0
176
     0
290
     1
176
     0
290
     1
176
     0
290
     0
176
     0
290
     0
176
     0
290
     0
176
     0
290
     0
176
     0
290
     0
176
     0
290
     0
176
     0
 90
       50
176
     0
 40
0.0
176
     0
 40
1.0
176
     0
 90
        0
176
     0
 62
    18
420
        0
176
     0
 90
       50
176
     0
 90
        3
176
     0
 62
     5
420
      255
176
     0
290
     0
176
     0
 90
       50
176
     0
 90
       50
176
     0
 90
       50
176
     0
290
     0
176
     0
 90
       50
176
     0
 62
   256
176
     0
 40
1.0
176
     0
 90
        2
176
     0
  1
strokes_ogs.tif
176
     0
290
     0
176
     0
 40
1.0
176
     0
 40
1.0
176
     0
  0
VISUALSTYLE
  5
39
102
{ACAD_REACTORS
330
2A
102
}
330
2A
100
AcDbVisualStyle
  2
Facepattern
 70
    15
177
     3
291
     1
 70
    58
 90
        2
176
     1
 90
        2
176
     1
 90
        0
176
     1
 90
        0
176
     1
 40
0.6
176
     1
 40
30.0
176
     1
 62
     7
420
 16777215
176
     1
 90
        1
176
     1
 90
        4
176
     1
 62
     7
176
     1
 62
   257
176
     1
 90
        1
176
     1
 90
        1
176
     1
 40
1.0
176
     1
 90
        8
176
     1
 62
     7
176
     1
 40
1.0
176
     1
 90
        1
176
     1
 90
        6
176
     1
 90
        2
176
     1
 62
     7
176
     1
 90
        5
176
     1
 90
        0
176
     1
 90
        0
176
     1
290
     0
176
     1
 90
        1
176
     1
 40
0.0
176
     1
 90
        0
176
     1
290
     0
176
     1
290
     1
176
     1
290
     1
176
     1
290
     0
176
     1
290
     0
176
     1
290
     0
176
     1
290
     0
176
     1
290
     0
176
     1
290
     0
176
     1
 90
       50
176
     1
 40
0.0
176
     1
 40
1.0
176
     1
 90
        0
176
     1
 62
    18
420
        0
176
     1
 90
       50
176
     1
 90
        3
176
     1
 62
     5
420
      255
176
     1
290
     0
176
     1
 90
       50
176
     1
 90
       50
176
     1
 90
       50
176
     1
290
     0
176
     1
 90
       50
176
     1
 62
   256
176
     0
 40
1.0
176
     0
 90
        2
176
     1
  1
strokes_ogs.tif
176
     1
290
     0
176
     1
 40
1.0
176
     1
 40
1.0
176
     1
  0
VISUALSTYLE
  5
2B
102
{ACAD_REACTORS
330
2A
102
}
330
2A
100
AcDbVisualStyle
  2
Flat
 70
     0
177
     3
291
     1
 70
    58
 90
        2
176
     1
 90
        1
176
     1
 90
        1
176
     1
 90
        2
176
     1
 40
0.6
176
     1
 40
30.0
176
     1
 62
     7
420
 16777215
176
     1
 90
        0
176
     1
 90
        0
176
     1
 62
     7
176
     1
 62
   257
176
     1
 90
        1
176
     1
 90
        1
176
     1
 40
1.0
176
     1
 90
        8
176
     1
 62
     7
176
     1
 40
1.0
176
     1
 90
        1
176
     1
 90
        6
176
     1
 90
        2
176
     1
 62
     7
176
     1
 90
        5
176
     1
 90
        0
176
     1
 90
        0
176
     1
290
     0
176
     1
 90
       13
176
     1
 40
0.0
176
     1
 90
        0
176
     1
290
     0
176
     1
290
     1
176
     1
290
     1
176
     1
290
     0
176
     1
290
     0
176
     1
290
     0
176
     1
290
     0
176
     1
290
     0
176
     1
290
     0
176
     1
 90
       50
176
     1
 40
0.0
176
     1
 40
1.0
176
     1
 90
        0
176
     1
 62
    18
420
        0
176
     1
 90
       50
176
     1
 90
        3
176
     1
 62
     5
420
      255
176
     1
290
     0
176
     1
 90
       50
176
     1
 90
       50
176
     1
 90
       50
176
     1
290
     0
176
     1
 90
       50
176
     1
 62
   256
176
     0
 40
1.0
176
     0
 90
        2
176
     1
  1
strokes_ogs.tif
176
     1
290
     0
176
     1
 40
1.0
176
     1
 40
1.0
176
     1
  0
VISUALSTYLE
  5
2C
102
{ACAD_REACTORS
330
2A
102
}
330
2A
100
AcDbVisualStyle
  2
FlatWithEdges
 70
     1
177
     3
291
     1
 70
    58
 90
        2
176
     1
 90
        1
176
     1
 90
        1
176
     1
 90
        2
176
     1
 40
0.6
176
     1
 40
30.0
176
     1
 62
     7
420
 16777215
176
     1
 90
        1
176
     1
 90
        0
176
     1
 62
     7
176
     1
 62
   257
176
     1
 90
        1
176
     1
 90
        1
176
     1
 40
1.0
176
     1
 90
        0
176
     1
 62
   257
176
     1
 40
1.0
176
     1
 90
        1
176
     1
 90
        6
176
     1
 90
        2
176
     1
 62
     7
176
     1
 90
        5
176
     1
 90
        0
176
     1
 90
        0
176
     1
290
     0
176
     1
 90
       13
176
     1
 40
0.0
176
     1
 90
        0
176
     1
290
     0
176
     1
290
     1
176
     1
290
     1
176
     1
290
     0
176
     1
290
     0
176
     1
290
     0
176
     1
290
     0
176
     1
290
     0
176
     1
290
     0
176
     1
 90
       50
176
     1
 40
0.0
176
     1
 40
1.0
176
     1
 90
        0
176
     1
 62
    18
420
        0
176
     1
 90
       50
176
     1
 90
        3
176
     1
 62
     5
420
      255
176
     1
290
     0
176
     1
 90
       50
176
     1
 90
       50
176
     1
 90
       50
176
     1
290
     0
176
     1
 90
       50
176
     1
 62
   256
176
     0
 40
1.0
176
     0
 90
        2
176
     1
  1
strokes_ogs.tif
176
     1
290
     0
176
     1
 40
1.0
176
     1
 40
1.0
176
     1
  0
VISUALSTYLE
  5
2D
102
{ACAD_REACTORS
330
2A
102
}
330
2A
100
AcDbVisualStyle
  2
Gouraud
 70
     2
177
     3
291
     1
 70
    58
 90
        2
176
     1
 90
        2
176
     1
 90
        1
176
     1
 90
        2
176
     1
 40
0.6
176
     1
 40
30.0
176
     1
 62
     7
420
 16777215
176
     1
 90
        0
176
     1
 90
        0
176
     1
 62
     7
176
     1
 62
   257
176
     1
 90
        1
176
     1
 90
        1
176
     1
 40
1.0
176
     1
 90
        0
176
     1
 62
     7
176
     1
 40
1.0
176
     1
 90
        1
176
     1
 90
        6
176
     1
 90
        2
176
     1
 62
     7
176
     1
 90
        5
176
     1
 90
        0
176
     1
 90
        0
176
     1
290
     0
176
     1
 90
       13
176
     1
 40
0.0
176
     1
 90
        0
176
     1
290
     0
176
     1
290
     1
176
     1
290
     1
176
     1
290
     0
176
     1
290
     0
176
     1
290
     0
176
     1
290
     0
176
     1
290
     0
176
     1
290
     0
176
     1
 90
       50
176
     1
 40
0.0
176
     1
 40
1.0
176
     1
 90
        0
176
     1
 62
    18
420
        0
176
     1
 90
       50
176
     1
 90
        3
176
     1
 62
     5
420
      255
176
     1
290
     0
176
     1
 90
       50
176
     1
 90
       50
176
     1
 90
       50
176
     1
290
     0
176
     1
 90
       50
176
     1
 62
   256
176
     0
 40
1.0
176
     0
 90
        2
176
     1
  1
strokes_ogs.tif
176
     1
290
     0
176
     1
 40
1.0
176
     1
 40
1.0
176
     1
  0
VISUALSTYLE
  5
2E
102
{ACAD_REACTORS
330
2A
102
}
330
2A
100
AcDbVisualStyle
  2
GouraudWithEdges
 70
     3
177
     3
291
     1
 70
    58
 90
        2
176
     1
 90
        2
176
     1
 90
        1
176
     1
 90
        2
176
     1
 40
0.6
176
     1
 40
30.0
176
     1
 62
     7
420
 16777215
176
     1
 90
        1
176
     1
 90
        0
176
     1
 62
     7
176
     1
 62
   257
176
     1
 90
        1
176
     1
 90
        1
176
     1
 40
1.0
176
     1
 90
        0
176
     1
 62
   257
176
     1
 40
1.0
176
     1
 90
        1
176
     1
 90
        6
176
     1
 90
        2
176
     1
 62
     7
176
     1
 90
        5
176
     1
 90
        0
176
     1
 90
        0
176
     1
290
     0
176
     1
 90
       13
176
     1
 40
0.0
176
     1
 90
        0
176
     1
290
     0
176
     1
290
     1
176
     1
290
     1
176
     1
290
     0
176
     1
290
     0
176
     1
290
     0
176
     1
290
     0
176
     1
290
     0
176
     1
290
     0
176
     1
 90
       50
176
     1
 40
0.0
176
     1
 40
1.0
176
     1
 90
        0
176
     1
 62
    18
420
        0
176
     1
 90
       50
176
     1
 90
        3
176
     1
 62
     5
420
      255
176
     1
290
     0
176
     1
 90
       50
176
     1
 90
       50
176
     1
 90
       50
176
     1
290
     0
176
     1
 90
       50
176
     1
 62
   256
176
     0
 40
1.0
176
     0
 90
        2
176
     1
  1
strokes_ogs.tif
176
     1
290
     0
176
     1
 40
1.0
176
     1
 40
1.0
176
     1
  0
VISUALSTYLE
  5
31
102
{ACAD_REACTORS
330
2A
102
}
330
2A
100
AcDbVisualStyle
  2
Hidden
 70
     6
177
     3
291
     0
 70
    58
 90
        1
176
     1
 90
        2
176
     1
 90
        2
176
     1
 90
        0
176
     1
 40
0.6
176
     1
 40
30.0
176
     1
 62
     7
420
 16777215
176
     1
 90
        2
176
     1
 90
        2
176
     1
 62
     7
176
     1
 62
   257
176
     1
 90
        2
176
     1
 90
        1
176
     1
 40
40.0
176
     1
 90
        0
176
     1
 62
   257
176
     1
 40
1.0
176
     1
 90
        1
176
     1
 90
        6
176
     1
 90
        2
176
     1
 62
     7
176
     1
 90
        3
176
     1
 90
        0
176
     1
 90
        0
176
     1
290
     0
176
     1
 90
        1
176
     1
 40
0.0
176
     1
 90
        0
176
     1
290
     0
176
     1
290
     1
176
     1
290
     1
176
     1
290
     0
176
     1
290
     0
176
     1
290
     0
176
     1
290
     0
176
     1
290
     0
176
     1
290
     0
176
     1
 90
       50
176
     1
 40
0.0
176
     1
 40
1.0
176
     1
 90
        0
176
     1
 62
    18
420
        0
176
     1
 90
       50
176
     1
 90
        3
176
     1
 62
     5
420
      255
176
     1
290
     0
176
     1
 90
       50
176
     1
 90
       50
176
     1
 90
       50
176
     1
290
     0
176
     1
 90
       50
176
     1
 62
   256
176
     0
 40
1.0
176
     0
 90
        2
176
     1
  1
strokes_ogs.tif
176
     1
290
     0
176
     1
 40
1.0
176
     1
 40
1.0
176
     1
  0
VISUALSTYLE
  5
3B
102
{ACAD_REACTORS
330
2A
102
}
330
2A
100
AcDbVisualStyle
  2
JitterOff
 70
    20
177
     3
291
     1
 70
    58
 90
        2
176
     0
 90
        2
176
     0
 90
        0
176
     0
 90
        0
176
     0
 40
0.6
176
     0
 40
30.0
176
     0
 62
     7
420
 16777215
176
     0
 90
        1
176
     0
 90
        4
176
     0
 62
     7
176
     0
 62
   257
176
     0
 90
        1
176
     0
 90
        1
176
     0
 40
1.0
176
     0
 90
       10
176
     2
 62
     7
176
     0
 40
1.0
176
     0
 90
        1
176
     0
 90
        6
176
     0
 90
        2
176
     0
 62
     7
176
     0
 90
        5
176
     0
 90
        0
176
     0
 90
        0
176
     0
290
     0
176
     0
 90
        1
176
     0
 40
0.0
176
     0
 90
        0
176
     0
290
     0
176
     0
290
     1
176
     0
290
     1
176
     0
290
     0
176
     0
290
     0
176
     0
290
     0
176
     0
290
     0
176
     0
290
     0
176
     0
290
     0
176
     0
 90
       50
176
     0
 40
0.0
176
     0
 40
1.0
176
     0
 90
        0
176
     0
 62
    18
420
        0
176
     0
 90
       50
176
     0
 90
        3
176
     0
 62
     5
420
      255
176
     0
290
     0
176
     0
 90
       50
176
     0
 90
       50
176
     0
 90
       50
176
     0
290
     0
176
     0
 90
       50
176
     0
 62
   256
176
     0
 40
1.0
176
     0
 90
        2
176
     0
  1
strokes_ogs.tif
176
     0
290
     0
176
     0
 40
1.0
176
     0
 40
1.0
176
     0
  0
VISUALSTYLE
  5
38
102
{ACAD_REACTORS
330
2A
102
}
330
2A
100
AcDbVisualStyle
  2
Linepattern
 70
    14
177
     3
291
     1
 70
    58
 90
        2
176
     1
 90
        2
176
     1
 90
        0
176
     1
 90
        0
176
     1
 40
0.6
176
     1
 40
30.0
176
     1
 62
     7
420
 16777215
176
     1
 90
        1
176
     1
 90
        4
176
     1
 62
     7
176
     1
 62
   257
176
     1
 90
        7
176
     1
 90
        7
176
     1
 40
1.0
176
     1
 90
        8
176
     1
 62
     7
176
     1
 40
1.0
176
     1
 90
        1
176
     1
 90
        6
176
     1
 90
        2
176
     1
 62
     7
176
     1
 90
        5
176
     1
 90
        0
176
     1
 90
        0
176
     1
290
     0
176
     1
 90
        1
176
     1
 40
0.0
176
     1
 90
        0
176
     1
290
     0
176
     1
290
     1
176
     1
290
     1
176
     1
290
     0
176
     1
290
     0
176
     1
290
     0
176
     1
290
     0
176
     1
290
     0
176
     1
290
     0
176
     1
 90
       50
176
     1
 40
0.0
176
     1
 40
1.0
176
     1
 90
        0
176
     1
 62
    18
420
        0
176
     1
 90
       50
176
     1
 90
        3
176
     1
 62
     5
420
      255
176
     1
290
     0
176
     1
 90
       50
176
     1
 90
       50
176
     1
 90
       50
176
     1
290
     0
176
     1
 90
       50
176
     1
 62
   256
176
     0
 40
1.0
176
     0
 90
        2
176
     1
  1
strokes_ogs.tif
176
     1
290
     0
176
     1
 40
1.0
176
     1
 40
1.0
176
     1
  0
VISUALSTYLE
  5
3C
102
{ACAD_REACTORS
330
2A
102
}
330
2A
100
AcDbVisualStyle
  2
OverhangOff
 70
    21
177
     3
291
     1
 70
    58
 90
        2
176
     0
 90
        2
176
     0
 90
        0
176
     0
 90
        0
176
     0
 40
0.6
176
     0
 40
30.0
176
     0
 62
     7
420
 16777215
176
     0
 90
        1
176
     0
 90
        4
176
     0
 62
     7
176
     0
 62
   257
176
     0
 90
        1
176
     0
 90
        1
176
     0
 40
1.0
176
     0
 90
        9
176
     2
 62
     7
176
     0
 40
1.0
176
     0
 90
        1
176
     0
 90
        6
176
     0
 90
        2
176
     0
 62
     7
176
     0
 90
        5
176
     0
 90
        0
176
     0
 90
        0
176
     0
290
     0
176
     0
 90
        1
176
     0
 40
0.0
176
     0
 90
        0
176
     0
290
     0
176
     0
290
     1
176
     0
290
     1
176
     0
290
     0
176
     0
290
     0
176
     0
290
     0
176
     0
290
     0
176
     0
290
     0
176
     0
290
     0
176
     0
 90
       50
176
     0
 40
0.0
176
     0
 40
1.0
176
     0
 90
        0
176
     0
 62
    18
420
        0
176
     0
 90
       50
176
     0
 90
        3
176
     0
 62
     5
420
      255
176
     0
290
     0
176
     0
 90
       50
176
     0
 90
       50
176
     0
 90
       50
176
     0
290
     0
176
     0
 90
       50
176
     0
 62
   256
176
     0
 40
1.0
176
     0
 90
        2
176
     0
  1
strokes_ogs.tif
176
     0
290
     0
176
     0
 40
1.0
176
     0
 40
1.0
176
     0
  0
VISUALSTYLE
  5
33
102
{ACAD_REACTORS
330
2A
102
}
330
2A
100
AcDbVisualStyle
  2
Realistic
 70
     8
177
     3
291
     0
 70
    58
 90
        2
176
     1
 90
        3
176
     1
 90
        0
176
     1
 90
        2
176
     1
 40
0.6
176
     1
 40
30.0
176
     1
 62
     7
420
 16777215
176
     1
 90
        0
176
     1
 90
        0
176
     1
 62
     7
176
     1
 62
   257
176
     1
 90
        1
176
     1
 90
        1
176
     1
 40
1.0
176
     1
 90
        8
176
     1
 62
   257
176
     1
 40
1.0
176
     1
 90
        1
176
     1
 90
        6
176
     1
 90
        2
176
     1
 62
     7
176
     1
 90
        3
176
     1
 90
        0
176
     1
 90
        0
176
     1
290
     0
176
     1
 90
       13
176
     1
 40
0.0
176
     1
 90
        0
176
     1
290
     0
176
     1
290
     1
176
     1
290
     1
176
     1
290
     0
176
     1
290
     0
176
     1
290
     0
176
     1
290
     0
176
     1
290
     0
176
     1
290
     0
176
     1
 90
       50
176
     1
 40
0.0
176
     1
 40
1.0
176
     1
 90
        0
176
     1
 62
    18
420
        0
176
     1
 90
       50
176
     1
 90
        3
176
     1
 62
     5
420
      255
176
     1
290
     0
176
     1
 90
       50
176
     1
 90
       50
176
     1
 90
       50
176
     1
290
     0
176
     1
 90
       50
176
     1
 62
   256
176
     0
 40
1.0
176
     0
 90
        2
176
     1
  1
strokes_ogs.tif
176
     1
290
     0
176
     1
 40
1.0
176
     1
 40
1.0
176
     1
  0
VISUALSTYLE
  5
42
102
{ACAD_REACTORS
330
2A
102
}
330
2A
100
AcDbVisualStyle
  2
Shaded
 70
    27
177
     3
291
     0
 70
    58
 90
        2
176
     1
 90
        2
176
     1
 90
        1
176
     1
 90
        2
176
     1
 40
0.6
176
     1
 40
30.0
176
     1
 62
     7
420
 16777215
176
     1
 90
        0
176
     1
 90
        4
176
     1
 62
     7
176
     1
 62
   257
176
     1
 90
        1
176
     1
 90
        1
176
     1
 40
1.0
176
     1
 90
        8
176
     1
 62
   257
176
     1
 40
1.0
176
     1
 90
        1
176
     1
 90
        6
176
     1
 90
        2
176
     1
 62
     8
420
  7895160
176
     1
 90
        3
176
     1
 90
        0
176
     1
 90
        0
176
     1
290
     0
176
     1
 90
        5
176
     1
 40
0.0
176
     1
 90
        0
176
     1
290
     0
176
     1
290
     1
176
     1
290
     1
176
     1
290
     0
176
     1
290
     0
176
     1
290
     0
176
     1
290
     0
176
     1
290
     0
176
     1
290
     0
176
     1
 90
       50
176
     1
 40
0.0
176
     1
 40
1.0
176
     1
 90
        0
176
     1
 62
    18
420
        0
176
     1
 90
       50
176
     1
 90
        3
176
     1
 62
     5
420
      255
176
     1
290
     0
176
     1
 90
       50
176
     1
 90
       50
176
     1
 90
       50
176
     1
290
     0
176
     1
 90
       50
176
     1
 62
   256
176
     0
 40
1.0
176
     0
 90
        2
176
     1
  1
strokes_ogs.tif
176
     1
290
     0
176
     1
 40
1.0
176
     1
 40
1.0
176
     1
  0
VISUALSTYLE
  5
41
102
{ACAD_REACTORS
330
2A
102
}
330
2A
100
AcDbVisualStyle
  2
Shaded with edges
 70
    26
177
     3
291
     0
 70
    58
 90
        2
176
     1
 90
        2
176
     1
 90
        1
176
     1
 90
        2
176
     1
 40
0.6
176
     1
 40
30.0
176
     1
 62
     7
420
 16777215
176
     1
 90
        1
176
     1
 90
       10
176
     1
 62
     7
176
     1
 62
   257
176
     1
 90
        2
176
     1
 90
        1
176
     1
 40
1.0
176
     1
 90
        8
176
     1
 62
   257
176
     1
 40
1.0
176
     1
 90
        1
176
     1
 90
        6
176
     1
 90
        2
176
     1
 62
     7
176
     1
 90
        3
176
     1
 90
        0
176
     1
 90
        0
176
     1
290
     0
176
     1
 90
        5
176
     1
 40
0.0
176
     1
 90
        0
176
     1
290
     0
176
     1
290
     1
176
     1
290
     1
176
     1
290
     0
176
     1
290
     0
176
     1
290
     0
176
     1
290
     0
176
     1
290
     0
176
     1
290
     0
176
     1
 90
       50
176
     1
 40
0.0
176
     1
 40
1.0
176
     1
 90
        0
176
     1
 62
    18
420
        0
176
     1
 90
       50
176
     1
 90
        3
176
     1
 62
     5
420
      255
176
     1
290
     0
176
     1
 90
       50
176
     1
 90
       50
176
     1
 90
       50
176
     1
290
     0
176
     1
 90
       50
176
     1
 62
   256
176
     0
 40
1.0
176
     0
 90
        2
176
     1
  1
strokes_ogs.tif
176
     1
290
     0
176
     1
 40
1.0
176
     1
 40
1.0
176
     1
  0
VISUALSTYLE
  5
3E
102
{ACAD_REACTORS
330
2A
102
}
330
2A
100
AcDbVisualStyle
  2
Shades of Gray
 70
    23
177
     3
291
     0
 70
    58
 90
        2
176
     1
 90
        2
176
     1
 90
        3
176
     1
 90
        0
176
     1
 40
0.6
176
     1
 40
30.0
176
     1
 62
     7
420
 16777215
176
     1
 90
        2
176
     1
 90
        2
176
     1
 62
     7
176
     1
 62
     7
176
     1
 90
        1
176
     1
 90
        1
176
     1
 40
40.0
176
     1
 90
        8
176
     1
 62
     7
176
     1
 40
1.0
176
     1
 90
        1
176
     1
 90
        6
176
     1
 90
        2
176
     1
 62
     7
176
     1
 90
        3
176
     1
 90
        0
176
     1
 90
        0
176
     1
290
     0
176
     1
 90
        1
176
     1
 40
0.0
176
     1
 90
        0
176
     1
290
     0
176
     1
290
     1
176
     1
290
     1
176
     1
290
     0
176
     1
290
     0
176
     1
290
     0
176
     1
290
     0
176
     1
290
     0
176
     1
290
     0
176
     1
 90
       50
176
     1
 40
0.0
176
     1
 40
1.0
176
     1
 90
        0
176
     1
 62
    18
420
        0
176
     1
 90
       50
176
     1
 90
        3
176
     1
 62
     5
420
      255
176
     1
290
     0
176
     1
 90
       50
176
     1
 90
       50
176
     1
 90
       50
176
     1
290
     0
176
     1
 90
       50
176
     1
 62
   256
176
     0
 40
1.0
176
     0
 90
        2
176
     1
  1
strokes_ogs.tif
176
     1
290
     0
176
     1
 40
1.0
176
     1
 40
1.0
176
     1
  0
VISUALSTYLE
  5
3F
102
{ACAD_REACTORS
330
2A
102
}
330
2A
100
AcDbVisualStyle
  2
Sketchy
 70
    24
177
     3
291
     0
 70
    58
 90
        1
176
     1
 90
        2
176
     1
 90
        2
176
     1
 90
        0
176
     1
 40
0.6
176
     1
 40
30.0
176
     1
 62
     7
420
 16777215
176
     1
 90
        2
176
     1
 90
        2
176
     1
 62
     7
176
     1
 62
     7
176
     1
 90
        1
176
     1
 90
        1
176
     1
 40
40.0
176
     1
 90
       11
176
     1
 62
     7
176
     1
 40
1.0
176
     1
 90
        1
176
     1
 90
        6
176
     1
 90
        2
176
     1
 62
     7
176
     1
 90
        6
176
     1
 90
        0
176
     1
 90
        0
176
     1
290
     0
176
     1
 90
        1
176
     1
 40
0.0
176
     1
 90
        0
176
     1
290
     0
176
     1
290
     1
176
     1
290
     1
176
     1
290
     0
176
     1
290
     0
176
     1
290
     0
176
     1
290
     0
176
     1
290
     0
176
     1
290
     0
176
     1
 90
       50
176
     1
 40
0.0
176
     1
 40
1.0
176
     1
 90
        0
176
     1
 62
    18
420
        0
176
     1
 90
       50
176
     1
 90
        3
176
     1
 62
     5
420
      255
176
     1
290
     0
176
     1
 90
       50
176
     1
 90
       50
176
     1
 90
       50
176
     1
290
     0
176
     1
 90
       50
176
     1
 62
   256
176
     0
 40
1.0
176
     0
 90
        2
176
     1
  1
strokes_ogs.tif
176
     1
290
     0
176
     1
 40
1.0
176
     1
 40
1.0
176
     1
  0
VISUALSTYLE
  5
37
102
{ACAD_REACTORS
330
2A
102
}
330
2A
100
AcDbVisualStyle
  2
Thicken
 70
    13
177
     3
291
     1
 70
    58
 90
        2
176
     1
 90
        2
176
     1
 90
        0
176
     1
 90
        0
176
     1
 40
0.6
176
     1
 40
30.0
176
     1
 62
     7
420
 16777215
176
     1
 90
        1
176
     1
 90
        4
176
     1
 62
     7
176
     1
 62
   257
176
     1
 90
        1
176
     1
 90
        1
176
     1
 40
1.0
176
     1
 90
       12
176
     1
 62
     7
176
     1
 40
1.0
176
     1
 90
        1
176
     1
 90
        6
176
     1
 90
        2
176
     1
 62
     7
176
     1
 90
        5
176
     1
 90
        0
176
     1
 90
        0
176
     1
290
     0
176
     1
 90
        1
176
     1
 40
0.0
176
     1
 90
        0
176
     1
290
     0
176
     1
290
     1
176
     1
290
     1
176
     1
290
     0
176
     1
290
     0
176
     1
290
     0
176
     1
290
     0
176
     1
290
     0
176
     1
290
     0
176
     1
 90
       50
176
     1
 40
0.0
176
     1
 40
1.0
176
     1
 90
        0
176
     1
 62
    18
420
        0
176
     1
 90
       50
176
     1
 90
        3
176
     1
 62
     5
420
      255
176
     1
290
     0
176
     1
 90
       50
176
     1
 90
       50
176
     1
 90
       50
176
     1
290
     0
176
     1
 90
       50
176
     1
 62
   256
176
     0
 40
1.0
176
     0
 90
        2
176
     1
  1
strokes_ogs.tif
176
     1
290
     0
176
     1
 40
1.0
176
     1
 40
1.0
176
     1
  0
VISUALSTYLE
  5
30
102
{ACAD_REACTORS
330
2A
102
}
330
2A
100
AcDbVisualStyle
  2
Wireframe
 70
     5
177
     3
291
     0
 70
    58
 90
        0
176
     1
 90
        2
176
     1
 90
        0
176
     1
 90
        0
176
     1
 40
0.6
176
     1
 40
30.0
176
     1
 62
     7
420
 16777215
176
     1
 90
        1
176
     1
 90
        4
176
     1
 62
     7
176
     1
 62
   257
176
     1
 90
        1
176
     1
 90
        1
176
     1
 40
1.0
176
     1
 90
        0
176
     1
 62
   257
176
     1
 40
1.0
176
     1
 90
        1
176
     1
 90
        6
176
     1
 90
        2
176
     1
 62
     7
176
     1
 90
        3
176
     1
 90
        0
176
     1
 90
        0
176
     1
290
     0
176
     1
 90
        1
176
     1
 40
0.0
176
     1
 90
        0
176
     1
290
     0
176
     1
290
     1
176
     1
290
     1
176
     1
290
     0
176
     1
290
     0
176
     1
290
     0
176
     1
290
     0
176
     1
290
     0
176
     1
290
     0
176
     1
 90
       50
176
     1
 40
0.0
176
     1
 40
1.0
176
     1
 90
        0
176
     1
 62
    18
420
        0
176
     1
 90
       50
176
     1
 90
        3
176
     1
 62
     5
420
      255
176
     1
290
     0
176
     1
 90
       50
176
     1
 90
       50
176
     1
 90
       50
176
     1
290
     0
176
     1
 90
       50
176
     1
 62
   256
176
     0
 40
1.0
176
     0
 90
        2
176
     1
  1
strokes_ogs.tif
176
     1
290
     0
176
     1
 40
1.0
176
     1
 40
1.0
176
     1
  0
VISUALSTYLE
  5
40
102
{ACAD_REACTORS
330
2A
102
}
330
2A
100
AcDbVisualStyle
  2
X-Ray
 70
    25
177
     3
291
     0
 70
    58
 90
        2
176
     1
 90
        2
176
     1
 90
        1
176
     1
 90
        1
176
     1
 40
0.5
176
     1
 40
30.0
176
     1
 62
     7
420
 16777215
176
     1
 90
        1
176
     1
 90
        0
176
     1
 62
     7
176
     1
 62
   257
176
     1
 90
        1
176
     1
 90
        1
176
     1
 40
1.0
176
     1
 90
        8
176
     1
 62
     7
176
     1
 40
1.0
176
     1
 90
        1
176
     1
 90
        6
176
     1
 90
        2
176
     1
 62
     7
176
     1
 90
        3
176
     1
 90
        0
176
     1
 90
        0
176
     1
290
     0
176
     1
 90
       13
176
     1
 40
0.0
176
     1
 90
        0
176
     1
290
     0
176
     1
290
     1
176
     1
290
     1
176
     1
290
     0
176
     1
290
     0
176
     1
290
     0
176
     1
290
     0
176
     1
290
     0
176
     1
290
     0
176
     1
 90
       50
176
     1
 40
0.0
176
     1
 40
1.0
176
     1
 90
        0
176
     1
 62
    18
420
        0
176
     1
 90
       50
176
     1
 90
        3
176
     1
 62
     5
420
      255
176
     1
290
     0
176
     1
 90
       50
176
     1
 90
       50
176
     1
 90
       50
176
     1
290
     0
176
     1
 90
       50
176
     1
 62
   256
176
     0
 40
1.0
176
     0
 90
        2
176
     1
  1
strokes_ogs.tif
176
     1
290
     0
176
     1
 40
1.0
176
     1
 40
1.0
176
     1
  0
DICTIONARYVAR
  5
A0
102
{ACAD_REACTORS
330
9F
102
}
330
9F
100
DictionaryVariables
280
     0
  1
1:1
  0
DICTIONARYVAR
  5
A8
102
{ACAD_REACTORS
330
9F
102
}
330
9F
100
DictionaryVariables
280
     0
  1
3.500000
  0
DICTIONARYVAR
  5
A9
102
{ACAD_REACTORS
330
9F
102
}
330
9F
100
DictionaryVariables
280
     0
  1
acadiso.lin
  0
DICTIONARYVAR
  5
A5
102
{ACAD_REACTORS
330
9F
102
}
330
9F
100
DictionaryVariables
280
     0
  1
Standard
  0
DICTIONARYVAR
  5
A4
102
{ACAD_REACTORS
330
9F
102
}
330
9F
100
DictionaryVariables
280
     0
  1
Standard
  0
DICTIONARY
  5
A1
330
5A
100
AcDbDictionary
280
     1
281
     1
  3
ACAD_ROUNDTRIP_2008_TABLESTYLE_CELLSTYLEMAP
360
A2
  0
CELLSTYLEMAP
  5
A2
102
{ACAD_REACTORS
330
A1
102
}
330
A1
100
AcDbCellStyleMap
 90
        3
300
CELLSTYLE
  1
TABLEFORMAT_BEGIN
 90
        5
170
     1
 91
        0
 92
    32768
 62
   257
 93
        1
300
CONTENTFORMAT
  1
CONTENTFORMAT_BEGIN
 90
        0
 91
        0
 92
        4
 93
        0
300

 40
0.0
140
1.0
 94
        5
 62
     0
340
11
144
6.0
309
CONTENTFORMAT_END
171
     1
301
MARGIN
  1
CELLMARGIN_BEGIN
 40
1.5
 40
1.5
 40
1.5
 40
1.5
 40
1.5
 40
1.5
309
CELLMARGIN_END
 94
        6
 95
        1
302
GRIDFORMAT
  1
GRIDFORMAT_BEGIN
 90
        0
 91
        1
 62
     0
 92
       -2
340
14
 93
        0
 40
0.045
309
GRIDFORMAT_END
 95
        2
302
GRIDFORMAT
  1
GRIDFORMAT_BEGIN
 90
        0
 91
        1
 62
     0
 92
       -2
340
14
 93
        0
 40
0.045
309
GRIDFORMAT_END
 95
        4
302
GRIDFORMAT
  1
GRIDFORMAT_BEGIN
 90
        0
 91
        1
 62
     0
 92
       -2
340
14
 93
        0
 40
0.045
309
GRIDFORMAT_END
 95
        8
302
GRIDFORMAT
  1
GRIDFORMAT_BEGIN
 90
        0
 91
        1
 62
     0
 92
       -2
340
14
 93
        0
 40
0.045
309
GRIDFORMAT_END
 95
       16
302
GRIDFORMAT
  1
GRIDFORMAT_BEGIN
 90
        0
 91
        1
 62
     0
 92
       -2
340
14
 93
        0
 40
0.045
309
GRIDFORMAT_END
 95
       32
302
GRIDFORMAT
  1
GRIDFORMAT_BEGIN
 90
        0
 91
        1
 62
     0
 92
       -2
340
14
 93
        0
 40
0.045
309
GRIDFORMAT_END
309
TABLEFORMAT_END
  1
CELLSTYLE_BEGIN
 90
        1
 91
        1
300
_TITLE
309
CELLSTYLE_END
300
CELLSTYLE
  1
TABLEFORMAT_BEGIN
 90
        5
170
     1
 91
        0
 92
        0
 62
   257
 93
        1
300
CONTENTFORMAT
  1
CONTENTFORMAT_BEGIN
 90
        0
 91
        0
 92
        4
 93
        0
300

 40
0.0
140
1.0
 94
        5
 62
     0
340
11
144
4.5
309
CONTENTFORMAT_END
171
     1
301
MARGIN
  1
CELLMARGIN_BEGIN
 40
1.5
 40
1.5
 40
1.5
 40
1.5
 40
1.5
 40
1.5
309
CELLMARGIN_END
 94
        6
 95
        1
302
GRIDFORMAT
  1
GRIDFORMAT_BEGIN
 90
        0
 91
        1
 62
     0
 92
       -2
340
14
 93
        0
 40
0.045
309
GRIDFORMAT_END
 95
        2
302
GRIDFORMAT
  1
GRIDFORMAT_BEGIN
 90
        0
 91
        1
 62
     0
 92
       -2
340
14
 93
        0
 40
0.045
309
GRIDFORMAT_END
 95
        4
302
GRIDFORMAT
  1
GRIDFORMAT_BEGIN
 90
        0
 91
        1
 62
     0
 92
       -2
340
14
 93
        0
 40
0.045
309
GRIDFORMAT_END
 95
        8
302
GRIDFORMAT
  1
GRIDFORMAT_BEGIN
 90
        0
 91
        1
 62
     0
 92
       -2
340
14
 93
        0
 40
0.045
309
GRIDFORMAT_END
 95
       16
302
GRIDFORMAT
  1
GRIDFORMAT_BEGIN
 90
        0
 91
        1
 62
     0
 92
       -2
340
14
 93
        0
 40
0.045
309
GRIDFORMAT_END
 95
       32
302
GRIDFORMAT
  1
GRIDFORMAT_BEGIN
 90
        0
 91
        1
 62
     0
 92
       -2
340
14
 93
        0
 40
0.045
309
GRIDFORMAT_END
309
TABLEFORMAT_END
  1
CELLSTYLE_BEGIN
 90
        2
 91
        1
300
_HEADER
309
CELLSTYLE_END
300
CELLSTYLE
  1
TABLEFORMAT_BEGIN
 90
        5
170
     1
 91
        0
 92
        0
 62
   257
 93
        1
300
CONTENTFORMAT
  1
CONTENTFORMAT_BEGIN
 90
        0
 91
        0
 92
        4
 93
        0
300

 40
0.0
140
1.0
 94
        2
 62
     0
340
11
144
4.5
309
CONTENTFORMAT_END
171
     1
301
MARGIN
  1
CELLMARGIN_BEGIN
 40
1.5
 40
1.5
 40
1.5
 40
1.5
 40
1.5
 40
1.5
309
CELLMARGIN_END
 94
        6
 95
        1
302
GRIDFORMAT
  1
GRIDFORMAT_BEGIN
 90
        0
 91
        1
 62
     0
 92
       -2
340
14
 93
        0
 40
0.045
309
GRIDFORMAT_END
 95
        2
302
GRIDFORMAT
  1
GRIDFORMAT_BEGIN
 90
        0
 91
        1
 62
     0
 92
       -2
340
14
 93
        0
 40
0.045
309
GRIDFORMAT_END
 95
        4
302
GRIDFORMAT
  1
GRIDFORMAT_BEGIN
 90
        0
 91
        1
 62
     0
 92
       -2
340
14
 93
        0
 40
0.045
309
GRIDFORMAT_END
 95
        8
302
GRIDFORMAT
  1
GRIDFORMAT_BEGIN
 90
        0
 91
        1
 62
     0
 92
       -2
340
14
 93
        0
 40
0.045
309
GRIDFORMAT_END
 95
       16
302
GRIDFORMAT
  1
GRIDFORMAT_BEGIN
 90
        0
 91
        1
 62
     0
 92
       -2
340
14
 93
        0
 40
0.045
309
GRIDFORMAT_END
 95
       32
302
GRIDFORMAT
  1
GRIDFORMAT_BEGIN
 90
        0
 91
        1
 62
     0
 92
       -2
340
14
 93
        0
 40
0.045
309
GRIDFORMAT_END
309
TABLEFORMAT_END
  1
CELLSTYLE_BEGIN
 90
        3
 91
        2
300
_DATA
309
CELLSTYLE_END
  0
ENDSEC
  0
EOF
