  0
SECTION
  2
HEADER
  9
$ACADVER
  1
AC1027
  9
$ACADMAINTVER
 70
   105
  9
$DWGCODEPAGE
  3
ANSI_932
  9
$LASTSAVEDBY
  1
a.yasuda
  9
$REQUIREDVERSIONS
160
                 0
  9
$INSBASE
 10
0.0
 20
0.0
 30
0.0
  9
$EXTMIN
 10
0.0
 20
0.0
 30
0.0
  9
$EXTMAX
 10
302.9997823349792
 20
216.0016055409748
 30
0.0
  9
$LIMMIN
 10
0.0
 20
0.0
  9
$LIMMAX
 10
302.9997823349792
 20
216.0016055409748
  9
$ORTHOMODE
 70
     0
  9
$REGENMODE
 70
     1
  9
$FILLMODE
 70
     1
  9
$QTEXTMODE
 70
     0
  9
$MIRRTEXT
 70
     1
  9
$LTSCALE
 40
1.0
  9
$ATTMODE
 70
     1
  9
$TEXTSIZE
 40
2.5
  9
$TRACEWID
 40
1.0
  9
$TEXTSTYLE
  7
Standard
  9
$CLAYER
  8
0
  9
$CELTYPE
  6
ByLayer
  9
$CECOLOR
 62
   256
  9
$CELTSCALE
 40
1.0
  9
$DISPSILH
 70
     0
  9
$DIMSCALE
 40
1.0
  9
$DIMASZ
 40
2.5
  9
$DIMEXO
 40
0.625
  9
$DIMDLI
 40
3.75
  9
$DIMRND
 40
0.0
  9
$DIMDLE
 40
0.0
  9
$DIMEXE
 40
1.25
  9
$DIMTP
 40
0.0
  9
$DIMTM
 40
0.0
  9
$DIMTXT
 40
2.5
  9
$DIMCEN
 40
2.5
  9
$DIMTSZ
 40
0.0
  9
$DIMTOL
 70
     0
  9
$DIMLIM
 70
     0
  9
$DIMTIH
 70
     0
  9
$DIMTOH
 70
     0
  9
$DIMSE1
 70
     0
  9
$DIMSE2
 70
     0
  9
$DIMTAD
 70
     1
  9
$DIMZIN
 70
     8
  9
$DIMBLK
  1

  9
$DIMASO
 70
     1
  9
$DIMSHO
 70
     1
  9
$DIMPOST
  1

  9
$DIMAPOST
  1

  9
$DIMALT
 70
     0
  9
$DIMALTD
 70
     3
  9
$DIMALTF
 40
0.03937007874016
  9
$DIMLFAC
 40
1.0
  9
$DIMTOFL
 70
     1
  9
$DIMTVP
 40
0.0
  9
$DIMTIX
 70
     0
  9
$DIMSOXD
 70
     0
  9
$DIMSAH
 70
     0
  9
$DIMBLK1
  1

  9
$DIMBLK2
  1

  9
$DIMSTYLE
  2
ISO-25
  9
$DIMCLRD
 70
     0
  9
$DIMCLRE
 70
     0
  9
$DIMCLRT
 70
     0
  9
$DIMTFAC
 40
1.0
  9
$DIMGAP
 40
0.625
  9
$DIMJUST
 70
     0
  9
$DIMSD1
 70
     0
  9
$DIMSD2
 70
     0
  9
$DIMTOLJ
 70
     0
  9
$DIMTZIN
 70
     8
  9
$DIMALTZ
 70
     0
  9
$DIMALTTZ
 70
     0
  9
$DIMUPT
 70
     0
  9
$DIMDEC
 70
     2
  9
$DIMTDEC
 70
     2
  9
$DIMALTU
 70
     2
  9
$DIMALTTD
 70
     3
  9
$DIMTXSTY
  7
Standard
  9
$DIMAUNIT
 70
     0
  9
$DIMADEC
 70
     0
  9
$DIMALTRND
 40
0.0
  9
$DIMAZIN
 70
     0
  9
$DIMDSEP
 70
    44
  9
$DIMATFIT
 70
     3
  9
$DIMFRAC
 70
     0
  9
$DIMLDRBLK
  1

  9
$DIMLUNIT
 70
     2
  9
$DIMLWD
 70
    -2
  9
$DIMLWE
 70
    -2
  9
$DIMTMOVE
 70
     0
  9
$DIMFXL
 40
1.0
  9
$DIMFXLON
 70
     0
  9
$DIMJOGANG
 40
0.7853981633974483
  9
$DIMTFILL
 70
     0
  9
$DIMTFILLCLR
 70
     0
  9
$DIMARCSYM
 70
     0
  9
$DIMLTYPE
  6

  9
$DIMLTEX1
  6

  9
$DIMLTEX2
  6

  9
$DIMTXTDIRECTION
 70
     0
  9
$LUNITS
 70
     2
  9
$LUPREC
 70
     4
  9
$SKETCHINC
 40
1.0
  9
$FILLETRAD
 40
0.0
  9
$AUNITS
 70
     0
  9
$AUPREC
 70
     0
  9
$MENU
  1
.
  9
$ELEVATION
 40
0.0
  9
$PELEVATION
 40
0.0
  9
$THICKNESS
 40
0.0
  9
$LIMCHECK
 70
     0
  9
$CHAMFERA
 40
0.0
  9
$CHAMFERB
 40
0.0
  9
$CHAMFERC
 40
0.0
  9
$CHAMFERD
 40
0.0
  9
$SKPOLY
 70
     0
  9
$TDCREATE
 40
2459873.457575995
  9
$TDUCREATE
 40
2459873.082575995
  9
$TDUPDATE
 40
2459873.45757603
  9
$TDUUPDATE
 40
2459873.08257603
  9
$TDINDWG
 40
0.0000000116
  9
$TDUSRTIMER
 40
0.0000000116
  9
$USRTIMER
 70
     1
  9
$ANGBASE
 50
0.0
  9
$ANGDIR
 70
     0
  9
$PDMODE
 70
     0
  9
$PDSIZE
 40
0.0
  9
$PLINEWID
 40
0.0
  9
$SPLFRAME
 70
     0
  9
$SPLINETYPE
 70
     6
  9
$SPLINESEGS
 70
     8
  9
$HANDSEED
  5
A3
  9
$SURFTAB1
 70
     6
  9
$SURFTAB2
 70
     6
  9
$SURFTYPE
 70
     6
  9
$SURFU
 70
     6
  9
$SURFV
 70
     6
  9
$UCSBASE
  2

  9
$UCSNAME
  2

  9
$UCSORG
 10
0.0
 20
0.0
 30
0.0
  9
$UCSXDIR
 10
1.0
 20
0.0
 30
0.0
  9
$UCSYDIR
 10
0.0
 20
1.0
 30
0.0
  9
$UCSORTHOREF
  2

  9
$UCSORTHOVIEW
 70
     0
  9
$UCSORGTOP
 10
0.0
 20
0.0
 30
0.0
  9
$UCSORGBOTTOM
 10
0.0
 20
0.0
 30
0.0
  9
$UCSORGLEFT
 10
0.0
 20
0.0
 30
0.0
  9
$UCSORGRIGHT
 10
0.0
 20
0.0
 30
0.0
  9
$UCSORGFRONT
 10
0.0
 20
0.0
 30
0.0
  9
$UCSORGBACK
 10
0.0
 20
0.0
 30
0.0
  9
$PUCSBASE
  2

  9
$PUCSNAME
  2

  9
$PUCSORG
 10
0.0
 20
0.0
 30
0.0
  9
$PUCSXDIR
 10
1.0
 20
0.0
 30
0.0
  9
$PUCSYDIR
 10
0.0
 20
1.0
 30
0.0
  9
$PUCSORTHOREF
  2

  9
$PUCSORTHOVIEW
 70
     0
  9
$PUCSORGTOP
 10
0.0
 20
0.0
 30
0.0
  9
$PUCSORGBOTTOM
 10
0.0
 20
0.0
 30
0.0
  9
$PUCSORGLEFT
 10
0.0
 20
0.0
 30
0.0
  9
$PUCSORGRIGHT
 10
0.0
 20
0.0
 30
0.0
  9
$PUCSORGFRONT
 10
0.0
 20
0.0
 30
0.0
  9
$PUCSORGBACK
 10
0.0
 20
0.0
 30
0.0
  9
$USERI1
 70
     0
  9
$USERI2
 70
     0
  9
$USERI3
 70
     0
  9
$USERI4
 70
     0
  9
$USERI5
 70
     0
  9
$USERR1
 40
0.0
  9
$USERR2
 40
0.0
  9
$USERR3
 40
0.0
  9
$USERR4
 40
0.0
  9
$USERR5
 40
0.0
  9
$WORLDVIEW
 70
     1
  9
$SHADEDGE
 70
     3
  9
$SHADEDIF
 70
    70
  9
$TILEMODE
 70
     1
  9
$MAXACTVP
 70
    64
  9
$PINSBASE
 10
0.0
 20
0.0
 30
0.0
  9
$PLIMCHECK
 70
     0
  9
$PEXTMIN
 10
1.000000000000000E+20
 20
1.000000000000000E+20
 30
1.000000000000000E+20
  9
$PEXTMAX
 10
-1.000000000000000E+20
 20
-1.000000000000000E+20
 30
-1.000000000000000E+20
  9
$PLIMMIN
 10
0.0
 20
0.0
  9
$PLIMMAX
 10
420.0
 20
297.0
  9
$UNITMODE
 70
     0
  9
$VISRETAIN
 70
     1
  9
$PLINEGEN
 70
     0
  9
$PSLTSCALE
 70
     1
  9
$TREEDEPTH
 70
  3020
  9
$CMLSTYLE
  2
Standard
  9
$CMLJUST
 70
     0
  9
$CMLSCALE
 40
20.0
  9
$PROXYGRAPHICS
 70
     1
  9
$MEASUREMENT
 70
     1
  9
$CELWEIGHT
370
    -1
  9
$ENDCAPS
280
     0
  9
$JOINSTYLE
280
     0
  9
$LWDISPLAY
290
     0
  9
$INSUNITS
 70
     4
  9
$HYPERLINKBASE
  1

  9
$STYLESHEET
  1

  9
$XEDIT
290
     1
  9
$CEPSNTYPE
380
     0
  9
$PSTYLEMODE
290
     1
  9
$FINGERPRINTGUID
  2
{d7f0da0f-0657-4a65-ab60-7886dcd2ad8b}
  9
$VERSIONGUID
  2
{FAEB1C32-E019-11D5-929B-00C0DF256EC4}
  9
$EXTNAMES
290
     1
  9
$PSVPSCALE
 40
0.0
  9
$OLESTARTUP
290
     0
  9
$SORTENTS
280
   127
  9
$INDEXCTL
280
     0
  9
$HIDETEXT
280
     1
  9
$XCLIPFRAME
280
     2
  9
$HALOGAP
280
     0
  9
$OBSCOLOR
 70
   257
  9
$OBSLTYPE
280
     0
  9
$INTERSECTIONDISPLAY
280
     0
  9
$INTERSECTIONCOLOR
 70
   257
  9
$DIMASSOC
280
     2
  9
$PROJECTNAME
  1

  9
$CAMERADISPLAY
290
     0
  9
$LENSLENGTH
 40
50.0
  9
$CAMERAHEIGHT
 40
0.0
  9
$STEPSPERSEC
 40
2.0
  9
$STEPSIZE
 40
6.0
  9
$3DDWFPREC
 40
2.0
  9
$PSOLWIDTH
 40
5.0
  9
$PSOLHEIGHT
 40
80.0
  9
$LOFTANG1
 40
1.570796326794897
  9
$LOFTANG2
 40
1.570796326794897
  9
$LOFTMAG1
 40
0.0
  9
$LOFTMAG2
 40
0.0
  9
$LOFTPARAM
 70
     7
  9
$LOFTNORMALS
280
     1
  9
$LATITUDE
 40
37.795
  9
$LONGITUDE
 40
-122.394
  9
$NORTHDIRECTION
 40
0.0
  9
$TIMEZONE
 70
 -8000
  9
$LIGHTGLYPHDISPLAY
280
     1
  9
$TILEMODELIGHTSYNCH
280
     1
  9
$CMATERIAL
347
44
  9
$SOLIDHIST
280
     0
  9
$SHOWHIST
280
     1
  9
$DWFFRAME
280
     2
  9
$DGNFRAME
280
     2
  9
$REALWORLDSCALE
290
     1
  9
$INTERFERECOLOR
 62
   256
  9
$CSHADOW
280
     0
  9
$SHADOWPLANELOCATION
 40
0.0
  0
ENDSEC
  0
SECTION
  2
CLASSES
  0
CLASS
  1
ACDBDICTIONARYWDFLT
  2
AcDbDictionaryWithDefault
  3
ObjectDBX Classes
 90
        0
 91
        3
280
     0
281
     0
  0
CLASS
  1
VISUALSTYLE
  2
AcDbVisualStyle
  3
ObjectDBX Classes
 90
     4095
 91
        3
280
     0
281
     0
  0
CLASS
  1
MATERIAL
  2
AcDbMaterial
  3
ObjectDBX Classes
 90
     1153
 91
        3
280
     0
281
     0
  0
CLASS
  1
SCALE
  2
AcDbScale
  3
ObjectDBX Classes
 90
     1153
 91
        3
280
     0
281
     0
  0
CLASS
  1
TABLESTYLE
  2
AcDbTableStyle
  3
ObjectDBX Classes
 90
     4095
 91
        3
280
     0
281
     0
  0
CLASS
  1
MLEADERSTYLE
  2
AcDbMLeaderStyle
  3
ACDB_MLEADERSTYLE_CLASS
 90
     4095
 91
        3
280
     0
281
     0
  0
CLASS
  1
SUN
  2
AcDbSun
  3
SCENEOE
 90
     1153
 91
        3
280
     0
281
     0
  0
CLASS
  1
DICTIONARYVAR
  2
AcDbDictionaryVar
  3
ObjectDBX Classes
 90
        0
 91
        3
280
     0
281
     0
  0
CLASS
  1
CELLSTYLEMAP
  2
AcDbCellStyleMap
  3
ObjectDBX Classes
 90
     1152
 91
        3
280
     0
281
     0
  0
ENDSEC
  0
SECTION
  2
TABLES
  0
TABLE
  2
VPORT
  5
8
330
0
100
AcDbSymbolTable
 70
     1
  0
VPORT
  5
29
330
8
100
AcDbSymbolTableRecord
100
AcDbViewportTableRecord
  2
*Active
 70
     0
 10
0.0
 20
0.0
 11
1.0
 21
1.0
 12
151.4998911674896
 22
108.0008027704874
 13
0.0
 23
0.0
 14
10.0
 24
10.0
 15
10.0
 25
10.0
 16
0.0
 26
0.0
 36
1.0
 17
0.0
 27
0.0
 37
0.0
 40
237.6017660950723
 41
1.402766343222857
 42
50.0
 43
0.0
 44
0.0
 50
0.0
 51
0.0
 71
     0
 72
 10000
 73
     1
 74
     3
 75
     0
 76
     0
 77
     0
 78
     0
281
     0
 65
     1
110
0.0
120
0.0
130
0.0
111
1.0
121
0.0
131
0.0
112
0.0
122
1.0
132
0.0
 79
     0
146
0.0
348
2F
 60
     3
 61
     5
292
     1
282
     1
141
0.0
142
0.0
 63
   250
361
5D
  0
ENDTAB
  0
TABLE
  2
LTYPE
  5
5
330
0
100
AcDbSymbolTable
 70
     2
  0
LTYPE
  5
14
330
5
100
AcDbSymbolTableRecord
100
AcDbLinetypeTableRecord
  2
ByBlock
 70
     0
  3

 72
    65
 73
     0
 40
0.0
  0
LTYPE
  5
15
330
5
100
AcDbSymbolTableRecord
100
AcDbLinetypeTableRecord
  2
ByLayer
 70
     0
  3

 72
    65
 73
     0
 40
0.0
  0
LTYPE
  5
16
330
5
100
AcDbSymbolTableRecord
100
AcDbLinetypeTableRecord
  2
Continuous
 70
     0
  3
Solid line
 72
    65
 73
     0
 40
0.0
  0
LTYPE
  5
5F
330
5
100
AcDbSymbolTableRecord
100
AcDbLinetypeTableRecord
  2
UserDefined01
 70
     0
  3
----------------                
 72
    65
 73
     2
 40
0.7055555449591743
 49
0.3527777724795871
 74
     0
 49
-0.3527777724795871
 74
     0
  0
ENDTAB
  0
TABLE
  2
LAYER
  5
2
330
0
100
AcDbSymbolTable
 70
     3
  0
LAYER
  5
10
330
2
100
AcDbSymbolTableRecord
100
AcDbLayerTableRecord
  2
0
 70
     0
 62
     7
  6
Continuous
370
    -3
390
F
347
46
348
0
  0
LAYER
  5
60
330
2
100
AcDbSymbolTableRecord
100
AcDbLayerTableRecord
  2
外枠
 70
     0
 62
     7
  6
Continuous
370
    -3
390
F
347
46
348
0
  0
LAYER
  5
61
330
2
100
AcDbSymbolTableRecord
100
AcDbLayerTableRecord
  2
ISS138金台
 70
     0
 62
     7
  6
Continuous
370
    -3
390
F
347
46
348
0
  0
ENDTAB
  0
TABLE
  2
STYLE
  5
3
330
0
100
AcDbSymbolTable
 70
     2
  0
STYLE
  5
11
330
3
100
AcDbSymbolTableRecord
100
AcDbTextStyleTableRecord
  2
Standard
 70
     0
 40
0.0
 41
1.0
 50
0.0
 71
     0
 42
2.5
  3

  4

  0
STYLE
  5
5E
330
3
100
AcDbSymbolTableRecord
100
AcDbTextStyleTableRecord
  2
MS Gothic
 70
     0
 40
1.0
 41
1.0
 50
0.0
 71
     0
 42
2.5
  3
msgothic.ttc
  4

1001
ACAD
1000
MS Gothic
1071
    32817
  0
ENDTAB
  0
TABLE
  2
VIEW
  5
6
330
0
100
AcDbSymbolTable
 70
     0
  0
ENDTAB
  0
TABLE
  2
UCS
  5
7
330
0
100
AcDbSymbolTable
 70
     0
  0
ENDTAB
  0
TABLE
  2
APPID
  5
9
330
0
100
AcDbSymbolTable
 70
     1
  0
APPID
  5
12
330
9
100
AcDbSymbolTableRecord
100
AcDbRegAppTableRecord
  2
ACAD
 70
     0
  0
ENDTAB
  0
TABLE
  2
DIMSTYLE
  5
A
330
0
100
AcDbSymbolTable
 70
     1
100
AcDbDimStyleTable
  0
DIMSTYLE
105
27
330
A
100
AcDbSymbolTableRecord
100
AcDbDimStyleTableRecord
  2
ISO-25
 70
     0
 41
2.5
 42
0.625
 43
3.75
 44
1.25
 73
     0
 74
     0
 77
     1
 78
     8
140
2.5
141
2.5
143
0.03937007874016
147
0.625
171
     3
172
     1
178
     0
271
     2
272
     2
274
     3
278
    44
283
     0
284
     8
340
11
  0
ENDTAB
  0
TABLE
  2
BLOCK_RECORD
  5
1
330
0
100
AcDbSymbolTable
 70
     1
  0
BLOCK_RECORD
  5
1F
330
1
100
AcDbSymbolTableRecord
100
AcDbBlockTableRecord
  2
*Model_Space
340
22
 70
     0
280
     1
281
     0
  0
BLOCK_RECORD
  5
1B
330
1
100
AcDbSymbolTableRecord
100
AcDbBlockTableRecord
  2
*Paper_Space
340
1E
 70
     0
280
     1
281
     0
  0
BLOCK_RECORD
  5
23
330
1
100
AcDbSymbolTableRecord
100
AcDbBlockTableRecord
  2
*Paper_Space0
340
26
 70
     0
280
     1
281
     0
  0
ENDTAB
  0
ENDSEC
  0
SECTION
  2
BLOCKS
  0
BLOCK
  5
20
330
1F
100
AcDbEntity
  8
0
100
AcDbBlockBegin
  2
*Model_Space
 70
     0
 10
0.0
 20
0.0
 30
0.0
  3
*Model_Space
  1

  0
ENDBLK
  5
21
330
1F
100
AcDbEntity
  8
0
100
AcDbBlockEnd
  0
BLOCK
  5
1C
330
1B
100
AcDbEntity
 67
     1
  8
0
100
AcDbBlockBegin
  2
*Paper_Space
 70
     0
 10
0.0
 20
0.0
 30
0.0
  3
*Paper_Space
  1

  0
ENDBLK
  5
1D
330
1B
100
AcDbEntity
 67
     1
  8
0
100
AcDbBlockEnd
  0
BLOCK
  5
24
330
23
100
AcDbEntity
  8
0
100
AcDbBlockBegin
  2
*Paper_Space0
 70
     0
 10
0.0
 20
0.0
 30
0.0
  3
*Paper_Space0
  1

  0
ENDBLK
  5
25
330
23
100
AcDbEntity
  8
0
100
AcDbBlockEnd
  0
ENDSEC
  0
SECTION
  2
ENTITIES
  0
LWPOLYLINE
  5
62
330
1F
100
AcDbEntity
  8
外枠
  6
Continuous
 62
   250
420
  2367521
370
   100
100
AcDbPolyline
 90
        5
 70
     0
 43
0.0
 10
281.9999662644599
 20
13.29407825637392
 10
20.99981607051935
 20
13.29407825637392
 10
20.99981607051935
 20
193.0018900389566
 10
281.9999662644599
 20
193.0018900389566
 10
281.9999662644599
 20
13.29407825637392
  0
LINE
  5
63
330
1F
100
AcDbEntity
  8
外枠
  6
Continuous
 62
   250
420
  2367521
370
    25
100
AcDbLine
 10
223.3097080177524
 20
174.0786160074276
 30
0.0
 11
281.9999232007669
 21
174.0786160074276
 31
0.0
  0
LINE
  5
64
330
1F
100
AcDbEntity
  8
外枠
  6
Continuous
 62
   250
420
  2367521
370
    25
100
AcDbLine
 10
223.3097080177524
 20
50.37109023844297
 30
0.0
 11
281.9999232007669
 21
50.37109023844297
 31
0.0
  0
LINE
  5
65
330
1F
100
AcDbEntity
  8
外枠
  6
Continuous
 62
   250
420
  2367521
370
    25
100
AcDbLine
 10
223.3097080177524
 20
36.25997933925949
 30
0.0
 11
281.9999232007669
 21
36.25997933925949
 31
0.0
  0
LINE
  5
66
330
1F
100
AcDbEntity
  8
外枠
  6
Continuous
 62
   250
420
  2367521
370
    50
100
AcDbLine
 10
223.0158413772006
 20
193.3637327187979
 30
0.0
 11
223.0158413772006
 21
13.29396655992039
 31
0.0
  0
TEXT
  5
67
330
1F
100
AcDbEntity
  8
外枠
  6
Continuous
 62
   250
420
  2367521
100
AcDbText
 10
224.7190965599536
 20
186.6888051931772
 30
0.0
 40
2.688166626294454
  1
品名：
 41
0.974166170756022
  7
MS Gothic
100
AcDbText
  0
TEXT
  5
68
330
1F
100
AcDbEntity
  8
外枠
  6
Continuous
 62
   250
420
  2367521
100
AcDbText
 10
224.7190965599536
 20
168.1080059455944
 30
0.0
 40
2.688166626294454
  1
仕様：
 41
0.9978878657023111
  7
MS Gothic
100
AcDbText
  0
TEXT
  5
69
330
1F
100
AcDbEntity
  8
外枠
  6
Continuous
 62
   250
420
  2367521
100
AcDbText
 10
224.7190965599536
 20
44.16660664327048
 30
0.0
 40
2.688166626294454
  1
縮尺：
 41
0.9939999262491861
  7
MS Gothic
100
AcDbText
  0
TEXT
  5
6A
330
1F
100
AcDbEntity
  8
外枠
  6
Continuous
 62
   250
420
  2367521
100
AcDbText
 10
250.2379519709696
 20
40.59738467878129
 30
0.0
 40
2.150533301035563
  1
1/1
 41
1.000003814697266
  7
MS Gothic
100
AcDbText
  0
TEXT
  5
6B
330
1F
100
AcDbEntity
  8
外枠
  6
Continuous
 62
   250
420
  2367521
100
AcDbText
 10
232.7757967427735
 20
181.9845273775436
 30
0.0
 40
2.688166626294454
  1
フレックス
 41
0.999647979736328
  7
MS Gothic
100
AcDbText
  0
TEXT
  5
6C
330
1F
100
AcDbEntity
  8
外枠
  6
Continuous
 62
   250
420
  2367521
100
AcDbText
 10
232.7757967427735
 20
176.6928607903498
 30
0.0
 40
2.688166626294454
  1
フロアーエッジFEA-2-F(S)
 41
1.003047879536947
  7
MS Gothic
100
AcDbText
  0
TEXT
  5
6D
330
1F
100
AcDbEntity
  8
外枠
  6
Continuous
 62
   250
420
  2367521
100
AcDbText
 10
226.1633020978884
 20
24.25683874973963
 30
0.0
 40
2.553758294979732
  1
ヤスダインテリアサプライ株式会社
 41
1.0194908945184
  7
MS Gothic
100
AcDbText
  0
TEXT
  5
6E
330
1F
100
AcDbEntity
  8
外枠
  6
Continuous
 62
   250
420
  2367521
100
AcDbText
 10
227.7635273953072
 20
161.7763665048245
 30
0.0
 40
2.150533301035563
  1
材質
 41
1.028502464294433
  7
MS Gothic
100
AcDbText
  0
TEXT
  5
6F
330
1F
100
AcDbEntity
  8
外枠
  6
Continuous
 62
   250
420
  2367521
100
AcDbText
 10
233.5984640006548
 20
156.9052368606422
 30
0.0
 40
2.016124969720841
  1
アルミ押出形材（A6063S-T5）
 41
1.033106825086805
  7
MS Gothic
100
AcDbText
  0
TEXT
  5
70
330
1F
100
AcDbEntity
  8
外枠
  6
Continuous
 62
   250
420
  2367521
100
AcDbText
 10
233.5984640006548
 20
152.6719035908871
 30
0.0
 40
2.016124969720841
  1
シルバー仕上（アルマイト）
 41
1.002858636318109
  7
MS Gothic
100
AcDbText
  0
HATCH
  5
71
330
1F
100
AcDbEntity
  8
ISS138金台
  6
Continuous
 62
     7
420
 16777215
370
    50
100
AcDbHatch
 10
0.0
 20
0.0
 30
0.0
210
0.0
220
0.0
230
1.0
  2
SOLID
 70
     1
 71
     0
 91
        1
 92
        3
 72
     0
 73
     1
 93
      109
 10
116.3155621331882
 20
104.9872378370411
 10
116.3028045141578
 20
104.8339418561348
 10
116.3055498245821
 20
104.6826268051033
 10
116.3231521090671
 20
104.534240085191
 10
116.3550084759117
 20
104.3897398635656
 10
116.4005160334151
 20
104.2500627755483
 10
116.4590395921065
 20
104.1161562223836
 10
116.5299762602849
 20
103.9889353075462
 10
116.6126908484795
 20
103.8693689641271
 10
116.7065696990661
 20
103.7584045933707
 10
116.8110206862669
 20
103.6569680646749
 10
116.925397854688
 20
103.565996013361
 10
117.0490875467052
 20
103.48645737252
 10
117.1814868706173
 20
103.4192780115498
 10
117.3219606369538
 20
103.3653945657716
 10
117.4699167199368
 20
103.3257652023531
 10
117.6247199300956
 20
103.3013157906923
 10
132.1559925152704
 20
103.3210712598237
 10
132.1401127785026
 20
103.3210712598237
 10
132.1359786639813
 20
103.4028384467739
 10
132.1238562344216
 20
103.4822478965361
 10
132.1041653608295
 20
103.5589228017974
 10
132.0772613186717
 20
103.632421759705
 10
132.0435855108008
 20
103.7023571970227
 10
132.003525510453
 20
103.7683200086677
 10
131.9574904227112
 20
103.8299226214036
 10
131.9058678208118
 20
103.8867559301474
 10
131.8490775757608
 20
103.9384000638933
 10
131.7875072607947
 20
103.984478215328
 10
131.7215659809962
 20
104.0245597475223
 10
131.6516628414481
 20
104.058267853163
 10
131.5781854153869
 20
104.085182661244
 10
131.5015428078954
 20
104.1049058326058
 10
131.4221333581332
 20
104.1170390280887
 10
131.340366171183
 20
104.1211731426099
 10
124.8358537363189
 20
104.2753303973748
 10
124.6153676285192
 20
104.0488476703346
 10
124.3948815207194
 20
104.2904995832093
 10
118.1450692976877
 20
104.4993477279948
 10
118.0893233471903
 20
104.5332819180233
 10
118.0359566657272
 20
104.5706073738701
 10
117.985130742147
 20
104.6111518407633
 10
117.9370393630678
 20
104.6547753617011
 10
117.8918224854917
 20
104.7013379796812
 10
117.8496631301136
 20
104.7506782058554
 10
117.8107335517052
 20
104.8026883809911
 10
117.7751844731918
 20
104.8571854843936
 10
117.7431773834218
 20
104.9140618568304
 10
117.7149168349367
 20
104.9731452435299
 10
117.6905320188153
 20
105.0343064534132
 10
117.6702059557526
 20
105.0973839976319
 10
117.6541109005201
 20
105.1622594510304
 10
117.6423975760433
 20
105.228760558837
 10
117.6352597689402
 20
105.2967688958961
 10
117.6328374362129
 20
105.3661229733593
 10
118.1330760592068
 20
107.8189878589385
 10
112.1358539270538
 20
107.8189878589385
 10
112.1358539270538
 20
103.3210712598237
 10
112.8526921595605
 20
103.3157744255934
 10
112.9036149764498
 20
103.3183690130924
 10
112.9526645226967
 20
103.3259805208177
 10
112.9996362457597
 20
103.3383720984582
 10
113.0443578908671
 20
103.3552638320099
 10
113.0866141395543
 20
103.3764188711615
 10
113.1262219711264
 20
103.4015788337557
 10
113.162987598965
 20
103.4304853376347
 10
113.1967064705289
 20
103.462880000641
 10
113.2271847991999
 20
103.4985259724635
 10
113.2542287983597
 20
103.5371541050214
 10
113.2776446813902
 20
103.5785167820803
 10
113.2972386616732
 20
103.6223556214827
 10
113.3128277185137
 20
103.6684230069942
 10
113.3241965334471
 20
103.7164605564572
 10
113.3311620857785
 20
103.7662098877142
 10
113.3335305888896
 20
103.8174233845307
 10
113.3335305888896
 20
105.6031886029369
 10
113.3387735935038
 20
105.7056263624933
 10
113.3541365659564
 20
105.8052649820092
 10
113.3791458056253
 20
105.9016092290161
 10
113.4132199526559
 20
105.9940992755057
 10
113.4558530086563
 20
106.0822291230862
 10
113.5065389752344
 20
106.165460475596
 10
113.5647503221521
 20
106.2432765687198
 10
113.6299595191708
 20
106.3151283403729
 10
113.7016282701289
 20
106.3805205580866
 10
113.7792613425578
 20
106.4388933938527
 10
113.8623096743726
 20
106.4897300833561
 10
113.9502780331047
 20
106.5325138622817
 10
114.042617356669
 20
106.5667172003911
 10
114.1388216466738
 20
106.5917910355994
 10
114.2383633728807
 20
106.6072186035914
 10
114.3407150050512
 20
106.6124831400521
 10
115.4544282315975
 20
106.6160143628723
 10
115.5564676519943
 20
106.6107175286419
 10
115.655309593191
 20
106.5951607695711
 10
115.7505341841817
 20
106.5699146795911
 10
115.8416461924975
 20
106.5354960230171
 10
115.9281719175164
 20
106.4924538619339
 10
116.0096591904625
 20
106.4413049606568
 10
116.0856127788672
 20
106.3826091471937
 10
116.1555805139546
 20
106.3169047177063
 10
116.2190671632561
 20
106.2447084365097
 10
116.2756313239192
 20
106.1665801316121
 10
116.3247777634751
 20
106.0830473332519
 10
116.3660543131482
 20
105.9946591035138
 10
116.3989765063929
 20
105.9019322067131
 10
116.423070642587
 20
105.8054264708577
 10
116.4378737870316
 20
105.705658660263
 10
116.4429122391044
 20
105.6031886029369
 97
        0
 75
     1
 76
     1
 98
        0
  0
LWPOLYLINE
  5
72
330
1F
100
AcDbEntity
  8
ISS138金台
  6
Continuous
 62
     7
420
 16777215
370
    50
100
AcDbPolyline
 90
      110
 70
     0
 43
0.0
 10
116.3155621331882
 20
104.9872378370411
 10
116.3028045141578
 20
104.8339418561348
 10
116.3055498245821
 20
104.6826268051033
 10
116.3231521090671
 20
104.534240085191
 10
116.3550084759117
 20
104.3897398635656
 10
116.4005160334151
 20
104.2500627755483
 10
116.4590395921065
 20
104.1161562223836
 10
116.5299762602849
 20
103.9889353075462
 10
116.6126908484795
 20
103.8693689641271
 10
116.7065696990661
 20
103.7584045933707
 10
116.8110206862669
 20
103.6569680646749
 10
116.925397854688
 20
103.565996013361
 10
117.0490875467052
 20
103.48645737252
 10
117.1814868706173
 20
103.4192780115498
 10
117.3219606369538
 20
103.3653945657716
 10
117.4699167199368
 20
103.3257652023531
 10
117.6247199300956
 20
103.3013157906923
 10
132.1559925152704
 20
103.3210712598237
 10
132.1401127785026
 20
103.3210712598237
 10
132.1359786639813
 20
103.4028384467739
 10
132.1238562344216
 20
103.4822478965361
 10
132.1041653608295
 20
103.5589228017974
 10
132.0772613186717
 20
103.632421759705
 10
132.0435855108008
 20
103.7023571970227
 10
132.003525510453
 20
103.7683200086677
 10
131.9574904227112
 20
103.8299226214036
 10
131.9058678208118
 20
103.8867559301474
 10
131.8490775757608
 20
103.9384000638933
 10
131.7875072607947
 20
103.984478215328
 10
131.7215659809962
 20
104.0245597475223
 10
131.6516628414481
 20
104.058267853163
 10
131.5781854153869
 20
104.085182661244
 10
131.5015428078954
 20
104.1049058326058
 10
131.4221333581332
 20
104.1170390280887
 10
131.340366171183
 20
104.1211731426099
 10
124.8358537363189
 20
104.2753303973748
 10
124.6153676285192
 20
104.0488476703346
 10
124.3948815207194
 20
104.2904995832093
 10
118.1450692976877
 20
104.4993477279948
 10
118.0893233471903
 20
104.5332819180233
 10
118.0359566657272
 20
104.5706073738701
 10
117.985130742147
 20
104.6111518407633
 10
117.9370393630678
 20
104.6547753617011
 10
117.8918224854917
 20
104.7013379796812
 10
117.8496631301136
 20
104.7506782058554
 10
117.8107335517052
 20
104.8026883809911
 10
117.7751844731918
 20
104.8571854843936
 10
117.7431773834218
 20
104.9140618568304
 10
117.7149168349367
 20
104.9731452435299
 10
117.6905320188153
 20
105.0343064534132
 10
117.6702059557526
 20
105.0973839976319
 10
117.6541109005201
 20
105.1622594510304
 10
117.6423975760433
 20
105.228760558837
 10
117.6352597689402
 20
105.2967688958961
 10
117.6328374362129
 20
105.3661229733593
 10
118.1330760592068
 20
107.8189878589385
 10
112.1358539270538
 20
107.8189878589385
 10
112.1358539270538
 20
103.3210712598237
 10
112.8526921595605
 20
103.3157744255934
 10
112.9036149764498
 20
103.3183690130924
 10
112.9526645226967
 20
103.3259805208177
 10
112.9996362457597
 20
103.3383720984582
 10
113.0443578908671
 20
103.3552638320099
 10
113.0866141395543
 20
103.3764188711615
 10
113.1262219711264
 20
103.4015788337557
 10
113.162987598965
 20
103.4304853376347
 10
113.1967064705289
 20
103.462880000641
 10
113.2271847991999
 20
103.4985259724635
 10
113.2542287983597
 20
103.5371541050214
 10
113.2776446813902
 20
103.5785167820803
 10
113.2972386616732
 20
103.6223556214827
 10
113.3128277185137
 20
103.6684230069942
 10
113.3241965334471
 20
103.7164605564572
 10
113.3311620857785
 20
103.7662098877142
 10
113.3335305888896
 20
103.8174233845307
 10
113.3335305888896
 20
105.6031886029369
 10
113.3387735935038
 20
105.7056263624933
 10
113.3541365659564
 20
105.8052649820092
 10
113.3791458056253
 20
105.9016092290161
 10
113.4132199526559
 20
105.9940992755057
 10
113.4558530086563
 20
106.0822291230862
 10
113.5065389752344
 20
106.165460475596
 10
113.5647503221521
 20
106.2432765687198
 10
113.6299595191708
 20
106.3151283403729
 10
113.7016282701289
 20
106.3805205580866
 10
113.7792613425578
 20
106.4388933938527
 10
113.8623096743726
 20
106.4897300833561
 10
113.9502780331047
 20
106.5325138622817
 10
114.042617356669
 20
106.5667172003911
 10
114.1388216466738
 20
106.5917910355994
 10
114.2383633728807
 20
106.6072186035914
 10
114.3407150050512
 20
106.6124831400521
 10
115.4544282315975
 20
106.6160143628723
 10
115.5564676519943
 20
106.6107175286419
 10
115.655309593191
 20
106.5951607695711
 10
115.7505341841817
 20
106.5699146795911
 10
115.8416461924975
 20
106.5354960230171
 10
115.9281719175164
 20
106.4924538619339
 10
116.0096591904625
 20
106.4413049606568
 10
116.0856127788672
 20
106.3826091471937
 10
116.1555805139546
 20
106.3169047177063
 10
116.2190671632561
 20
106.2447084365097
 10
116.2756313239192
 20
106.1665801316121
 10
116.3247777634751
 20
106.0830473332519
 10
116.3660543131482
 20
105.9946591035138
 10
116.3989765063929
 20
105.9019322067131
 10
116.423070642587
 20
105.8054264708577
 10
116.4378737870316
 20
105.705658660263
 10
116.4429122391044
 20
105.6031886029369
 10
116.3155621331882
 20
104.9872378370411
  0
LWPOLYLINE
  5
73
330
1F
100
AcDbEntity
  8
ISS138金台
  6
Continuous
 62
   250
420
  2367521
370
    25
100
AcDbPolyline
 90
      110
 70
     0
 43
0.0
 10
116.3155621331882
 20
104.9872378370411
 10
116.3028045141578
 20
104.8339418561348
 10
116.3055498245821
 20
104.6826268051033
 10
116.3231521090671
 20
104.534240085191
 10
116.3550084759117
 20
104.3897398635656
 10
116.4005160334151
 20
104.2500627755483
 10
116.4590395921065
 20
104.1161562223836
 10
116.5299762602849
 20
103.9889353075462
 10
116.6126908484795
 20
103.8693689641271
 10
116.7065696990661
 20
103.7584045933707
 10
116.8110206862669
 20
103.6569680646749
 10
116.925397854688
 20
103.565996013361
 10
117.0490875467052
 20
103.48645737252
 10
117.1814868706173
 20
103.4192780115498
 10
117.3219606369538
 20
103.3653945657716
 10
117.4699167199368
 20
103.3257652023531
 10
117.6247199300956
 20
103.3013157906923
 10
132.1559925152704
 20
103.3210712598237
 10
132.1401127785026
 20
103.3210712598237
 10
132.1359786639813
 20
103.4028384467739
 10
132.1238562344216
 20
103.4822478965361
 10
132.1041653608295
 20
103.5589228017974
 10
132.0772613186717
 20
103.632421759705
 10
132.0435855108008
 20
103.7023571970227
 10
132.003525510453
 20
103.7683200086677
 10
131.9574904227112
 20
103.8299226214036
 10
131.9058678208118
 20
103.8867559301474
 10
131.8490775757608
 20
103.9384000638933
 10
131.7875072607947
 20
103.984478215328
 10
131.7215659809962
 20
104.0245597475223
 10
131.6516628414481
 20
104.058267853163
 10
131.5781854153869
 20
104.085182661244
 10
131.5015428078954
 20
104.1049058326058
 10
131.4221333581332
 20
104.1170390280887
 10
131.340366171183
 20
104.1211731426099
 10
124.8358537363189
 20
104.2753303973748
 10
124.6153676285192
 20
104.0488476703346
 10
124.3948815207194
 20
104.2904995832093
 10
118.1450692976877
 20
104.4993477279948
 10
118.0893233471903
 20
104.5332819180233
 10
118.0359566657272
 20
104.5706073738701
 10
117.985130742147
 20
104.6111518407633
 10
117.9370393630678
 20
104.6547753617011
 10
117.8918224854917
 20
104.7013379796812
 10
117.8496631301136
 20
104.7506782058554
 10
117.8107335517052
 20
104.8026883809911
 10
117.7751844731918
 20
104.8571854843936
 10
117.7431773834218
 20
104.9140618568304
 10
117.7149168349367
 20
104.9731452435299
 10
117.6905320188153
 20
105.0343064534132
 10
117.6702059557526
 20
105.0973839976319
 10
117.6541109005201
 20
105.1622594510304
 10
117.6423975760433
 20
105.228760558837
 10
117.6352597689402
 20
105.2967688958961
 10
117.6328374362129
 20
105.3661229733593
 10
118.1330760592068
 20
107.8189878589385
 10
112.1358539270538
 20
107.8189878589385
 10
112.1358539270538
 20
103.3210712598237
 10
112.8526921595605
 20
103.3157744255934
 10
112.9036149764498
 20
103.3183690130924
 10
112.9526645226967
 20
103.3259805208177
 10
112.9996362457597
 20
103.3383720984582
 10
113.0443578908671
 20
103.3552638320099
 10
113.0866141395543
 20
103.3764188711615
 10
113.1262219711264
 20
103.4015788337557
 10
113.162987598965
 20
103.4304853376347
 10
113.1967064705289
 20
103.462880000641
 10
113.2271847991999
 20
103.4985259724635
 10
113.2542287983597
 20
103.5371541050214
 10
113.2776446813902
 20
103.5785167820803
 10
113.2972386616732
 20
103.6223556214827
 10
113.3128277185137
 20
103.6684230069942
 10
113.3241965334471
 20
103.7164605564572
 10
113.3311620857785
 20
103.7662098877142
 10
113.3335305888896
 20
103.8174233845307
 10
113.3335305888896
 20
105.6031886029369
 10
113.3387735935038
 20
105.7056263624933
 10
113.3541365659564
 20
105.8052649820092
 10
113.3791458056253
 20
105.9016092290161
 10
113.4132199526559
 20
105.9940992755057
 10
113.4558530086563
 20
106.0822291230862
 10
113.5065389752344
 20
106.165460475596
 10
113.5647503221521
 20
106.2432765687198
 10
113.6299595191708
 20
106.3151283403729
 10
113.7016282701289
 20
106.3805205580866
 10
113.7792613425578
 20
106.4388933938527
 10
113.8623096743726
 20
106.4897300833561
 10
113.9502780331047
 20
106.5325138622817
 10
114.042617356669
 20
106.5667172003911
 10
114.1388216466738
 20
106.5917910355994
 10
114.2383633728807
 20
106.6072186035914
 10
114.3407150050512
 20
106.6124831400521
 10
115.4544282315975
 20
106.6160143628723
 10
115.5564676519943
 20
106.6107175286419
 10
115.655309593191
 20
106.5951607695711
 10
115.7505341841817
 20
106.5699146795911
 10
115.8416461924975
 20
106.5354960230171
 10
115.9281719175164
 20
106.4924538619339
 10
116.0096591904625
 20
106.4413049606568
 10
116.0856127788672
 20
106.3826091471937
 10
116.1555805139546
 20
106.3169047177063
 10
116.2190671632561
 20
106.2447084365097
 10
116.2756313239192
 20
106.1665801316121
 10
116.3247777634751
 20
106.0830473332519
 10
116.3660543131482
 20
105.9946591035138
 10
116.3989765063929
 20
105.9019322067131
 10
116.423070642587
 20
105.8054264708577
 10
116.4378737870316
 20
105.705658660263
 10
116.4429122391044
 20
105.6031886029369
 10
116.3155621331882
 20
104.9872378370411
  0
LINE
  5
74
330
1F
100
AcDbEntity
  8
ISS138金台
  6
Continuous
 62
   250
420
  2367521
370
    13
100
AcDbLine
 10
132.1154480483771
 20
102.3586084887696
 30
0.0
 11
132.1154480483771
 21
92.3263183291096
 31
0.0
  0
LINE
  5
75
330
1F
100
AcDbEntity
  8
ISS138金台
  6
Continuous
 62
   250
420
  2367521
370
    13
100
AcDbLine
 10
112.1614552925005
 20
92.81154925511751
 30
0.0
 11
132.1156203031488
 21
92.81154925511751
 31
0.0
  0
LINE
  5
76
330
1F
100
AcDbEntity
  8
ISS138金台
  6
Continuous
 62
   250
420
  2367521
370
    13
100
AcDbLine
 10
112.1614552925005
 20
92.32650134980454
 30
0.0
 11
112.1614552925005
 21
102.3587915094645
 31
0.0
  0
LINE
  5
77
330
1F
100
AcDbEntity
  8
ISS138金台
  6
Continuous
 62
   250
420
  2367521
370
    13
100
AcDbLine
 10
111.1472191966216
 20
103.3287473630884
 30
0.0
 11
106.1642331603475
 21
103.3287473630884
 31
0.0
  0
LINE
  5
78
330
1F
100
AcDbEntity
  8
ISS138金台
  6
Continuous
 62
   250
420
  2367521
370
    13
100
AcDbLine
 10
106.6713512082869
 20
103.3287473630884
 30
0.0
 11
106.6713512082869
 21
107.8047876061949
 31
0.0
  0
LINE
  5
79
330
1F
100
AcDbEntity
  8
ISS138金台
  6
Continuous
 62
   250
420
  2367521
370
    13
100
AcDbLine
 10
106.1642331603475
 20
107.8046045855
 30
0.0
 11
111.1472191966216
 21
107.8046045855
 31
0.0
  0
LINE
  5
7A
330
1F
100
AcDbEntity
  8
ISS138金台
  6
Continuous
 62
   250
420
  2367521
370
    13
100
AcDbLine
 10
112.1614552925005
 20
108.796802836522
 30
0.0
 11
112.1614552925005
 21
113.8020097383479
 31
0.0
  0
LINE
  5
7B
330
1F
100
AcDbEntity
  8
ISS138金台
  6
Continuous
 62
   250
420
  2367521
370
    13
100
AcDbLine
 10
118.1366288138735
 20
108.796802836522
 30
0.0
 11
118.1366288138735
 21
113.8020097383479
 31
0.0
  0
LINE
  5
7C
330
1F
100
AcDbEntity
  8
ISS138金台
  6
Continuous
 62
   250
420
  2367521
370
    13
100
AcDbLine
 10
118.1366288138735
 20
113.2947194356368
 30
0.0
 11
112.1612830377287
 21
113.2947194356368
 31
0.0
  0
HATCH
  5
7D
330
1F
100
AcDbEntity
  8
ISS138金台
  6
Continuous
 62
   250
420
  2367521
370
    13
100
AcDbHatch
 10
0.0
 20
0.0
 30
0.0
210
0.0
220
0.0
230
1.0
  2
SOLID
 70
     1
 71
     0
 91
        1
 92
        3
 72
     0
 73
     1
 93
       67
 10
118.1366288138735
 20
113.0446055071015
 10
118.1621655837807
 20
113.0458974178893
 10
118.1869810368314
 20
113.0497085547136
 10
118.2109244501003
 20
113.0558558968793
 10
118.2338989302783
 20
113.0642856147703
 10
118.2557752862865
 20
113.0748254536148
 10
118.2763920292766
 20
113.0873785201038
 10
118.2956415000161
 20
113.1017833253888
 10
118.3134160392729
 20
113.1179429761606
 10
118.3295649241215
 20
113.1357067494941
 10
118.3439804953297
 20
113.1549669861569
 10
118.3565227958954
 20
113.1755944950702
 10
118.3670734006632
 20
113.197449319232
 10
118.3754923526309
 20
113.2204237994099
 10
118.3816612266431
 20
113.244377978602
 10
118.3854615975441
 20
113.2691934316527
 10
118.386753508332
 20
113.29473020156
 10
118.386753508332
 20
113.29473020156
 10
118.3854615975441
 20
113.3202669714673
 10
118.3816612266431
 20
113.345082424518
 10
118.3754815867077
 20
113.3690366037101
 10
118.36706263474
 20
113.3920003179648
 10
118.3565227958954
 20
113.4138551421266
 10
118.3439804953297
 20
113.4344826510399
 10
118.3295649241215
 20
113.4537428877027
 10
118.3134160392729
 20
113.4715066610362
 10
118.2956522659394
 20
113.487666311808
 10
118.2763812633534
 20
113.502071117093
 10
118.2557645203633
 20
113.5146134176587
 10
118.2338989302783
 20
113.5251640224265
 10
118.2109352160235
 20
113.5335829743942
 10
118.1869810368314
 20
113.5397518484064
 10
118.1621655837807
 20
113.5435522193075
 10
118.1366288138735
 20
113.5448441300953
 10
118.1366288138735
 20
113.5448441300953
 10
118.1110812780429
 20
113.5435522193075
 10
118.0862873568387
 20
113.5397626143297
 10
118.0623224117234
 20
113.533572208471
 10
118.0393586974686
 20
113.5251640224265
 10
118.0174931073836
 20
113.5146134176587
 10
117.9968763643935
 20
113.502071117093
 10
117.9776161277308
 20
113.487666311808
 10
117.9598415884741
 20
113.4715066610362
 10
117.9436819377022
 20
113.4537428877027
 10
117.9292771324173
 20
113.4344826510399
 10
117.9167348318515
 20
113.4138659080499
 10
117.9061842270837
 20
113.3920003179648
 10
117.897765275116
 20
113.3690258377869
 10
117.8915964011038
 20
113.345082424518
 10
117.8877960302028
 20
113.3202669714673
 10
117.8865041194149
 20
113.29473020156
 10
117.8865041194149
 20
113.29473020156
 10
117.8877960302028
 20
113.2691934316527
 10
117.8915964011038
 20
113.2443672126788
 10
117.897765275116
 20
113.2204130334867
 10
117.906194993007
 20
113.197449319232
 10
117.9167348318515
 20
113.1755837291469
 10
117.9292771324173
 20
113.1549669861569
 10
117.9436819377022
 20
113.1357067494941
 10
117.9598415884741
 20
113.1179429761606
 10
117.9776161277308
 20
113.1017833253888
 10
117.9968763643935
 20
113.0873785201038
 10
118.0174931073836
 20
113.0748362195381
 10
118.0393586974686
 20
113.0642856147703
 10
118.0623331776466
 20
113.0558666628025
 10
118.0862765909155
 20
113.0496977887904
 10
118.1110920439662
 20
113.0458974178893
 97
        0
 75
     1
 76
     1
 98
        0
  0
LWPOLYLINE
  5
7E
330
1F
100
AcDbEntity
  8
ISS138金台
  6
Continuous
 62
   250
420
  2367521
370
    13
100
AcDbPolyline
 90
       68
 70
     0
 43
0.0
 10
118.1366288138735
 20
113.0446055071015
 10
118.1621655837807
 20
113.0458974178893
 10
118.1869810368314
 20
113.0497085547136
 10
118.2109244501003
 20
113.0558558968793
 10
118.2338989302783
 20
113.0642856147703
 10
118.2557752862865
 20
113.0748254536148
 10
118.2763920292766
 20
113.0873785201038
 10
118.2956415000161
 20
113.1017833253888
 10
118.3134160392729
 20
113.1179429761606
 10
118.3295649241215
 20
113.1357067494941
 10
118.3439804953297
 20
113.1549669861569
 10
118.3565227958954
 20
113.1755944950702
 10
118.3670734006632
 20
113.197449319232
 10
118.3754923526309
 20
113.2204237994099
 10
118.3816612266431
 20
113.244377978602
 10
118.3854615975441
 20
113.2691934316527
 10
118.386753508332
 20
113.29473020156
 10
118.386753508332
 20
113.29473020156
 10
118.3854615975441
 20
113.3202669714673
 10
118.3816612266431
 20
113.345082424518
 10
118.3754815867077
 20
113.3690366037101
 10
118.36706263474
 20
113.3920003179648
 10
118.3565227958954
 20
113.4138551421266
 10
118.3439804953297
 20
113.4344826510399
 10
118.3295649241215
 20
113.4537428877027
 10
118.3134160392729
 20
113.4715066610362
 10
118.2956522659394
 20
113.487666311808
 10
118.2763812633534
 20
113.502071117093
 10
118.2557645203633
 20
113.5146134176587
 10
118.2338989302783
 20
113.5251640224265
 10
118.2109352160235
 20
113.5335829743942
 10
118.1869810368314
 20
113.5397518484064
 10
118.1621655837807
 20
113.5435522193075
 10
118.1366288138735
 20
113.5448441300953
 10
118.1366288138735
 20
113.5448441300953
 10
118.1110812780429
 20
113.5435522193075
 10
118.0862873568387
 20
113.5397626143297
 10
118.0623224117234
 20
113.533572208471
 10
118.0393586974686
 20
113.5251640224265
 10
118.0174931073836
 20
113.5146134176587
 10
117.9968763643935
 20
113.502071117093
 10
117.9776161277308
 20
113.487666311808
 10
117.9598415884741
 20
113.4715066610362
 10
117.9436819377022
 20
113.4537428877027
 10
117.9292771324173
 20
113.4344826510399
 10
117.9167348318515
 20
113.4138659080499
 10
117.9061842270837
 20
113.3920003179648
 10
117.897765275116
 20
113.3690258377869
 10
117.8915964011038
 20
113.345082424518
 10
117.8877960302028
 20
113.3202669714673
 10
117.8865041194149
 20
113.29473020156
 10
117.8865041194149
 20
113.29473020156
 10
117.8877960302028
 20
113.2691934316527
 10
117.8915964011038
 20
113.2443672126788
 10
117.897765275116
 20
113.2204130334867
 10
117.906194993007
 20
113.197449319232
 10
117.9167348318515
 20
113.1755837291469
 10
117.9292771324173
 20
113.1549669861569
 10
117.9436819377022
 20
113.1357067494941
 10
117.9598415884741
 20
113.1179429761606
 10
117.9776161277308
 20
113.1017833253888
 10
117.9968763643935
 20
113.0873785201038
 10
118.0174931073836
 20
113.0748362195381
 10
118.0393586974686
 20
113.0642856147703
 10
118.0623331776466
 20
113.0558666628025
 10
118.0862765909155
 20
113.0496977887904
 10
118.1110920439662
 20
113.0458974178893
 10
118.1366288138735
 20
113.0446055071015
  0
HATCH
  5
7F
330
1F
100
AcDbEntity
  8
ISS138金台
  6
Continuous
 62
   250
420
  2367521
370
    13
100
AcDbHatch
 10
0.0
 20
0.0
 30
0.0
210
0.0
220
0.0
230
1.0
  2
SOLID
 70
     1
 71
     0
 91
        1
 92
        3
 72
     0
 73
     1
 93
       67
 10
112.1614552925005
 20
113.0446055071015
 10
112.1869920624077
 20
113.0458974178893
 10
112.2118075154584
 20
113.0497085547136
 10
112.2357616946505
 20
113.0558558968793
 10
112.2587254089053
 20
113.0642856147703
 10
112.2805909989903
 20
113.0748254536148
 10
112.3012185079036
 20
113.0873785201038
 10
112.3204679786431
 20
113.1017833253888
 10
112.3382425178998
 20
113.1179429761606
 10
112.3543914027484
 20
113.1357067494941
 10
112.3688069739567
 20
113.1549669861569
 10
112.3813492745224
 20
113.1755944950702
 10
112.3918998792902
 20
113.197449319232
 10
112.4003188312579
 20
113.2204237994099
 10
112.4064877052701
 20
113.244377978602
 10
112.4102880761711
 20
113.2691934316527
 10
112.411579986959
 20
113.29473020156
 10
112.411579986959
 20
113.29473020156
 10
112.4102880761711
 20
113.3202669714673
 10
112.4064877052701
 20
113.345082424518
 10
112.4003188312579
 20
113.3690366037101
 10
112.3918891133669
 20
113.3920003179648
 10
112.3813492745224
 20
113.4138551421266
 10
112.3688069739567
 20
113.4344826510399
 10
112.3544021686717
 20
113.4537428877027
 10
112.3382425178998
 20
113.4715066610362
 10
112.3204679786431
 20
113.487666311808
 10
112.3012077419804
 20
113.502071117093
 10
112.2805909989903
 20
113.5146134176587
 10
112.2587254089053
 20
113.5251640224265
 10
112.2357616946505
 20
113.5335829743942
 10
112.2118075154584
 20
113.5397518484064
 10
112.1869920624077
 20
113.5435522193075
 10
112.1614552925005
 20
113.5448441300953
 10
112.1614552925005
 20
113.5448441300953
 10
112.1359185225932
 20
113.5435522193075
 10
112.1111138354657
 20
113.5397626143297
 10
112.0871488903504
 20
113.533572208471
 10
112.0641851760956
 20
113.5251640224265
 10
112.0423195860106
 20
113.5146134176587
 10
112.0217028430205
 20
113.502071117093
 10
112.0024318404345
 20
113.487666311808
 10
111.9846680671011
 20
113.4715066610362
 10
111.9685084163292
 20
113.4537428877027
 10
111.9541036110443
 20
113.4344826510399
 10
111.9415613104785
 20
113.4138659080499
 10
111.9310107057107
 20
113.3920003179648
 10
111.922591753743
 20
113.3690258377869
 10
111.9164228797308
 20
113.345082424518
 10
111.9126225088298
 20
113.3202669714673
 10
111.9113305980419
 20
113.29473020156
 10
111.9113305980419
 20
113.29473020156
 10
111.9126225088298
 20
113.2691934316527
 10
111.9164228797308
 20
113.2443672126788
 10
111.9226025196662
 20
113.2204130334867
 10
111.931021471634
 20
113.197449319232
 10
111.9415613104785
 20
113.1755837291469
 10
111.9541036110443
 20
113.1549669861569
 10
111.9685084163292
 20
113.1357067494941
 10
111.9846680671011
 20
113.1179429761606
 10
112.0024426063578
 20
113.1017833253888
 10
112.0217028430205
 20
113.0873785201038
 10
112.0423195860106
 20
113.0748362195381
 10
112.0641851760956
 20
113.0642856147703
 10
112.0871596562736
 20
113.0558666628025
 10
112.1111030695425
 20
113.0496977887904
 10
112.1359185225932
 20
113.0458974178893
 97
        0
 75
     1
 76
     1
 98
        0
  0
LWPOLYLINE
  5
80
330
1F
100
AcDbEntity
  8
ISS138金台
  6
Continuous
 62
   250
420
  2367521
370
    13
100
AcDbPolyline
 90
       68
 70
     0
 43
0.0
 10
112.1614552925005
 20
113.0446055071015
 10
112.1869920624077
 20
113.0458974178893
 10
112.2118075154584
 20
113.0497085547136
 10
112.2357616946505
 20
113.0558558968793
 10
112.2587254089053
 20
113.0642856147703
 10
112.2805909989903
 20
113.0748254536148
 10
112.3012185079036
 20
113.0873785201038
 10
112.3204679786431
 20
113.1017833253888
 10
112.3382425178998
 20
113.1179429761606
 10
112.3543914027484
 20
113.1357067494941
 10
112.3688069739567
 20
113.1549669861569
 10
112.3813492745224
 20
113.1755944950702
 10
112.3918998792902
 20
113.197449319232
 10
112.4003188312579
 20
113.2204237994099
 10
112.4064877052701
 20
113.244377978602
 10
112.4102880761711
 20
113.2691934316527
 10
112.411579986959
 20
113.29473020156
 10
112.411579986959
 20
113.29473020156
 10
112.4102880761711
 20
113.3202669714673
 10
112.4064877052701
 20
113.345082424518
 10
112.4003188312579
 20
113.3690366037101
 10
112.3918891133669
 20
113.3920003179648
 10
112.3813492745224
 20
113.4138551421266
 10
112.3688069739567
 20
113.4344826510399
 10
112.3544021686717
 20
113.4537428877027
 10
112.3382425178998
 20
113.4715066610362
 10
112.3204679786431
 20
113.487666311808
 10
112.3012077419804
 20
113.502071117093
 10
112.2805909989903
 20
113.5146134176587
 10
112.2587254089053
 20
113.5251640224265
 10
112.2357616946505
 20
113.5335829743942
 10
112.2118075154584
 20
113.5397518484064
 10
112.1869920624077
 20
113.5435522193075
 10
112.1614552925005
 20
113.5448441300953
 10
112.1614552925005
 20
113.5448441300953
 10
112.1359185225932
 20
113.5435522193075
 10
112.1111138354657
 20
113.5397626143297
 10
112.0871488903504
 20
113.533572208471
 10
112.0641851760956
 20
113.5251640224265
 10
112.0423195860106
 20
113.5146134176587
 10
112.0217028430205
 20
113.502071117093
 10
112.0024318404345
 20
113.487666311808
 10
111.9846680671011
 20
113.4715066610362
 10
111.9685084163292
 20
113.4537428877027
 10
111.9541036110443
 20
113.4344826510399
 10
111.9415613104785
 20
113.4138659080499
 10
111.9310107057107
 20
113.3920003179648
 10
111.922591753743
 20
113.3690258377869
 10
111.9164228797308
 20
113.345082424518
 10
111.9126225088298
 20
113.3202669714673
 10
111.9113305980419
 20
113.29473020156
 10
111.9113305980419
 20
113.29473020156
 10
111.9126225088298
 20
113.2691934316527
 10
111.9164228797308
 20
113.2443672126788
 10
111.9226025196662
 20
113.2204130334867
 10
111.931021471634
 20
113.197449319232
 10
111.9415613104785
 20
113.1755837291469
 10
111.9541036110443
 20
113.1549669861569
 10
111.9685084163292
 20
113.1357067494941
 10
111.9846680671011
 20
113.1179429761606
 10
112.0024426063578
 20
113.1017833253888
 10
112.0217028430205
 20
113.0873785201038
 10
112.0423195860106
 20
113.0748362195381
 10
112.0641851760956
 20
113.0642856147703
 10
112.0871596562736
 20
113.0558666628025
 10
112.1111030695425
 20
113.0496977887904
 10
112.1359185225932
 20
113.0458974178893
 10
112.1614552925005
 20
113.0446055071015
  0
HATCH
  5
81
330
1F
100
AcDbEntity
  8
ISS138金台
  6
Continuous
 62
   250
420
  2367521
370
    13
100
AcDbHatch
 10
0.0
 20
0.0
 30
0.0
210
0.0
220
0.0
230
1.0
  2
SOLID
 70
     1
 71
     0
 91
        1
 92
        3
 72
     0
 73
     1
 93
       67
 10
106.6713512082869
 20
107.5544906569646
 10
106.6968879781941
 20
107.5557825677525
 10
106.7217034312449
 20
107.5595829386536
 10
106.7456468445137
 20
107.5657518126657
 10
106.7686213246917
 20
107.5741707646335
 10
106.7904869147767
 20
107.5847213694012
 10
106.81111442369
 20
107.597263669967
 10
106.8303638944296
 20
107.611668475252
 10
106.8481384336863
 20
107.6278281260238
 10
106.8642873185349
 20
107.6455918993573
 10
106.8787028897431
 20
107.6648521360201
 10
106.8912451903088
 20
107.6854796449334
 10
106.9017957950766
 20
107.7073344690952
 10
106.9102147470443
 20
107.7303089492731
 10
106.9163836210565
 20
107.7542631284652
 10
106.9201839919576
 20
107.7790785815159
 10
106.9214759027454
 20
107.8046153514232
 10
106.9214759027454
 20
107.8046153514232
 10
106.9201839919576
 20
107.8301521213305
 10
106.9163836210565
 20
107.8549675743812
 10
106.9102039811211
 20
107.8789217535733
 10
106.9017850291534
 20
107.901885467828
 10
106.8912344243856
 20
107.9237402919898
 10
106.8787028897431
 20
107.9443678009031
 10
106.8642873185349
 20
107.9636280375659
 10
106.8481384336863
 20
107.9813918108994
 10
106.8303638944296
 20
107.9975514616712
 10
106.8111036577668
 20
108.0119670328794
 10
106.7904869147767
 20
108.0244985675219
 10
106.7686213246917
 20
108.0350491722897
 10
106.745657610437
 20
108.0434681242574
 10
106.7217034312449
 20
108.0496369982696
 10
106.6968879781941
 20
108.0534373691707
 10
106.6713512082869
 20
108.0547292799586
 10
106.6713512082869
 20
108.0547292799586
 10
106.6458036724564
 20
108.0534373691707
 10
106.6210097512521
 20
108.0496477641928
 10
106.5970448061368
 20
108.0434681242574
 10
106.5740810918821
 20
108.0350491722897
 10
106.552215501797
 20
108.0244985675219
 10
106.531598758807
 20
108.0119670328794
 10
106.5123385221442
 20
107.997540695748
 10
106.4945639828875
 20
107.9813918108994
 10
106.4784043321156
 20
107.9636280375659
 10
106.4639995268307
 20
107.9443678009031
 10
106.4514572262649
 20
107.9237402919898
 10
106.4409066214972
 20
107.901885467828
 10
106.4324876695294
 20
107.8789217535733
 10
106.4263187955172
 20
107.8549675743812
 10
106.4225184246162
 20
107.8301521213305
 10
106.4212265138283
 20
107.8046153514232
 10
106.4212265138283
 20
107.8046153514232
 10
106.4225184246162
 20
107.7790678155927
 10
106.4263187955172
 20
107.7542631284652
 10
106.4324876695294
 20
107.7303197151963
 10
106.4409066214972
 20
107.7073452350184
 10
106.4514464603417
 20
107.6854796449334
 10
106.4639995268307
 20
107.6648521360201
 10
106.4784043321156
 20
107.6456026652805
 10
106.4945639828875
 20
107.6278281260238
 10
106.5123385221442
 20
107.611668475252
 10
106.531598758807
 20
107.597263669967
 10
106.552215501797
 20
107.5847213694012
 10
106.5740810918821
 20
107.5741707646335
 10
106.59705557206
 20
107.5657518126657
 10
106.6209989853289
 20
107.5595829386536
 10
106.6458144383796
 20
107.5557825677525
 97
        0
 75
     1
 76
     1
 98
        0
  0
LWPOLYLINE
  5
82
330
1F
100
AcDbEntity
  8
ISS138金台
  6
Continuous
 62
   250
420
  2367521
370
    13
100
AcDbPolyline
 90
       68
 70
     0
 43
0.0
 10
106.6713512082869
 20
107.5544906569646
 10
106.6968879781941
 20
107.5557825677525
 10
106.7217034312449
 20
107.5595829386536
 10
106.7456468445137
 20
107.5657518126657
 10
106.7686213246917
 20
107.5741707646335
 10
106.7904869147767
 20
107.5847213694012
 10
106.81111442369
 20
107.597263669967
 10
106.8303638944296
 20
107.611668475252
 10
106.8481384336863
 20
107.6278281260238
 10
106.8642873185349
 20
107.6455918993573
 10
106.8787028897431
 20
107.6648521360201
 10
106.8912451903088
 20
107.6854796449334
 10
106.9017957950766
 20
107.7073344690952
 10
106.9102147470443
 20
107.7303089492731
 10
106.9163836210565
 20
107.7542631284652
 10
106.9201839919576
 20
107.7790785815159
 10
106.9214759027454
 20
107.8046153514232
 10
106.9214759027454
 20
107.8046153514232
 10
106.9201839919576
 20
107.8301521213305
 10
106.9163836210565
 20
107.8549675743812
 10
106.9102039811211
 20
107.8789217535733
 10
106.9017850291534
 20
107.901885467828
 10
106.8912344243856
 20
107.9237402919898
 10
106.8787028897431
 20
107.9443678009031
 10
106.8642873185349
 20
107.9636280375659
 10
106.8481384336863
 20
107.9813918108994
 10
106.8303638944296
 20
107.9975514616712
 10
106.8111036577668
 20
108.0119670328794
 10
106.7904869147767
 20
108.0244985675219
 10
106.7686213246917
 20
108.0350491722897
 10
106.745657610437
 20
108.0434681242574
 10
106.7217034312449
 20
108.0496369982696
 10
106.6968879781941
 20
108.0534373691707
 10
106.6713512082869
 20
108.0547292799586
 10
106.6713512082869
 20
108.0547292799586
 10
106.6458036724564
 20
108.0534373691707
 10
106.6210097512521
 20
108.0496477641928
 10
106.5970448061368
 20
108.0434681242574
 10
106.5740810918821
 20
108.0350491722897
 10
106.552215501797
 20
108.0244985675219
 10
106.531598758807
 20
108.0119670328794
 10
106.5123385221442
 20
107.997540695748
 10
106.4945639828875
 20
107.9813918108994
 10
106.4784043321156
 20
107.9636280375659
 10
106.4639995268307
 20
107.9443678009031
 10
106.4514572262649
 20
107.9237402919898
 10
106.4409066214972
 20
107.901885467828
 10
106.4324876695294
 20
107.8789217535733
 10
106.4263187955172
 20
107.8549675743812
 10
106.4225184246162
 20
107.8301521213305
 10
106.4212265138283
 20
107.8046153514232
 10
106.4212265138283
 20
107.8046153514232
 10
106.4225184246162
 20
107.7790678155927
 10
106.4263187955172
 20
107.7542631284652
 10
106.4324876695294
 20
107.7303197151963
 10
106.4409066214972
 20
107.7073452350184
 10
106.4514464603417
 20
107.6854796449334
 10
106.4639995268307
 20
107.6648521360201
 10
106.4784043321156
 20
107.6456026652805
 10
106.4945639828875
 20
107.6278281260238
 10
106.5123385221442
 20
107.611668475252
 10
106.531598758807
 20
107.597263669967
 10
106.552215501797
 20
107.5847213694012
 10
106.5740810918821
 20
107.5741707646335
 10
106.59705557206
 20
107.5657518126657
 10
106.6209989853289
 20
107.5595829386536
 10
106.6458144383796
 20
107.5557825677525
 10
106.6713512082869
 20
107.5544906569646
  0
HATCH
  5
83
330
1F
100
AcDbEntity
  8
ISS138金台
  6
Continuous
 62
   250
420
  2367521
370
    13
100
AcDbHatch
 10
0.0
 20
0.0
 30
0.0
210
0.0
220
0.0
230
1.0
  2
SOLID
 70
     1
 71
     0
 91
        1
 92
        3
 72
     0
 73
     1
 93
       67
 10
106.6713512082869
 20
103.0786334345531
 10
106.6968879781941
 20
103.079925345341
 10
106.7217034312449
 20
103.0837364821653
 10
106.7456468445137
 20
103.089883824331
 10
106.7686213246917
 20
103.098313542222
 10
106.7904869147767
 20
103.1088533810665
 10
106.81111442369
 20
103.1214064475555
 10
106.8303638944296
 20
103.1358112528404
 10
106.8481384336863
 20
103.1519709036123
 10
106.8642873185349
 20
103.1697346769458
 10
106.8787028897431
 20
103.1889949136085
 10
106.8912451903088
 20
103.2096224225218
 10
106.9017957950766
 20
103.2314772466836
 10
106.9102147470443
 20
103.2544517268616
 10
106.9163836210565
 20
103.2784059060537
 10
106.9201839919576
 20
103.3032213591044
 10
106.9214759027454
 20
103.3287581290117
 10
106.9214759027454
 20
103.3287581290117
 10
106.9201839919576
 20
103.354294898919
 10
106.9163836210565
 20
103.3791103519697
 10
106.9102039811211
 20
103.4030645311618
 10
106.9017850291534
 20
103.4260282454165
 10
106.8912344243856
 20
103.4478830695783
 10
106.8787028897431
 20
103.4685105784916
 10
106.8642873185349
 20
103.4877708151544
 10
106.8481384336863
 20
103.5055345884878
 10
106.8303638944296
 20
103.5216942392597
 10
106.8111036577668
 20
103.5360990445446
 10
106.7904869147767
 20
103.5486413451104
 10
106.7686213246917
 20
103.5591919498782
 10
106.745657610437
 20
103.5676109018459
 10
106.7217034312449
 20
103.5737797758581
 10
106.6968879781941
 20
103.5775801467591
 10
106.6713512082869
 20
103.578872057547
 10
106.6713512082869
 20
103.578872057547
 10
106.6458036724564
 20
103.5775801467591
 10
106.6210097512521
 20
103.5737905417813
 10
106.5970448061368
 20
103.5676001359227
 10
106.5740810918821
 20
103.5591919498782
 10
106.552215501797
 20
103.5486413451104
 10
106.531598758807
 20
103.5360990445446
 10
106.5123385221442
 20
103.5216942392597
 10
106.4945639828875
 20
103.5055345884878
 10
106.4784043321156
 20
103.4877708151544
 10
106.4639995268307
 20
103.4685105784916
 10
106.4514572262649
 20
103.4478938355015
 10
106.4409066214972
 20
103.4260282454165
 10
106.4324876695294
 20
103.4030537652385
 10
106.4263187955172
 20
103.3791103519697
 10
106.4225184246162
 20
103.354294898919
 10
106.4212265138283
 20
103.3287581290117
 10
106.4212265138283
 20
103.3287581290117
 10
106.4225184246162
 20
103.3032213591044
 10
106.4263187955172
 20
103.2783951401305
 10
106.4324876695294
 20
103.2544409609384
 10
106.4409066214972
 20
103.2314880126069
 10
106.4514464603417
 20
103.2096116565986
 10
106.4639995268307
 20
103.1889949136085
 10
106.4784043321156
 20
103.1697346769458
 10
106.4945639828875
 20
103.1519709036123
 10
106.5123385221442
 20
103.1358112528404
 10
106.531598758807
 20
103.1214064475555
 10
106.552215501797
 20
103.1088641469897
 10
106.5740810918821
 20
103.098313542222
 10
106.59705557206
 20
103.0898945902542
 10
106.6209989853289
 20
103.083725716242
 10
106.6458144383796
 20
103.079925345341
 97
        0
 75
     1
 76
     1
 98
        0
  0
LWPOLYLINE
  5
84
330
1F
100
AcDbEntity
  8
ISS138金台
  6
Continuous
 62
   250
420
  2367521
370
    13
100
AcDbPolyline
 90
       68
 70
     0
 43
0.0
 10
106.6713512082869
 20
103.0786334345531
 10
106.6968879781941
 20
103.079925345341
 10
106.7217034312449
 20
103.0837364821653
 10
106.7456468445137
 20
103.089883824331
 10
106.7686213246917
 20
103.098313542222
 10
106.7904869147767
 20
103.1088533810665
 10
106.81111442369
 20
103.1214064475555
 10
106.8303638944296
 20
103.1358112528404
 10
106.8481384336863
 20
103.1519709036123
 10
106.8642873185349
 20
103.1697346769458
 10
106.8787028897431
 20
103.1889949136085
 10
106.8912451903088
 20
103.2096224225218
 10
106.9017957950766
 20
103.2314772466836
 10
106.9102147470443
 20
103.2544517268616
 10
106.9163836210565
 20
103.2784059060537
 10
106.9201839919576
 20
103.3032213591044
 10
106.9214759027454
 20
103.3287581290117
 10
106.9214759027454
 20
103.3287581290117
 10
106.9201839919576
 20
103.354294898919
 10
106.9163836210565
 20
103.3791103519697
 10
106.9102039811211
 20
103.4030645311618
 10
106.9017850291534
 20
103.4260282454165
 10
106.8912344243856
 20
103.4478830695783
 10
106.8787028897431
 20
103.4685105784916
 10
106.8642873185349
 20
103.4877708151544
 10
106.8481384336863
 20
103.5055345884878
 10
106.8303638944296
 20
103.5216942392597
 10
106.8111036577668
 20
103.5360990445446
 10
106.7904869147767
 20
103.5486413451104
 10
106.7686213246917
 20
103.5591919498782
 10
106.745657610437
 20
103.5676109018459
 10
106.7217034312449
 20
103.5737797758581
 10
106.6968879781941
 20
103.5775801467591
 10
106.6713512082869
 20
103.578872057547
 10
106.6713512082869
 20
103.578872057547
 10
106.6458036724564
 20
103.5775801467591
 10
106.6210097512521
 20
103.5737905417813
 10
106.5970448061368
 20
103.5676001359227
 10
106.5740810918821
 20
103.5591919498782
 10
106.552215501797
 20
103.5486413451104
 10
106.531598758807
 20
103.5360990445446
 10
106.5123385221442
 20
103.5216942392597
 10
106.4945639828875
 20
103.5055345884878
 10
106.4784043321156
 20
103.4877708151544
 10
106.4639995268307
 20
103.4685105784916
 10
106.4514572262649
 20
103.4478938355015
 10
106.4409066214972
 20
103.4260282454165
 10
106.4324876695294
 20
103.4030537652385
 10
106.4263187955172
 20
103.3791103519697
 10
106.4225184246162
 20
103.354294898919
 10
106.4212265138283
 20
103.3287581290117
 10
106.4212265138283
 20
103.3287581290117
 10
106.4225184246162
 20
103.3032213591044
 10
106.4263187955172
 20
103.2783951401305
 10
106.4324876695294
 20
103.2544409609384
 10
106.4409066214972
 20
103.2314880126069
 10
106.4514464603417
 20
103.2096116565986
 10
106.4639995268307
 20
103.1889949136085
 10
106.4784043321156
 20
103.1697346769458
 10
106.4945639828875
 20
103.1519709036123
 10
106.5123385221442
 20
103.1358112528404
 10
106.531598758807
 20
103.1214064475555
 10
106.552215501797
 20
103.1088641469897
 10
106.5740810918821
 20
103.098313542222
 10
106.59705557206
 20
103.0898945902542
 10
106.6209989853289
 20
103.083725716242
 10
106.6458144383796
 20
103.079925345341
 10
106.6713512082869
 20
103.0786334345531
  0
HATCH
  5
85
330
1F
100
AcDbEntity
  8
ISS138金台
  6
Continuous
 62
   250
420
  2367521
370
    13
100
AcDbHatch
 10
0.0
 20
0.0
 30
0.0
210
0.0
220
0.0
230
1.0
  2
SOLID
 70
     1
 71
     0
 91
        1
 92
        3
 72
     0
 73
     1
 93
       67
 10
112.1614552925005
 20
92.5614353265822
 10
112.1869920624077
 20
92.56272723737007
 10
112.2118075154584
 20
92.56652760827112
 10
112.2357616946505
 20
92.57269648228329
 10
112.2587254089053
 20
92.58111543425103
 10
112.2805909989903
 20
92.5916660390188
 10
112.3012185079036
 20
92.60420833958455
 10
112.3204679786431
 20
92.61861314486951
 10
112.3382425178998
 20
92.63476202971813
 10
112.3543914027484
 20
92.65253656897484
 10
112.3688069739567
 20
92.67179680563763
 10
112.3813492745224
 20
92.69242431455092
 10
112.3918998792902
 20
92.7142791387127
 10
112.4003188312579
 20
92.73725361889066
 10
112.4064877052701
 20
92.76120779808278
 10
112.4102880761711
 20
92.78602325113349
 10
112.411579986959
 20
92.81156002104075
 10
112.411579986959
 20
92.81156002104075
 10
112.4102880761711
 20
92.83709679094804
 10
112.4064877052701
 20
92.86191224399873
 10
112.4003188312579
 20
92.88586642319083
 10
112.3918891133669
 20
92.90883013744556
 10
112.3813492745224
 20
92.93068496160737
 10
112.3688069739567
 20
92.95131247052066
 10
112.3544021686717
 20
92.97057270718344
 10
112.3382425178998
 20
92.98833648051692
 10
112.3204679786431
 20
93.00449613128876
 10
112.3012077419804
 20
93.01891170249695
 10
112.2805909989903
 20
93.03144323713948
 10
112.2587254089053
 20
93.04199384190724
 10
112.2357616946505
 20
93.05041279387498
 10
112.2118075154584
 20
93.05658166788716
 10
112.1869920624077
 20
93.06038203878819
 10
112.1614552925005
 20
93.06167394957609
 10
112.1614552925005
 20
93.06167394957609
 10
112.1359185225932
 20
93.06038203878819
 10
112.1111138354657
 20
93.05659243381038
 10
112.0871488903504
 20
93.05041279387498
 10
112.0641851760956
 20
93.04199384190724
 10
112.0423195860106
 20
93.03144323713948
 10
112.0217028430205
 20
93.01890093657371
 10
112.0024318404345
 20
93.00449613128876
 10
111.9846680671011
 20
92.98833648051692
 10
111.9685084163292
 20
92.97057270718344
 10
111.9541036110443
 20
92.95131247052066
 10
111.9415613104785
 20
92.93068496160737
 10
111.9310107057107
 20
92.90883013744556
 10
111.922591753743
 20
92.88586642319083
 10
111.9164228797308
 20
92.86191224399873
 10
111.9126225088298
 20
92.83709679094804
 10
111.9113305980419
 20
92.81156002104075
 10
111.9113305980419
 20
92.81156002104075
 10
111.9126225088298
 20
92.78601248521025
 10
111.9164228797308
 20
92.76120779808278
 10
111.9226025196662
 20
92.73725361889066
 10
111.931021471634
 20
92.7142791387127
 10
111.9415613104785
 20
92.69242431455092
 10
111.9541036110443
 20
92.67179680563763
 10
111.9685084163292
 20
92.65253656897484
 10
111.9846680671011
 20
92.63476202971813
 10
112.0024426063578
 20
92.61861314486951
 10
112.0217028430205
 20
92.60420833958455
 10
112.0423195860106
 20
92.5916660390188
 10
112.0641851760956
 20
92.58111543425103
 10
112.0871596562736
 20
92.57269648228329
 10
112.1111030695425
 20
92.56652760827112
 10
112.1359185225932
 20
92.56272723737007
 97
        0
 75
     1
 76
     1
 98
        0
  0
LWPOLYLINE
  5
86
330
1F
100
AcDbEntity
  8
ISS138金台
  6
Continuous
 62
   250
420
  2367521
370
    13
100
AcDbPolyline
 90
       68
 70
     0
 43
0.0
 10
112.1614552925005
 20
92.5614353265822
 10
112.1869920624077
 20
92.56272723737007
 10
112.2118075154584
 20
92.56652760827112
 10
112.2357616946505
 20
92.57269648228329
 10
112.2587254089053
 20
92.58111543425103
 10
112.2805909989903
 20
92.5916660390188
 10
112.3012185079036
 20
92.60420833958455
 10
112.3204679786431
 20
92.61861314486951
 10
112.3382425178998
 20
92.63476202971813
 10
112.3543914027484
 20
92.65253656897484
 10
112.3688069739567
 20
92.67179680563763
 10
112.3813492745224
 20
92.69242431455092
 10
112.3918998792902
 20
92.7142791387127
 10
112.4003188312579
 20
92.73725361889066
 10
112.4064877052701
 20
92.76120779808278
 10
112.4102880761711
 20
92.78602325113349
 10
112.411579986959
 20
92.81156002104075
 10
112.411579986959
 20
92.81156002104075
 10
112.4102880761711
 20
92.83709679094804
 10
112.4064877052701
 20
92.86191224399873
 10
112.4003188312579
 20
92.88586642319083
 10
112.3918891133669
 20
92.90883013744556
 10
112.3813492745224
 20
92.93068496160737
 10
112.3688069739567
 20
92.95131247052066
 10
112.3544021686717
 20
92.97057270718344
 10
112.3382425178998
 20
92.98833648051692
 10
112.3204679786431
 20
93.00449613128876
 10
112.3012077419804
 20
93.01891170249695
 10
112.2805909989903
 20
93.03144323713948
 10
112.2587254089053
 20
93.04199384190724
 10
112.2357616946505
 20
93.05041279387498
 10
112.2118075154584
 20
93.05658166788716
 10
112.1869920624077
 20
93.06038203878819
 10
112.1614552925005
 20
93.06167394957609
 10
112.1614552925005
 20
93.06167394957609
 10
112.1359185225932
 20
93.06038203878819
 10
112.1111138354657
 20
93.05659243381038
 10
112.0871488903504
 20
93.05041279387498
 10
112.0641851760956
 20
93.04199384190724
 10
112.0423195860106
 20
93.03144323713948
 10
112.0217028430205
 20
93.01890093657371
 10
112.0024318404345
 20
93.00449613128876
 10
111.9846680671011
 20
92.98833648051692
 10
111.9685084163292
 20
92.97057270718344
 10
111.9541036110443
 20
92.95131247052066
 10
111.9415613104785
 20
92.93068496160737
 10
111.9310107057107
 20
92.90883013744556
 10
111.922591753743
 20
92.88586642319083
 10
111.9164228797308
 20
92.86191224399873
 10
111.9126225088298
 20
92.83709679094804
 10
111.9113305980419
 20
92.81156002104075
 10
111.9113305980419
 20
92.81156002104075
 10
111.9126225088298
 20
92.78601248521025
 10
111.9164228797308
 20
92.76120779808278
 10
111.9226025196662
 20
92.73725361889066
 10
111.931021471634
 20
92.7142791387127
 10
111.9415613104785
 20
92.69242431455092
 10
111.9541036110443
 20
92.67179680563763
 10
111.9685084163292
 20
92.65253656897484
 10
111.9846680671011
 20
92.63476202971813
 10
112.0024426063578
 20
92.61861314486951
 10
112.0217028430205
 20
92.60420833958455
 10
112.0423195860106
 20
92.5916660390188
 10
112.0641851760956
 20
92.58111543425103
 10
112.0871596562736
 20
92.57269648228329
 10
112.1111030695425
 20
92.56652760827112
 10
112.1359185225932
 20
92.56272723737007
 10
112.1614552925005
 20
92.5614353265822
  0
HATCH
  5
87
330
1F
100
AcDbEntity
  8
ISS138金台
  6
Continuous
 62
   250
420
  2367521
370
    13
100
AcDbHatch
 10
0.0
 20
0.0
 30
0.0
210
0.0
220
0.0
230
1.0
  2
SOLID
 70
     1
 71
     0
 91
        1
 92
        3
 72
     0
 73
     1
 93
       67
 10
132.1154480483771
 20
92.5614353265822
 10
132.1409848182844
 20
92.56272723737007
 10
132.1658002713351
 20
92.56652760827112
 10
132.189743684604
 20
92.57269648228329
 10
132.2127181647819
 20
92.58111543425103
 10
132.2345945207902
 20
92.5916660390188
 10
132.255200497857
 20
92.60420833958455
 10
132.2744607345198
 20
92.61861314486951
 10
132.2922352737765
 20
92.63476202971813
 10
132.3083841586251
 20
92.65253656897484
 10
132.3227997298333
 20
92.67179680563763
 10
132.3353420303991
 20
92.69242431455092
 10
132.3458926351668
 20
92.7142791387127
 10
132.3543115871346
 20
92.73725361889066
 10
132.3604804611467
 20
92.76120779808278
 10
132.3642808320478
 20
92.78602325113349
 10
132.3655727428357
 20
92.81156002104075
 10
132.3655727428357
 20
92.81156002104075
 10
132.3642808320478
 20
92.83709679094804
 10
132.3604804611467
 20
92.86191224399873
 10
132.3543008212113
 20
92.88586642319083
 10
132.3458818692436
 20
92.90883013744556
 10
132.3353420303991
 20
92.93068496160737
 10
132.3227997298333
 20
92.95131247052066
 10
132.3083841586251
 20
92.97057270718344
 10
132.2922352737765
 20
92.98833648051692
 10
132.274471500443
 20
93.00449613128876
 10
132.255200497857
 20
93.01891170249695
 10
132.2345837548669
 20
93.03144323713948
 10
132.2127181647819
 20
93.04199384190724
 10
132.1897544505272
 20
93.05041279387498
 10
132.1658002713351
 20
93.05658166788716
 10
132.1409848182844
 20
93.06038203878819
 10
132.1154480483771
 20
93.06167394957609
 10
132.1154480483771
 20
93.06167394957609
 10
132.0899005125466
 20
93.06038203878819
 10
132.0651065913424
 20
93.05659243381038
 10
132.041141646227
 20
93.05041279387498
 10
132.0181779319723
 20
93.04199384190724
 10
131.9963123418873
 20
93.03144323713948
 10
131.9756955988972
 20
93.01890093657371
 10
131.9564353622344
 20
93.00449613128876
 10
131.9386608229777
 20
92.98833648051692
 10
131.9225011722058
 20
92.97057270718344
 10
131.9080963669209
 20
92.95131247052066
 10
131.8955540663551
 20
92.93068496160737
 10
131.8850034615874
 20
92.90883013744556
 10
131.8765845096196
 20
92.88586642319083
 10
131.8704156356075
 20
92.86191224399873
 10
131.8666152647064
 20
92.83709679094804
 10
131.8653233539185
 20
92.81156002104075
 10
131.8653233539185
 20
92.81156002104075
 10
131.8666152647064
 20
92.78601248521025
 10
131.8704156356075
 20
92.76120779808278
 10
131.8765845096196
 20
92.73725361889066
 10
131.8850142275106
 20
92.7142791387127
 10
131.8955540663551
 20
92.69242431455092
 10
131.9080963669209
 20
92.67179680563763
 10
131.9225011722058
 20
92.65253656897484
 10
131.9386608229777
 20
92.63476202971813
 10
131.9564353622344
 20
92.61861314486951
 10
131.9756955988972
 20
92.60420833958455
 10
131.9963123418873
 20
92.5916660390188
 10
132.0181779319723
 20
92.58111543425103
 10
132.041141646227
 20
92.57269648228329
 10
132.0650958254191
 20
92.56652760827112
 10
132.0899112784698
 20
92.56272723737007
 97
        0
 75
     1
 76
     1
 98
        0
  0
LWPOLYLINE
  5
88
330
1F
100
AcDbEntity
  8
ISS138金台
  6
Continuous
 62
   250
420
  2367521
370
    13
100
AcDbPolyline
 90
       68
 70
     0
 43
0.0
 10
132.1154480483771
 20
92.5614353265822
 10
132.1409848182844
 20
92.56272723737007
 10
132.1658002713351
 20
92.56652760827112
 10
132.189743684604
 20
92.57269648228329
 10
132.2127181647819
 20
92.58111543425103
 10
132.2345945207902
 20
92.5916660390188
 10
132.255200497857
 20
92.60420833958455
 10
132.2744607345198
 20
92.61861314486951
 10
132.2922352737765
 20
92.63476202971813
 10
132.3083841586251
 20
92.65253656897484
 10
132.3227997298333
 20
92.67179680563763
 10
132.3353420303991
 20
92.69242431455092
 10
132.3458926351668
 20
92.7142791387127
 10
132.3543115871346
 20
92.73725361889066
 10
132.3604804611467
 20
92.76120779808278
 10
132.3642808320478
 20
92.78602325113349
 10
132.3655727428357
 20
92.81156002104075
 10
132.3655727428357
 20
92.81156002104075
 10
132.3642808320478
 20
92.83709679094804
 10
132.3604804611467
 20
92.86191224399873
 10
132.3543008212113
 20
92.88586642319083
 10
132.3458818692436
 20
92.90883013744556
 10
132.3353420303991
 20
92.93068496160737
 10
132.3227997298333
 20
92.95131247052066
 10
132.3083841586251
 20
92.97057270718344
 10
132.2922352737765
 20
92.98833648051692
 10
132.274471500443
 20
93.00449613128876
 10
132.255200497857
 20
93.01891170249695
 10
132.2345837548669
 20
93.03144323713948
 10
132.2127181647819
 20
93.04199384190724
 10
132.1897544505272
 20
93.05041279387498
 10
132.1658002713351
 20
93.05658166788716
 10
132.1409848182844
 20
93.06038203878819
 10
132.1154480483771
 20
93.06167394957609
 10
132.1154480483771
 20
93.06167394957609
 10
132.0899005125466
 20
93.06038203878819
 10
132.0651065913424
 20
93.05659243381038
 10
132.041141646227
 20
93.05041279387498
 10
132.0181779319723
 20
93.04199384190724
 10
131.9963123418873
 20
93.03144323713948
 10
131.9756955988972
 20
93.01890093657371
 10
131.9564353622344
 20
93.00449613128876
 10
131.9386608229777
 20
92.98833648051692
 10
131.9225011722058
 20
92.97057270718344
 10
131.9080963669209
 20
92.95131247052066
 10
131.8955540663551
 20
92.93068496160737
 10
131.8850034615874
 20
92.90883013744556
 10
131.8765845096196
 20
92.88586642319083
 10
131.8704156356075
 20
92.86191224399873
 10
131.8666152647064
 20
92.83709679094804
 10
131.8653233539185
 20
92.81156002104075
 10
131.8653233539185
 20
92.81156002104075
 10
131.8666152647064
 20
92.78601248521025
 10
131.8704156356075
 20
92.76120779808278
 10
131.8765845096196
 20
92.73725361889066
 10
131.8850142275106
 20
92.7142791387127
 10
131.8955540663551
 20
92.69242431455092
 10
131.9080963669209
 20
92.67179680563763
 10
131.9225011722058
 20
92.65253656897484
 10
131.9386608229777
 20
92.63476202971813
 10
131.9564353622344
 20
92.61861314486951
 10
131.9756955988972
 20
92.60420833958455
 10
131.9963123418873
 20
92.5916660390188
 10
132.0181779319723
 20
92.58111543425103
 10
132.041141646227
 20
92.57269648228329
 10
132.0650958254191
 20
92.56652760827112
 10
132.0899112784698
 20
92.56272723737007
 10
132.1154480483771
 20
92.5614353265822
  0
TEXT
  5
89
330
1F
100
AcDbEntity
  8
ISS138金台
  6
Continuous
 62
   250
420
  2367521
100
AcDbText
 10
120.6501704427905
 20
93.84890306101698
 30
0.0
 40
2.150533301035563
  1
20
 41
0.9460029602050779
  7
MS Gothic
100
AcDbText
  0
TEXT
  5
8A
330
1F
100
AcDbEntity
  8
ISS138金台
  6
Continuous
 62
   250
420
  2367521
100
AcDbText
 10
105.7442512222105
 20
103.0862233930377
 30
0.0
 40
2.150533301035563
  1
4.5
 50
90.00000250447816
 41
0.9673334757486979
  7
MS Gothic
100
AcDbText
  0
TEXT
  5
8B
330
1F
100
AcDbEntity
  8
ISS138金台
  6
Continuous
 62
   250
420
  2367521
100
AcDbText
 10
114.5647538675176
 20
114.3761489312497
 30
0.0
 40
2.150533301035563
  1
6
 41
0.8919982910156248
  7
MS Gothic
100
AcDbText
  0
LINE
  5
8C
330
1F
100
AcDbEntity
  8
ISS138金台
  6
Continuous
 62
   250
420
  2367521
370
    13
100
AcDbLine
 10
133.1338074928539
 20
104.5269623210859
 30
0.0
 11
142.5928337722346
 21
104.5269623210859
 31
0.0
  0
LINE
  5
8D
330
1F
100
AcDbEntity
  8
ISS138金台
  6
Continuous
 62
   250
420
  2367521
370
    13
100
AcDbLine
 10
133.1338074928539
 20
107.5255733871624
 30
0.0
 11
142.6810282153545
 21
107.5255733871624
 31
0.0
  0
LINE
  5
8E
330
1F
100
AcDbEntity
  8
ISS138金台
  6
Continuous
 62
   250
420
  2367521
370
    13
100
AcDbLine
 10
142.5809589589092
 20
104.5310856696839
 30
0.0
 11
142.5809589589092
 21
108.2574731462713
 31
0.0
  0
HATCH
  5
8F
330
1F
100
AcDbEntity
  8
ISS138金台
  6
Continuous
 62
   250
420
  2367521
370
    13
100
AcDbHatch
 10
0.0
 20
0.0
 30
0.0
210
0.0
220
0.0
230
1.0
  2
SOLID
 70
     1
 71
     0
 91
        1
 92
        3
 72
     0
 73
     1
 93
       67
 10
142.5926722833861
 20
107.2761161799442
 10
142.6181982873701
 20
107.2773973248089
 10
142.6429922085744
 20
107.2811761638635
 10
142.6669140899968
 20
107.2873019741827
 10
142.6898347405586
 20
107.2956886283807
 10
142.7116357351042
 20
107.3061854035324
 10
142.7322094144013
 20
107.3186631085587
 10
142.7514050555247
 20
107.3330033183043
 10
142.7691042333188
 20
107.3490983735367
 10
142.785188522628
 20
107.366808317254
 10
142.7995394982968
 20
107.3859931924542
 10
142.8120279692464
 20
107.4065668717513
 10
142.8225139784748
 20
107.428367866297
 10
142.8308898667496
 20
107.4512885168588
 10
142.8370264429921
 20
107.4752103982812
 10
142.8408052820467
 20
107.5000043194854
 10
142.8420864269113
 20
107.5255303234695
 10
142.8420864269113
 20
107.5255303234695
 10
142.8408052820467
 20
107.5511855185323
 10
142.8370264429921
 20
107.5760870989689
 10
142.8308898667496
 20
107.6000951077771
 10
142.8225139784748
 20
107.6231018857248
 10
142.8120279692464
 20
107.644978241733
 10
142.7995394982968
 20
107.6655949847231
 10
142.785188522628
 20
107.6848444554627
 10
142.7691042333188
 20
107.7025866969497
 10
142.7514050555247
 20
107.7186925181053
 10
142.7322094144013
 20
107.7330650256206
 10
142.7116357351042
 20
107.7455534965702
 10
142.6898347405586
 20
107.756061037645
 10
142.6669140899968
 20
107.7644369259199
 10
142.6429922085744
 20
107.7705842680856
 10
142.6182090532934
 20
107.7743631071401
 10
142.5926722833861
 20
107.7756442520048
 10
142.5926722833861
 20
107.7756442520048
 10
142.5670170883233
 20
107.7743523412169
 10
142.5421047419634
 20
107.7705842680856
 10
142.5181074990784
 20
107.7644476918431
 10
142.4951007211308
 20
107.756061037645
 10
142.4732351310457
 20
107.7455642624934
 10
142.4526076221325
 20
107.7330650256206
 10
142.4333581513929
 20
107.7186925181053
 10
142.4156266758291
 20
107.7025866969497
 10
142.399499322827
 20
107.6848336895394
 10
142.3851375812349
 20
107.6655949847231
 10
142.3726383443621
 20
107.644978241733
 10
142.3621308032873
 20
107.6231018857248
 10
142.3537441490892
 20
107.6000951077771
 10
142.3476075728468
 20
107.5760870989689
 10
142.3438287337922
 20
107.5511855185323
 10
142.3425475889275
 20
107.5255303234695
 10
142.3425475889275
 20
107.5255303234695
 10
142.3438394997154
 20
107.4999935535622
 10
142.3476075728468
 20
107.4752211642044
 10
142.3537441490892
 20
107.4512885168588
 10
142.3621308032873
 20
107.428367866297
 10
142.3726383443621
 20
107.4065668717513
 10
142.3851268153117
 20
107.3859931924542
 10
142.399499322827
 20
107.3667975513308
 10
142.4156159099059
 20
107.3490983735367
 10
142.4333689173161
 20
107.3330140842275
 10
142.4526076221325
 20
107.3186631085587
 10
142.4732243651225
 20
107.3061854035324
 10
142.4951007211308
 20
107.2956886283807
 10
142.5181074990784
 20
107.2873127401059
 10
142.5421155078867
 20
107.2811761638635
 10
142.5670170883233
 20
107.2773973248089
 97
        0
 75
     1
 76
     1
 98
        0
  0
LWPOLYLINE
  5
90
330
1F
100
AcDbEntity
  8
ISS138金台
  6
Continuous
 62
   250
420
  2367521
370
    13
100
AcDbPolyline
 90
       68
 70
     0
 43
0.0
 10
142.5926722833861
 20
107.2761161799442
 10
142.6181982873701
 20
107.2773973248089
 10
142.6429922085744
 20
107.2811761638635
 10
142.6669140899968
 20
107.2873019741827
 10
142.6898347405586
 20
107.2956886283807
 10
142.7116357351042
 20
107.3061854035324
 10
142.7322094144013
 20
107.3186631085587
 10
142.7514050555247
 20
107.3330033183043
 10
142.7691042333188
 20
107.3490983735367
 10
142.785188522628
 20
107.366808317254
 10
142.7995394982968
 20
107.3859931924542
 10
142.8120279692464
 20
107.4065668717513
 10
142.8225139784748
 20
107.428367866297
 10
142.8308898667496
 20
107.4512885168588
 10
142.8370264429921
 20
107.4752103982812
 10
142.8408052820467
 20
107.5000043194854
 10
142.8420864269113
 20
107.5255303234695
 10
142.8420864269113
 20
107.5255303234695
 10
142.8408052820467
 20
107.5511855185323
 10
142.8370264429921
 20
107.5760870989689
 10
142.8308898667496
 20
107.6000951077771
 10
142.8225139784748
 20
107.6231018857248
 10
142.8120279692464
 20
107.644978241733
 10
142.7995394982968
 20
107.6655949847231
 10
142.785188522628
 20
107.6848444554627
 10
142.7691042333188
 20
107.7025866969497
 10
142.7514050555247
 20
107.7186925181053
 10
142.7322094144013
 20
107.7330650256206
 10
142.7116357351042
 20
107.7455534965702
 10
142.6898347405586
 20
107.756061037645
 10
142.6669140899968
 20
107.7644369259199
 10
142.6429922085744
 20
107.7705842680856
 10
142.6182090532934
 20
107.7743631071401
 10
142.5926722833861
 20
107.7756442520048
 10
142.5926722833861
 20
107.7756442520048
 10
142.5670170883233
 20
107.7743523412169
 10
142.5421047419634
 20
107.7705842680856
 10
142.5181074990784
 20
107.7644476918431
 10
142.4951007211308
 20
107.756061037645
 10
142.4732351310457
 20
107.7455642624934
 10
142.4526076221325
 20
107.7330650256206
 10
142.4333581513929
 20
107.7186925181053
 10
142.4156266758291
 20
107.7025866969497
 10
142.399499322827
 20
107.6848336895394
 10
142.3851375812349
 20
107.6655949847231
 10
142.3726383443621
 20
107.644978241733
 10
142.3621308032873
 20
107.6231018857248
 10
142.3537441490892
 20
107.6000951077771
 10
142.3476075728468
 20
107.5760870989689
 10
142.3438287337922
 20
107.5511855185323
 10
142.3425475889275
 20
107.5255303234695
 10
142.3425475889275
 20
107.5255303234695
 10
142.3438394997154
 20
107.4999935535622
 10
142.3476075728468
 20
107.4752211642044
 10
142.3537441490892
 20
107.4512885168588
 10
142.3621308032873
 20
107.428367866297
 10
142.3726383443621
 20
107.4065668717513
 10
142.3851268153117
 20
107.3859931924542
 10
142.399499322827
 20
107.3667975513308
 10
142.4156159099059
 20
107.3490983735367
 10
142.4333689173161
 20
107.3330140842275
 10
142.4526076221325
 20
107.3186631085587
 10
142.4732243651225
 20
107.3061854035324
 10
142.4951007211308
 20
107.2956886283807
 10
142.5181074990784
 20
107.2873127401059
 10
142.5421155078867
 20
107.2811761638635
 10
142.5670170883233
 20
107.2773973248089
 10
142.5926722833861
 20
107.2761161799442
  0
HATCH
  5
91
330
1F
100
AcDbEntity
  8
ISS138金台
  6
Continuous
 62
   250
420
  2367521
370
    13
100
AcDbHatch
 10
0.0
 20
0.0
 30
0.0
210
0.0
220
0.0
230
1.0
  2
SOLID
 70
     1
 71
     0
 91
        1
 92
        3
 72
     0
 73
     1
 93
       67
 10
142.5485750618261
 20
104.2775051138677
 10
142.5741010658102
 20
104.2787862587324
 10
142.5988949870144
 20
104.282565097787
 10
142.6228168684368
 20
104.2886909081062
 10
142.6457375189986
 20
104.2970775623043
 10
142.6675385135443
 20
104.3075743374559
 10
142.6881121928414
 20
104.3200520424822
 10
142.7073078339648
 20
104.3343922522278
 10
142.7250070117589
 20
104.3504873074602
 10
142.7410913010681
 20
104.3681972511776
 10
142.7554422767369
 20
104.387392892301
 10
142.7679307476865
 20
104.4079558056749
 10
142.7784167569149
 20
104.4297568002205
 10
142.7867926451897
 20
104.4526774507823
 10
142.7929292214321
 20
104.4765993322047
 10
142.7967080604867
 20
104.5013932534089
 10
142.7979892053514
 20
104.526919257393
 10
142.7979892053514
 20
104.526919257393
 10
142.7967080604867
 20
104.5525744524558
 10
142.7929292214321
 20
104.5774760328924
 10
142.7867926451897
 20
104.6014840417006
 10
142.7784167569149
 20
104.6244908196483
 10
142.7679307476865
 20
104.6463671756566
 10
142.7554422767369
 20
104.6669839186466
 10
142.7410913010681
 20
104.6862333893862
 10
142.7250070117589
 20
104.7039756308732
 10
142.7073078339648
 20
104.7200814520289
 10
142.6881121928414
 20
104.7344539595441
 10
142.6675385135443
 20
104.7469424304937
 10
142.6457375189986
 20
104.7574499715686
 10
142.6228168684368
 20
104.7658258598434
 10
142.5988949870144
 20
104.7719732020091
 10
142.5741118317334
 20
104.7757520410636
 10
142.5485750618261
 20
104.7770331859283
 10
142.5485750618261
 20
104.7770331859283
 10
142.5229198667633
 20
104.7757412751404
 10
142.4980075204035
 20
104.7719732020091
 10
142.4740102775185
 20
104.7658366257666
 10
142.4510034995708
 20
104.7574499715686
 10
142.4291379094858
 20
104.746953196417
 10
142.4085104005725
 20
104.7344539595441
 10
142.3892609298329
 20
104.7200814520289
 10
142.3715294542692
 20
104.7039756308732
 10
142.355402101267
 20
104.6862226234629
 10
142.341040359675
 20
104.6669839186466
 10
142.3285411228022
 20
104.6463671756566
 10
142.3180335817273
 20
104.6244908196483
 10
142.3096469275293
 20
104.6014840417006
 10
142.3035103512868
 20
104.5774760328924
 10
142.2997315122322
 20
104.5525744524558
 10
142.2984503673676
 20
104.526919257393
 10
142.2984503673676
 20
104.526919257393
 10
142.2997422781555
 20
104.5013824874857
 10
142.3035103512868
 20
104.4766100981279
 10
142.3096469275293
 20
104.4526774507823
 10
142.3180335817273
 20
104.4297568002205
 10
142.3285411228022
 20
104.4079558056749
 10
142.3410295937518
 20
104.3873821263777
 10
142.355402101267
 20
104.3681864852543
 10
142.3715186883459
 20
104.3504873074602
 10
142.3892716957562
 20
104.334403018151
 10
142.4085104005725
 20
104.3200520424822
 10
142.4291271435625
 20
104.3075743374559
 10
142.4510034995708
 20
104.2970775623043
 10
142.4740102775185
 20
104.2887016740294
 10
142.4980182863267
 20
104.282565097787
 10
142.5229198667633
 20
104.2787862587324
 97
        0
 75
     1
 76
     1
 98
        0
  0
LWPOLYLINE
  5
92
330
1F
100
AcDbEntity
  8
ISS138金台
  6
Continuous
 62
   250
420
  2367521
370
    13
100
AcDbPolyline
 90
       68
 70
     0
 43
0.0
 10
142.5485750618261
 20
104.2775051138677
 10
142.5741010658102
 20
104.2787862587324
 10
142.5988949870144
 20
104.282565097787
 10
142.6228168684368
 20
104.2886909081062
 10
142.6457375189986
 20
104.2970775623043
 10
142.6675385135443
 20
104.3075743374559
 10
142.6881121928414
 20
104.3200520424822
 10
142.7073078339648
 20
104.3343922522278
 10
142.7250070117589
 20
104.3504873074602
 10
142.7410913010681
 20
104.3681972511776
 10
142.7554422767369
 20
104.387392892301
 10
142.7679307476865
 20
104.4079558056749
 10
142.7784167569149
 20
104.4297568002205
 10
142.7867926451897
 20
104.4526774507823
 10
142.7929292214321
 20
104.4765993322047
 10
142.7967080604867
 20
104.5013932534089
 10
142.7979892053514
 20
104.526919257393
 10
142.7979892053514
 20
104.526919257393
 10
142.7967080604867
 20
104.5525744524558
 10
142.7929292214321
 20
104.5774760328924
 10
142.7867926451897
 20
104.6014840417006
 10
142.7784167569149
 20
104.6244908196483
 10
142.7679307476865
 20
104.6463671756566
 10
142.7554422767369
 20
104.6669839186466
 10
142.7410913010681
 20
104.6862333893862
 10
142.7250070117589
 20
104.7039756308732
 10
142.7073078339648
 20
104.7200814520289
 10
142.6881121928414
 20
104.7344539595441
 10
142.6675385135443
 20
104.7469424304937
 10
142.6457375189986
 20
104.7574499715686
 10
142.6228168684368
 20
104.7658258598434
 10
142.5988949870144
 20
104.7719732020091
 10
142.5741118317334
 20
104.7757520410636
 10
142.5485750618261
 20
104.7770331859283
 10
142.5485750618261
 20
104.7770331859283
 10
142.5229198667633
 20
104.7757412751404
 10
142.4980075204035
 20
104.7719732020091
 10
142.4740102775185
 20
104.7658366257666
 10
142.4510034995708
 20
104.7574499715686
 10
142.4291379094858
 20
104.746953196417
 10
142.4085104005725
 20
104.7344539595441
 10
142.3892609298329
 20
104.7200814520289
 10
142.3715294542692
 20
104.7039756308732
 10
142.355402101267
 20
104.6862226234629
 10
142.341040359675
 20
104.6669839186466
 10
142.3285411228022
 20
104.6463671756566
 10
142.3180335817273
 20
104.6244908196483
 10
142.3096469275293
 20
104.6014840417006
 10
142.3035103512868
 20
104.5774760328924
 10
142.2997315122322
 20
104.5525744524558
 10
142.2984503673676
 20
104.526919257393
 10
142.2984503673676
 20
104.526919257393
 10
142.2997422781555
 20
104.5013824874857
 10
142.3035103512868
 20
104.4766100981279
 10
142.3096469275293
 20
104.4526774507823
 10
142.3180335817273
 20
104.4297568002205
 10
142.3285411228022
 20
104.4079558056749
 10
142.3410295937518
 20
104.3873821263777
 10
142.355402101267
 20
104.3681864852543
 10
142.3715186883459
 20
104.3504873074602
 10
142.3892716957562
 20
104.334403018151
 10
142.4085104005725
 20
104.3200520424822
 10
142.4291271435625
 20
104.3075743374559
 10
142.4510034995708
 20
104.2970775623043
 10
142.4740102775185
 20
104.2887016740294
 10
142.4980182863267
 20
104.282565097787
 10
142.5229198667633
 20
104.2787862587324
 10
142.5485750618261
 20
104.2775051138677
  0
TEXT
  5
93
330
1F
100
AcDbEntity
  8
ISS138金台
  6
Continuous
 62
   250
420
  2367521
100
AcDbText
 10
142.7459649914517
 20
108.8705386273466
 30
0.0
 40
2.150533301035563
  1
3.3
 50
90.00000250447816
 41
0.950665791829427
  7
MS Gothic
100
AcDbText
  0
LINE
  5
94
330
1F
100
AcDbEntity
  8
ISS138金台
  6
UserDefined01
 62
   140
420
    44526
370
    13
100
AcDbLine
 10
124.508677329286
 20
98.36779917167101
 30
0.0
 11
132.0933994375971
 21
98.36779917167101
 31
0.0
  0
TEXT
  5
95
330
1F
100
AcDbEntity
  8
ISS138金台
  6
Continuous
 62
   140
420
    44526
100
AcDbText
 10
126.408249122182
 20
99.15696304870785
 30
0.0
 40
1.881716638406118
  1
7.5
 41
1.017611821492513
  7
MS Gothic
100
AcDbText
  0
HATCH
  5
96
330
1F
100
AcDbEntity
  8
ISS138金台
  6
Continuous
 62
   140
420
    44526
370
    50
100
AcDbHatch
 10
0.0
 20
0.0
 30
0.0
210
0.0
220
0.0
230
1.0
  2
SOLID
 70
     1
 71
     0
 91
        1
 92
        3
 72
     0
 73
     1
 93
        3
 10
123.6425695711619
 20
107.5393214711302
 10
125.3747097259475
 20
107.5386109201968
 10
124.5093448165264
 20
106.0407264890253
 97
        0
 75
     1
 76
     1
 98
        0
  0
LWPOLYLINE
  5
97
330
1F
100
AcDbEntity
  8
ISS138金台
  6
Continuous
 62
   140
420
    44526
370
    50
100
AcDbPolyline
 90
        4
 70
     0
 43
0.0
 10
123.6425695711619
 20
107.5393214711302
 10
125.3747097259475
 20
107.5386109201968
 10
124.5093448165264
 20
106.0407264890253
 10
123.6425695711619
 20
107.5393214711302
  0
ENDSEC
  0
SECTION
  2
OBJECTS
  0
DICTIONARY
  5
C
330
0
100
AcDbDictionary
281
     1
  3
ACAD_DETAILVIEWSTYLE
350
9F
  3
ACAD_GROUP
350
D
  3
ACAD_LAYOUT
350
1A
  3
ACAD_MATERIAL
350
43
  3
ACAD_MLEADERSTYLE
350
5B
  3
ACAD_MLINESTYLE
350
17
  3
ACAD_PLOTSETTINGS
350
19
  3
ACAD_PLOTSTYLENAME
350
E
  3
ACAD_SCALELIST
350
47
  3
ACAD_SECTIONVIEWSTYLE
350
A0
  3
ACAD_TABLESTYLE
350
59
  3
ACAD_VISUALSTYLE
350
2A
  3
ACDB_RECOMPOSE_DATA
350
9C
  3
AcDbVariableDictionary
350
98
  0
SUN
  5
5D
330
29
100
AcDbSun
 90
        1
290
     0
 63
     7
421
 16777215
 40
1.0
291
     1
 91
  2455826
 92
 54000000
292
     0
 70
     2
 71
   256
280
     1
  0
DICTIONARY
  5
9F
102
{ACAD_REACTORS
330
C
102
}
330
C
100
AcDbDictionary
281
     1
  0
DICTIONARY
  5
D
102
{ACAD_REACTORS
330
C
102
}
330
C
100
AcDbDictionary
281
     1
  0
DICTIONARY
  5
1A
102
{ACAD_REACTORS
330
C
102
}
330
C
100
AcDbDictionary
281
     1
  3
Layout1
350
1E
  3
Layout2
350
26
  3
Model
350
22
  0
DICTIONARY
  5
43
102
{ACAD_REACTORS
330
C
102
}
330
C
100
AcDbDictionary
281
     1
  3
ByBlock
350
45
  3
ByLayer
350
44
  3
Global
350
46
  0
DICTIONARY
  5
5B
102
{ACAD_REACTORS
330
C
102
}
330
C
100
AcDbDictionary
281
     1
  3
Standard
350
5C
  0
DICTIONARY
  5
17
102
{ACAD_REACTORS
330
C
102
}
330
C
100
AcDbDictionary
281
     1
  3
Standard
350
18
  0
DICTIONARY
  5
19
102
{ACAD_REACTORS
330
C
102
}
330
C
100
AcDbDictionary
281
     1
  0
ACDBDICTIONARYWDFLT
  5
E
102
{ACAD_REACTORS
330
C
102
}
330
C
100
AcDbDictionary
281
     1
  3
Normal
350
F
100
AcDbDictionaryWithDefault
340
F
  0
DICTIONARY
  5
47
102
{ACAD_REACTORS
330
C
102
}
330
C
100
AcDbDictionary
281
     1
  3
A0
350
48
  3
A1
350
49
  3
A2
350
4A
  3
A3
350
4B
  3
A4
350
4C
  3
A5
350
4D
  3
A6
350
4E
  3
A7
350
4F
  3
A8
350
50
  3
A9
350
51
  3
B0
350
52
  3
B1
350
53
  3
B2
350
54
  3
B3
350
55
  3
B4
350
56
  3
B5
350
57
  3
B6
350
58
  0
DICTIONARY
  5
A0
102
{ACAD_REACTORS
330
C
102
}
330
C
100
AcDbDictionary
281
     1
  0
DICTIONARY
  5
59
102
{ACAD_REACTORS
330
C
102
}
330
C
100
AcDbDictionary
281
     1
  3
Standard
350
5A
  0
DICTIONARY
  5
2A
102
{ACAD_REACTORS
330
C
102
}
330
C
100
AcDbDictionary
281
     1
  3
2dWireframe
350
2F
  3
Basic
350
32
  3
Brighten
350
36
  3
ColorChange
350
3A
  3
Conceptual
350
34
  3
Dim
350
35
  3
EdgeColorOff
350
3D
  3
Facepattern
350
39
  3
Flat
350
2B
  3
FlatWithEdges
350
2C
  3
Gouraud
350
2D
  3
GouraudWithEdges
350
2E
  3
Hidden
350
31
  3
JitterOff
350
3B
  3
Linepattern
350
38
  3
OverhangOff
350
3C
  3
Realistic
350
33
  3
Shaded
350
42
  3
Shaded with edges
350
41
  3
Shades of Gray
350
3E
  3
Sketchy
350
3F
  3
Thicken
350
37
  3
Wireframe
350
30
  3
X-Ray
350
40
  0
XRECORD
  5
9C
102
{ACAD_REACTORS
330
C
102
}
330
C
100
AcDbXrecord
280
     1
 90
        1
330
5A
  0
DICTIONARY
  5
98
102
{ACAD_REACTORS
330
C
102
}
330
C
100
AcDbDictionary
281
     1
  3
CANNOSCALE
350
99
  3
CENTEREXE
350
A1
  3
CENTERLTYPEFILE
350
A2
  3
CMLEADERSTYLE
350
9E
  3
CTABLESTYLE
350
9D
  0
LAYOUT
  5
1E
102
{ACAD_REACTORS
330
1A
102
}
330
1A
100
AcDbPlotSettings
  1

  2
none_device
  4

  6

 40
0.0
 41
0.0
 42
0.0
 43
0.0
 44
0.0
 45
0.0
 46
0.0
 47
0.0
 48
0.0
 49
0.0
140
0.0
141
0.0
142
1.0
143
1.0
 70
   688
 72
     1
 73
     0
 74
     5
  7

 75
    16
 76
     0
 77
     5
 78
   300
147
1.0
148
0.0
149
0.0
100
AcDbLayout
  1
Layout1
 70
     1
 71
     1
 10
0.0
 20
0.0
 11
420.0
 21
297.0
 12
0.0
 22
0.0
 32
0.0
 14
1.000000000000000E+20
 24
1.000000000000000E+20
 34
1.000000000000000E+20
 15
-1.000000000000000E+20
 25
-1.000000000000000E+20
 35
-1.000000000000000E+20
146
0.0
 13
0.0
 23
0.0
 33
0.0
 16
1.0
 26
0.0
 36
0.0
 17
0.0
 27
1.0
 37
0.0
 76
     0
330
1B
  0
LAYOUT
  5
26
102
{ACAD_REACTORS
330
1A
102
}
330
1A
100
AcDbPlotSettings
  1

  2
none_device
  4

  6

 40
0.0
 41
0.0
 42
0.0
 43
0.0
 44
0.0
 45
0.0
 46
0.0
 47
0.0
 48
0.0
 49
0.0
140
0.0
141
0.0
142
1.0
143
1.0
 70
   688
 72
     1
 73
     0
 74
     5
  7

 75
    16
 76
     0
 77
     5
 78
   300
147
1.0
148
0.0
149
0.0
100
AcDbLayout
  1
Layout2
 70
     1
 71
     2
 10
0.0
 20
0.0
 11
0.0
 21
0.0
 12
0.0
 22
0.0
 32
0.0
 14
0.0
 24
0.0
 34
0.0
 15
0.0
 25
0.0
 35
0.0
146
0.0
 13
0.0
 23
0.0
 33
0.0
 16
1.0
 26
0.0
 36
0.0
 17
0.0
 27
1.0
 37
0.0
 76
     0
330
23
  0
LAYOUT
  5
22
102
{ACAD_REACTORS
330
1A
102
}
330
1A
100
AcDbPlotSettings
  1

  2
none_device
  4
Letter_(8.50_x_11.00_Inches)
  6

 40
6.35
 41
6.35
 42
6.35000508
 43
6.35000508
 44
215.9
 45
279.4
 46
0.0
 47
0.0
 48
0.0
 49
0.0
140
0.0
141
0.0
142
1.0
143
1.0
 70
  1712
 72
     1
 73
     0
 74
     0
  7

 75
     0
 76
     0
 77
     5
 78
   300
147
1.0
148
0.0
149
0.0
100
AcDbLayout
  1
Model
 70
     1
 71
     0
 10
0.0
 20
0.0
 11
302.9997823349792
 21
216.0016055409748
 12
0.0
 22
0.0
 32
0.0
 14
0.0
 24
0.0
 34
0.0
 15
302.9997823349792
 25
216.0016055409748
 35
0.0
146
0.0
 13
0.0
 23
0.0
 33
0.0
 16
1.0
 26
0.0
 36
0.0
 17
0.0
 27
1.0
 37
0.0
 76
     0
330
1F
331
29
  0
MATERIAL
  5
45
102
{ACAD_REACTORS
330
43
102
}
330
43
100
AcDbMaterial
  1
ByBlock
 72
     1
 94
      127
  0
MATERIAL
  5
44
102
{ACAD_REACTORS
330
43
102
}
330
43
100
AcDbMaterial
  1
ByLayer
 72
     1
 94
      127
  0
MATERIAL
  5
46
102
{ACAD_REACTORS
330
43
102
}
330
43
100
AcDbMaterial
  1
Global
 72
     1
 94
      127
  0
MLEADERSTYLE
  5
5C
102
{ACAD_REACTORS
330
5B
102
}
330
5B
100
AcDbMLeaderStyle
179
     2
170
     2
171
     1
172
     0
 90
        2
 40
0.0
 41
0.0
173
     1
 91
-1056964608
340
14
 92
       -2
290
     1
 42
2.0
291
     1
 43
8.0
  3
Standard
341
0
 44
4.0
300

342
11
174
     1
178
     6
175
     1
176
     0
 93
-1056964608
 45
4.0
292
     0
297
     0
 46
4.0
343
0
 94
-1056964608
 47
1.0
 49
1.0
140
1.0
293
     1
141
0.0
294
     1
177
     0
142
1.0
295
     0
296
     0
143
3.75
271
     0
272
     9
273
     9
298
     0
  0
MLINESTYLE
  5
18
102
{ACAD_REACTORS
330
17
102
}
330
17
100
AcDbMlineStyle
  2
Standard
 70
     0
  3

 62
   256
 51
90.0
 52
90.0
 71
     2
 49
0.5
 62
   256
  6
BYLAYER
 49
-0.5
 62
   256
  6
BYLAYER
  0
ACDBPLACEHOLDER
  5
F
102
{ACAD_REACTORS
330
E
102
}
330
E
  0
SCALE
  5
48
102
{ACAD_REACTORS
330
47
102
}
330
47
100
AcDbScale
 70
     0
300
1:1
140
1.0
141
1.0
290
     1
  0
SCALE
  5
49
102
{ACAD_REACTORS
330
47
102
}
330
47
100
AcDbScale
 70
     0
300
1:2
140
1.0
141
2.0
290
     0
  0
SCALE
  5
4A
102
{ACAD_REACTORS
330
47
102
}
330
47
100
AcDbScale
 70
     0
300
1:4
140
1.0
141
4.0
290
     0
  0
SCALE
  5
4B
102
{ACAD_REACTORS
330
47
102
}
330
47
100
AcDbScale
 70
     0
300
1:5
140
1.0
141
5.0
290
     0
  0
SCALE
  5
4C
102
{ACAD_REACTORS
330
47
102
}
330
47
100
AcDbScale
 70
     0
300
1:8
140
1.0
141
8.0
290
     0
  0
SCALE
  5
4D
102
{ACAD_REACTORS
330
47
102
}
330
47
100
AcDbScale
 70
     0
300
1:10
140
1.0
141
10.0
290
     0
  0
SCALE
  5
4E
102
{ACAD_REACTORS
330
47
102
}
330
47
100
AcDbScale
 70
     0
300
1:16
140
1.0
141
16.0
290
     0
  0
SCALE
  5
4F
102
{ACAD_REACTORS
330
47
102
}
330
47
100
AcDbScale
 70
     0
300
1:20
140
1.0
141
20.0
290
     0
  0
SCALE
  5
50
102
{ACAD_REACTORS
330
47
102
}
330
47
100
AcDbScale
 70
     0
300
1:30
140
1.0
141
30.0
290
     0
  0
SCALE
  5
51
102
{ACAD_REACTORS
330
47
102
}
330
47
100
AcDbScale
 70
     0
300
1:40
140
1.0
141
40.0
290
     0
  0
SCALE
  5
52
102
{ACAD_REACTORS
330
47
102
}
330
47
100
AcDbScale
 70
     0
300
1:50
140
1.0
141
50.0
290
     0
  0
SCALE
  5
53
102
{ACAD_REACTORS
330
47
102
}
330
47
100
AcDbScale
 70
     0
300
1:100
140
1.0
141
100.0
290
     0
  0
SCALE
  5
54
102
{ACAD_REACTORS
330
47
102
}
330
47
100
AcDbScale
 70
     0
300
2:1
140
2.0
141
1.0
290
     0
  0
SCALE
  5
55
102
{ACAD_REACTORS
330
47
102
}
330
47
100
AcDbScale
 70
     0
300
4:1
140
4.0
141
1.0
290
     0
  0
SCALE
  5
56
102
{ACAD_REACTORS
330
47
102
}
330
47
100
AcDbScale
 70
     0
300
8:1
140
8.0
141
1.0
290
     0
  0
SCALE
  5
57
102
{ACAD_REACTORS
330
47
102
}
330
47
100
AcDbScale
 70
     0
300
10:1
140
10.0
141
1.0
290
     0
  0
SCALE
  5
58
102
{ACAD_REACTORS
330
47
102
}
330
47
100
AcDbScale
 70
     0
300
100:1
140
100.0
141
1.0
290
     0
  0
TABLESTYLE
  5
5A
102
{ACAD_REACTORS
330
59
102
}
102
{ACAD_XDICTIONARY
360
9A
102
}
330
59
100
AcDbTableStyle
  3
Standard
 70
     0
 71
     0
 40
0.06
 41
0.06
280
     0
281
     0
  7
Standard
140
4.5
170
     2
 62
     0
 63
   257
283
     0
 90
        4
 91
        0
  1

274
    -2
284
     1
 64
     0
275
    -2
285
     1
 65
     0
276
    -2
286
     1
 66
     0
277
    -2
287
     1
 67
     0
278
    -2
288
     1
 68
     0
279
    -2
289
     1
 69
     0
  7
Standard
140
6.0
170
     5
 62
     0
 63
   257
283
     0
 90
        4
 91
        0
  1

274
    -2
284
     1
 64
     0
275
    -2
285
     1
 65
     0
276
    -2
286
     1
 66
     0
277
    -2
287
     1
 67
     0
278
    -2
288
     1
 68
     0
279
    -2
289
     1
 69
     0
  7
Standard
140
4.5
170
     5
 62
     0
 63
   257
283
     0
 90
        4
 91
        0
  1

274
    -2
284
     1
 64
     0
275
    -2
285
     1
 65
     0
276
    -2
286
     1
 66
     0
277
    -2
287
     1
 67
     0
278
    -2
288
     1
 68
     0
279
    -2
289
     1
 69
     0
  0
VISUALSTYLE
  5
2F
102
{ACAD_REACTORS
330
2A
102
}
330
2A
100
AcDbVisualStyle
  2
2dWireframe
 70
     4
177
     3
291
     0
 70
    58
 90
        0
176
     1
 90
        2
176
     1
 90
        0
176
     1
 90
        0
176
     1
 40
0.6
176
     1
 40
30.0
176
     1
 62
     7
420
 16777215
176
     1
 90
        1
176
     1
 90
        4
176
     1
 62
     7
176
     1
 62
   257
176
     1
 90
        1
176
     1
 90
        1
176
     1
 40
1.0
176
     1
 90
        0
176
     1
 62
   257
176
     1
 40
1.0
176
     1
 90
        1
176
     1
 90
        6
176
     1
 90
        2
176
     1
 62
     7
176
     1
 90
        5
176
     1
 90
        0
176
     1
 90
        0
176
     1
290
     0
176
     1
 90
        1
176
     1
 40
0.0
176
     1
 90
        0
176
     1
290
     1
176
     1
290
     1
176
     1
290
     0
176
     1
290
     0
176
     1
290
     0
176
     1
290
     0
176
     1
290
     0
176
     1
290
     0
176
     1
290
     0
176
     1
 90
       50
176
     1
 40
0.0
176
     1
 40
1.0
176
     1
 90
        0
176
     1
 62
    18
420
        0
176
     1
 90
       50
176
     1
 90
        3
176
     1
 62
     5
420
      255
176
     1
290
     0
176
     1
 90
       50
176
     1
 90
       50
176
     1
 90
       50
176
     1
290
     0
176
     1
 90
       50
176
     1
 62
   256
176
     0
 40
1.0
176
     0
 90
        2
176
     1
  1
strokes_ogs.tif
176
     1
290
     0
176
     1
 40
1.0
176
     1
 40
1.0
176
     1
  0
VISUALSTYLE
  5
32
102
{ACAD_REACTORS
330
2A
102
}
330
2A
100
AcDbVisualStyle
  2
Basic
 70
     7
177
     3
291
     1
 70
    58
 90
        1
176
     1
 90
        0
176
     1
 90
        1
176
     1
 90
        0
176
     1
 40
0.6
176
     1
 40
30.0
176
     1
 62
     7
420
 16777215
176
     1
 90
        0
176
     1
 90
        4
176
     1
 62
     7
176
     1
 62
   257
176
     1
 90
        1
176
     1
 90
        1
176
     1
 40
1.0
176
     1
 90
        8
176
     1
 62
     7
176
     1
 40
1.0
176
     1
 90
        1
176
     1
 90
        6
176
     1
 90
        2
176
     1
 62
     7
176
     1
 90
        5
176
     1
 90
        0
176
     1
 90
        0
176
     1
290
     0
176
     1
 90
        1
176
     1
 40
0.0
176
     1
 90
        0
176
     1
290
     0
176
     1
290
     1
176
     1
290
     1
176
     1
290
     0
176
     1
290
     0
176
     1
290
     0
176
     1
290
     0
176
     1
290
     0
176
     1
290
     0
176
     1
 90
       50
176
     1
 40
0.0
176
     1
 40
1.0
176
     1
 90
        0
176
     1
 62
    18
420
        0
176
     1
 90
       50
176
     1
 90
        3
176
     1
 62
     5
420
      255
176
     1
290
     0
176
     1
 90
       50
176
     1
 90
       50
176
     1
 90
       50
176
     1
290
     0
176
     1
 90
       50
176
     1
 62
   256
176
     0
 40
1.0
176
     0
 90
        2
176
     1
  1
strokes_ogs.tif
176
     1
290
     0
176
     1
 40
1.0
176
     1
 40
1.0
176
     1
  0
VISUALSTYLE
  5
36
102
{ACAD_REACTORS
330
2A
102
}
330
2A
100
AcDbVisualStyle
  2
Brighten
 70
    12
177
     3
291
     1
 70
    58
 90
        2
176
     1
 90
        2
176
     1
 90
        0
176
     1
 90
        0
176
     1
 40
0.6
176
     1
 40
30.0
176
     1
 62
     7
420
 16777215
176
     1
 90
        1
176
     1
 90
        4
176
     1
 62
     7
176
     1
 62
   257
176
     1
 90
        1
176
     1
 90
        1
176
     1
 40
1.0
176
     1
 90
        8
176
     1
 62
     7
176
     1
 40
1.0
176
     1
 90
        1
176
     1
 90
        6
176
     1
 90
        2
176
     1
 62
     7
176
     1
 90
        5
176
     1
 90
        0
176
     1
 90
        0
176
     1
290
     0
176
     1
 90
        1
176
     1
 40
50.0
176
     1
 90
        0
176
     1
290
     0
176
     1
290
     1
176
     1
290
     1
176
     1
290
     0
176
     1
290
     0
176
     1
290
     0
176
     1
290
     0
176
     1
290
     0
176
     1
290
     0
176
     1
 90
       50
176
     1
 40
0.0
176
     1
 40
1.0
176
     1
 90
        0
176
     1
 62
    18
420
        0
176
     1
 90
       50
176
     1
 90
        3
176
     1
 62
     5
420
      255
176
     1
290
     0
176
     1
 90
       50
176
     1
 90
       50
176
     1
 90
       50
176
     1
290
     0
176
     1
 90
       50
176
     1
 62
   256
176
     0
 40
1.0
176
     0
 90
        2
176
     1
  1
strokes_ogs.tif
176
     1
290
     0
176
     1
 40
1.0
176
     1
 40
1.0
176
     1
  0
VISUALSTYLE
  5
3A
102
{ACAD_REACTORS
330
2A
102
}
330
2A
100
AcDbVisualStyle
  2
ColorChange
 70
    16
177
     3
291
     1
 70
    58
 90
        2
176
     1
 90
        2
176
     1
 90
        3
176
     1
 90
        0
176
     1
 40
0.6
176
     1
 40
30.0
176
     1
 62
     8
420
  8421504
176
     1
 90
        1
176
     1
 90
        4
176
     1
 62
     7
176
     1
 62
   257
176
     1
 90
        1
176
     1
 90
        1
176
     1
 40
1.0
176
     1
 90
        8
176
     1
 62
     8
420
  8421504
176
     1
 40
1.0
176
     1
 90
        1
176
     1
 90
        6
176
     1
 90
        2
176
     1
 62
     7
176
     1
 90
        5
176
     1
 90
        0
176
     1
 90
        0
176
     1
290
     0
176
     1
 90
        1
176
     1
 40
0.0
176
     1
 90
        0
176
     1
290
     0
176
     1
290
     1
176
     1
290
     1
176
     1
290
     0
176
     1
290
     0
176
     1
290
     0
176
     1
290
     0
176
     1
290
     0
176
     1
290
     0
176
     1
 90
       50
176
     1
 40
0.0
176
     1
 40
1.0
176
     1
 90
        0
176
     1
 62
    18
420
        0
176
     1
 90
       50
176
     1
 90
        3
176
     1
 62
     5
420
      255
176
     1
290
     0
176
     1
 90
       50
176
     1
 90
       50
176
     1
 90
       50
176
     1
290
     0
176
     1
 90
       50
176
     1
 62
   256
176
     0
 40
1.0
176
     0
 90
        2
176
     1
  1
strokes_ogs.tif
176
     1
290
     0
176
     1
 40
1.0
176
     1
 40
1.0
176
     1
  0
VISUALSTYLE
  5
34
102
{ACAD_REACTORS
330
2A
102
}
330
2A
100
AcDbVisualStyle
  2
Conceptual
 70
     9
177
     3
291
     0
 70
    58
 90
        3
176
     1
 90
        2
176
     1
 90
        0
176
     1
 90
        0
176
     1
 40
0.6
176
     1
 40
30.0
176
     1
 62
     7
420
 16777215
176
     1
 90
        2
176
     1
 90
        2
176
     1
 62
     7
176
     1
 62
   257
176
     1
 90
        1
176
     1
 90
        1
176
     1
 40
179.0
176
     1
 90
        8
176
     1
 62
     7
176
     1
 40
1.0
176
     1
 90
        1
176
     1
 90
        6
176
     1
 90
        2
176
     1
 62
     7
176
     1
 90
        3
176
     1
 90
        0
176
     1
 90
        0
176
     1
290
     0
176
     1
 90
        1
176
     1
 40
0.0
176
     1
 90
        0
176
     1
290
     0
176
     1
290
     1
176
     1
290
     1
176
     1
290
     0
176
     1
290
     0
176
     1
290
     0
176
     1
290
     0
176
     1
290
     0
176
     1
290
     0
176
     1
 90
       50
176
     1
 40
0.0
176
     1
 40
1.0
176
     1
 90
        0
176
     1
 62
    18
420
        0
176
     1
 90
       50
176
     1
 90
        3
176
     1
 62
     5
420
      255
176
     1
290
     0
176
     1
 90
       50
176
     1
 90
       50
176
     1
 90
       50
176
     1
290
     0
176
     1
 90
       50
176
     1
 62
   256
176
     0
 40
1.0
176
     0
 90
        2
176
     1
  1
strokes_ogs.tif
176
     1
290
     0
176
     1
 40
1.0
176
     1
 40
1.0
176
     1
  0
VISUALSTYLE
  5
35
102
{ACAD_REACTORS
330
2A
102
}
330
2A
100
AcDbVisualStyle
  2
Dim
 70
    11
177
     3
291
     1
 70
    58
 90
        2
176
     1
 90
        2
176
     1
 90
        0
176
     1
 90
        0
176
     1
 40
0.6
176
     1
 40
30.0
176
     1
 62
     7
420
 16777215
176
     1
 90
        1
176
     1
 90
        4
176
     1
 62
     7
176
     1
 62
   257
176
     1
 90
        1
176
     1
 90
        1
176
     1
 40
1.0
176
     1
 90
        8
176
     1
 62
     7
176
     1
 40
1.0
176
     1
 90
        1
176
     1
 90
        6
176
     1
 90
        2
176
     1
 62
     7
176
     1
 90
        5
176
     1
 90
        0
176
     1
 90
        0
176
     1
290
     0
176
     1
 90
        1
176
     1
 40
-50.0
176
     1
 90
        0
176
     1
290
     0
176
     1
290
     1
176
     1
290
     1
176
     1
290
     0
176
     1
290
     0
176
     1
290
     0
176
     1
290
     0
176
     1
290
     0
176
     1
290
     0
176
     1
 90
       50
176
     1
 40
0.0
176
     1
 40
1.0
176
     1
 90
        0
176
     1
 62
    18
420
        0
176
     1
 90
       50
176
     1
 90
        3
176
     1
 62
     5
420
      255
176
     1
290
     0
176
     1
 90
       50
176
     1
 90
       50
176
     1
 90
       50
176
     1
290
     0
176
     1
 90
       50
176
     1
 62
   256
176
     0
 40
1.0
176
     0
 90
        2
176
     1
  1
strokes_ogs.tif
176
     1
290
     0
176
     1
 40
1.0
176
     1
 40
1.0
176
     1
  0
VISUALSTYLE
  5
3D
102
{ACAD_REACTORS
330
2A
102
}
330
2A
100
AcDbVisualStyle
  2
EdgeColorOff
 70
    22
177
     3
291
     1
 70
    58
 90
        2
176
     0
 90
        2
176
     0
 90
        0
176
     0
 90
        0
176
     0
 40
0.6
176
     0
 40
30.0
176
     0
 62
     7
420
 16777215
176
     0
 90
        1
176
     0
 90
        4
176
     0
 62
     7
176
     0
 62
   257
176
     0
 90
        1
176
     0
 90
        1
176
     0
 40
1.0
176
     0
 90
        8
176
     2
 62
     7
176
     0
 40
1.0
176
     0
 90
        1
176
     0
 90
        6
176
     0
 90
        2
176
     0
 62
     7
176
     0
 90
        5
176
     0
 90
        0
176
     0
 90
        0
176
     0
290
     0
176
     0
 90
        1
176
     0
 40
0.0
176
     0
 90
        0
176
     0
290
     0
176
     0
290
     1
176
     0
290
     1
176
     0
290
     0
176
     0
290
     0
176
     0
290
     0
176
     0
290
     0
176
     0
290
     0
176
     0
290
     0
176
     0
 90
       50
176
     0
 40
0.0
176
     0
 40
1.0
176
     0
 90
        0
176
     0
 62
    18
420
        0
176
     0
 90
       50
176
     0
 90
        3
176
     0
 62
     5
420
      255
176
     0
290
     0
176
     0
 90
       50
176
     0
 90
       50
176
     0
 90
       50
176
     0
290
     0
176
     0
 90
       50
176
     0
 62
   256
176
     0
 40
1.0
176
     0
 90
        2
176
     0
  1
strokes_ogs.tif
176
     0
290
     0
176
     0
 40
1.0
176
     0
 40
1.0
176
     0
  0
VISUALSTYLE
  5
39
102
{ACAD_REACTORS
330
2A
102
}
330
2A
100
AcDbVisualStyle
  2
Facepattern
 70
    15
177
     3
291
     1
 70
    58
 90
        2
176
     1
 90
        2
176
     1
 90
        0
176
     1
 90
        0
176
     1
 40
0.6
176
     1
 40
30.0
176
     1
 62
     7
420
 16777215
176
     1
 90
        1
176
     1
 90
        4
176
     1
 62
     7
176
     1
 62
   257
176
     1
 90
        1
176
     1
 90
        1
176
     1
 40
1.0
176
     1
 90
        8
176
     1
 62
     7
176
     1
 40
1.0
176
     1
 90
        1
176
     1
 90
        6
176
     1
 90
        2
176
     1
 62
     7
176
     1
 90
        5
176
     1
 90
        0
176
     1
 90
        0
176
     1
290
     0
176
     1
 90
        1
176
     1
 40
0.0
176
     1
 90
        0
176
     1
290
     0
176
     1
290
     1
176
     1
290
     1
176
     1
290
     0
176
     1
290
     0
176
     1
290
     0
176
     1
290
     0
176
     1
290
     0
176
     1
290
     0
176
     1
 90
       50
176
     1
 40
0.0
176
     1
 40
1.0
176
     1
 90
        0
176
     1
 62
    18
420
        0
176
     1
 90
       50
176
     1
 90
        3
176
     1
 62
     5
420
      255
176
     1
290
     0
176
     1
 90
       50
176
     1
 90
       50
176
     1
 90
       50
176
     1
290
     0
176
     1
 90
       50
176
     1
 62
   256
176
     0
 40
1.0
176
     0
 90
        2
176
     1
  1
strokes_ogs.tif
176
     1
290
     0
176
     1
 40
1.0
176
     1
 40
1.0
176
     1
  0
VISUALSTYLE
  5
2B
102
{ACAD_REACTORS
330
2A
102
}
330
2A
100
AcDbVisualStyle
  2
Flat
 70
     0
177
     3
291
     1
 70
    58
 90
        2
176
     1
 90
        1
176
     1
 90
        1
176
     1
 90
        2
176
     1
 40
0.6
176
     1
 40
30.0
176
     1
 62
     7
420
 16777215
176
     1
 90
        0
176
     1
 90
        0
176
     1
 62
     7
176
     1
 62
   257
176
     1
 90
        1
176
     1
 90
        1
176
     1
 40
1.0
176
     1
 90
        8
176
     1
 62
     7
176
     1
 40
1.0
176
     1
 90
        1
176
     1
 90
        6
176
     1
 90
        2
176
     1
 62
     7
176
     1
 90
        5
176
     1
 90
        0
176
     1
 90
        0
176
     1
290
     0
176
     1
 90
       13
176
     1
 40
0.0
176
     1
 90
        0
176
     1
290
     0
176
     1
290
     1
176
     1
290
     1
176
     1
290
     0
176
     1
290
     0
176
     1
290
     0
176
     1
290
     0
176
     1
290
     0
176
     1
290
     0
176
     1
 90
       50
176
     1
 40
0.0
176
     1
 40
1.0
176
     1
 90
        0
176
     1
 62
    18
420
        0
176
     1
 90
       50
176
     1
 90
        3
176
     1
 62
     5
420
      255
176
     1
290
     0
176
     1
 90
       50
176
     1
 90
       50
176
     1
 90
       50
176
     1
290
     0
176
     1
 90
       50
176
     1
 62
   256
176
     0
 40
1.0
176
     0
 90
        2
176
     1
  1
strokes_ogs.tif
176
     1
290
     0
176
     1
 40
1.0
176
     1
 40
1.0
176
     1
  0
VISUALSTYLE
  5
2C
102
{ACAD_REACTORS
330
2A
102
}
330
2A
100
AcDbVisualStyle
  2
FlatWithEdges
 70
     1
177
     3
291
     1
 70
    58
 90
        2
176
     1
 90
        1
176
     1
 90
        1
176
     1
 90
        2
176
     1
 40
0.6
176
     1
 40
30.0
176
     1
 62
     7
420
 16777215
176
     1
 90
        1
176
     1
 90
        0
176
     1
 62
     7
176
     1
 62
   257
176
     1
 90
        1
176
     1
 90
        1
176
     1
 40
1.0
176
     1
 90
        0
176
     1
 62
   257
176
     1
 40
1.0
176
     1
 90
        1
176
     1
 90
        6
176
     1
 90
        2
176
     1
 62
     7
176
     1
 90
        5
176
     1
 90
        0
176
     1
 90
        0
176
     1
290
     0
176
     1
 90
       13
176
     1
 40
0.0
176
     1
 90
        0
176
     1
290
     0
176
     1
290
     1
176
     1
290
     1
176
     1
290
     0
176
     1
290
     0
176
     1
290
     0
176
     1
290
     0
176
     1
290
     0
176
     1
290
     0
176
     1
 90
       50
176
     1
 40
0.0
176
     1
 40
1.0
176
     1
 90
        0
176
     1
 62
    18
420
        0
176
     1
 90
       50
176
     1
 90
        3
176
     1
 62
     5
420
      255
176
     1
290
     0
176
     1
 90
       50
176
     1
 90
       50
176
     1
 90
       50
176
     1
290
     0
176
     1
 90
       50
176
     1
 62
   256
176
     0
 40
1.0
176
     0
 90
        2
176
     1
  1
strokes_ogs.tif
176
     1
290
     0
176
     1
 40
1.0
176
     1
 40
1.0
176
     1
  0
VISUALSTYLE
  5
2D
102
{ACAD_REACTORS
330
2A
102
}
330
2A
100
AcDbVisualStyle
  2
Gouraud
 70
     2
177
     3
291
     1
 70
    58
 90
        2
176
     1
 90
        2
176
     1
 90
        1
176
     1
 90
        2
176
     1
 40
0.6
176
     1
 40
30.0
176
     1
 62
     7
420
 16777215
176
     1
 90
        0
176
     1
 90
        0
176
     1
 62
     7
176
     1
 62
   257
176
     1
 90
        1
176
     1
 90
        1
176
     1
 40
1.0
176
     1
 90
        0
176
     1
 62
     7
176
     1
 40
1.0
176
     1
 90
        1
176
     1
 90
        6
176
     1
 90
        2
176
     1
 62
     7
176
     1
 90
        5
176
     1
 90
        0
176
     1
 90
        0
176
     1
290
     0
176
     1
 90
       13
176
     1
 40
0.0
176
     1
 90
        0
176
     1
290
     0
176
     1
290
     1
176
     1
290
     1
176
     1
290
     0
176
     1
290
     0
176
     1
290
     0
176
     1
290
     0
176
     1
290
     0
176
     1
290
     0
176
     1
 90
       50
176
     1
 40
0.0
176
     1
 40
1.0
176
     1
 90
        0
176
     1
 62
    18
420
        0
176
     1
 90
       50
176
     1
 90
        3
176
     1
 62
     5
420
      255
176
     1
290
     0
176
     1
 90
       50
176
     1
 90
       50
176
     1
 90
       50
176
     1
290
     0
176
     1
 90
       50
176
     1
 62
   256
176
     0
 40
1.0
176
     0
 90
        2
176
     1
  1
strokes_ogs.tif
176
     1
290
     0
176
     1
 40
1.0
176
     1
 40
1.0
176
     1
  0
VISUALSTYLE
  5
2E
102
{ACAD_REACTORS
330
2A
102
}
330
2A
100
AcDbVisualStyle
  2
GouraudWithEdges
 70
     3
177
     3
291
     1
 70
    58
 90
        2
176
     1
 90
        2
176
     1
 90
        1
176
     1
 90
        2
176
     1
 40
0.6
176
     1
 40
30.0
176
     1
 62
     7
420
 16777215
176
     1
 90
        1
176
     1
 90
        0
176
     1
 62
     7
176
     1
 62
   257
176
     1
 90
        1
176
     1
 90
        1
176
     1
 40
1.0
176
     1
 90
        0
176
     1
 62
   257
176
     1
 40
1.0
176
     1
 90
        1
176
     1
 90
        6
176
     1
 90
        2
176
     1
 62
     7
176
     1
 90
        5
176
     1
 90
        0
176
     1
 90
        0
176
     1
290
     0
176
     1
 90
       13
176
     1
 40
0.0
176
     1
 90
        0
176
     1
290
     0
176
     1
290
     1
176
     1
290
     1
176
     1
290
     0
176
     1
290
     0
176
     1
290
     0
176
     1
290
     0
176
     1
290
     0
176
     1
290
     0
176
     1
 90
       50
176
     1
 40
0.0
176
     1
 40
1.0
176
     1
 90
        0
176
     1
 62
    18
420
        0
176
     1
 90
       50
176
     1
 90
        3
176
     1
 62
     5
420
      255
176
     1
290
     0
176
     1
 90
       50
176
     1
 90
       50
176
     1
 90
       50
176
     1
290
     0
176
     1
 90
       50
176
     1
 62
   256
176
     0
 40
1.0
176
     0
 90
        2
176
     1
  1
strokes_ogs.tif
176
     1
290
     0
176
     1
 40
1.0
176
     1
 40
1.0
176
     1
  0
VISUALSTYLE
  5
31
102
{ACAD_REACTORS
330
2A
102
}
330
2A
100
AcDbVisualStyle
  2
Hidden
 70
     6
177
     3
291
     0
 70
    58
 90
        1
176
     1
 90
        2
176
     1
 90
        2
176
     1
 90
        0
176
     1
 40
0.6
176
     1
 40
30.0
176
     1
 62
     7
420
 16777215
176
     1
 90
        2
176
     1
 90
        2
176
     1
 62
     7
176
     1
 62
   257
176
     1
 90
        2
176
     1
 90
        1
176
     1
 40
40.0
176
     1
 90
        0
176
     1
 62
   257
176
     1
 40
1.0
176
     1
 90
        1
176
     1
 90
        6
176
     1
 90
        2
176
     1
 62
     7
176
     1
 90
        3
176
     1
 90
        0
176
     1
 90
        0
176
     1
290
     0
176
     1
 90
        1
176
     1
 40
0.0
176
     1
 90
        0
176
     1
290
     0
176
     1
290
     1
176
     1
290
     1
176
     1
290
     0
176
     1
290
     0
176
     1
290
     0
176
     1
290
     0
176
     1
290
     0
176
     1
290
     0
176
     1
 90
       50
176
     1
 40
0.0
176
     1
 40
1.0
176
     1
 90
        0
176
     1
 62
    18
420
        0
176
     1
 90
       50
176
     1
 90
        3
176
     1
 62
     5
420
      255
176
     1
290
     0
176
     1
 90
       50
176
     1
 90
       50
176
     1
 90
       50
176
     1
290
     0
176
     1
 90
       50
176
     1
 62
   256
176
     0
 40
1.0
176
     0
 90
        2
176
     1
  1
strokes_ogs.tif
176
     1
290
     0
176
     1
 40
1.0
176
     1
 40
1.0
176
     1
  0
VISUALSTYLE
  5
3B
102
{ACAD_REACTORS
330
2A
102
}
330
2A
100
AcDbVisualStyle
  2
JitterOff
 70
    20
177
     3
291
     1
 70
    58
 90
        2
176
     0
 90
        2
176
     0
 90
        0
176
     0
 90
        0
176
     0
 40
0.6
176
     0
 40
30.0
176
     0
 62
     7
420
 16777215
176
     0
 90
        1
176
     0
 90
        4
176
     0
 62
     7
176
     0
 62
   257
176
     0
 90
        1
176
     0
 90
        1
176
     0
 40
1.0
176
     0
 90
       10
176
     2
 62
     7
176
     0
 40
1.0
176
     0
 90
        1
176
     0
 90
        6
176
     0
 90
        2
176
     0
 62
     7
176
     0
 90
        5
176
     0
 90
        0
176
     0
 90
        0
176
     0
290
     0
176
     0
 90
        1
176
     0
 40
0.0
176
     0
 90
        0
176
     0
290
     0
176
     0
290
     1
176
     0
290
     1
176
     0
290
     0
176
     0
290
     0
176
     0
290
     0
176
     0
290
     0
176
     0
290
     0
176
     0
290
     0
176
     0
 90
       50
176
     0
 40
0.0
176
     0
 40
1.0
176
     0
 90
        0
176
     0
 62
    18
420
        0
176
     0
 90
       50
176
     0
 90
        3
176
     0
 62
     5
420
      255
176
     0
290
     0
176
     0
 90
       50
176
     0
 90
       50
176
     0
 90
       50
176
     0
290
     0
176
     0
 90
       50
176
     0
 62
   256
176
     0
 40
1.0
176
     0
 90
        2
176
     0
  1
strokes_ogs.tif
176
     0
290
     0
176
     0
 40
1.0
176
     0
 40
1.0
176
     0
  0
VISUALSTYLE
  5
38
102
{ACAD_REACTORS
330
2A
102
}
330
2A
100
AcDbVisualStyle
  2
Linepattern
 70
    14
177
     3
291
     1
 70
    58
 90
        2
176
     1
 90
        2
176
     1
 90
        0
176
     1
 90
        0
176
     1
 40
0.6
176
     1
 40
30.0
176
     1
 62
     7
420
 16777215
176
     1
 90
        1
176
     1
 90
        4
176
     1
 62
     7
176
     1
 62
   257
176
     1
 90
        7
176
     1
 90
        7
176
     1
 40
1.0
176
     1
 90
        8
176
     1
 62
     7
176
     1
 40
1.0
176
     1
 90
        1
176
     1
 90
        6
176
     1
 90
        2
176
     1
 62
     7
176
     1
 90
        5
176
     1
 90
        0
176
     1
 90
        0
176
     1
290
     0
176
     1
 90
        1
176
     1
 40
0.0
176
     1
 90
        0
176
     1
290
     0
176
     1
290
     1
176
     1
290
     1
176
     1
290
     0
176
     1
290
     0
176
     1
290
     0
176
     1
290
     0
176
     1
290
     0
176
     1
290
     0
176
     1
 90
       50
176
     1
 40
0.0
176
     1
 40
1.0
176
     1
 90
        0
176
     1
 62
    18
420
        0
176
     1
 90
       50
176
     1
 90
        3
176
     1
 62
     5
420
      255
176
     1
290
     0
176
     1
 90
       50
176
     1
 90
       50
176
     1
 90
       50
176
     1
290
     0
176
     1
 90
       50
176
     1
 62
   256
176
     0
 40
1.0
176
     0
 90
        2
176
     1
  1
strokes_ogs.tif
176
     1
290
     0
176
     1
 40
1.0
176
     1
 40
1.0
176
     1
  0
VISUALSTYLE
  5
3C
102
{ACAD_REACTORS
330
2A
102
}
330
2A
100
AcDbVisualStyle
  2
OverhangOff
 70
    21
177
     3
291
     1
 70
    58
 90
        2
176
     0
 90
        2
176
     0
 90
        0
176
     0
 90
        0
176
     0
 40
0.6
176
     0
 40
30.0
176
     0
 62
     7
420
 16777215
176
     0
 90
        1
176
     0
 90
        4
176
     0
 62
     7
176
     0
 62
   257
176
     0
 90
        1
176
     0
 90
        1
176
     0
 40
1.0
176
     0
 90
        9
176
     2
 62
     7
176
     0
 40
1.0
176
     0
 90
        1
176
     0
 90
        6
176
     0
 90
        2
176
     0
 62
     7
176
     0
 90
        5
176
     0
 90
        0
176
     0
 90
        0
176
     0
290
     0
176
     0
 90
        1
176
     0
 40
0.0
176
     0
 90
        0
176
     0
290
     0
176
     0
290
     1
176
     0
290
     1
176
     0
290
     0
176
     0
290
     0
176
     0
290
     0
176
     0
290
     0
176
     0
290
     0
176
     0
290
     0
176
     0
 90
       50
176
     0
 40
0.0
176
     0
 40
1.0
176
     0
 90
        0
176
     0
 62
    18
420
        0
176
     0
 90
       50
176
     0
 90
        3
176
     0
 62
     5
420
      255
176
     0
290
     0
176
     0
 90
       50
176
     0
 90
       50
176
     0
 90
       50
176
     0
290
     0
176
     0
 90
       50
176
     0
 62
   256
176
     0
 40
1.0
176
     0
 90
        2
176
     0
  1
strokes_ogs.tif
176
     0
290
     0
176
     0
 40
1.0
176
     0
 40
1.0
176
     0
  0
VISUALSTYLE
  5
33
102
{ACAD_REACTORS
330
2A
102
}
330
2A
100
AcDbVisualStyle
  2
Realistic
 70
     8
177
     3
291
     0
 70
    58
 90
        2
176
     1
 90
        3
176
     1
 90
        0
176
     1
 90
        2
176
     1
 40
0.6
176
     1
 40
30.0
176
     1
 62
     7
420
 16777215
176
     1
 90
        0
176
     1
 90
        0
176
     1
 62
     7
176
     1
 62
   257
176
     1
 90
        1
176
     1
 90
        1
176
     1
 40
1.0
176
     1
 90
        8
176
     1
 62
   257
176
     1
 40
1.0
176
     1
 90
        1
176
     1
 90
        6
176
     1
 90
        2
176
     1
 62
     7
176
     1
 90
        3
176
     1
 90
        0
176
     1
 90
        0
176
     1
290
     0
176
     1
 90
       13
176
     1
 40
0.0
176
     1
 90
        0
176
     1
290
     0
176
     1
290
     1
176
     1
290
     1
176
     1
290
     0
176
     1
290
     0
176
     1
290
     0
176
     1
290
     0
176
     1
290
     0
176
     1
290
     0
176
     1
 90
       50
176
     1
 40
0.0
176
     1
 40
1.0
176
     1
 90
        0
176
     1
 62
    18
420
        0
176
     1
 90
       50
176
     1
 90
        3
176
     1
 62
     5
420
      255
176
     1
290
     0
176
     1
 90
       50
176
     1
 90
       50
176
     1
 90
       50
176
     1
290
     0
176
     1
 90
       50
176
     1
 62
   256
176
     0
 40
1.0
176
     0
 90
        2
176
     1
  1
strokes_ogs.tif
176
     1
290
     0
176
     1
 40
1.0
176
     1
 40
1.0
176
     1
  0
VISUALSTYLE
  5
42
102
{ACAD_REACTORS
330
2A
102
}
330
2A
100
AcDbVisualStyle
  2
Shaded
 70
    27
177
     3
291
     0
 70
    58
 90
        2
176
     1
 90
        2
176
     1
 90
        1
176
     1
 90
        2
176
     1
 40
0.6
176
     1
 40
30.0
176
     1
 62
     7
420
 16777215
176
     1
 90
        0
176
     1
 90
        4
176
     1
 62
     7
176
     1
 62
   257
176
     1
 90
        1
176
     1
 90
        1
176
     1
 40
1.0
176
     1
 90
        8
176
     1
 62
   257
176
     1
 40
1.0
176
     1
 90
        1
176
     1
 90
        6
176
     1
 90
        2
176
     1
 62
     8
420
  7895160
176
     1
 90
        3
176
     1
 90
        0
176
     1
 90
        0
176
     1
290
     0
176
     1
 90
        5
176
     1
 40
0.0
176
     1
 90
        0
176
     1
290
     0
176
     1
290
     1
176
     1
290
     1
176
     1
290
     0
176
     1
290
     0
176
     1
290
     0
176
     1
290
     0
176
     1
290
     0
176
     1
290
     0
176
     1
 90
       50
176
     1
 40
0.0
176
     1
 40
1.0
176
     1
 90
        0
176
     1
 62
    18
420
        0
176
     1
 90
       50
176
     1
 90
        3
176
     1
 62
     5
420
      255
176
     1
290
     0
176
     1
 90
       50
176
     1
 90
       50
176
     1
 90
       50
176
     1
290
     0
176
     1
 90
       50
176
     1
 62
   256
176
     0
 40
1.0
176
     0
 90
        2
176
     1
  1
strokes_ogs.tif
176
     1
290
     0
176
     1
 40
1.0
176
     1
 40
1.0
176
     1
  0
VISUALSTYLE
  5
41
102
{ACAD_REACTORS
330
2A
102
}
330
2A
100
AcDbVisualStyle
  2
Shaded with edges
 70
    26
177
     3
291
     0
 70
    58
 90
        2
176
     1
 90
        2
176
     1
 90
        1
176
     1
 90
        2
176
     1
 40
0.6
176
     1
 40
30.0
176
     1
 62
     7
420
 16777215
176
     1
 90
        1
176
     1
 90
       10
176
     1
 62
     7
176
     1
 62
   257
176
     1
 90
        2
176
     1
 90
        1
176
     1
 40
1.0
176
     1
 90
        8
176
     1
 62
   257
176
     1
 40
1.0
176
     1
 90
        1
176
     1
 90
        6
176
     1
 90
        2
176
     1
 62
     7
176
     1
 90
        3
176
     1
 90
        0
176
     1
 90
        0
176
     1
290
     0
176
     1
 90
        5
176
     1
 40
0.0
176
     1
 90
        0
176
     1
290
     0
176
     1
290
     1
176
     1
290
     1
176
     1
290
     0
176
     1
290
     0
176
     1
290
     0
176
     1
290
     0
176
     1
290
     0
176
     1
290
     0
176
     1
 90
       50
176
     1
 40
0.0
176
     1
 40
1.0
176
     1
 90
        0
176
     1
 62
    18
420
        0
176
     1
 90
       50
176
     1
 90
        3
176
     1
 62
     5
420
      255
176
     1
290
     0
176
     1
 90
       50
176
     1
 90
       50
176
     1
 90
       50
176
     1
290
     0
176
     1
 90
       50
176
     1
 62
   256
176
     0
 40
1.0
176
     0
 90
        2
176
     1
  1
strokes_ogs.tif
176
     1
290
     0
176
     1
 40
1.0
176
     1
 40
1.0
176
     1
  0
VISUALSTYLE
  5
3E
102
{ACAD_REACTORS
330
2A
102
}
330
2A
100
AcDbVisualStyle
  2
Shades of Gray
 70
    23
177
     3
291
     0
 70
    58
 90
        2
176
     1
 90
        2
176
     1
 90
        3
176
     1
 90
        0
176
     1
 40
0.6
176
     1
 40
30.0
176
     1
 62
     7
420
 16777215
176
     1
 90
        2
176
     1
 90
        2
176
     1
 62
     7
176
     1
 62
     7
176
     1
 90
        1
176
     1
 90
        1
176
     1
 40
40.0
176
     1
 90
        8
176
     1
 62
     7
176
     1
 40
1.0
176
     1
 90
        1
176
     1
 90
        6
176
     1
 90
        2
176
     1
 62
     7
176
     1
 90
        3
176
     1
 90
        0
176
     1
 90
        0
176
     1
290
     0
176
     1
 90
        1
176
     1
 40
0.0
176
     1
 90
        0
176
     1
290
     0
176
     1
290
     1
176
     1
290
     1
176
     1
290
     0
176
     1
290
     0
176
     1
290
     0
176
     1
290
     0
176
     1
290
     0
176
     1
290
     0
176
     1
 90
       50
176
     1
 40
0.0
176
     1
 40
1.0
176
     1
 90
        0
176
     1
 62
    18
420
        0
176
     1
 90
       50
176
     1
 90
        3
176
     1
 62
     5
420
      255
176
     1
290
     0
176
     1
 90
       50
176
     1
 90
       50
176
     1
 90
       50
176
     1
290
     0
176
     1
 90
       50
176
     1
 62
   256
176
     0
 40
1.0
176
     0
 90
        2
176
     1
  1
strokes_ogs.tif
176
     1
290
     0
176
     1
 40
1.0
176
     1
 40
1.0
176
     1
  0
VISUALSTYLE
  5
3F
102
{ACAD_REACTORS
330
2A
102
}
330
2A
100
AcDbVisualStyle
  2
Sketchy
 70
    24
177
     3
291
     0
 70
    58
 90
        1
176
     1
 90
        2
176
     1
 90
        2
176
     1
 90
        0
176
     1
 40
0.6
176
     1
 40
30.0
176
     1
 62
     7
420
 16777215
176
     1
 90
        2
176
     1
 90
        2
176
     1
 62
     7
176
     1
 62
     7
176
     1
 90
        1
176
     1
 90
        1
176
     1
 40
40.0
176
     1
 90
       11
176
     1
 62
     7
176
     1
 40
1.0
176
     1
 90
        1
176
     1
 90
        6
176
     1
 90
        2
176
     1
 62
     7
176
     1
 90
        6
176
     1
 90
        0
176
     1
 90
        0
176
     1
290
     0
176
     1
 90
        1
176
     1
 40
0.0
176
     1
 90
        0
176
     1
290
     0
176
     1
290
     1
176
     1
290
     1
176
     1
290
     0
176
     1
290
     0
176
     1
290
     0
176
     1
290
     0
176
     1
290
     0
176
     1
290
     0
176
     1
 90
       50
176
     1
 40
0.0
176
     1
 40
1.0
176
     1
 90
        0
176
     1
 62
    18
420
        0
176
     1
 90
       50
176
     1
 90
        3
176
     1
 62
     5
420
      255
176
     1
290
     0
176
     1
 90
       50
176
     1
 90
       50
176
     1
 90
       50
176
     1
290
     0
176
     1
 90
       50
176
     1
 62
   256
176
     0
 40
1.0
176
     0
 90
        2
176
     1
  1
strokes_ogs.tif
176
     1
290
     0
176
     1
 40
1.0
176
     1
 40
1.0
176
     1
  0
VISUALSTYLE
  5
37
102
{ACAD_REACTORS
330
2A
102
}
330
2A
100
AcDbVisualStyle
  2
Thicken
 70
    13
177
     3
291
     1
 70
    58
 90
        2
176
     1
 90
        2
176
     1
 90
        0
176
     1
 90
        0
176
     1
 40
0.6
176
     1
 40
30.0
176
     1
 62
     7
420
 16777215
176
     1
 90
        1
176
     1
 90
        4
176
     1
 62
     7
176
     1
 62
   257
176
     1
 90
        1
176
     1
 90
        1
176
     1
 40
1.0
176
     1
 90
       12
176
     1
 62
     7
176
     1
 40
1.0
176
     1
 90
        1
176
     1
 90
        6
176
     1
 90
        2
176
     1
 62
     7
176
     1
 90
        5
176
     1
 90
        0
176
     1
 90
        0
176
     1
290
     0
176
     1
 90
        1
176
     1
 40
0.0
176
     1
 90
        0
176
     1
290
     0
176
     1
290
     1
176
     1
290
     1
176
     1
290
     0
176
     1
290
     0
176
     1
290
     0
176
     1
290
     0
176
     1
290
     0
176
     1
290
     0
176
     1
 90
       50
176
     1
 40
0.0
176
     1
 40
1.0
176
     1
 90
        0
176
     1
 62
    18
420
        0
176
     1
 90
       50
176
     1
 90
        3
176
     1
 62
     5
420
      255
176
     1
290
     0
176
     1
 90
       50
176
     1
 90
       50
176
     1
 90
       50
176
     1
290
     0
176
     1
 90
       50
176
     1
 62
   256
176
     0
 40
1.0
176
     0
 90
        2
176
     1
  1
strokes_ogs.tif
176
     1
290
     0
176
     1
 40
1.0
176
     1
 40
1.0
176
     1
  0
VISUALSTYLE
  5
30
102
{ACAD_REACTORS
330
2A
102
}
330
2A
100
AcDbVisualStyle
  2
Wireframe
 70
     5
177
     3
291
     0
 70
    58
 90
        0
176
     1
 90
        2
176
     1
 90
        0
176
     1
 90
        0
176
     1
 40
0.6
176
     1
 40
30.0
176
     1
 62
     7
420
 16777215
176
     1
 90
        1
176
     1
 90
        4
176
     1
 62
     7
176
     1
 62
   257
176
     1
 90
        1
176
     1
 90
        1
176
     1
 40
1.0
176
     1
 90
        0
176
     1
 62
   257
176
     1
 40
1.0
176
     1
 90
        1
176
     1
 90
        6
176
     1
 90
        2
176
     1
 62
     7
176
     1
 90
        3
176
     1
 90
        0
176
     1
 90
        0
176
     1
290
     0
176
     1
 90
        1
176
     1
 40
0.0
176
     1
 90
        0
176
     1
290
     0
176
     1
290
     1
176
     1
290
     1
176
     1
290
     0
176
     1
290
     0
176
     1
290
     0
176
     1
290
     0
176
     1
290
     0
176
     1
290
     0
176
     1
 90
       50
176
     1
 40
0.0
176
     1
 40
1.0
176
     1
 90
        0
176
     1
 62
    18
420
        0
176
     1
 90
       50
176
     1
 90
        3
176
     1
 62
     5
420
      255
176
     1
290
     0
176
     1
 90
       50
176
     1
 90
       50
176
     1
 90
       50
176
     1
290
     0
176
     1
 90
       50
176
     1
 62
   256
176
     0
 40
1.0
176
     0
 90
        2
176
     1
  1
strokes_ogs.tif
176
     1
290
     0
176
     1
 40
1.0
176
     1
 40
1.0
176
     1
  0
VISUALSTYLE
  5
40
102
{ACAD_REACTORS
330
2A
102
}
330
2A
100
AcDbVisualStyle
  2
X-Ray
 70
    25
177
     3
291
     0
 70
    58
 90
        2
176
     1
 90
        2
176
     1
 90
        1
176
     1
 90
        1
176
     1
 40
0.5
176
     1
 40
30.0
176
     1
 62
     7
420
 16777215
176
     1
 90
        1
176
     1
 90
        0
176
     1
 62
     7
176
     1
 62
   257
176
     1
 90
        1
176
     1
 90
        1
176
     1
 40
1.0
176
     1
 90
        8
176
     1
 62
     7
176
     1
 40
1.0
176
     1
 90
        1
176
     1
 90
        6
176
     1
 90
        2
176
     1
 62
     7
176
     1
 90
        3
176
     1
 90
        0
176
     1
 90
        0
176
     1
290
     0
176
     1
 90
       13
176
     1
 40
0.0
176
     1
 90
        0
176
     1
290
     0
176
     1
290
     1
176
     1
290
     1
176
     1
290
     0
176
     1
290
     0
176
     1
290
     0
176
     1
290
     0
176
     1
290
     0
176
     1
290
     0
176
     1
 90
       50
176
     1
 40
0.0
176
     1
 40
1.0
176
     1
 90
        0
176
     1
 62
    18
420
        0
176
     1
 90
       50
176
     1
 90
        3
176
     1
 62
     5
420
      255
176
     1
290
     0
176
     1
 90
       50
176
     1
 90
       50
176
     1
 90
       50
176
     1
290
     0
176
     1
 90
       50
176
     1
 62
   256
176
     0
 40
1.0
176
     0
 90
        2
176
     1
  1
strokes_ogs.tif
176
     1
290
     0
176
     1
 40
1.0
176
     1
 40
1.0
176
     1
  0
DICTIONARYVAR
  5
99
102
{ACAD_REACTORS
330
98
102
}
330
98
100
DictionaryVariables
280
     0
  1
1:1
  0
DICTIONARYVAR
  5
A1
102
{ACAD_REACTORS
330
98
102
}
330
98
100
DictionaryVariables
280
     0
  1
3.500000
  0
DICTIONARYVAR
  5
A2
102
{ACAD_REACTORS
330
98
102
}
330
98
100
DictionaryVariables
280
     0
  1
acadiso.lin
  0
DICTIONARYVAR
  5
9E
102
{ACAD_REACTORS
330
98
102
}
330
98
100
DictionaryVariables
280
     0
  1
Standard
  0
DICTIONARYVAR
  5
9D
102
{ACAD_REACTORS
330
98
102
}
330
98
100
DictionaryVariables
280
     0
  1
Standard
  0
DICTIONARY
  5
9A
330
5A
100
AcDbDictionary
280
     1
281
     1
  3
ACAD_ROUNDTRIP_2008_TABLESTYLE_CELLSTYLEMAP
360
9B
  0
CELLSTYLEMAP
  5
9B
102
{ACAD_REACTORS
330
9A
102
}
330
9A
100
AcDbCellStyleMap
 90
        3
300
CELLSTYLE
  1
TABLEFORMAT_BEGIN
 90
        5
170
     1
 91
        0
 92
    32768
 62
   257
 93
        1
300
CONTENTFORMAT
  1
CONTENTFORMAT_BEGIN
 90
        0
 91
        0
 92
        4
 93
        0
300

 40
0.0
140
1.0
 94
        5
 62
     0
340
11
144
6.0
309
CONTENTFORMAT_END
171
     1
301
MARGIN
  1
CELLMARGIN_BEGIN
 40
1.5
 40
1.5
 40
1.5
 40
1.5
 40
1.5
 40
1.5
309
CELLMARGIN_END
 94
        6
 95
        1
302
GRIDFORMAT
  1
GRIDFORMAT_BEGIN
 90
        0
 91
        1
 62
     0
 92
       -2
340
14
 93
        0
 40
0.045
309
GRIDFORMAT_END
 95
        2
302
GRIDFORMAT
  1
GRIDFORMAT_BEGIN
 90
        0
 91
        1
 62
     0
 92
       -2
340
14
 93
        0
 40
0.045
309
GRIDFORMAT_END
 95
        4
302
GRIDFORMAT
  1
GRIDFORMAT_BEGIN
 90
        0
 91
        1
 62
     0
 92
       -2
340
14
 93
        0
 40
0.045
309
GRIDFORMAT_END
 95
        8
302
GRIDFORMAT
  1
GRIDFORMAT_BEGIN
 90
        0
 91
        1
 62
     0
 92
       -2
340
14
 93
        0
 40
0.045
309
GRIDFORMAT_END
 95
       16
302
GRIDFORMAT
  1
GRIDFORMAT_BEGIN
 90
        0
 91
        1
 62
     0
 92
       -2
340
14
 93
        0
 40
0.045
309
GRIDFORMAT_END
 95
       32
302
GRIDFORMAT
  1
GRIDFORMAT_BEGIN
 90
        0
 91
        1
 62
     0
 92
       -2
340
14
 93
        0
 40
0.045
309
GRIDFORMAT_END
309
TABLEFORMAT_END
  1
CELLSTYLE_BEGIN
 90
        1
 91
        1
300
_TITLE
309
CELLSTYLE_END
300
CELLSTYLE
  1
TABLEFORMAT_BEGIN
 90
        5
170
     1
 91
        0
 92
        0
 62
   257
 93
        1
300
CONTENTFORMAT
  1
CONTENTFORMAT_BEGIN
 90
        0
 91
        0
 92
        4
 93
        0
300

 40
0.0
140
1.0
 94
        5
 62
     0
340
11
144
4.5
309
CONTENTFORMAT_END
171
     1
301
MARGIN
  1
CELLMARGIN_BEGIN
 40
1.5
 40
1.5
 40
1.5
 40
1.5
 40
1.5
 40
1.5
309
CELLMARGIN_END
 94
        6
 95
        1
302
GRIDFORMAT
  1
GRIDFORMAT_BEGIN
 90
        0
 91
        1
 62
     0
 92
       -2
340
14
 93
        0
 40
0.045
309
GRIDFORMAT_END
 95
        2
302
GRIDFORMAT
  1
GRIDFORMAT_BEGIN
 90
        0
 91
        1
 62
     0
 92
       -2
340
14
 93
        0
 40
0.045
309
GRIDFORMAT_END
 95
        4
302
GRIDFORMAT
  1
GRIDFORMAT_BEGIN
 90
        0
 91
        1
 62
     0
 92
       -2
340
14
 93
        0
 40
0.045
309
GRIDFORMAT_END
 95
        8
302
GRIDFORMAT
  1
GRIDFORMAT_BEGIN
 90
        0
 91
        1
 62
     0
 92
       -2
340
14
 93
        0
 40
0.045
309
GRIDFORMAT_END
 95
       16
302
GRIDFORMAT
  1
GRIDFORMAT_BEGIN
 90
        0
 91
        1
 62
     0
 92
       -2
340
14
 93
        0
 40
0.045
309
GRIDFORMAT_END
 95
       32
302
GRIDFORMAT
  1
GRIDFORMAT_BEGIN
 90
        0
 91
        1
 62
     0
 92
       -2
340
14
 93
        0
 40
0.045
309
GRIDFORMAT_END
309
TABLEFORMAT_END
  1
CELLSTYLE_BEGIN
 90
        2
 91
        1
300
_HEADER
309
CELLSTYLE_END
300
CELLSTYLE
  1
TABLEFORMAT_BEGIN
 90
        5
170
     1
 91
        0
 92
        0
 62
   257
 93
        1
300
CONTENTFORMAT
  1
CONTENTFORMAT_BEGIN
 90
        0
 91
        0
 92
        4
 93
        0
300

 40
0.0
140
1.0
 94
        2
 62
     0
340
11
144
4.5
309
CONTENTFORMAT_END
171
     1
301
MARGIN
  1
CELLMARGIN_BEGIN
 40
1.5
 40
1.5
 40
1.5
 40
1.5
 40
1.5
 40
1.5
309
CELLMARGIN_END
 94
        6
 95
        1
302
GRIDFORMAT
  1
GRIDFORMAT_BEGIN
 90
        0
 91
        1
 62
     0
 92
       -2
340
14
 93
        0
 40
0.045
309
GRIDFORMAT_END
 95
        2
302
GRIDFORMAT
  1
GRIDFORMAT_BEGIN
 90
        0
 91
        1
 62
     0
 92
       -2
340
14
 93
        0
 40
0.045
309
GRIDFORMAT_END
 95
        4
302
GRIDFORMAT
  1
GRIDFORMAT_BEGIN
 90
        0
 91
        1
 62
     0
 92
       -2
340
14
 93
        0
 40
0.045
309
GRIDFORMAT_END
 95
        8
302
GRIDFORMAT
  1
GRIDFORMAT_BEGIN
 90
        0
 91
        1
 62
     0
 92
       -2
340
14
 93
        0
 40
0.045
309
GRIDFORMAT_END
 95
       16
302
GRIDFORMAT
  1
GRIDFORMAT_BEGIN
 90
        0
 91
        1
 62
     0
 92
       -2
340
14
 93
        0
 40
0.045
309
GRIDFORMAT_END
 95
       32
302
GRIDFORMAT
  1
GRIDFORMAT_BEGIN
 90
        0
 91
        1
 62
     0
 92
       -2
340
14
 93
        0
 40
0.045
309
GRIDFORMAT_END
309
TABLEFORMAT_END
  1
CELLSTYLE_BEGIN
 90
        3
 91
        2
300
_DATA
309
CELLSTYLE_END
  0
ENDSEC
  0
EOF
