  0
SECTION
  2
HEADER
  9
$ACADVER
  1
AC1027
  9
$ACADMAINTVER
 70
   105
  9
$DWGCODEPAGE
  3
ANSI_932
  9
$LASTSAVEDBY
  1
a.yasuda
  9
$REQUIREDVERSIONS
160
                 0
  9
$INSBASE
 10
0.0
 20
0.0
 30
0.0
  9
$EXTMIN
 10
0.0
 20
0.0
 30
0.0
  9
$EXTMAX
 10
302.9997823349792
 20
216.0016055409748
 30
0.0
  9
$LIMMIN
 10
0.0
 20
0.0
  9
$LIMMAX
 10
302.9997823349792
 20
216.0016055409748
  9
$ORTHOMODE
 70
     0
  9
$REGENMODE
 70
     1
  9
$FILLMODE
 70
     1
  9
$QTEXTMODE
 70
     0
  9
$MIRRTEXT
 70
     1
  9
$LTSCALE
 40
1.0
  9
$ATTMODE
 70
     1
  9
$TEXTSIZE
 40
2.5
  9
$TRACEWID
 40
1.0
  9
$TEXTSTYLE
  7
Standard
  9
$CLAYER
  8
0
  9
$CELTYPE
  6
ByLayer
  9
$CECOLOR
 62
   256
  9
$CELTSCALE
 40
1.0
  9
$DISPSILH
 70
     0
  9
$DIMSCALE
 40
1.0
  9
$DIMASZ
 40
2.5
  9
$DIMEXO
 40
0.625
  9
$DIMDLI
 40
3.75
  9
$DIMRND
 40
0.0
  9
$DIMDLE
 40
0.0
  9
$DIMEXE
 40
1.25
  9
$DIMTP
 40
0.0
  9
$DIMTM
 40
0.0
  9
$DIMTXT
 40
2.5
  9
$DIMCEN
 40
2.5
  9
$DIMTSZ
 40
0.0
  9
$DIMTOL
 70
     0
  9
$DIMLIM
 70
     0
  9
$DIMTIH
 70
     0
  9
$DIMTOH
 70
     0
  9
$DIMSE1
 70
     0
  9
$DIMSE2
 70
     0
  9
$DIMTAD
 70
     1
  9
$DIMZIN
 70
     8
  9
$DIMBLK
  1

  9
$DIMASO
 70
     1
  9
$DIMSHO
 70
     1
  9
$DIMPOST
  1

  9
$DIMAPOST
  1

  9
$DIMALT
 70
     0
  9
$DIMALTD
 70
     3
  9
$DIMALTF
 40
0.03937007874016
  9
$DIMLFAC
 40
1.0
  9
$DIMTOFL
 70
     1
  9
$DIMTVP
 40
0.0
  9
$DIMTIX
 70
     0
  9
$DIMSOXD
 70
     0
  9
$DIMSAH
 70
     0
  9
$DIMBLK1
  1

  9
$DIMBLK2
  1

  9
$DIMSTYLE
  2
ISO-25
  9
$DIMCLRD
 70
     0
  9
$DIMCLRE
 70
     0
  9
$DIMCLRT
 70
     0
  9
$DIMTFAC
 40
1.0
  9
$DIMGAP
 40
0.625
  9
$DIMJUST
 70
     0
  9
$DIMSD1
 70
     0
  9
$DIMSD2
 70
     0
  9
$DIMTOLJ
 70
     0
  9
$DIMTZIN
 70
     8
  9
$DIMALTZ
 70
     0
  9
$DIMALTTZ
 70
     0
  9
$DIMUPT
 70
     0
  9
$DIMDEC
 70
     2
  9
$DIMTDEC
 70
     2
  9
$DIMALTU
 70
     2
  9
$DIMALTTD
 70
     3
  9
$DIMTXSTY
  7
Standard
  9
$DIMAUNIT
 70
     0
  9
$DIMADEC
 70
     0
  9
$DIMALTRND
 40
0.0
  9
$DIMAZIN
 70
     0
  9
$DIMDSEP
 70
    44
  9
$DIMATFIT
 70
     3
  9
$DIMFRAC
 70
     0
  9
$DIMLDRBLK
  1

  9
$DIMLUNIT
 70
     2
  9
$DIMLWD
 70
    -2
  9
$DIMLWE
 70
    -2
  9
$DIMTMOVE
 70
     0
  9
$DIMFXL
 40
1.0
  9
$DIMFXLON
 70
     0
  9
$DIMJOGANG
 40
0.7853981633974483
  9
$DIMTFILL
 70
     0
  9
$DIMTFILLCLR
 70
     0
  9
$DIMARCSYM
 70
     0
  9
$DIMLTYPE
  6

  9
$DIMLTEX1
  6

  9
$DIMLTEX2
  6

  9
$DIMTXTDIRECTION
 70
     0
  9
$LUNITS
 70
     2
  9
$LUPREC
 70
     4
  9
$SKETCHINC
 40
1.0
  9
$FILLETRAD
 40
0.0
  9
$AUNITS
 70
     0
  9
$AUPREC
 70
     0
  9
$MENU
  1
.
  9
$ELEVATION
 40
0.0
  9
$PELEVATION
 40
0.0
  9
$THICKNESS
 40
0.0
  9
$LIMCHECK
 70
     0
  9
$CHAMFERA
 40
0.0
  9
$CHAMFERB
 40
0.0
  9
$CHAMFERC
 40
0.0
  9
$CHAMFERD
 40
0.0
  9
$SKPOLY
 70
     0
  9
$TDCREATE
 40
2459873.457576956
  9
$TDUCREATE
 40
2459873.082576956
  9
$TDUPDATE
 40
2459873.457577002
  9
$TDUUPDATE
 40
2459873.082577002
  9
$TDINDWG
 40
0.0000000116
  9
$TDUSRTIMER
 40
0.0000000116
  9
$USRTIMER
 70
     1
  9
$ANGBASE
 50
0.0
  9
$ANGDIR
 70
     0
  9
$PDMODE
 70
     0
  9
$PDSIZE
 40
0.0
  9
$PLINEWID
 40
0.0
  9
$SPLFRAME
 70
     0
  9
$SPLINETYPE
 70
     6
  9
$SPLINESEGS
 70
     8
  9
$HANDSEED
  5
A3
  9
$SURFTAB1
 70
     6
  9
$SURFTAB2
 70
     6
  9
$SURFTYPE
 70
     6
  9
$SURFU
 70
     6
  9
$SURFV
 70
     6
  9
$UCSBASE
  2

  9
$UCSNAME
  2

  9
$UCSORG
 10
0.0
 20
0.0
 30
0.0
  9
$UCSXDIR
 10
1.0
 20
0.0
 30
0.0
  9
$UCSYDIR
 10
0.0
 20
1.0
 30
0.0
  9
$UCSORTHOREF
  2

  9
$UCSORTHOVIEW
 70
     0
  9
$UCSORGTOP
 10
0.0
 20
0.0
 30
0.0
  9
$UCSORGBOTTOM
 10
0.0
 20
0.0
 30
0.0
  9
$UCSORGLEFT
 10
0.0
 20
0.0
 30
0.0
  9
$UCSORGRIGHT
 10
0.0
 20
0.0
 30
0.0
  9
$UCSORGFRONT
 10
0.0
 20
0.0
 30
0.0
  9
$UCSORGBACK
 10
0.0
 20
0.0
 30
0.0
  9
$PUCSBASE
  2

  9
$PUCSNAME
  2

  9
$PUCSORG
 10
0.0
 20
0.0
 30
0.0
  9
$PUCSXDIR
 10
1.0
 20
0.0
 30
0.0
  9
$PUCSYDIR
 10
0.0
 20
1.0
 30
0.0
  9
$PUCSORTHOREF
  2

  9
$PUCSORTHOVIEW
 70
     0
  9
$PUCSORGTOP
 10
0.0
 20
0.0
 30
0.0
  9
$PUCSORGBOTTOM
 10
0.0
 20
0.0
 30
0.0
  9
$PUCSORGLEFT
 10
0.0
 20
0.0
 30
0.0
  9
$PUCSORGRIGHT
 10
0.0
 20
0.0
 30
0.0
  9
$PUCSORGFRONT
 10
0.0
 20
0.0
 30
0.0
  9
$PUCSORGBACK
 10
0.0
 20
0.0
 30
0.0
  9
$USERI1
 70
     0
  9
$USERI2
 70
     0
  9
$USERI3
 70
     0
  9
$USERI4
 70
     0
  9
$USERI5
 70
     0
  9
$USERR1
 40
0.0
  9
$USERR2
 40
0.0
  9
$USERR3
 40
0.0
  9
$USERR4
 40
0.0
  9
$USERR5
 40
0.0
  9
$WORLDVIEW
 70
     1
  9
$SHADEDGE
 70
     3
  9
$SHADEDIF
 70
    70
  9
$TILEMODE
 70
     1
  9
$MAXACTVP
 70
    64
  9
$PINSBASE
 10
0.0
 20
0.0
 30
0.0
  9
$PLIMCHECK
 70
     0
  9
$PEXTMIN
 10
1.000000000000000E+20
 20
1.000000000000000E+20
 30
1.000000000000000E+20
  9
$PEXTMAX
 10
-1.000000000000000E+20
 20
-1.000000000000000E+20
 30
-1.000000000000000E+20
  9
$PLIMMIN
 10
0.0
 20
0.0
  9
$PLIMMAX
 10
420.0
 20
297.0
  9
$UNITMODE
 70
     0
  9
$VISRETAIN
 70
     1
  9
$PLINEGEN
 70
     0
  9
$PSLTSCALE
 70
     1
  9
$TREEDEPTH
 70
  3020
  9
$CMLSTYLE
  2
Standard
  9
$CMLJUST
 70
     0
  9
$CMLSCALE
 40
20.0
  9
$PROXYGRAPHICS
 70
     1
  9
$MEASUREMENT
 70
     1
  9
$CELWEIGHT
370
    -1
  9
$ENDCAPS
280
     0
  9
$JOINSTYLE
280
     0
  9
$LWDISPLAY
290
     0
  9
$INSUNITS
 70
     4
  9
$HYPERLINKBASE
  1

  9
$STYLESHEET
  1

  9
$XEDIT
290
     1
  9
$CEPSNTYPE
380
     0
  9
$PSTYLEMODE
290
     1
  9
$FINGERPRINTGUID
  2
{995f92b4-f1d7-41b4-b999-49adc08870fa}
  9
$VERSIONGUID
  2
{FAEB1C32-E019-11D5-929B-00C0DF256EC4}
  9
$EXTNAMES
290
     1
  9
$PSVPSCALE
 40
0.0
  9
$OLESTARTUP
290
     0
  9
$SORTENTS
280
   127
  9
$INDEXCTL
280
     0
  9
$HIDETEXT
280
     1
  9
$XCLIPFRAME
280
     2
  9
$HALOGAP
280
     0
  9
$OBSCOLOR
 70
   257
  9
$OBSLTYPE
280
     0
  9
$INTERSECTIONDISPLAY
280
     0
  9
$INTERSECTIONCOLOR
 70
   257
  9
$DIMASSOC
280
     2
  9
$PROJECTNAME
  1

  9
$CAMERADISPLAY
290
     0
  9
$LENSLENGTH
 40
50.0
  9
$CAMERAHEIGHT
 40
0.0
  9
$STEPSPERSEC
 40
2.0
  9
$STEPSIZE
 40
6.0
  9
$3DDWFPREC
 40
2.0
  9
$PSOLWIDTH
 40
5.0
  9
$PSOLHEIGHT
 40
80.0
  9
$LOFTANG1
 40
1.570796326794897
  9
$LOFTANG2
 40
1.570796326794897
  9
$LOFTMAG1
 40
0.0
  9
$LOFTMAG2
 40
0.0
  9
$LOFTPARAM
 70
     7
  9
$LOFTNORMALS
280
     1
  9
$LATITUDE
 40
37.795
  9
$LONGITUDE
 40
-122.394
  9
$NORTHDIRECTION
 40
0.0
  9
$TIMEZONE
 70
 -8000
  9
$LIGHTGLYPHDISPLAY
280
     1
  9
$TILEMODELIGHTSYNCH
280
     1
  9
$CMATERIAL
347
44
  9
$SOLIDHIST
280
     0
  9
$SHOWHIST
280
     1
  9
$DWFFRAME
280
     2
  9
$DGNFRAME
280
     2
  9
$REALWORLDSCALE
290
     1
  9
$INTERFERECOLOR
 62
   256
  9
$CSHADOW
280
     0
  9
$SHADOWPLANELOCATION
 40
0.0
  0
ENDSEC
  0
SECTION
  2
CLASSES
  0
CLASS
  1
ACDBDICTIONARYWDFLT
  2
AcDbDictionaryWithDefault
  3
ObjectDBX Classes
 90
        0
 91
        3
280
     0
281
     0
  0
CLASS
  1
VISUALSTYLE
  2
AcDbVisualStyle
  3
ObjectDBX Classes
 90
     4095
 91
        3
280
     0
281
     0
  0
CLASS
  1
MATERIAL
  2
AcDbMaterial
  3
ObjectDBX Classes
 90
     1153
 91
        3
280
     0
281
     0
  0
CLASS
  1
SCALE
  2
AcDbScale
  3
ObjectDBX Classes
 90
     1153
 91
        3
280
     0
281
     0
  0
CLASS
  1
TABLESTYLE
  2
AcDbTableStyle
  3
ObjectDBX Classes
 90
     4095
 91
        3
280
     0
281
     0
  0
CLASS
  1
MLEADERSTYLE
  2
AcDbMLeaderStyle
  3
ACDB_MLEADERSTYLE_CLASS
 90
     4095
 91
        3
280
     0
281
     0
  0
CLASS
  1
SUN
  2
AcDbSun
  3
SCENEOE
 90
     1153
 91
        3
280
     0
281
     0
  0
CLASS
  1
DICTIONARYVAR
  2
AcDbDictionaryVar
  3
ObjectDBX Classes
 90
        0
 91
        3
280
     0
281
     0
  0
CLASS
  1
CELLSTYLEMAP
  2
AcDbCellStyleMap
  3
ObjectDBX Classes
 90
     1152
 91
        3
280
     0
281
     0
  0
ENDSEC
  0
SECTION
  2
TABLES
  0
TABLE
  2
VPORT
  5
8
330
0
100
AcDbSymbolTable
 70
     1
  0
VPORT
  5
29
330
8
100
AcDbSymbolTableRecord
100
AcDbViewportTableRecord
  2
*Active
 70
     0
 10
0.0
 20
0.0
 11
1.0
 21
1.0
 12
151.4998911674896
 22
108.0008027704874
 13
0.0
 23
0.0
 14
10.0
 24
10.0
 15
10.0
 25
10.0
 16
0.0
 26
0.0
 36
1.0
 17
0.0
 27
0.0
 37
0.0
 40
237.6017660950723
 41
1.402766343222857
 42
50.0
 43
0.0
 44
0.0
 50
0.0
 51
0.0
 71
     0
 72
 10000
 73
     1
 74
     3
 75
     0
 76
     0
 77
     0
 78
     0
281
     0
 65
     1
110
0.0
120
0.0
130
0.0
111
1.0
121
0.0
131
0.0
112
0.0
122
1.0
132
0.0
 79
     0
146
0.0
348
2F
 60
     3
 61
     5
292
     1
282
     1
141
0.0
142
0.0
 63
   250
361
5D
  0
ENDTAB
  0
TABLE
  2
LTYPE
  5
5
330
0
100
AcDbSymbolTable
 70
     2
  0
LTYPE
  5
14
330
5
100
AcDbSymbolTableRecord
100
AcDbLinetypeTableRecord
  2
ByBlock
 70
     0
  3

 72
    65
 73
     0
 40
0.0
  0
LTYPE
  5
15
330
5
100
AcDbSymbolTableRecord
100
AcDbLinetypeTableRecord
  2
ByLayer
 70
     0
  3

 72
    65
 73
     0
 40
0.0
  0
LTYPE
  5
16
330
5
100
AcDbSymbolTableRecord
100
AcDbLinetypeTableRecord
  2
Continuous
 70
     0
  3
Solid line
 72
    65
 73
     0
 40
0.0
  0
LTYPE
  5
5F
330
5
100
AcDbSymbolTableRecord
100
AcDbLinetypeTableRecord
  2
UserDefined01
 70
     0
  3
----------------                
 72
    65
 73
     2
 40
0.7055555449591743
 49
0.3527777724795871
 74
     0
 49
-0.3527777724795871
 74
     0
  0
ENDTAB
  0
TABLE
  2
LAYER
  5
2
330
0
100
AcDbSymbolTable
 70
     3
  0
LAYER
  5
10
330
2
100
AcDbSymbolTableRecord
100
AcDbLayerTableRecord
  2
0
 70
     0
 62
     7
  6
Continuous
370
    -3
390
F
347
46
348
0
  0
LAYER
  5
60
330
2
100
AcDbSymbolTableRecord
100
AcDbLayerTableRecord
  2
外枠
 70
     0
 62
     7
  6
Continuous
370
    -3
390
F
347
46
348
0
  0
LAYER
  5
61
330
2
100
AcDbSymbolTableRecord
100
AcDbLayerTableRecord
  2
ISS138金台
 70
     0
 62
     7
  6
Continuous
370
    -3
390
F
347
46
348
0
  0
ENDTAB
  0
TABLE
  2
STYLE
  5
3
330
0
100
AcDbSymbolTable
 70
     2
  0
STYLE
  5
11
330
3
100
AcDbSymbolTableRecord
100
AcDbTextStyleTableRecord
  2
Standard
 70
     0
 40
0.0
 41
1.0
 50
0.0
 71
     0
 42
2.5
  3

  4

  0
STYLE
  5
5E
330
3
100
AcDbSymbolTableRecord
100
AcDbTextStyleTableRecord
  2
MS Gothic
 70
     0
 40
1.0
 41
1.0
 50
0.0
 71
     0
 42
2.5
  3
msgothic.ttc
  4

1001
ACAD
1000
MS Gothic
1071
    32817
  0
ENDTAB
  0
TABLE
  2
VIEW
  5
6
330
0
100
AcDbSymbolTable
 70
     0
  0
ENDTAB
  0
TABLE
  2
UCS
  5
7
330
0
100
AcDbSymbolTable
 70
     0
  0
ENDTAB
  0
TABLE
  2
APPID
  5
9
330
0
100
AcDbSymbolTable
 70
     1
  0
APPID
  5
12
330
9
100
AcDbSymbolTableRecord
100
AcDbRegAppTableRecord
  2
ACAD
 70
     0
  0
ENDTAB
  0
TABLE
  2
DIMSTYLE
  5
A
330
0
100
AcDbSymbolTable
 70
     1
100
AcDbDimStyleTable
  0
DIMSTYLE
105
27
330
A
100
AcDbSymbolTableRecord
100
AcDbDimStyleTableRecord
  2
ISO-25
 70
     0
 41
2.5
 42
0.625
 43
3.75
 44
1.25
 73
     0
 74
     0
 77
     1
 78
     8
140
2.5
141
2.5
143
0.03937007874016
147
0.625
171
     3
172
     1
178
     0
271
     2
272
     2
274
     3
278
    44
283
     0
284
     8
340
11
  0
ENDTAB
  0
TABLE
  2
BLOCK_RECORD
  5
1
330
0
100
AcDbSymbolTable
 70
     1
  0
BLOCK_RECORD
  5
1F
330
1
100
AcDbSymbolTableRecord
100
AcDbBlockTableRecord
  2
*Model_Space
340
22
 70
     0
280
     1
281
     0
  0
BLOCK_RECORD
  5
1B
330
1
100
AcDbSymbolTableRecord
100
AcDbBlockTableRecord
  2
*Paper_Space
340
1E
 70
     0
280
     1
281
     0
  0
BLOCK_RECORD
  5
23
330
1
100
AcDbSymbolTableRecord
100
AcDbBlockTableRecord
  2
*Paper_Space0
340
26
 70
     0
280
     1
281
     0
  0
ENDTAB
  0
ENDSEC
  0
SECTION
  2
BLOCKS
  0
BLOCK
  5
20
330
1F
100
AcDbEntity
  8
0
100
AcDbBlockBegin
  2
*Model_Space
 70
     0
 10
0.0
 20
0.0
 30
0.0
  3
*Model_Space
  1

  0
ENDBLK
  5
21
330
1F
100
AcDbEntity
  8
0
100
AcDbBlockEnd
  0
BLOCK
  5
1C
330
1B
100
AcDbEntity
 67
     1
  8
0
100
AcDbBlockBegin
  2
*Paper_Space
 70
     0
 10
0.0
 20
0.0
 30
0.0
  3
*Paper_Space
  1

  0
ENDBLK
  5
1D
330
1B
100
AcDbEntity
 67
     1
  8
0
100
AcDbBlockEnd
  0
BLOCK
  5
24
330
23
100
AcDbEntity
  8
0
100
AcDbBlockBegin
  2
*Paper_Space0
 70
     0
 10
0.0
 20
0.0
 30
0.0
  3
*Paper_Space0
  1

  0
ENDBLK
  5
25
330
23
100
AcDbEntity
  8
0
100
AcDbBlockEnd
  0
ENDSEC
  0
SECTION
  2
ENTITIES
  0
LWPOLYLINE
  5
62
330
1F
100
AcDbEntity
  8
外枠
  6
Continuous
 62
   250
420
  2367521
370
   100
100
AcDbPolyline
 90
        5
 70
     0
 43
0.0
 10
281.9999662644599
 20
13.29407825637392
 10
20.99981607051935
 20
13.29407825637392
 10
20.99981607051935
 20
193.0018900389566
 10
281.9999662644599
 20
193.0018900389566
 10
281.9999662644599
 20
13.29407825637392
  0
LINE
  5
63
330
1F
100
AcDbEntity
  8
外枠
  6
Continuous
 62
   250
420
  2367521
370
    25
100
AcDbLine
 10
223.3097080177524
 20
174.0786160074276
 30
0.0
 11
281.9999232007669
 21
174.0786160074276
 31
0.0
  0
LINE
  5
64
330
1F
100
AcDbEntity
  8
外枠
  6
Continuous
 62
   250
420
  2367521
370
    25
100
AcDbLine
 10
223.3097080177524
 20
50.37109023844297
 30
0.0
 11
281.9999232007669
 21
50.37109023844297
 31
0.0
  0
LINE
  5
65
330
1F
100
AcDbEntity
  8
外枠
  6
Continuous
 62
   250
420
  2367521
370
    25
100
AcDbLine
 10
223.3097080177524
 20
36.25997933925949
 30
0.0
 11
281.9999232007669
 21
36.25997933925949
 31
0.0
  0
LINE
  5
66
330
1F
100
AcDbEntity
  8
外枠
  6
Continuous
 62
   250
420
  2367521
370
    50
100
AcDbLine
 10
223.0158413772006
 20
193.3637327187979
 30
0.0
 11
223.0158413772006
 21
13.29396655992039
 31
0.0
  0
TEXT
  5
67
330
1F
100
AcDbEntity
  8
外枠
  6
Continuous
 62
   250
420
  2367521
100
AcDbText
 10
224.7190965599536
 20
186.6888051931772
 30
0.0
 40
2.688166626294454
  1
品名：
 41
0.974166170756022
  7
MS Gothic
100
AcDbText
  0
TEXT
  5
68
330
1F
100
AcDbEntity
  8
外枠
  6
Continuous
 62
   250
420
  2367521
100
AcDbText
 10
224.7190965599536
 20
168.1080059455944
 30
0.0
 40
2.688166626294454
  1
仕様：
 41
0.9978878657023111
  7
MS Gothic
100
AcDbText
  0
TEXT
  5
69
330
1F
100
AcDbEntity
  8
外枠
  6
Continuous
 62
   250
420
  2367521
100
AcDbText
 10
224.7190965599536
 20
44.16660664327048
 30
0.0
 40
2.688166626294454
  1
縮尺：
 41
0.9939999262491861
  7
MS Gothic
100
AcDbText
  0
TEXT
  5
6A
330
1F
100
AcDbEntity
  8
外枠
  6
Continuous
 62
   250
420
  2367521
100
AcDbText
 10
250.2379519709696
 20
40.59738467878129
 30
0.0
 40
2.150533301035563
  1
1/1
 41
1.000003814697266
  7
MS Gothic
100
AcDbText
  0
TEXT
  5
6B
330
1F
100
AcDbEntity
  8
外枠
  6
Continuous
 62
   250
420
  2367521
100
AcDbText
 10
232.7757967427735
 20
181.9845273775436
 30
0.0
 40
2.688166626294454
  1
フレックス
 41
0.999647979736328
  7
MS Gothic
100
AcDbText
  0
TEXT
  5
6C
330
1F
100
AcDbEntity
  8
外枠
  6
Continuous
 62
   250
420
  2367521
100
AcDbText
 10
232.7757967427735
 20
176.6928607903498
 30
0.0
 40
2.688166626294454
  1
フロアーエッジFEA-2-F(U)
 41
1.016458320617676
  7
MS Gothic
100
AcDbText
  0
TEXT
  5
6D
330
1F
100
AcDbEntity
  8
外枠
  6
Continuous
 62
   250
420
  2367521
100
AcDbText
 10
226.1633020978884
 20
24.25683874973963
 30
0.0
 40
2.553758294979732
  1
ヤスダインテリアサプライ株式会社
 41
1.0194908945184
  7
MS Gothic
100
AcDbText
  0
TEXT
  5
6E
330
1F
100
AcDbEntity
  8
外枠
  6
Continuous
 62
   250
420
  2367521
100
AcDbText
 10
227.7635273953072
 20
161.7763665048245
 30
0.0
 40
2.150533301035563
  1
材質
 41
1.028502464294433
  7
MS Gothic
100
AcDbText
  0
TEXT
  5
6F
330
1F
100
AcDbEntity
  8
外枠
  6
Continuous
 62
   250
420
  2367521
100
AcDbText
 10
233.5984640006548
 20
156.9052368606422
 30
0.0
 40
2.016124969720841
  1
アルミ押出形材（A6063S-T5）
 41
1.033106825086805
  7
MS Gothic
100
AcDbText
  0
TEXT
  5
70
330
1F
100
AcDbEntity
  8
外枠
  6
Continuous
 62
   250
420
  2367521
100
AcDbText
 10
233.5984640006548
 20
152.6719035908871
 30
0.0
 40
2.016124969720841
  1
アンバー仕上（アルマイト）
 41
1.001955316005609
  7
MS Gothic
100
AcDbText
  0
HATCH
  5
71
330
1F
100
AcDbEntity
  8
ISS138金台
  6
Continuous
 62
     7
420
 16777215
370
    50
100
AcDbHatch
 10
0.0
 20
0.0
 30
0.0
210
0.0
220
0.0
230
1.0
  2
SOLID
 70
     1
 71
     0
 91
        1
 92
        3
 72
     0
 73
     1
 93
      109
 10
114.6115963995019
 20
106.4937673045683
 10
114.5988495463947
 20
106.340471323662
 10
114.6015840908957
 20
106.1891455067073
 10
114.6191863753807
 20
106.0407695527182
 10
114.6510535081486
 20
105.896280097016
 10
114.6965502997288
 20
105.7565922430755
 10
114.7550846243434
 20
105.6226749239876
 10
114.8260105265985
 20
105.4954540091502
 10
114.9087251147931
 20
105.3758984316543
 10
115.002614731303
 20
105.2649340608979
 10
115.1070549525806
 20
105.1634975322021
 10
115.2214213550784
 20
105.0725254808882
 10
115.3451218130188
 20
104.9929868400472
 10
115.4775103710078
 20
104.9257967131537
 10
115.6179949032675
 20
104.8719240332988
 10
115.7659509862505
 20
104.8322946698803
 10
115.9207541964093
 20
104.8078452582195
 10
130.452026781584
 20
104.8276007273509
 10
130.4361470448162
 20
104.8276007273509
 10
130.4320129302949
 20
104.9093679143011
 10
130.4199012666585
 20
104.9887881299866
 10
130.4001996271432
 20
105.0654415034013
 10
130.3732955849854
 20
105.1389512272322
 10
130.3396197771144
 20
105.2088758986267
 10
130.2995597767666
 20
105.2748494761949
 10
130.2535246890249
 20
105.3364520889308
 10
130.2019128530487
 20
105.3932853976746
 10
130.1451118420745
 20
105.4449295314205
 10
130.0835415271083
 20
105.490996916932
 10
130.0176002473098
 20
105.5310892150495
 10
129.9476971077618
 20
105.5647973206902
 10
129.8742196817006
 20
105.5917121287712
 10
129.7975770742091
 20
105.611435300133
 10
129.7181676244468
 20
105.6235684956159
 10
129.6364004374967
 20
105.6277026101371
 10
123.1318880026326
 20
105.781859864902
 10
122.9114018948328
 20
105.5553771378618
 10
122.6909157870331
 20
105.7970290507365
 10
116.4411035640013
 20
106.005877195522
 10
116.3853468475807
 20
106.039832917397
 10
116.3319909320409
 20
106.0771476073205
 10
116.2811650084607
 20
106.1176813082905
 10
116.2330628634582
 20
106.161294063305
 10
116.1878567518054
 20
106.2078566812852
 10
116.1457081623505
 20
106.2572184393058
 10
116.1067678180189
 20
106.3092178485183
 10
116.0712079735822
 20
106.363725717844
 10
116.0392224156587
 20
106.4205913243576
 10
116.0109511012504
 20
106.4796747110571
 10
115.986566285129
 20
106.5408359209404
 10
115.9662402220662
 20
106.6039134651591
 10
115.9501451668338
 20
106.6687889185576
 10
115.9384426082801
 20
106.7352900263642
 10
115.9312940352538
 20
106.8032983634233
 10
115.9288717025265
 20
106.8726524408865
 10
116.4291103255204
 20
109.3255173264657
 10
110.4318881933674
 20
109.3255173264657
 10
110.4318881933674
 20
104.8276007273509
 10
111.1487264258742
 20
104.8223038931206
 10
111.1996492427635
 20
104.8248984806196
 10
111.2486987890103
 20
104.8325207542681
 10
111.2956705120733
 20
104.8449015659854
 10
111.3403921571808
 20
104.8617932995371
 10
111.382648405868
 20
104.8829483386887
 10
111.4222670033632
 20
104.9080975353597
 10
111.4590218652787
 20
104.9370148051619
 10
111.4927299709194
 20
104.9694094681682
 10
111.5232082995903
 20
105.0050554399907
 10
111.5502630646733
 20
105.0436835725486
 10
111.5736789477038
 20
105.0850462496075
 10
111.5932836939101
 20
105.1288850890099
 10
111.6088619848273
 20
105.1749524745214
 10
111.6202307997608
 20
105.2229900239844
 10
111.6271963520921
 20
105.2727393552414
 10
111.6295648552033
 20
105.3239528520579
 10
111.6295648552033
 20
107.1097180704641
 10
111.6347970938942
 20
107.2121450640973
 10
111.6501815981933
 20
107.3118052154597
 10
111.675180071939
 20
107.40812793062
 10
111.7092434530463
 20
107.5006287430329
 10
111.7518872749699
 20
107.5887585906134
 10
111.8025732415481
 20
107.6719899431232
 10
111.8607845884657
 20
107.749806036247
 10
111.9259830195612
 20
107.8216578079001
 10
111.9976625364426
 20
107.8870500256138
 10
112.0752956088715
 20
107.9454228613799
 10
112.1583547066095
 20
107.9962595508833
 10
112.2463122994183
 20
108.0390540957321
 10
112.3386516229827
 20
108.0732466679183
 10
112.4348559129875
 20
108.0983205031266
 10
112.5343976391944
 20
108.1137480711186
 10
112.6367492713649
 20
108.1190126075793
 10
113.7504624979111
 20
108.1225438303995
 10
113.8524911523847
 20
108.1172469961691
 10
113.9513438595047
 20
108.1017117689448
 10
114.0465684504953
 20
108.0764549130415
 10
114.1376804588112
 20
108.0420254905443
 10
114.2242061838301
 20
107.9989833294611
 10
114.3056826908529
 20
107.947834428184
 10
114.3816470451808
 20
107.8891386147209
 10
114.451604014345
 20
107.8234341852335
 10
114.515112195493
 20
107.7512379040369
 10
114.5716655902328
 20
107.6731095991393
 10
114.6208120297888
 20
107.5895768007791
 10
114.6620885794619
 20
107.501188571041
 10
114.6950107727066
 20
107.4084616742402
 10
114.7191049089007
 20
107.3119559383849
 10
114.7339080533453
 20
107.2121881277902
 10
114.738946505418
 20
107.1097180704641
 97
        0
 75
     1
 76
     1
 98
        0
  0
LWPOLYLINE
  5
72
330
1F
100
AcDbEntity
  8
ISS138金台
  6
Continuous
 62
     7
420
 16777215
370
    50
100
AcDbPolyline
 90
      110
 70
     0
 43
0.0
 10
114.6115963995019
 20
106.4937673045683
 10
114.5988495463947
 20
106.340471323662
 10
114.6015840908957
 20
106.1891455067073
 10
114.6191863753807
 20
106.0407695527182
 10
114.6510535081486
 20
105.896280097016
 10
114.6965502997288
 20
105.7565922430755
 10
114.7550846243434
 20
105.6226749239876
 10
114.8260105265985
 20
105.4954540091502
 10
114.9087251147931
 20
105.3758984316543
 10
115.002614731303
 20
105.2649340608979
 10
115.1070549525806
 20
105.1634975322021
 10
115.2214213550784
 20
105.0725254808882
 10
115.3451218130188
 20
104.9929868400472
 10
115.4775103710078
 20
104.9257967131537
 10
115.6179949032675
 20
104.8719240332988
 10
115.7659509862505
 20
104.8322946698803
 10
115.9207541964093
 20
104.8078452582195
 10
130.452026781584
 20
104.8276007273509
 10
130.4361470448162
 20
104.8276007273509
 10
130.4320129302949
 20
104.9093679143011
 10
130.4199012666585
 20
104.9887881299866
 10
130.4001996271432
 20
105.0654415034013
 10
130.3732955849854
 20
105.1389512272322
 10
130.3396197771144
 20
105.2088758986267
 10
130.2995597767666
 20
105.2748494761949
 10
130.2535246890249
 20
105.3364520889308
 10
130.2019128530487
 20
105.3932853976746
 10
130.1451118420745
 20
105.4449295314205
 10
130.0835415271083
 20
105.490996916932
 10
130.0176002473098
 20
105.5310892150495
 10
129.9476971077618
 20
105.5647973206902
 10
129.8742196817006
 20
105.5917121287712
 10
129.7975770742091
 20
105.611435300133
 10
129.7181676244468
 20
105.6235684956159
 10
129.6364004374967
 20
105.6277026101371
 10
123.1318880026326
 20
105.781859864902
 10
122.9114018948328
 20
105.5553771378618
 10
122.6909157870331
 20
105.7970290507365
 10
116.4411035640013
 20
106.005877195522
 10
116.3853468475807
 20
106.039832917397
 10
116.3319909320409
 20
106.0771476073205
 10
116.2811650084607
 20
106.1176813082905
 10
116.2330628634582
 20
106.161294063305
 10
116.1878567518054
 20
106.2078566812852
 10
116.1457081623505
 20
106.2572184393058
 10
116.1067678180189
 20
106.3092178485183
 10
116.0712079735822
 20
106.363725717844
 10
116.0392224156587
 20
106.4205913243576
 10
116.0109511012504
 20
106.4796747110571
 10
115.986566285129
 20
106.5408359209404
 10
115.9662402220662
 20
106.6039134651591
 10
115.9501451668338
 20
106.6687889185576
 10
115.9384426082801
 20
106.7352900263642
 10
115.9312940352538
 20
106.8032983634233
 10
115.9288717025265
 20
106.8726524408865
 10
116.4291103255204
 20
109.3255173264657
 10
110.4318881933674
 20
109.3255173264657
 10
110.4318881933674
 20
104.8276007273509
 10
111.1487264258742
 20
104.8223038931206
 10
111.1996492427635
 20
104.8248984806196
 10
111.2486987890103
 20
104.8325207542681
 10
111.2956705120733
 20
104.8449015659854
 10
111.3403921571808
 20
104.8617932995371
 10
111.382648405868
 20
104.8829483386887
 10
111.4222670033632
 20
104.9080975353597
 10
111.4590218652787
 20
104.9370148051619
 10
111.4927299709194
 20
104.9694094681682
 10
111.5232082995903
 20
105.0050554399907
 10
111.5502630646733
 20
105.0436835725486
 10
111.5736789477038
 20
105.0850462496075
 10
111.5932836939101
 20
105.1288850890099
 10
111.6088619848273
 20
105.1749524745214
 10
111.6202307997608
 20
105.2229900239844
 10
111.6271963520921
 20
105.2727393552414
 10
111.6295648552033
 20
105.3239528520579
 10
111.6295648552033
 20
107.1097180704641
 10
111.6347970938942
 20
107.2121450640973
 10
111.6501815981933
 20
107.3118052154597
 10
111.675180071939
 20
107.40812793062
 10
111.7092434530463
 20
107.5006287430329
 10
111.7518872749699
 20
107.5887585906134
 10
111.8025732415481
 20
107.6719899431232
 10
111.8607845884657
 20
107.749806036247
 10
111.9259830195612
 20
107.8216578079001
 10
111.9976625364426
 20
107.8870500256138
 10
112.0752956088715
 20
107.9454228613799
 10
112.1583547066095
 20
107.9962595508833
 10
112.2463122994183
 20
108.0390540957321
 10
112.3386516229827
 20
108.0732466679183
 10
112.4348559129875
 20
108.0983205031266
 10
112.5343976391944
 20
108.1137480711186
 10
112.6367492713649
 20
108.1190126075793
 10
113.7504624979111
 20
108.1225438303995
 10
113.8524911523847
 20
108.1172469961691
 10
113.9513438595047
 20
108.1017117689448
 10
114.0465684504953
 20
108.0764549130415
 10
114.1376804588112
 20
108.0420254905443
 10
114.2242061838301
 20
107.9989833294611
 10
114.3056826908529
 20
107.947834428184
 10
114.3816470451808
 20
107.8891386147209
 10
114.451604014345
 20
107.8234341852335
 10
114.515112195493
 20
107.7512379040369
 10
114.5716655902328
 20
107.6731095991393
 10
114.6208120297888
 20
107.5895768007791
 10
114.6620885794619
 20
107.501188571041
 10
114.6950107727066
 20
107.4084616742402
 10
114.7191049089007
 20
107.3119559383849
 10
114.7339080533453
 20
107.2121881277902
 10
114.738946505418
 20
107.1097180704641
 10
114.6115963995019
 20
106.4937673045683
  0
LWPOLYLINE
  5
73
330
1F
100
AcDbEntity
  8
ISS138金台
  6
Continuous
 62
   250
420
  2367521
370
    25
100
AcDbPolyline
 90
      110
 70
     0
 43
0.0
 10
114.6115963995019
 20
106.4937673045683
 10
114.5988495463947
 20
106.340471323662
 10
114.6015840908957
 20
106.1891455067073
 10
114.6191863753807
 20
106.0407695527182
 10
114.6510535081486
 20
105.896280097016
 10
114.6965502997288
 20
105.7565922430755
 10
114.7550846243434
 20
105.6226749239876
 10
114.8260105265985
 20
105.4954540091502
 10
114.9087251147931
 20
105.3758984316543
 10
115.002614731303
 20
105.2649340608979
 10
115.1070549525806
 20
105.1634975322021
 10
115.2214213550784
 20
105.0725254808882
 10
115.3451218130188
 20
104.9929868400472
 10
115.4775103710078
 20
104.9257967131537
 10
115.6179949032675
 20
104.8719240332988
 10
115.7659509862505
 20
104.8322946698803
 10
115.9207541964093
 20
104.8078452582195
 10
130.452026781584
 20
104.8276007273509
 10
130.4361470448162
 20
104.8276007273509
 10
130.4320129302949
 20
104.9093679143011
 10
130.4199012666585
 20
104.9887881299866
 10
130.4001996271432
 20
105.0654415034013
 10
130.3732955849854
 20
105.1389512272322
 10
130.3396197771144
 20
105.2088758986267
 10
130.2995597767666
 20
105.2748494761949
 10
130.2535246890249
 20
105.3364520889308
 10
130.2019128530487
 20
105.3932853976746
 10
130.1451118420745
 20
105.4449295314205
 10
130.0835415271083
 20
105.490996916932
 10
130.0176002473098
 20
105.5310892150495
 10
129.9476971077618
 20
105.5647973206902
 10
129.8742196817006
 20
105.5917121287712
 10
129.7975770742091
 20
105.611435300133
 10
129.7181676244468
 20
105.6235684956159
 10
129.6364004374967
 20
105.6277026101371
 10
123.1318880026326
 20
105.781859864902
 10
122.9114018948328
 20
105.5553771378618
 10
122.6909157870331
 20
105.7970290507365
 10
116.4411035640013
 20
106.005877195522
 10
116.3853468475807
 20
106.039832917397
 10
116.3319909320409
 20
106.0771476073205
 10
116.2811650084607
 20
106.1176813082905
 10
116.2330628634582
 20
106.161294063305
 10
116.1878567518054
 20
106.2078566812852
 10
116.1457081623505
 20
106.2572184393058
 10
116.1067678180189
 20
106.3092178485183
 10
116.0712079735822
 20
106.363725717844
 10
116.0392224156587
 20
106.4205913243576
 10
116.0109511012504
 20
106.4796747110571
 10
115.986566285129
 20
106.5408359209404
 10
115.9662402220662
 20
106.6039134651591
 10
115.9501451668338
 20
106.6687889185576
 10
115.9384426082801
 20
106.7352900263642
 10
115.9312940352538
 20
106.8032983634233
 10
115.9288717025265
 20
106.8726524408865
 10
116.4291103255204
 20
109.3255173264657
 10
110.4318881933674
 20
109.3255173264657
 10
110.4318881933674
 20
104.8276007273509
 10
111.1487264258742
 20
104.8223038931206
 10
111.1996492427635
 20
104.8248984806196
 10
111.2486987890103
 20
104.8325207542681
 10
111.2956705120733
 20
104.8449015659854
 10
111.3403921571808
 20
104.8617932995371
 10
111.382648405868
 20
104.8829483386887
 10
111.4222670033632
 20
104.9080975353597
 10
111.4590218652787
 20
104.9370148051619
 10
111.4927299709194
 20
104.9694094681682
 10
111.5232082995903
 20
105.0050554399907
 10
111.5502630646733
 20
105.0436835725486
 10
111.5736789477038
 20
105.0850462496075
 10
111.5932836939101
 20
105.1288850890099
 10
111.6088619848273
 20
105.1749524745214
 10
111.6202307997608
 20
105.2229900239844
 10
111.6271963520921
 20
105.2727393552414
 10
111.6295648552033
 20
105.3239528520579
 10
111.6295648552033
 20
107.1097180704641
 10
111.6347970938942
 20
107.2121450640973
 10
111.6501815981933
 20
107.3118052154597
 10
111.675180071939
 20
107.40812793062
 10
111.7092434530463
 20
107.5006287430329
 10
111.7518872749699
 20
107.5887585906134
 10
111.8025732415481
 20
107.6719899431232
 10
111.8607845884657
 20
107.749806036247
 10
111.9259830195612
 20
107.8216578079001
 10
111.9976625364426
 20
107.8870500256138
 10
112.0752956088715
 20
107.9454228613799
 10
112.1583547066095
 20
107.9962595508833
 10
112.2463122994183
 20
108.0390540957321
 10
112.3386516229827
 20
108.0732466679183
 10
112.4348559129875
 20
108.0983205031266
 10
112.5343976391944
 20
108.1137480711186
 10
112.6367492713649
 20
108.1190126075793
 10
113.7504624979111
 20
108.1225438303995
 10
113.8524911523847
 20
108.1172469961691
 10
113.9513438595047
 20
108.1017117689448
 10
114.0465684504953
 20
108.0764549130415
 10
114.1376804588112
 20
108.0420254905443
 10
114.2242061838301
 20
107.9989833294611
 10
114.3056826908529
 20
107.947834428184
 10
114.3816470451808
 20
107.8891386147209
 10
114.451604014345
 20
107.8234341852335
 10
114.515112195493
 20
107.7512379040369
 10
114.5716655902328
 20
107.6731095991393
 10
114.6208120297888
 20
107.5895768007791
 10
114.6620885794619
 20
107.501188571041
 10
114.6950107727066
 20
107.4084616742402
 10
114.7191049089007
 20
107.3119559383849
 10
114.7339080533453
 20
107.2121881277902
 10
114.738946505418
 20
107.1097180704641
 10
114.6115963995019
 20
106.4937673045683
  0
LINE
  5
74
330
1F
100
AcDbEntity
  8
ISS138金台
  6
Continuous
 62
   250
420
  2367521
370
    13
100
AcDbLine
 10
130.4115038465372
 20
103.8651379562968
 30
0.0
 11
130.4115038465372
 21
93.8328477966368
 31
0.0
  0
LINE
  5
75
330
1F
100
AcDbEntity
  8
ISS138金台
  6
Continuous
 62
   250
420
  2367521
370
    13
100
AcDbLine
 10
110.4575003247373
 20
94.31808948856795
 30
0.0
 11
130.4116653353857
 21
94.31808948856795
 31
0.0
  0
LINE
  5
76
330
1F
100
AcDbEntity
  8
ISS138金台
  6
Continuous
 62
   250
420
  2367521
370
    13
100
AcDbLine
 10
110.4575003247373
 20
93.83302005140851
 30
0.0
 11
110.4575003247373
 21
103.8653102110685
 31
0.0
  0
LINE
  5
77
330
1F
100
AcDbEntity
  8
ISS138金台
  6
Continuous
 62
   250
420
  2367521
370
    13
100
AcDbLine
 10
109.4432749947818
 20
104.8352875965389
 30
0.0
 11
104.4602889585076
 21
104.8352875965389
 31
0.0
  0
LINE
  5
78
330
1F
100
AcDbEntity
  8
ISS138金台
  6
Continuous
 62
   250
420
  2367521
370
    13
100
AcDbLine
 10
104.967407006447
 20
104.8352875965389
 30
0.0
 11
104.967407006447
 21
109.3113278396453
 31
0.0
  0
LINE
  5
79
330
1F
100
AcDbEntity
  8
ISS138金台
  6
Continuous
 62
   250
420
  2367521
370
    13
100
AcDbLine
 10
104.4602781925844
 20
109.3111448189504
 30
0.0
 11
109.4432642288585
 21
109.3111448189504
 31
0.0
  0
LINE
  5
7A
330
1F
100
AcDbEntity
  8
ISS138金台
  6
Continuous
 62
   250
420
  2367521
370
    13
100
AcDbLine
 10
110.4575003247373
 20
110.3033430699725
 30
0.0
 11
110.4575003247373
 21
115.3085499717983
 31
0.0
  0
LINE
  5
7B
330
1F
100
AcDbEntity
  8
ISS138金台
  6
Continuous
 62
   250
420
  2367521
370
    13
100
AcDbLine
 10
116.4326846120336
 20
110.3033430699725
 30
0.0
 11
116.4326846120336
 21
115.3085499717983
 31
0.0
  0
LINE
  5
7C
330
1F
100
AcDbEntity
  8
ISS138金台
  6
Continuous
 62
   250
420
  2367521
370
    13
100
AcDbLine
 10
116.4326846120336
 20
114.801248903164
 30
0.0
 11
110.4573388358888
 21
114.801248903164
 31
0.0
  0
HATCH
  5
7D
330
1F
100
AcDbEntity
  8
ISS138金台
  6
Continuous
 62
   250
420
  2367521
370
    13
100
AcDbHatch
 10
0.0
 20
0.0
 30
0.0
210
0.0
220
0.0
230
1.0
  2
SOLID
 70
     1
 71
     0
 91
        1
 92
        3
 72
     0
 73
     1
 93
       67
 10
116.4326846120336
 20
114.5511457405519
 10
116.4582321478641
 20
114.5524376513398
 10
116.4830368349916
 20
114.5562380222408
 10
116.5069802482604
 20
114.562406896253
 10
116.5299547284384
 20
114.570836614144
 10
116.5518095526002
 20
114.5813764529885
 10
116.5724478274367
 20
114.593907987631
 10
116.5916972981763
 20
114.6083235588392
 10
116.609471837433
 20
114.6244832096111
 10
116.6256314882048
 20
114.6422469829445
 10
116.6400362934898
 20
114.6615072196073
 10
116.6525785940555
 20
114.6821347285206
 10
116.6631291988233
 20
114.7039895526824
 10
116.6715481507911
 20
114.7269640328604
 10
116.6777170248032
 20
114.7509182120525
 10
116.6815173957042
 20
114.7757336651032
 10
116.6828093064921
 20
114.8012704350104
 10
116.6828093064921
 20
114.8012704350104
 10
116.681506629781
 20
114.8268072049177
 10
116.6777277907265
 20
114.8516226579684
 10
116.6715481507911
 20
114.8755660712373
 10
116.6631184329001
 20
114.8985513173385
 10
116.6525785940555
 20
114.9203953755771
 10
116.6400362934898
 20
114.9410121185671
 10
116.6256314882048
 20
114.9602831211531
 10
116.609471837433
 20
114.9780468944866
 10
116.5917080640995
 20
114.9942065452585
 10
116.5724370615135
 20
115.0086113505434
 10
116.5518203185234
 20
115.0211536511092
 10
116.5299547284384
 20
115.0317042558769
 10
116.5069910141837
 20
115.0401232078447
 10
116.4830368349916
 20
115.0462920818568
 10
116.4582213819409
 20
115.0500924527579
 10
116.4326846120336
 20
115.0513843635458
 10
116.4326846120336
 20
115.0513843635458
 10
116.4071478421263
 20
115.0500924527579
 10
116.3823431549988
 20
115.0462920818568
 10
116.3583889758067
 20
115.0401232078447
 10
116.3354144956288
 20
115.0317042558769
 10
116.3135489055437
 20
115.0211536511092
 10
116.2929213966304
 20
115.0086113505434
 10
116.2736611599677
 20
114.9942065452585
 10
116.2558973866342
 20
114.9780468944866
 10
116.2397485017856
 20
114.9602831211531
 10
116.2253329305774
 20
114.9410228844903
 10
116.2127906300116
 20
114.9204061415003
 10
116.2022400252439
 20
114.8985405514153
 10
116.1938210732761
 20
114.8755768371605
 10
116.1876521992639
 20
114.8516226579684
 10
116.1838518283629
 20
114.8268072049177
 10
116.182559917575
 20
114.8012704350104
 10
116.182559917575
 20
114.8012704350104
 10
116.1838625942861
 20
114.7757228991799
 10
116.1876521992639
 20
114.7509182120525
 10
116.1938318391993
 20
114.7269640328604
 10
116.2022507911671
 20
114.7039787867592
 10
116.2127906300116
 20
114.6821347285206
 10
116.2253329305774
 20
114.6615072196073
 10
116.2397485017856
 20
114.6422469829445
 10
116.2558973866342
 20
114.6244832096111
 10
116.2736719258909
 20
114.6083235588392
 10
116.2929321625537
 20
114.5939187535542
 10
116.3135489055437
 20
114.5813656870653
 10
116.3354144956288
 20
114.5708258482207
 10
116.3583782098835
 20
114.562406896253
 10
116.3823323890756
 20
114.5562380222408
 10
116.4071478421263
 20
114.5524376513398
 97
        0
 75
     1
 76
     1
 98
        0
  0
LWPOLYLINE
  5
7E
330
1F
100
AcDbEntity
  8
ISS138金台
  6
Continuous
 62
   250
420
  2367521
370
    13
100
AcDbPolyline
 90
       68
 70
     0
 43
0.0
 10
116.4326846120336
 20
114.5511457405519
 10
116.4582321478641
 20
114.5524376513398
 10
116.4830368349916
 20
114.5562380222408
 10
116.5069802482604
 20
114.562406896253
 10
116.5299547284384
 20
114.570836614144
 10
116.5518095526002
 20
114.5813764529885
 10
116.5724478274367
 20
114.593907987631
 10
116.5916972981763
 20
114.6083235588392
 10
116.609471837433
 20
114.6244832096111
 10
116.6256314882048
 20
114.6422469829445
 10
116.6400362934898
 20
114.6615072196073
 10
116.6525785940555
 20
114.6821347285206
 10
116.6631291988233
 20
114.7039895526824
 10
116.6715481507911
 20
114.7269640328604
 10
116.6777170248032
 20
114.7509182120525
 10
116.6815173957042
 20
114.7757336651032
 10
116.6828093064921
 20
114.8012704350104
 10
116.6828093064921
 20
114.8012704350104
 10
116.681506629781
 20
114.8268072049177
 10
116.6777277907265
 20
114.8516226579684
 10
116.6715481507911
 20
114.8755660712373
 10
116.6631184329001
 20
114.8985513173385
 10
116.6525785940555
 20
114.9203953755771
 10
116.6400362934898
 20
114.9410121185671
 10
116.6256314882048
 20
114.9602831211531
 10
116.609471837433
 20
114.9780468944866
 10
116.5917080640995
 20
114.9942065452585
 10
116.5724370615135
 20
115.0086113505434
 10
116.5518203185234
 20
115.0211536511092
 10
116.5299547284384
 20
115.0317042558769
 10
116.5069910141837
 20
115.0401232078447
 10
116.4830368349916
 20
115.0462920818568
 10
116.4582213819409
 20
115.0500924527579
 10
116.4326846120336
 20
115.0513843635458
 10
116.4326846120336
 20
115.0513843635458
 10
116.4071478421263
 20
115.0500924527579
 10
116.3823431549988
 20
115.0462920818568
 10
116.3583889758067
 20
115.0401232078447
 10
116.3354144956288
 20
115.0317042558769
 10
116.3135489055437
 20
115.0211536511092
 10
116.2929213966304
 20
115.0086113505434
 10
116.2736611599677
 20
114.9942065452585
 10
116.2558973866342
 20
114.9780468944866
 10
116.2397485017856
 20
114.9602831211531
 10
116.2253329305774
 20
114.9410228844903
 10
116.2127906300116
 20
114.9204061415003
 10
116.2022400252439
 20
114.8985405514153
 10
116.1938210732761
 20
114.8755768371605
 10
116.1876521992639
 20
114.8516226579684
 10
116.1838518283629
 20
114.8268072049177
 10
116.182559917575
 20
114.8012704350104
 10
116.182559917575
 20
114.8012704350104
 10
116.1838625942861
 20
114.7757228991799
 10
116.1876521992639
 20
114.7509182120525
 10
116.1938318391993
 20
114.7269640328604
 10
116.2022507911671
 20
114.7039787867592
 10
116.2127906300116
 20
114.6821347285206
 10
116.2253329305774
 20
114.6615072196073
 10
116.2397485017856
 20
114.6422469829445
 10
116.2558973866342
 20
114.6244832096111
 10
116.2736719258909
 20
114.6083235588392
 10
116.2929321625537
 20
114.5939187535542
 10
116.3135489055437
 20
114.5813656870653
 10
116.3354144956288
 20
114.5708258482207
 10
116.3583782098835
 20
114.562406896253
 10
116.3823323890756
 20
114.5562380222408
 10
116.4071478421263
 20
114.5524376513398
 10
116.4326846120336
 20
114.5511457405519
  0
HATCH
  5
7F
330
1F
100
AcDbEntity
  8
ISS138金台
  6
Continuous
 62
   250
420
  2367521
370
    13
100
AcDbHatch
 10
0.0
 20
0.0
 30
0.0
210
0.0
220
0.0
230
1.0
  2
SOLID
 70
     1
 71
     0
 91
        1
 92
        3
 72
     0
 73
     1
 93
       67
 10
110.4575003247373
 20
114.5511457405519
 10
110.4830478605679
 20
114.5524376513398
 10
110.5078417817721
 20
114.5562380222408
 10
110.5317959609642
 20
114.562406896253
 10
110.5547704411422
 20
114.570836614144
 10
110.5766360312272
 20
114.5813764529885
 10
110.5972527742172
 20
114.593907987631
 10
110.6165237768033
 20
114.6083235588392
 10
110.6342875501367
 20
114.6244832096111
 10
110.6504364349854
 20
114.6422469829445
 10
110.6648520061935
 20
114.6615072196073
 10
110.6773943067593
 20
114.6821347285206
 10
110.6879449115271
 20
114.7039895526824
 10
110.6963638634948
 20
114.7269640328604
 10
110.702532737507
 20
114.7509182120525
 10
110.706333108408
 20
114.7757336651032
 10
110.7076250191959
 20
114.8012704350104
 10
110.7076250191959
 20
114.8012704350104
 10
110.706333108408
 20
114.8268072049177
 10
110.702532737507
 20
114.8516226579684
 10
110.6963530975716
 20
114.8755660712373
 10
110.6879449115271
 20
114.8985513173385
 10
110.6773943067593
 20
114.9203953755771
 10
110.6648520061935
 20
114.9410121185671
 10
110.6504472009086
 20
114.9602831211531
 10
110.6342875501367
 20
114.9780468944866
 10
110.61651301088
 20
114.9942065452585
 10
110.5972527742172
 20
115.0086113505434
 10
110.5766360312272
 20
115.0211536511092
 10
110.5547704411422
 20
115.0317042558769
 10
110.5318067268874
 20
115.0401232078447
 10
110.5078525476953
 20
115.0462920818568
 10
110.4830370946446
 20
115.0500924527579
 10
110.4575003247373
 20
115.0513843635458
 10
110.4575003247373
 20
115.0513843635458
 10
110.4319635548301
 20
115.0500924527579
 10
110.4071481017794
 20
115.0462920818568
 10
110.3831939225872
 20
115.0401232078447
 10
110.3602302083325
 20
115.0317042558769
 10
110.3383753841707
 20
115.0211536511092
 10
110.3177371093342
 20
115.0086113505434
 10
110.2984768726714
 20
114.9942065452585
 10
110.2807130993379
 20
114.9780468944866
 10
110.2645534485661
 20
114.9602831211531
 10
110.2501486432811
 20
114.9410228844903
 10
110.2376063427154
 20
114.9204061415003
 10
110.2270557379476
 20
114.8985405514153
 10
110.2186367859799
 20
114.8755768371605
 10
110.2124679119677
 20
114.8516226579684
 10
110.2086675410667
 20
114.8268072049177
 10
110.2073756302788
 20
114.8012704350104
 10
110.2073756302788
 20
114.8012704350104
 10
110.2086675410667
 20
114.7757228991799
 10
110.2124679119677
 20
114.7509182120525
 10
110.2186367859799
 20
114.7269640328604
 10
110.2270557379476
 20
114.7039787867592
 10
110.2376063427154
 20
114.6821347285206
 10
110.2501378773579
 20
114.6615072196073
 10
110.2645642144893
 20
114.6422469829445
 10
110.2807130993379
 20
114.6244832096111
 10
110.2984768726714
 20
114.6083235588392
 10
110.3177478752574
 20
114.5939187535542
 10
110.3383646182475
 20
114.5813656870653
 10
110.3602302083325
 20
114.5708258482207
 10
110.3832046885105
 20
114.562406896253
 10
110.4071481017794
 20
114.5562380222408
 10
110.4319635548301
 20
114.5524376513398
 97
        0
 75
     1
 76
     1
 98
        0
  0
LWPOLYLINE
  5
80
330
1F
100
AcDbEntity
  8
ISS138金台
  6
Continuous
 62
   250
420
  2367521
370
    13
100
AcDbPolyline
 90
       68
 70
     0
 43
0.0
 10
110.4575003247373
 20
114.5511457405519
 10
110.4830478605679
 20
114.5524376513398
 10
110.5078417817721
 20
114.5562380222408
 10
110.5317959609642
 20
114.562406896253
 10
110.5547704411422
 20
114.570836614144
 10
110.5766360312272
 20
114.5813764529885
 10
110.5972527742172
 20
114.593907987631
 10
110.6165237768033
 20
114.6083235588392
 10
110.6342875501367
 20
114.6244832096111
 10
110.6504364349854
 20
114.6422469829445
 10
110.6648520061935
 20
114.6615072196073
 10
110.6773943067593
 20
114.6821347285206
 10
110.6879449115271
 20
114.7039895526824
 10
110.6963638634948
 20
114.7269640328604
 10
110.702532737507
 20
114.7509182120525
 10
110.706333108408
 20
114.7757336651032
 10
110.7076250191959
 20
114.8012704350104
 10
110.7076250191959
 20
114.8012704350104
 10
110.706333108408
 20
114.8268072049177
 10
110.702532737507
 20
114.8516226579684
 10
110.6963530975716
 20
114.8755660712373
 10
110.6879449115271
 20
114.8985513173385
 10
110.6773943067593
 20
114.9203953755771
 10
110.6648520061935
 20
114.9410121185671
 10
110.6504472009086
 20
114.9602831211531
 10
110.6342875501367
 20
114.9780468944866
 10
110.61651301088
 20
114.9942065452585
 10
110.5972527742172
 20
115.0086113505434
 10
110.5766360312272
 20
115.0211536511092
 10
110.5547704411422
 20
115.0317042558769
 10
110.5318067268874
 20
115.0401232078447
 10
110.5078525476953
 20
115.0462920818568
 10
110.4830370946446
 20
115.0500924527579
 10
110.4575003247373
 20
115.0513843635458
 10
110.4575003247373
 20
115.0513843635458
 10
110.4319635548301
 20
115.0500924527579
 10
110.4071481017794
 20
115.0462920818568
 10
110.3831939225872
 20
115.0401232078447
 10
110.3602302083325
 20
115.0317042558769
 10
110.3383753841707
 20
115.0211536511092
 10
110.3177371093342
 20
115.0086113505434
 10
110.2984768726714
 20
114.9942065452585
 10
110.2807130993379
 20
114.9780468944866
 10
110.2645534485661
 20
114.9602831211531
 10
110.2501486432811
 20
114.9410228844903
 10
110.2376063427154
 20
114.9204061415003
 10
110.2270557379476
 20
114.8985405514153
 10
110.2186367859799
 20
114.8755768371605
 10
110.2124679119677
 20
114.8516226579684
 10
110.2086675410667
 20
114.8268072049177
 10
110.2073756302788
 20
114.8012704350104
 10
110.2073756302788
 20
114.8012704350104
 10
110.2086675410667
 20
114.7757228991799
 10
110.2124679119677
 20
114.7509182120525
 10
110.2186367859799
 20
114.7269640328604
 10
110.2270557379476
 20
114.7039787867592
 10
110.2376063427154
 20
114.6821347285206
 10
110.2501378773579
 20
114.6615072196073
 10
110.2645642144893
 20
114.6422469829445
 10
110.2807130993379
 20
114.6244832096111
 10
110.2984768726714
 20
114.6083235588392
 10
110.3177478752574
 20
114.5939187535542
 10
110.3383646182475
 20
114.5813656870653
 10
110.3602302083325
 20
114.5708258482207
 10
110.3832046885105
 20
114.562406896253
 10
110.4071481017794
 20
114.5562380222408
 10
110.4319635548301
 20
114.5524376513398
 10
110.4575003247373
 20
114.5511457405519
  0
HATCH
  5
81
330
1F
100
AcDbEntity
  8
ISS138金台
  6
Continuous
 62
   250
420
  2367521
370
    13
100
AcDbHatch
 10
0.0
 20
0.0
 30
0.0
210
0.0
220
0.0
230
1.0
  2
SOLID
 70
     1
 71
     0
 91
        1
 92
        3
 72
     0
 73
     1
 93
       67
 10
104.967407006447
 20
109.0610416563383
 10
104.9929545422775
 20
109.0623335671262
 10
105.017759229405
 20
109.0661339380272
 10
105.0417026426739
 20
109.0722920461162
 10
105.0646771228518
 20
109.0807325299304
 10
105.0865319470136
 20
109.0912616028517
 10
105.1071702218501
 20
109.1038039034174
 10
105.1264196925897
 20
109.1182302405489
 10
105.1441942318464
 20
109.1343791253975
 10
105.160343116695
 20
109.152142898731
 10
105.1747586879032
 20
109.1714031353937
 10
105.187300988469
 20
109.192030644307
 10
105.1978515932367
 20
109.2138854684688
 10
105.2062705452045
 20
109.2368599486468
 10
105.2124394192166
 20
109.2608141278389
 10
105.2162397901177
 20
109.2856295808896
 10
105.2175317009056
 20
109.3111663507969
 10
105.2175317009056
 20
109.3111663507969
 10
105.2162290241944
 20
109.3367031207041
 10
105.2124501851399
 20
109.3615185737548
 10
105.2062705452045
 20
109.3854619870237
 10
105.1978408273135
 20
109.4084472331249
 10
105.187300988469
 20
109.4302912913635
 10
105.1747586879032
 20
109.4509080343535
 10
105.1603538826182
 20
109.4701790369396
 10
105.1441942318464
 20
109.487942810273
 10
105.1264196925897
 20
109.5041024610449
 10
105.1071594559269
 20
109.5185072663298
 10
105.0865427129368
 20
109.5310495668956
 10
105.0646771228518
 20
109.5416001716633
 10
105.0417134085971
 20
109.5500191236311
 10
105.017759229405
 20
109.5561879976433
 10
104.9929437763543
 20
109.5599883685443
 10
104.967407006447
 20
109.5612802793322
 10
104.967407006447
 20
109.5612802793322
 10
104.9418702365397
 20
109.5599883685443
 10
104.9170655494123
 20
109.5561879976433
 10
104.8931113702201
 20
109.5500083577079
 10
104.8701368900422
 20
109.5416001716633
 10
104.8482712999572
 20
109.5310495668956
 10
104.8276437910439
 20
109.5185072663298
 10
104.8083835543811
 20
109.5041024610449
 10
104.7906197810476
 20
109.487942810273
 10
104.7744601302758
 20
109.4701790369396
 10
104.7600553249908
 20
109.4509188002768
 10
104.747513024425
 20
109.4303020572867
 10
104.7369624196573
 20
109.4084364672017
 10
104.7285434676895
 20
109.385472752947
 10
104.7223745936774
 20
109.3615185737548
 10
104.7185742227763
 20
109.3367031207041
 10
104.7172823119884
 20
109.3111663507969
 10
104.7172823119884
 20
109.3111663507969
 10
104.7185742227763
 20
109.2856188149664
 10
104.7223745936774
 20
109.2608141278389
 10
104.7285542336128
 20
109.2368599486468
 10
104.7369624196573
 20
109.2138747025456
 10
104.747513024425
 20
109.192030644307
 10
104.7600553249908
 20
109.1714031353937
 10
104.774470896199
 20
109.152142898731
 10
104.7906197810476
 20
109.1343791253975
 10
104.8083943203043
 20
109.1182194746256
 10
104.8276545569671
 20
109.1038146693407
 10
104.8482712999572
 20
109.0912616028517
 10
104.8701368900422
 20
109.0807217640071
 10
104.8931006042969
 20
109.0723028120394
 10
104.917054783489
 20
109.0661339380272
 10
104.9418702365397
 20
109.0623335671262
 97
        0
 75
     1
 76
     1
 98
        0
  0
LWPOLYLINE
  5
82
330
1F
100
AcDbEntity
  8
ISS138金台
  6
Continuous
 62
   250
420
  2367521
370
    13
100
AcDbPolyline
 90
       68
 70
     0
 43
0.0
 10
104.967407006447
 20
109.0610416563383
 10
104.9929545422775
 20
109.0623335671262
 10
105.017759229405
 20
109.0661339380272
 10
105.0417026426739
 20
109.0722920461162
 10
105.0646771228518
 20
109.0807325299304
 10
105.0865319470136
 20
109.0912616028517
 10
105.1071702218501
 20
109.1038039034174
 10
105.1264196925897
 20
109.1182302405489
 10
105.1441942318464
 20
109.1343791253975
 10
105.160343116695
 20
109.152142898731
 10
105.1747586879032
 20
109.1714031353937
 10
105.187300988469
 20
109.192030644307
 10
105.1978515932367
 20
109.2138854684688
 10
105.2062705452045
 20
109.2368599486468
 10
105.2124394192166
 20
109.2608141278389
 10
105.2162397901177
 20
109.2856295808896
 10
105.2175317009056
 20
109.3111663507969
 10
105.2175317009056
 20
109.3111663507969
 10
105.2162290241944
 20
109.3367031207041
 10
105.2124501851399
 20
109.3615185737548
 10
105.2062705452045
 20
109.3854619870237
 10
105.1978408273135
 20
109.4084472331249
 10
105.187300988469
 20
109.4302912913635
 10
105.1747586879032
 20
109.4509080343535
 10
105.1603538826182
 20
109.4701790369396
 10
105.1441942318464
 20
109.487942810273
 10
105.1264196925897
 20
109.5041024610449
 10
105.1071594559269
 20
109.5185072663298
 10
105.0865427129368
 20
109.5310495668956
 10
105.0646771228518
 20
109.5416001716633
 10
105.0417134085971
 20
109.5500191236311
 10
105.017759229405
 20
109.5561879976433
 10
104.9929437763543
 20
109.5599883685443
 10
104.967407006447
 20
109.5612802793322
 10
104.967407006447
 20
109.5612802793322
 10
104.9418702365397
 20
109.5599883685443
 10
104.9170655494123
 20
109.5561879976433
 10
104.8931113702201
 20
109.5500083577079
 10
104.8701368900422
 20
109.5416001716633
 10
104.8482712999572
 20
109.5310495668956
 10
104.8276437910439
 20
109.5185072663298
 10
104.8083835543811
 20
109.5041024610449
 10
104.7906197810476
 20
109.487942810273
 10
104.7744601302758
 20
109.4701790369396
 10
104.7600553249908
 20
109.4509188002768
 10
104.747513024425
 20
109.4303020572867
 10
104.7369624196573
 20
109.4084364672017
 10
104.7285434676895
 20
109.385472752947
 10
104.7223745936774
 20
109.3615185737548
 10
104.7185742227763
 20
109.3367031207041
 10
104.7172823119884
 20
109.3111663507969
 10
104.7172823119884
 20
109.3111663507969
 10
104.7185742227763
 20
109.2856188149664
 10
104.7223745936774
 20
109.2608141278389
 10
104.7285542336128
 20
109.2368599486468
 10
104.7369624196573
 20
109.2138747025456
 10
104.747513024425
 20
109.192030644307
 10
104.7600553249908
 20
109.1714031353937
 10
104.774470896199
 20
109.152142898731
 10
104.7906197810476
 20
109.1343791253975
 10
104.8083943203043
 20
109.1182194746256
 10
104.8276545569671
 20
109.1038146693407
 10
104.8482712999572
 20
109.0912616028517
 10
104.8701368900422
 20
109.0807217640071
 10
104.8931006042969
 20
109.0723028120394
 10
104.917054783489
 20
109.0661339380272
 10
104.9418702365397
 20
109.0623335671262
 10
104.967407006447
 20
109.0610416563383
  0
HATCH
  5
83
330
1F
100
AcDbEntity
  8
ISS138金台
  6
Continuous
 62
   250
420
  2367521
370
    13
100
AcDbHatch
 10
0.0
 20
0.0
 30
0.0
210
0.0
220
0.0
230
1.0
  2
SOLID
 70
     1
 71
     0
 91
        1
 92
        3
 72
     0
 73
     1
 93
       67
 10
104.967407006447
 20
104.5851629020803
 10
104.9929545422775
 20
104.5864548128682
 10
105.017759229405
 20
104.5902551837692
 10
105.0417026426739
 20
104.5964240577814
 10
105.0646771228518
 20
104.6048537756724
 10
105.0865319470136
 20
104.6153936145169
 10
105.1071702218501
 20
104.6279251491594
 10
105.1264196925897
 20
104.6423407203676
 10
105.1441942318464
 20
104.6585003711395
 10
105.160343116695
 20
104.676264144473
 10
105.1747586879032
 20
104.6955243811357
 10
105.187300988469
 20
104.716151890049
 10
105.1978515932367
 20
104.7380067142108
 10
105.2062705452045
 20
104.7609811943888
 10
105.2124394192166
 20
104.7849353735809
 10
105.2162397901177
 20
104.8097508266316
 10
105.2175317009056
 20
104.8352875965389
 10
105.2175317009056
 20
104.8352875965389
 10
105.2162290241944
 20
104.8608351323694
 10
105.2124501851399
 20
104.8856398194969
 10
105.2062705452045
 20
104.9095939986889
 10
105.1978408273135
 20
104.9325469470205
 10
105.187300988469
 20
104.9544233030287
 10
105.1747586879032
 20
104.9750400460188
 10
105.1603538826182
 20
104.9943002826816
 10
105.1441942318464
 20
105.012064056015
 10
105.1264196925897
 20
105.0282237067869
 10
105.1071594559269
 20
105.0426392779951
 10
105.0865427129368
 20
105.0551708126376
 10
105.0646771228518
 20
105.0657214174054
 10
105.0417134085971
 20
105.0741403693731
 10
105.017759229405
 20
105.0803092433853
 10
104.9929437763543
 20
105.0841096142863
 10
104.967407006447
 20
105.0854015250742
 10
104.967407006447
 20
105.0854015250742
 10
104.9418702365397
 20
105.0840988483631
 10
104.9170655494123
 20
105.0803092433853
 10
104.8931113702201
 20
105.0741403693731
 10
104.8701368900422
 20
105.0657214174054
 10
104.8482712999572
 20
105.0551708126376
 10
104.8276437910439
 20
105.0426285120718
 10
104.8083835543811
 20
105.0282237067869
 10
104.7906197810476
 20
105.012064056015
 10
104.7744601302758
 20
104.9943002826816
 10
104.7600553249908
 20
104.9750400460188
 10
104.747513024425
 20
104.9544125371055
 10
104.7369624196573
 20
104.9325577129437
 10
104.7285434676895
 20
104.9095939986889
 10
104.7223745936774
 20
104.8856398194969
 10
104.7185742227763
 20
104.8608243664461
 10
104.7172823119884
 20
104.8352875965389
 10
104.7172823119884
 20
104.8352875965389
 10
104.7185742227763
 20
104.8097508266316
 10
104.7223745936774
 20
104.7849461395041
 10
104.7285542336128
 20
104.7609811943888
 10
104.7369624196573
 20
104.7380067142108
 10
104.747513024425
 20
104.716151890049
 10
104.7600553249908
 20
104.6955243811357
 10
104.774470896199
 20
104.676264144473
 10
104.7906197810476
 20
104.6585003711395
 10
104.8083943203043
 20
104.6423407203676
 10
104.8276545569671
 20
104.6279359150827
 10
104.8482712999572
 20
104.6153936145169
 10
104.8701368900422
 20
104.6048430097492
 10
104.8931006042969
 20
104.5964240577814
 10
104.917054783489
 20
104.5902551837692
 10
104.9418702365397
 20
104.5864548128682
 97
        0
 75
     1
 76
     1
 98
        0
  0
LWPOLYLINE
  5
84
330
1F
100
AcDbEntity
  8
ISS138金台
  6
Continuous
 62
   250
420
  2367521
370
    13
100
AcDbPolyline
 90
       68
 70
     0
 43
0.0
 10
104.967407006447
 20
104.5851629020803
 10
104.9929545422775
 20
104.5864548128682
 10
105.017759229405
 20
104.5902551837692
 10
105.0417026426739
 20
104.5964240577814
 10
105.0646771228518
 20
104.6048537756724
 10
105.0865319470136
 20
104.6153936145169
 10
105.1071702218501
 20
104.6279251491594
 10
105.1264196925897
 20
104.6423407203676
 10
105.1441942318464
 20
104.6585003711395
 10
105.160343116695
 20
104.676264144473
 10
105.1747586879032
 20
104.6955243811357
 10
105.187300988469
 20
104.716151890049
 10
105.1978515932367
 20
104.7380067142108
 10
105.2062705452045
 20
104.7609811943888
 10
105.2124394192166
 20
104.7849353735809
 10
105.2162397901177
 20
104.8097508266316
 10
105.2175317009056
 20
104.8352875965389
 10
105.2175317009056
 20
104.8352875965389
 10
105.2162290241944
 20
104.8608351323694
 10
105.2124501851399
 20
104.8856398194969
 10
105.2062705452045
 20
104.9095939986889
 10
105.1978408273135
 20
104.9325469470205
 10
105.187300988469
 20
104.9544233030287
 10
105.1747586879032
 20
104.9750400460188
 10
105.1603538826182
 20
104.9943002826816
 10
105.1441942318464
 20
105.012064056015
 10
105.1264196925897
 20
105.0282237067869
 10
105.1071594559269
 20
105.0426392779951
 10
105.0865427129368
 20
105.0551708126376
 10
105.0646771228518
 20
105.0657214174054
 10
105.0417134085971
 20
105.0741403693731
 10
105.017759229405
 20
105.0803092433853
 10
104.9929437763543
 20
105.0841096142863
 10
104.967407006447
 20
105.0854015250742
 10
104.967407006447
 20
105.0854015250742
 10
104.9418702365397
 20
105.0840988483631
 10
104.9170655494123
 20
105.0803092433853
 10
104.8931113702201
 20
105.0741403693731
 10
104.8701368900422
 20
105.0657214174054
 10
104.8482712999572
 20
105.0551708126376
 10
104.8276437910439
 20
105.0426285120718
 10
104.8083835543811
 20
105.0282237067869
 10
104.7906197810476
 20
105.012064056015
 10
104.7744601302758
 20
104.9943002826816
 10
104.7600553249908
 20
104.9750400460188
 10
104.747513024425
 20
104.9544125371055
 10
104.7369624196573
 20
104.9325577129437
 10
104.7285434676895
 20
104.9095939986889
 10
104.7223745936774
 20
104.8856398194969
 10
104.7185742227763
 20
104.8608243664461
 10
104.7172823119884
 20
104.8352875965389
 10
104.7172823119884
 20
104.8352875965389
 10
104.7185742227763
 20
104.8097508266316
 10
104.7223745936774
 20
104.7849461395041
 10
104.7285542336128
 20
104.7609811943888
 10
104.7369624196573
 20
104.7380067142108
 10
104.747513024425
 20
104.716151890049
 10
104.7600553249908
 20
104.6955243811357
 10
104.774470896199
 20
104.676264144473
 10
104.7906197810476
 20
104.6585003711395
 10
104.8083943203043
 20
104.6423407203676
 10
104.8276545569671
 20
104.6279359150827
 10
104.8482712999572
 20
104.6153936145169
 10
104.8701368900422
 20
104.6048430097492
 10
104.8931006042969
 20
104.5964240577814
 10
104.917054783489
 20
104.5902551837692
 10
104.9418702365397
 20
104.5864548128682
 10
104.967407006447
 20
104.5851629020803
  0
HATCH
  5
85
330
1F
100
AcDbEntity
  8
ISS138金台
  6
Continuous
 62
   250
420
  2367521
370
    13
100
AcDbHatch
 10
0.0
 20
0.0
 30
0.0
210
0.0
220
0.0
230
1.0
  2
SOLID
 70
     1
 71
     0
 91
        1
 92
        3
 72
     0
 73
     1
 93
       67
 10
110.4575003247373
 20
94.06798632595584
 10
110.4830478605679
 20
94.06927823674374
 10
110.5078417817721
 20
94.07307860764477
 10
110.5317959609642
 20
94.07923671573371
 10
110.5547704411422
 20
94.08767719954793
 10
110.5766360312272
 20
94.09820627246921
 10
110.5972527742172
 20
94.11075933895822
 10
110.6165237768033
 20
94.12516414424317
 10
110.6342875501367
 20
94.14132379501501
 10
110.6504364349854
 20
94.1590875683485
 10
110.6648520061935
 20
94.17834780501127
 10
110.6773943067593
 20
94.19897531392456
 10
110.6879449115271
 20
94.22083013808637
 10
110.6963638634948
 20
94.24380461826432
 10
110.702532737507
 20
94.26775879745642
 10
110.706333108408
 20
94.29257425050713
 10
110.7076250191959
 20
94.31811102041442
 10
110.7076250191959
 20
94.31811102041442
 10
110.706333108408
 20
94.34364779032168
 10
110.702532737507
 20
94.36845247744915
 10
110.6963530975716
 20
94.3924174225645
 10
110.6879449115271
 20
94.41539190274247
 10
110.6773943067593
 20
94.43723596098101
 10
110.6648520061935
 20
94.4578634698943
 10
110.6504472009086
 20
94.4771237065571
 10
110.6342875501367
 20
94.4948982458138
 10
110.61651301088
 20
94.51104713066242
 10
110.5972527742172
 20
94.52545193594739
 10
110.5766360312272
 20
94.53799423651313
 10
110.5547704411422
 20
94.5485448412809
 10
110.5318067268874
 20
94.55696379324864
 10
110.5078525476953
 20
94.56313266726082
 10
110.4830370946446
 20
94.56693303816186
 10
110.4575003247373
 20
94.56822494894973
 10
110.4575003247373
 20
94.56822494894973
 10
110.4319635548301
 20
94.56693303816186
 10
110.4071481017794
 20
94.56313266726082
 10
110.3831939225872
 20
94.55696379324864
 10
110.3602302083325
 20
94.5485448412809
 10
110.3383753841707
 20
94.53799423651313
 10
110.3177371093342
 20
94.52545193594739
 10
110.2984768726714
 20
94.51104713066242
 10
110.2807130993379
 20
94.4948982458138
 10
110.2645534485661
 20
94.4771237065571
 10
110.2501486432811
 20
94.4578634698943
 10
110.2376063427154
 20
94.43724672690425
 10
110.2270557379476
 20
94.41538113681924
 10
110.2186367859799
 20
94.39240665664127
 10
110.2124679119677
 20
94.36846324337239
 10
110.2086675410667
 20
94.34364779032168
 10
110.2073756302788
 20
94.31811102041442
 10
110.2073756302788
 20
94.31811102041442
 10
110.2086675410667
 20
94.2925634845839
 10
110.2124679119677
 20
94.26775879745642
 10
110.2186367859799
 20
94.24380461826432
 10
110.2270557379476
 20
94.22084090400959
 10
110.2376063427154
 20
94.19897531392456
 10
110.2501378773579
 20
94.17834780501127
 10
110.2645642144893
 20
94.1590875683485
 10
110.2807130993379
 20
94.14132379501501
 10
110.2984768726714
 20
94.12516414424317
 10
110.3177478752574
 20
94.11075933895822
 10
110.3383646182475
 20
94.09821703839245
 10
110.3602302083325
 20
94.08766643362469
 10
110.3832046885105
 20
94.07924748165695
 10
110.4071481017794
 20
94.07307860764477
 10
110.4319635548301
 20
94.06927823674374
 97
        0
 75
     1
 76
     1
 98
        0
  0
LWPOLYLINE
  5
86
330
1F
100
AcDbEntity
  8
ISS138金台
  6
Continuous
 62
   250
420
  2367521
370
    13
100
AcDbPolyline
 90
       68
 70
     0
 43
0.0
 10
110.4575003247373
 20
94.06798632595584
 10
110.4830478605679
 20
94.06927823674374
 10
110.5078417817721
 20
94.07307860764477
 10
110.5317959609642
 20
94.07923671573371
 10
110.5547704411422
 20
94.08767719954793
 10
110.5766360312272
 20
94.09820627246921
 10
110.5972527742172
 20
94.11075933895822
 10
110.6165237768033
 20
94.12516414424317
 10
110.6342875501367
 20
94.14132379501501
 10
110.6504364349854
 20
94.1590875683485
 10
110.6648520061935
 20
94.17834780501127
 10
110.6773943067593
 20
94.19897531392456
 10
110.6879449115271
 20
94.22083013808637
 10
110.6963638634948
 20
94.24380461826432
 10
110.702532737507
 20
94.26775879745642
 10
110.706333108408
 20
94.29257425050713
 10
110.7076250191959
 20
94.31811102041442
 10
110.7076250191959
 20
94.31811102041442
 10
110.706333108408
 20
94.34364779032168
 10
110.702532737507
 20
94.36845247744915
 10
110.6963530975716
 20
94.3924174225645
 10
110.6879449115271
 20
94.41539190274247
 10
110.6773943067593
 20
94.43723596098101
 10
110.6648520061935
 20
94.4578634698943
 10
110.6504472009086
 20
94.4771237065571
 10
110.6342875501367
 20
94.4948982458138
 10
110.61651301088
 20
94.51104713066242
 10
110.5972527742172
 20
94.52545193594739
 10
110.5766360312272
 20
94.53799423651313
 10
110.5547704411422
 20
94.5485448412809
 10
110.5318067268874
 20
94.55696379324864
 10
110.5078525476953
 20
94.56313266726082
 10
110.4830370946446
 20
94.56693303816186
 10
110.4575003247373
 20
94.56822494894973
 10
110.4575003247373
 20
94.56822494894973
 10
110.4319635548301
 20
94.56693303816186
 10
110.4071481017794
 20
94.56313266726082
 10
110.3831939225872
 20
94.55696379324864
 10
110.3602302083325
 20
94.5485448412809
 10
110.3383753841707
 20
94.53799423651313
 10
110.3177371093342
 20
94.52545193594739
 10
110.2984768726714
 20
94.51104713066242
 10
110.2807130993379
 20
94.4948982458138
 10
110.2645534485661
 20
94.4771237065571
 10
110.2501486432811
 20
94.4578634698943
 10
110.2376063427154
 20
94.43724672690425
 10
110.2270557379476
 20
94.41538113681924
 10
110.2186367859799
 20
94.39240665664127
 10
110.2124679119677
 20
94.36846324337239
 10
110.2086675410667
 20
94.34364779032168
 10
110.2073756302788
 20
94.31811102041442
 10
110.2073756302788
 20
94.31811102041442
 10
110.2086675410667
 20
94.2925634845839
 10
110.2124679119677
 20
94.26775879745642
 10
110.2186367859799
 20
94.24380461826432
 10
110.2270557379476
 20
94.22084090400959
 10
110.2376063427154
 20
94.19897531392456
 10
110.2501378773579
 20
94.17834780501127
 10
110.2645642144893
 20
94.1590875683485
 10
110.2807130993379
 20
94.14132379501501
 10
110.2984768726714
 20
94.12516414424317
 10
110.3177478752574
 20
94.11075933895822
 10
110.3383646182475
 20
94.09821703839245
 10
110.3602302083325
 20
94.08766643362469
 10
110.3832046885105
 20
94.07924748165695
 10
110.4071481017794
 20
94.07307860764477
 10
110.4319635548301
 20
94.06927823674374
 10
110.4575003247373
 20
94.06798632595584
  0
HATCH
  5
87
330
1F
100
AcDbEntity
  8
ISS138金台
  6
Continuous
 62
   250
420
  2367521
370
    13
100
AcDbHatch
 10
0.0
 20
0.0
 30
0.0
210
0.0
220
0.0
230
1.0
  2
SOLID
 70
     1
 71
     0
 91
        1
 92
        3
 72
     0
 73
     1
 93
       67
 10
130.4115038465372
 20
94.06798632595584
 10
130.4370513823677
 20
94.06927823674374
 10
130.4618560694952
 20
94.07307860764477
 10
130.4857994827641
 20
94.07923671573371
 10
130.508773962942
 20
94.08767719954793
 10
130.5306287871038
 20
94.09820627246921
 10
130.5512670619403
 20
94.11075933895822
 10
130.5705165326799
 20
94.12516414424317
 10
130.5882910719366
 20
94.14132379501501
 10
130.6044507227085
 20
94.1590875683485
 10
130.6188555279934
 20
94.17834780501127
 10
130.6313978285592
 20
94.19897531392456
 10
130.6419484333269
 20
94.22083013808637
 10
130.6503673852947
 20
94.24380461826432
 10
130.6565362593068
 20
94.26775879745642
 10
130.6603366302079
 20
94.29257425050713
 10
130.6616285409958
 20
94.31811102041442
 10
130.6616285409958
 20
94.31811102041442
 10
130.6603258642847
 20
94.34364779032168
 10
130.6565470252301
 20
94.36845247744915
 10
130.6503673852947
 20
94.3924174225645
 10
130.6419376674037
 20
94.41539190274247
 10
130.631387062636
 20
94.43723596098101
 10
130.6188555279934
 20
94.4578634698943
 10
130.6044507227085
 20
94.4771237065571
 10
130.5882910719366
 20
94.4948982458138
 10
130.5705272986031
 20
94.51104713066242
 10
130.5512562960171
 20
94.52545193594739
 10
130.5306395530271
 20
94.53799423651313
 10
130.508773962942
 20
94.5485448412809
 10
130.4858102486873
 20
94.55696379324864
 10
130.4618560694952
 20
94.56313266726082
 10
130.4370406164445
 20
94.56693303816186
 10
130.4115038465372
 20
94.56822494894973
 10
130.4115038465372
 20
94.56822494894973
 10
130.3859670766299
 20
94.56693303816186
 10
130.3611623895025
 20
94.56313266726082
 10
130.3372082103104
 20
94.55696379324864
 10
130.3142337301324
 20
94.5485448412809
 10
130.2923681400474
 20
94.53799423651313
 10
130.2717406311341
 20
94.52545193594739
 10
130.2524803944713
 20
94.51104713066242
 10
130.2347166211378
 20
94.4948982458138
 10
130.2185677362892
 20
94.4771237065571
 10
130.204152165081
 20
94.4578634698943
 10
130.1916098645153
 20
94.43724672690425
 10
130.1810592597475
 20
94.41538113681924
 10
130.1726403077798
 20
94.39240665664127
 10
130.1664714337676
 20
94.36846324337239
 10
130.1626710628665
 20
94.34364779032168
 10
130.1613791520787
 20
94.31811102041442
 10
130.1613791520787
 20
94.31811102041442
 10
130.1626818287898
 20
94.2925634845839
 10
130.1664714337676
 20
94.26775879745642
 10
130.172651073703
 20
94.24380461826432
 10
130.1810700256707
 20
94.22084090400959
 10
130.191599098592
 20
94.19897531392456
 10
130.204152165081
 20
94.17834780501127
 10
130.2185677362892
 20
94.1590875683485
 10
130.2347166211378
 20
94.14132379501501
 10
130.2524911603945
 20
94.12516414424317
 10
130.2717406311341
 20
94.11075933895822
 10
130.2923681400474
 20
94.09821703839245
 10
130.3142337301324
 20
94.08766643362469
 10
130.3371974443871
 20
94.07924748165695
 10
130.3611516235792
 20
94.07307860764477
 10
130.3859670766299
 20
94.06927823674374
 97
        0
 75
     1
 76
     1
 98
        0
  0
LWPOLYLINE
  5
88
330
1F
100
AcDbEntity
  8
ISS138金台
  6
Continuous
 62
   250
420
  2367521
370
    13
100
AcDbPolyline
 90
       68
 70
     0
 43
0.0
 10
130.4115038465372
 20
94.06798632595584
 10
130.4370513823677
 20
94.06927823674374
 10
130.4618560694952
 20
94.07307860764477
 10
130.4857994827641
 20
94.07923671573371
 10
130.508773962942
 20
94.08767719954793
 10
130.5306287871038
 20
94.09820627246921
 10
130.5512670619403
 20
94.11075933895822
 10
130.5705165326799
 20
94.12516414424317
 10
130.5882910719366
 20
94.14132379501501
 10
130.6044507227085
 20
94.1590875683485
 10
130.6188555279934
 20
94.17834780501127
 10
130.6313978285592
 20
94.19897531392456
 10
130.6419484333269
 20
94.22083013808637
 10
130.6503673852947
 20
94.24380461826432
 10
130.6565362593068
 20
94.26775879745642
 10
130.6603366302079
 20
94.29257425050713
 10
130.6616285409958
 20
94.31811102041442
 10
130.6616285409958
 20
94.31811102041442
 10
130.6603258642847
 20
94.34364779032168
 10
130.6565470252301
 20
94.36845247744915
 10
130.6503673852947
 20
94.3924174225645
 10
130.6419376674037
 20
94.41539190274247
 10
130.631387062636
 20
94.43723596098101
 10
130.6188555279934
 20
94.4578634698943
 10
130.6044507227085
 20
94.4771237065571
 10
130.5882910719366
 20
94.4948982458138
 10
130.5705272986031
 20
94.51104713066242
 10
130.5512562960171
 20
94.52545193594739
 10
130.5306395530271
 20
94.53799423651313
 10
130.508773962942
 20
94.5485448412809
 10
130.4858102486873
 20
94.55696379324864
 10
130.4618560694952
 20
94.56313266726082
 10
130.4370406164445
 20
94.56693303816186
 10
130.4115038465372
 20
94.56822494894973
 10
130.4115038465372
 20
94.56822494894973
 10
130.3859670766299
 20
94.56693303816186
 10
130.3611623895025
 20
94.56313266726082
 10
130.3372082103104
 20
94.55696379324864
 10
130.3142337301324
 20
94.5485448412809
 10
130.2923681400474
 20
94.53799423651313
 10
130.2717406311341
 20
94.52545193594739
 10
130.2524803944713
 20
94.51104713066242
 10
130.2347166211378
 20
94.4948982458138
 10
130.2185677362892
 20
94.4771237065571
 10
130.204152165081
 20
94.4578634698943
 10
130.1916098645153
 20
94.43724672690425
 10
130.1810592597475
 20
94.41538113681924
 10
130.1726403077798
 20
94.39240665664127
 10
130.1664714337676
 20
94.36846324337239
 10
130.1626710628665
 20
94.34364779032168
 10
130.1613791520787
 20
94.31811102041442
 10
130.1613791520787
 20
94.31811102041442
 10
130.1626818287898
 20
94.2925634845839
 10
130.1664714337676
 20
94.26775879745642
 10
130.172651073703
 20
94.24380461826432
 10
130.1810700256707
 20
94.22084090400959
 10
130.191599098592
 20
94.19897531392456
 10
130.204152165081
 20
94.17834780501127
 10
130.2185677362892
 20
94.1590875683485
 10
130.2347166211378
 20
94.14132379501501
 10
130.2524911603945
 20
94.12516414424317
 10
130.2717406311341
 20
94.11075933895822
 10
130.2923681400474
 20
94.09821703839245
 10
130.3142337301324
 20
94.08766643362469
 10
130.3371974443871
 20
94.07924748165695
 10
130.3611516235792
 20
94.07307860764477
 10
130.3859670766299
 20
94.06927823674374
 10
130.4115038465372
 20
94.06798632595584
  0
TEXT
  5
89
330
1F
100
AcDbEntity
  8
ISS138金台
  6
Continuous
 62
   250
420
  2367521
100
AcDbText
 10
118.9462262409506
 20
95.35544329446742
 30
0.0
 40
2.150533301035563
  1
20
 41
0.9460029602050779
  7
MS Gothic
100
AcDbText
  0
TEXT
  5
8A
330
1F
100
AcDbEntity
  8
ISS138金台
  6
Continuous
 62
   250
420
  2367521
100
AcDbText
 10
104.0403070203706
 20
104.5927420946417
 30
0.0
 40
2.150533301035563
  1
4.5
 50
90.00000250447816
 41
0.9673334757486979
  7
MS Gothic
100
AcDbText
  0
TEXT
  5
8B
330
1F
100
AcDbEntity
  8
ISS138金台
  6
Continuous
 62
   250
420
  2367521
100
AcDbText
 10
112.8607988997545
 20
115.8826891647002
 30
0.0
 40
2.150533301035563
  1
6
 41
0.8919982910156248
  7
MS Gothic
100
AcDbText
  0
LINE
  5
8C
330
1F
100
AcDbEntity
  8
ISS138金台
  6
Continuous
 62
   250
420
  2367521
370
    13
100
AcDbLine
 10
131.4298525250908
 20
106.0334917886131
 30
0.0
 11
140.8888788044715
 21
106.0334917886131
 31
0.0
  0
LINE
  5
8D
330
1F
100
AcDbEntity
  8
ISS138金台
  6
Continuous
 62
   250
420
  2367521
370
    13
100
AcDbLine
 10
131.4298525250908
 20
109.0321028546896
 30
0.0
 11
140.9770732475914
 21
109.0321028546896
 31
0.0
  0
LINE
  5
8E
330
1F
100
AcDbEntity
  8
ISS138金台
  6
Continuous
 62
   250
420
  2367521
370
    13
100
AcDbLine
 10
140.8770039911461
 20
106.0376259031343
 30
0.0
 11
140.8770039911461
 21
109.7640133797217
 31
0.0
  0
HATCH
  5
8F
330
1F
100
AcDbEntity
  8
ISS138金台
  6
Continuous
 62
   250
420
  2367521
370
    13
100
AcDbHatch
 10
0.0
 20
0.0
 30
0.0
210
0.0
220
0.0
230
1.0
  2
SOLID
 70
     1
 71
     0
 91
        1
 92
        3
 72
     0
 73
     1
 93
       67
 10
140.888717315623
 20
108.7826887111644
 10
140.9142540855302
 20
108.7839913878755
 10
140.9390372408113
 20
108.7877379291604
 10
140.9629591222337
 20
108.7938852713261
 10
140.9858797727955
 20
108.8022719255241
 10
141.0076915332643
 20
108.8127471688292
 10
141.028243680715
 20
108.8252356397788
 10
141.0474393218384
 20
108.8395866154476
 10
141.0651492655557
 20
108.8556709047568
 10
141.0812335548649
 20
108.8733700825509
 10
141.0955845305337
 20
108.8925764895976
 10
141.1080730014833
 20
108.9131286370482
 10
141.1185590107117
 20
108.9349403975171
 10
141.1269348989865
 20
108.9578610480789
 10
141.133071475229
 20
108.9817829295013
 10
141.1368503142835
 20
109.0065660847823
 10
141.1381314591482
 20
109.0321028546896
 10
141.1381314591482
 20
109.0321028546896
 10
141.1368503142835
 20
109.0577580497524
 10
141.1330822411522
 20
109.0826488642657
 10
141.1269456649097
 20
109.1066784049205
 10
141.1185590107117
 20
109.1296851828681
 10
141.1080730014833
 20
109.1515507729532
 10
141.0955845305337
 20
109.1721675159432
 10
141.0812335548649
 20
109.1914062207595
 10
141.0651492655557
 20
109.2091484622466
 10
141.0474393218384
 20
109.2252650493255
 10
141.0282544466382
 20
109.2396375568407
 10
141.0076807673411
 20
109.2521367937136
 10
140.9858797727955
 20
109.2626335688652
 10
140.9629591222337
 20
109.27100945714
 10
140.9390372408113
 20
109.2771567993057
 10
140.914243319607
 20
109.2809356383602
 10
140.888717315623
 20
109.2822167832249
 10
140.888717315623
 20
109.2822167832249
 10
140.8630621205601
 20
109.2809356383602
 10
140.8381605401236
 20
109.2771567993057
 10
140.8141525313153
 20
109.2710202230632
 10
140.7911457533676
 20
109.2626228029419
 10
140.7692801632826
 20
109.2521260277903
 10
140.7486418884461
 20
109.2396267909175
 10
140.729413949553
 20
109.2252650493255
 10
140.7116609421428
 20
109.2091484622466
 10
140.6955551209871
 20
109.1914062207595
 10
140.6811826134718
 20
109.1721675159432
 10
140.668683376599
 20
109.1515507729532
 10
140.6581758355242
 20
109.1296744169449
 10
140.6497891813261
 20
109.1066676389973
 10
140.6436526050836
 20
109.082659630189
 10
140.6398845319523
 20
109.0577580497524
 10
140.6385926211644
 20
109.0321028546896
 10
140.6385926211644
 20
109.0321028546896
 10
140.6398845319523
 20
109.0065768507055
 10
140.6436633710069
 20
108.9817721635781
 10
140.6497891813261
 20
108.9578718140021
 10
140.6581758355242
 20
108.9349511634403
 10
140.6686941425222
 20
108.9131286370482
 10
140.6811826134718
 20
108.8925764895976
 10
140.6955443550639
 20
108.8733808484742
 10
140.7116609421428
 20
108.8556709047568
 10
140.7293924177065
 20
108.8395866154476
 10
140.7486526543693
 20
108.8252356397788
 10
140.7692693973594
 20
108.8127471688292
 10
140.7911457533676
 20
108.8022611596009
 10
140.8141525313153
 20
108.7938852713261
 10
140.8381605401236
 20
108.7877486950836
 10
140.8630621205601
 20
108.783969856029
 97
        0
 75
     1
 76
     1
 98
        0
  0
LWPOLYLINE
  5
90
330
1F
100
AcDbEntity
  8
ISS138金台
  6
Continuous
 62
   250
420
  2367521
370
    13
100
AcDbPolyline
 90
       68
 70
     0
 43
0.0
 10
140.888717315623
 20
108.7826887111644
 10
140.9142540855302
 20
108.7839913878755
 10
140.9390372408113
 20
108.7877379291604
 10
140.9629591222337
 20
108.7938852713261
 10
140.9858797727955
 20
108.8022719255241
 10
141.0076915332643
 20
108.8127471688292
 10
141.028243680715
 20
108.8252356397788
 10
141.0474393218384
 20
108.8395866154476
 10
141.0651492655557
 20
108.8556709047568
 10
141.0812335548649
 20
108.8733700825509
 10
141.0955845305337
 20
108.8925764895976
 10
141.1080730014833
 20
108.9131286370482
 10
141.1185590107117
 20
108.9349403975171
 10
141.1269348989865
 20
108.9578610480789
 10
141.133071475229
 20
108.9817829295013
 10
141.1368503142835
 20
109.0065660847823
 10
141.1381314591482
 20
109.0321028546896
 10
141.1381314591482
 20
109.0321028546896
 10
141.1368503142835
 20
109.0577580497524
 10
141.1330822411522
 20
109.0826488642657
 10
141.1269456649097
 20
109.1066784049205
 10
141.1185590107117
 20
109.1296851828681
 10
141.1080730014833
 20
109.1515507729532
 10
141.0955845305337
 20
109.1721675159432
 10
141.0812335548649
 20
109.1914062207595
 10
141.0651492655557
 20
109.2091484622466
 10
141.0474393218384
 20
109.2252650493255
 10
141.0282544466382
 20
109.2396375568407
 10
141.0076807673411
 20
109.2521367937136
 10
140.9858797727955
 20
109.2626335688652
 10
140.9629591222337
 20
109.27100945714
 10
140.9390372408113
 20
109.2771567993057
 10
140.914243319607
 20
109.2809356383602
 10
140.888717315623
 20
109.2822167832249
 10
140.888717315623
 20
109.2822167832249
 10
140.8630621205601
 20
109.2809356383602
 10
140.8381605401236
 20
109.2771567993057
 10
140.8141525313153
 20
109.2710202230632
 10
140.7911457533676
 20
109.2626228029419
 10
140.7692801632826
 20
109.2521260277903
 10
140.7486418884461
 20
109.2396267909175
 10
140.729413949553
 20
109.2252650493255
 10
140.7116609421428
 20
109.2091484622466
 10
140.6955551209871
 20
109.1914062207595
 10
140.6811826134718
 20
109.1721675159432
 10
140.668683376599
 20
109.1515507729532
 10
140.6581758355242
 20
109.1296744169449
 10
140.6497891813261
 20
109.1066676389973
 10
140.6436526050836
 20
109.082659630189
 10
140.6398845319523
 20
109.0577580497524
 10
140.6385926211644
 20
109.0321028546896
 10
140.6385926211644
 20
109.0321028546896
 10
140.6398845319523
 20
109.0065768507055
 10
140.6436633710069
 20
108.9817721635781
 10
140.6497891813261
 20
108.9578718140021
 10
140.6581758355242
 20
108.9349511634403
 10
140.6686941425222
 20
108.9131286370482
 10
140.6811826134718
 20
108.8925764895976
 10
140.6955443550639
 20
108.8733808484742
 10
140.7116609421428
 20
108.8556709047568
 10
140.7293924177065
 20
108.8395866154476
 10
140.7486526543693
 20
108.8252356397788
 10
140.7692693973594
 20
108.8127471688292
 10
140.7911457533676
 20
108.8022611596009
 10
140.8141525313153
 20
108.7938852713261
 10
140.8381605401236
 20
108.7877486950836
 10
140.8630621205601
 20
108.783969856029
 10
140.888717315623
 20
108.7826887111644
  0
HATCH
  5
91
330
1F
100
AcDbEntity
  8
ISS138金台
  6
Continuous
 62
   250
420
  2367521
370
    13
100
AcDbHatch
 10
0.0
 20
0.0
 30
0.0
210
0.0
220
0.0
230
1.0
  2
SOLID
 70
     1
 71
     0
 91
        1
 92
        3
 72
     0
 73
     1
 93
       67
 10
140.8446308599862
 20
105.7840776450879
 10
140.8701676298935
 20
105.785380321799
 10
140.8949507851746
 20
105.7891268630839
 10
140.9188726665969
 20
105.7952742052496
 10
140.9417933171588
 20
105.8036608594476
 10
140.9636050776276
 20
105.8141361027528
 10
140.9841572250783
 20
105.8266245737023
 10
141.0033636321249
 20
105.8409755493712
 10
141.021062809919
 20
105.8570598386804
 10
141.0371470992282
 20
105.8747590164745
 10
141.051498074897
 20
105.8939654235211
 10
141.0639757799234
 20
105.9145175709717
 10
141.074472555075
 20
105.9363293314406
 10
141.0828484433498
 20
105.9592499820024
 10
141.0889850195923
 20
105.9831718634248
 10
141.0927638586468
 20
106.0079550187058
 10
141.0940450035115
 20
106.0334917886131
 10
141.0940450035115
 20
106.0334917886131
 10
141.0927638586468
 20
106.0591469836759
 10
141.0889850195923
 20
106.0840377981892
 10
141.0828484433498
 20
106.108067338844
 10
141.074472555075
 20
106.1310741167917
 10
141.0639865458466
 20
106.1529397068767
 10
141.051498074897
 20
106.1735564498667
 10
141.0371470992282
 20
106.1927951546831
 10
141.021062809919
 20
106.2105373961701
 10
141.0033636321249
 20
106.226653983249
 10
140.9841572250783
 20
106.2410264907642
 10
140.9636050776276
 20
106.2535257276371
 10
140.9417933171588
 20
106.2640225027887
 10
140.9188726665969
 20
106.2723983910635
 10
140.8949507851746
 20
106.2785457332292
 10
140.8701568639703
 20
106.2823245722838
 10
140.8446308599862
 20
106.2836057171484
 10
140.8446308599862
 20
106.2836057171484
 10
140.8189756649234
 20
106.2823245722838
 10
140.7940740844869
 20
106.2785457332292
 10
140.7700660756786
 20
106.2724091569867
 10
140.7470592977309
 20
106.2640117368654
 10
140.7251937076459
 20
106.2535149617138
 10
140.7045661987326
 20
106.241015724841
 10
140.6853167279931
 20
106.226653983249
 10
140.6675852524293
 20
106.2105373961701
 10
140.6514686653504
 20
106.1927951546831
 10
140.6370961578351
 20
106.1735564498667
 10
140.624586155039
 20
106.1529397068767
 10
140.6140893798874
 20
106.1310633508684
 10
140.6057027256894
 20
106.1080565729208
 10
140.5995661494469
 20
106.0840485641125
 10
140.5957873103924
 20
106.0591469836759
 10
140.5945061655277
 20
106.0334917886131
 10
140.5945061655277
 20
106.0334917886131
 10
140.5957980763156
 20
106.0079657846291
 10
140.5995769153702
 20
105.9831610975016
 10
140.6057027256894
 20
105.9592607479256
 10
140.6140893798874
 20
105.9363400973638
 10
140.6245969209623
 20
105.9145175709717
 10
140.6370961578351
 20
105.8939654235211
 10
140.6514578994272
 20
105.8747697823977
 10
140.6675744865061
 20
105.8570598386804
 10
140.6853167279931
 20
105.8409755493712
 10
140.7045661987326
 20
105.8266245737023
 10
140.7251829417227
 20
105.8141361027528
 10
140.7470592977309
 20
105.8036500935244
 10
140.7700660756786
 20
105.7952742052496
 10
140.7940740844869
 20
105.7891376290071
 10
140.8189756649234
 20
105.7853587899525
 97
        0
 75
     1
 76
     1
 98
        0
  0
LWPOLYLINE
  5
92
330
1F
100
AcDbEntity
  8
ISS138金台
  6
Continuous
 62
   250
420
  2367521
370
    13
100
AcDbPolyline
 90
       68
 70
     0
 43
0.0
 10
140.8446308599862
 20
105.7840776450879
 10
140.8701676298935
 20
105.785380321799
 10
140.8949507851746
 20
105.7891268630839
 10
140.9188726665969
 20
105.7952742052496
 10
140.9417933171588
 20
105.8036608594476
 10
140.9636050776276
 20
105.8141361027528
 10
140.9841572250783
 20
105.8266245737023
 10
141.0033636321249
 20
105.8409755493712
 10
141.021062809919
 20
105.8570598386804
 10
141.0371470992282
 20
105.8747590164745
 10
141.051498074897
 20
105.8939654235211
 10
141.0639757799234
 20
105.9145175709717
 10
141.074472555075
 20
105.9363293314406
 10
141.0828484433498
 20
105.9592499820024
 10
141.0889850195923
 20
105.9831718634248
 10
141.0927638586468
 20
106.0079550187058
 10
141.0940450035115
 20
106.0334917886131
 10
141.0940450035115
 20
106.0334917886131
 10
141.0927638586468
 20
106.0591469836759
 10
141.0889850195923
 20
106.0840377981892
 10
141.0828484433498
 20
106.108067338844
 10
141.074472555075
 20
106.1310741167917
 10
141.0639865458466
 20
106.1529397068767
 10
141.051498074897
 20
106.1735564498667
 10
141.0371470992282
 20
106.1927951546831
 10
141.021062809919
 20
106.2105373961701
 10
141.0033636321249
 20
106.226653983249
 10
140.9841572250783
 20
106.2410264907642
 10
140.9636050776276
 20
106.2535257276371
 10
140.9417933171588
 20
106.2640225027887
 10
140.9188726665969
 20
106.2723983910635
 10
140.8949507851746
 20
106.2785457332292
 10
140.8701568639703
 20
106.2823245722838
 10
140.8446308599862
 20
106.2836057171484
 10
140.8446308599862
 20
106.2836057171484
 10
140.8189756649234
 20
106.2823245722838
 10
140.7940740844869
 20
106.2785457332292
 10
140.7700660756786
 20
106.2724091569867
 10
140.7470592977309
 20
106.2640117368654
 10
140.7251937076459
 20
106.2535149617138
 10
140.7045661987326
 20
106.241015724841
 10
140.6853167279931
 20
106.226653983249
 10
140.6675852524293
 20
106.2105373961701
 10
140.6514686653504
 20
106.1927951546831
 10
140.6370961578351
 20
106.1735564498667
 10
140.624586155039
 20
106.1529397068767
 10
140.6140893798874
 20
106.1310633508684
 10
140.6057027256894
 20
106.1080565729208
 10
140.5995661494469
 20
106.0840485641125
 10
140.5957873103924
 20
106.0591469836759
 10
140.5945061655277
 20
106.0334917886131
 10
140.5945061655277
 20
106.0334917886131
 10
140.5957980763156
 20
106.0079657846291
 10
140.5995769153702
 20
105.9831610975016
 10
140.6057027256894
 20
105.9592607479256
 10
140.6140893798874
 20
105.9363400973638
 10
140.6245969209623
 20
105.9145175709717
 10
140.6370961578351
 20
105.8939654235211
 10
140.6514578994272
 20
105.8747697823977
 10
140.6675744865061
 20
105.8570598386804
 10
140.6853167279931
 20
105.8409755493712
 10
140.7045661987326
 20
105.8266245737023
 10
140.7251829417227
 20
105.8141361027528
 10
140.7470592977309
 20
105.8036500935244
 10
140.7700660756786
 20
105.7952742052496
 10
140.7940740844869
 20
105.7891376290071
 10
140.8189756649234
 20
105.7853587899525
 10
140.8446308599862
 20
105.7840776450879
  0
TEXT
  5
93
330
1F
100
AcDbEntity
  8
ISS138金台
  6
Continuous
 62
   250
420
  2367521
100
AcDbText
 10
141.0419992577654
 20
110.3770680948738
 30
0.0
 40
2.150533301035563
  1
3.3
 50
90.00000250447816
 41
0.950665791829427
  7
MS Gothic
100
AcDbText
  0
LINE
  5
94
330
1F
100
AcDbEntity
  8
ISS138金台
  6
UserDefined01
 62
   140
420
    44526
370
    13
100
AcDbLine
 10
122.8047223615229
 20
99.87435017104468
 30
0.0
 11
130.389444469834
 21
99.87435017104468
 31
0.0
  0
TEXT
  5
95
330
1F
100
AcDbEntity
  8
ISS138金台
  6
Continuous
 62
   140
420
    44526
100
AcDbText
 10
124.7043372181118
 20
100.6635032821583
 30
0.0
 40
1.881716638406118
  1
7.5
 41
1.017611821492513
  7
MS Gothic
100
AcDbText
  0
HATCH
  5
96
330
1F
100
AcDbEntity
  8
ISS138金台
  6
Continuous
 62
   140
420
    44526
370
    50
100
AcDbHatch
 10
0.0
 20
0.0
 30
0.0
210
0.0
220
0.0
230
1.0
  2
SOLID
 70
     1
 71
     0
 91
        1
 92
        3
 72
     0
 73
     1
 93
        3
 10
121.938625369322
 20
109.0458724705038
 10
123.6707655241076
 20
109.0451619195705
 10
122.8054006146865
 20
107.5472774883989
 97
        0
 75
     1
 76
     1
 98
        0
  0
LWPOLYLINE
  5
97
330
1F
100
AcDbEntity
  8
ISS138金台
  6
Continuous
 62
   140
420
    44526
370
    50
100
AcDbPolyline
 90
        4
 70
     0
 43
0.0
 10
121.938625369322
 20
109.0458724705038
 10
123.6707655241076
 20
109.0451619195705
 10
122.8054006146865
 20
107.5472774883989
 10
121.938625369322
 20
109.0458724705038
  0
ENDSEC
  0
SECTION
  2
OBJECTS
  0
DICTIONARY
  5
C
330
0
100
AcDbDictionary
281
     1
  3
ACAD_DETAILVIEWSTYLE
350
9F
  3
ACAD_GROUP
350
D
  3
ACAD_LAYOUT
350
1A
  3
ACAD_MATERIAL
350
43
  3
ACAD_MLEADERSTYLE
350
5B
  3
ACAD_MLINESTYLE
350
17
  3
ACAD_PLOTSETTINGS
350
19
  3
ACAD_PLOTSTYLENAME
350
E
  3
ACAD_SCALELIST
350
47
  3
ACAD_SECTIONVIEWSTYLE
350
A0
  3
ACAD_TABLESTYLE
350
59
  3
ACAD_VISUALSTYLE
350
2A
  3
ACDB_RECOMPOSE_DATA
350
9C
  3
AcDbVariableDictionary
350
98
  0
SUN
  5
5D
330
29
100
AcDbSun
 90
        1
290
     0
 63
     7
421
 16777215
 40
1.0
291
     1
 91
  2455826
 92
 54000000
292
     0
 70
     2
 71
   256
280
     1
  0
DICTIONARY
  5
9F
102
{ACAD_REACTORS
330
C
102
}
330
C
100
AcDbDictionary
281
     1
  0
DICTIONARY
  5
D
102
{ACAD_REACTORS
330
C
102
}
330
C
100
AcDbDictionary
281
     1
  0
DICTIONARY
  5
1A
102
{ACAD_REACTORS
330
C
102
}
330
C
100
AcDbDictionary
281
     1
  3
Layout1
350
1E
  3
Layout2
350
26
  3
Model
350
22
  0
DICTIONARY
  5
43
102
{ACAD_REACTORS
330
C
102
}
330
C
100
AcDbDictionary
281
     1
  3
ByBlock
350
45
  3
ByLayer
350
44
  3
Global
350
46
  0
DICTIONARY
  5
5B
102
{ACAD_REACTORS
330
C
102
}
330
C
100
AcDbDictionary
281
     1
  3
Standard
350
5C
  0
DICTIONARY
  5
17
102
{ACAD_REACTORS
330
C
102
}
330
C
100
AcDbDictionary
281
     1
  3
Standard
350
18
  0
DICTIONARY
  5
19
102
{ACAD_REACTORS
330
C
102
}
330
C
100
AcDbDictionary
281
     1
  0
ACDBDICTIONARYWDFLT
  5
E
102
{ACAD_REACTORS
330
C
102
}
330
C
100
AcDbDictionary
281
     1
  3
Normal
350
F
100
AcDbDictionaryWithDefault
340
F
  0
DICTIONARY
  5
47
102
{ACAD_REACTORS
330
C
102
}
330
C
100
AcDbDictionary
281
     1
  3
A0
350
48
  3
A1
350
49
  3
A2
350
4A
  3
A3
350
4B
  3
A4
350
4C
  3
A5
350
4D
  3
A6
350
4E
  3
A7
350
4F
  3
A8
350
50
  3
A9
350
51
  3
B0
350
52
  3
B1
350
53
  3
B2
350
54
  3
B3
350
55
  3
B4
350
56
  3
B5
350
57
  3
B6
350
58
  0
DICTIONARY
  5
A0
102
{ACAD_REACTORS
330
C
102
}
330
C
100
AcDbDictionary
281
     1
  0
DICTIONARY
  5
59
102
{ACAD_REACTORS
330
C
102
}
330
C
100
AcDbDictionary
281
     1
  3
Standard
350
5A
  0
DICTIONARY
  5
2A
102
{ACAD_REACTORS
330
C
102
}
330
C
100
AcDbDictionary
281
     1
  3
2dWireframe
350
2F
  3
Basic
350
32
  3
Brighten
350
36
  3
ColorChange
350
3A
  3
Conceptual
350
34
  3
Dim
350
35
  3
EdgeColorOff
350
3D
  3
Facepattern
350
39
  3
Flat
350
2B
  3
FlatWithEdges
350
2C
  3
Gouraud
350
2D
  3
GouraudWithEdges
350
2E
  3
Hidden
350
31
  3
JitterOff
350
3B
  3
Linepattern
350
38
  3
OverhangOff
350
3C
  3
Realistic
350
33
  3
Shaded
350
42
  3
Shaded with edges
350
41
  3
Shades of Gray
350
3E
  3
Sketchy
350
3F
  3
Thicken
350
37
  3
Wireframe
350
30
  3
X-Ray
350
40
  0
XRECORD
  5
9C
102
{ACAD_REACTORS
330
C
102
}
330
C
100
AcDbXrecord
280
     1
 90
        1
330
5A
  0
DICTIONARY
  5
98
102
{ACAD_REACTORS
330
C
102
}
330
C
100
AcDbDictionary
281
     1
  3
CANNOSCALE
350
99
  3
CENTEREXE
350
A1
  3
CENTERLTYPEFILE
350
A2
  3
CMLEADERSTYLE
350
9E
  3
CTABLESTYLE
350
9D
  0
LAYOUT
  5
1E
102
{ACAD_REACTORS
330
1A
102
}
330
1A
100
AcDbPlotSettings
  1

  2
none_device
  4

  6

 40
0.0
 41
0.0
 42
0.0
 43
0.0
 44
0.0
 45
0.0
 46
0.0
 47
0.0
 48
0.0
 49
0.0
140
0.0
141
0.0
142
1.0
143
1.0
 70
   688
 72
     1
 73
     0
 74
     5
  7

 75
    16
 76
     0
 77
     5
 78
   300
147
1.0
148
0.0
149
0.0
100
AcDbLayout
  1
Layout1
 70
     1
 71
     1
 10
0.0
 20
0.0
 11
420.0
 21
297.0
 12
0.0
 22
0.0
 32
0.0
 14
1.000000000000000E+20
 24
1.000000000000000E+20
 34
1.000000000000000E+20
 15
-1.000000000000000E+20
 25
-1.000000000000000E+20
 35
-1.000000000000000E+20
146
0.0
 13
0.0
 23
0.0
 33
0.0
 16
1.0
 26
0.0
 36
0.0
 17
0.0
 27
1.0
 37
0.0
 76
     0
330
1B
  0
LAYOUT
  5
26
102
{ACAD_REACTORS
330
1A
102
}
330
1A
100
AcDbPlotSettings
  1

  2
none_device
  4

  6

 40
0.0
 41
0.0
 42
0.0
 43
0.0
 44
0.0
 45
0.0
 46
0.0
 47
0.0
 48
0.0
 49
0.0
140
0.0
141
0.0
142
1.0
143
1.0
 70
   688
 72
     1
 73
     0
 74
     5
  7

 75
    16
 76
     0
 77
     5
 78
   300
147
1.0
148
0.0
149
0.0
100
AcDbLayout
  1
Layout2
 70
     1
 71
     2
 10
0.0
 20
0.0
 11
0.0
 21
0.0
 12
0.0
 22
0.0
 32
0.0
 14
0.0
 24
0.0
 34
0.0
 15
0.0
 25
0.0
 35
0.0
146
0.0
 13
0.0
 23
0.0
 33
0.0
 16
1.0
 26
0.0
 36
0.0
 17
0.0
 27
1.0
 37
0.0
 76
     0
330
23
  0
LAYOUT
  5
22
102
{ACAD_REACTORS
330
1A
102
}
330
1A
100
AcDbPlotSettings
  1

  2
none_device
  4
Letter_(8.50_x_11.00_Inches)
  6

 40
6.35
 41
6.35
 42
6.35000508
 43
6.35000508
 44
215.9
 45
279.4
 46
0.0
 47
0.0
 48
0.0
 49
0.0
140
0.0
141
0.0
142
1.0
143
1.0
 70
  1712
 72
     1
 73
     0
 74
     0
  7

 75
     0
 76
     0
 77
     5
 78
   300
147
1.0
148
0.0
149
0.0
100
AcDbLayout
  1
Model
 70
     1
 71
     0
 10
0.0
 20
0.0
 11
302.9997823349792
 21
216.0016055409748
 12
0.0
 22
0.0
 32
0.0
 14
0.0
 24
0.0
 34
0.0
 15
302.9997823349792
 25
216.0016055409748
 35
0.0
146
0.0
 13
0.0
 23
0.0
 33
0.0
 16
1.0
 26
0.0
 36
0.0
 17
0.0
 27
1.0
 37
0.0
 76
     0
330
1F
331
29
  0
MATERIAL
  5
45
102
{ACAD_REACTORS
330
43
102
}
330
43
100
AcDbMaterial
  1
ByBlock
 72
     1
 94
      127
  0
MATERIAL
  5
44
102
{ACAD_REACTORS
330
43
102
}
330
43
100
AcDbMaterial
  1
ByLayer
 72
     1
 94
      127
  0
MATERIAL
  5
46
102
{ACAD_REACTORS
330
43
102
}
330
43
100
AcDbMaterial
  1
Global
 72
     1
 94
      127
  0
MLEADERSTYLE
  5
5C
102
{ACAD_REACTORS
330
5B
102
}
330
5B
100
AcDbMLeaderStyle
179
     2
170
     2
171
     1
172
     0
 90
        2
 40
0.0
 41
0.0
173
     1
 91
-1056964608
340
14
 92
       -2
290
     1
 42
2.0
291
     1
 43
8.0
  3
Standard
341
0
 44
4.0
300

342
11
174
     1
178
     6
175
     1
176
     0
 93
-1056964608
 45
4.0
292
     0
297
     0
 46
4.0
343
0
 94
-1056964608
 47
1.0
 49
1.0
140
1.0
293
     1
141
0.0
294
     1
177
     0
142
1.0
295
     0
296
     0
143
3.75
271
     0
272
     9
273
     9
298
     0
  0
MLINESTYLE
  5
18
102
{ACAD_REACTORS
330
17
102
}
330
17
100
AcDbMlineStyle
  2
Standard
 70
     0
  3

 62
   256
 51
90.0
 52
90.0
 71
     2
 49
0.5
 62
   256
  6
BYLAYER
 49
-0.5
 62
   256
  6
BYLAYER
  0
ACDBPLACEHOLDER
  5
F
102
{ACAD_REACTORS
330
E
102
}
330
E
  0
SCALE
  5
48
102
{ACAD_REACTORS
330
47
102
}
330
47
100
AcDbScale
 70
     0
300
1:1
140
1.0
141
1.0
290
     1
  0
SCALE
  5
49
102
{ACAD_REACTORS
330
47
102
}
330
47
100
AcDbScale
 70
     0
300
1:2
140
1.0
141
2.0
290
     0
  0
SCALE
  5
4A
102
{ACAD_REACTORS
330
47
102
}
330
47
100
AcDbScale
 70
     0
300
1:4
140
1.0
141
4.0
290
     0
  0
SCALE
  5
4B
102
{ACAD_REACTORS
330
47
102
}
330
47
100
AcDbScale
 70
     0
300
1:5
140
1.0
141
5.0
290
     0
  0
SCALE
  5
4C
102
{ACAD_REACTORS
330
47
102
}
330
47
100
AcDbScale
 70
     0
300
1:8
140
1.0
141
8.0
290
     0
  0
SCALE
  5
4D
102
{ACAD_REACTORS
330
47
102
}
330
47
100
AcDbScale
 70
     0
300
1:10
140
1.0
141
10.0
290
     0
  0
SCALE
  5
4E
102
{ACAD_REACTORS
330
47
102
}
330
47
100
AcDbScale
 70
     0
300
1:16
140
1.0
141
16.0
290
     0
  0
SCALE
  5
4F
102
{ACAD_REACTORS
330
47
102
}
330
47
100
AcDbScale
 70
     0
300
1:20
140
1.0
141
20.0
290
     0
  0
SCALE
  5
50
102
{ACAD_REACTORS
330
47
102
}
330
47
100
AcDbScale
 70
     0
300
1:30
140
1.0
141
30.0
290
     0
  0
SCALE
  5
51
102
{ACAD_REACTORS
330
47
102
}
330
47
100
AcDbScale
 70
     0
300
1:40
140
1.0
141
40.0
290
     0
  0
SCALE
  5
52
102
{ACAD_REACTORS
330
47
102
}
330
47
100
AcDbScale
 70
     0
300
1:50
140
1.0
141
50.0
290
     0
  0
SCALE
  5
53
102
{ACAD_REACTORS
330
47
102
}
330
47
100
AcDbScale
 70
     0
300
1:100
140
1.0
141
100.0
290
     0
  0
SCALE
  5
54
102
{ACAD_REACTORS
330
47
102
}
330
47
100
AcDbScale
 70
     0
300
2:1
140
2.0
141
1.0
290
     0
  0
SCALE
  5
55
102
{ACAD_REACTORS
330
47
102
}
330
47
100
AcDbScale
 70
     0
300
4:1
140
4.0
141
1.0
290
     0
  0
SCALE
  5
56
102
{ACAD_REACTORS
330
47
102
}
330
47
100
AcDbScale
 70
     0
300
8:1
140
8.0
141
1.0
290
     0
  0
SCALE
  5
57
102
{ACAD_REACTORS
330
47
102
}
330
47
100
AcDbScale
 70
     0
300
10:1
140
10.0
141
1.0
290
     0
  0
SCALE
  5
58
102
{ACAD_REACTORS
330
47
102
}
330
47
100
AcDbScale
 70
     0
300
100:1
140
100.0
141
1.0
290
     0
  0
TABLESTYLE
  5
5A
102
{ACAD_REACTORS
330
59
102
}
102
{ACAD_XDICTIONARY
360
9A
102
}
330
59
100
AcDbTableStyle
  3
Standard
 70
     0
 71
     0
 40
0.06
 41
0.06
280
     0
281
     0
  7
Standard
140
4.5
170
     2
 62
     0
 63
   257
283
     0
 90
        4
 91
        0
  1

274
    -2
284
     1
 64
     0
275
    -2
285
     1
 65
     0
276
    -2
286
     1
 66
     0
277
    -2
287
     1
 67
     0
278
    -2
288
     1
 68
     0
279
    -2
289
     1
 69
     0
  7
Standard
140
6.0
170
     5
 62
     0
 63
   257
283
     0
 90
        4
 91
        0
  1

274
    -2
284
     1
 64
     0
275
    -2
285
     1
 65
     0
276
    -2
286
     1
 66
     0
277
    -2
287
     1
 67
     0
278
    -2
288
     1
 68
     0
279
    -2
289
     1
 69
     0
  7
Standard
140
4.5
170
     5
 62
     0
 63
   257
283
     0
 90
        4
 91
        0
  1

274
    -2
284
     1
 64
     0
275
    -2
285
     1
 65
     0
276
    -2
286
     1
 66
     0
277
    -2
287
     1
 67
     0
278
    -2
288
     1
 68
     0
279
    -2
289
     1
 69
     0
  0
VISUALSTYLE
  5
2F
102
{ACAD_REACTORS
330
2A
102
}
330
2A
100
AcDbVisualStyle
  2
2dWireframe
 70
     4
177
     3
291
     0
 70
    58
 90
        0
176
     1
 90
        2
176
     1
 90
        0
176
     1
 90
        0
176
     1
 40
0.6
176
     1
 40
30.0
176
     1
 62
     7
420
 16777215
176
     1
 90
        1
176
     1
 90
        4
176
     1
 62
     7
176
     1
 62
   257
176
     1
 90
        1
176
     1
 90
        1
176
     1
 40
1.0
176
     1
 90
        0
176
     1
 62
   257
176
     1
 40
1.0
176
     1
 90
        1
176
     1
 90
        6
176
     1
 90
        2
176
     1
 62
     7
176
     1
 90
        5
176
     1
 90
        0
176
     1
 90
        0
176
     1
290
     0
176
     1
 90
        1
176
     1
 40
0.0
176
     1
 90
        0
176
     1
290
     1
176
     1
290
     1
176
     1
290
     0
176
     1
290
     0
176
     1
290
     0
176
     1
290
     0
176
     1
290
     0
176
     1
290
     0
176
     1
290
     0
176
     1
 90
       50
176
     1
 40
0.0
176
     1
 40
1.0
176
     1
 90
        0
176
     1
 62
    18
420
        0
176
     1
 90
       50
176
     1
 90
        3
176
     1
 62
     5
420
      255
176
     1
290
     0
176
     1
 90
       50
176
     1
 90
       50
176
     1
 90
       50
176
     1
290
     0
176
     1
 90
       50
176
     1
 62
   256
176
     0
 40
1.0
176
     0
 90
        2
176
     1
  1
strokes_ogs.tif
176
     1
290
     0
176
     1
 40
1.0
176
     1
 40
1.0
176
     1
  0
VISUALSTYLE
  5
32
102
{ACAD_REACTORS
330
2A
102
}
330
2A
100
AcDbVisualStyle
  2
Basic
 70
     7
177
     3
291
     1
 70
    58
 90
        1
176
     1
 90
        0
176
     1
 90
        1
176
     1
 90
        0
176
     1
 40
0.6
176
     1
 40
30.0
176
     1
 62
     7
420
 16777215
176
     1
 90
        0
176
     1
 90
        4
176
     1
 62
     7
176
     1
 62
   257
176
     1
 90
        1
176
     1
 90
        1
176
     1
 40
1.0
176
     1
 90
        8
176
     1
 62
     7
176
     1
 40
1.0
176
     1
 90
        1
176
     1
 90
        6
176
     1
 90
        2
176
     1
 62
     7
176
     1
 90
        5
176
     1
 90
        0
176
     1
 90
        0
176
     1
290
     0
176
     1
 90
        1
176
     1
 40
0.0
176
     1
 90
        0
176
     1
290
     0
176
     1
290
     1
176
     1
290
     1
176
     1
290
     0
176
     1
290
     0
176
     1
290
     0
176
     1
290
     0
176
     1
290
     0
176
     1
290
     0
176
     1
 90
       50
176
     1
 40
0.0
176
     1
 40
1.0
176
     1
 90
        0
176
     1
 62
    18
420
        0
176
     1
 90
       50
176
     1
 90
        3
176
     1
 62
     5
420
      255
176
     1
290
     0
176
     1
 90
       50
176
     1
 90
       50
176
     1
 90
       50
176
     1
290
     0
176
     1
 90
       50
176
     1
 62
   256
176
     0
 40
1.0
176
     0
 90
        2
176
     1
  1
strokes_ogs.tif
176
     1
290
     0
176
     1
 40
1.0
176
     1
 40
1.0
176
     1
  0
VISUALSTYLE
  5
36
102
{ACAD_REACTORS
330
2A
102
}
330
2A
100
AcDbVisualStyle
  2
Brighten
 70
    12
177
     3
291
     1
 70
    58
 90
        2
176
     1
 90
        2
176
     1
 90
        0
176
     1
 90
        0
176
     1
 40
0.6
176
     1
 40
30.0
176
     1
 62
     7
420
 16777215
176
     1
 90
        1
176
     1
 90
        4
176
     1
 62
     7
176
     1
 62
   257
176
     1
 90
        1
176
     1
 90
        1
176
     1
 40
1.0
176
     1
 90
        8
176
     1
 62
     7
176
     1
 40
1.0
176
     1
 90
        1
176
     1
 90
        6
176
     1
 90
        2
176
     1
 62
     7
176
     1
 90
        5
176
     1
 90
        0
176
     1
 90
        0
176
     1
290
     0
176
     1
 90
        1
176
     1
 40
50.0
176
     1
 90
        0
176
     1
290
     0
176
     1
290
     1
176
     1
290
     1
176
     1
290
     0
176
     1
290
     0
176
     1
290
     0
176
     1
290
     0
176
     1
290
     0
176
     1
290
     0
176
     1
 90
       50
176
     1
 40
0.0
176
     1
 40
1.0
176
     1
 90
        0
176
     1
 62
    18
420
        0
176
     1
 90
       50
176
     1
 90
        3
176
     1
 62
     5
420
      255
176
     1
290
     0
176
     1
 90
       50
176
     1
 90
       50
176
     1
 90
       50
176
     1
290
     0
176
     1
 90
       50
176
     1
 62
   256
176
     0
 40
1.0
176
     0
 90
        2
176
     1
  1
strokes_ogs.tif
176
     1
290
     0
176
     1
 40
1.0
176
     1
 40
1.0
176
     1
  0
VISUALSTYLE
  5
3A
102
{ACAD_REACTORS
330
2A
102
}
330
2A
100
AcDbVisualStyle
  2
ColorChange
 70
    16
177
     3
291
     1
 70
    58
 90
        2
176
     1
 90
        2
176
     1
 90
        3
176
     1
 90
        0
176
     1
 40
0.6
176
     1
 40
30.0
176
     1
 62
     8
420
  8421504
176
     1
 90
        1
176
     1
 90
        4
176
     1
 62
     7
176
     1
 62
   257
176
     1
 90
        1
176
     1
 90
        1
176
     1
 40
1.0
176
     1
 90
        8
176
     1
 62
     8
420
  8421504
176
     1
 40
1.0
176
     1
 90
        1
176
     1
 90
        6
176
     1
 90
        2
176
     1
 62
     7
176
     1
 90
        5
176
     1
 90
        0
176
     1
 90
        0
176
     1
290
     0
176
     1
 90
        1
176
     1
 40
0.0
176
     1
 90
        0
176
     1
290
     0
176
     1
290
     1
176
     1
290
     1
176
     1
290
     0
176
     1
290
     0
176
     1
290
     0
176
     1
290
     0
176
     1
290
     0
176
     1
290
     0
176
     1
 90
       50
176
     1
 40
0.0
176
     1
 40
1.0
176
     1
 90
        0
176
     1
 62
    18
420
        0
176
     1
 90
       50
176
     1
 90
        3
176
     1
 62
     5
420
      255
176
     1
290
     0
176
     1
 90
       50
176
     1
 90
       50
176
     1
 90
       50
176
     1
290
     0
176
     1
 90
       50
176
     1
 62
   256
176
     0
 40
1.0
176
     0
 90
        2
176
     1
  1
strokes_ogs.tif
176
     1
290
     0
176
     1
 40
1.0
176
     1
 40
1.0
176
     1
  0
VISUALSTYLE
  5
34
102
{ACAD_REACTORS
330
2A
102
}
330
2A
100
AcDbVisualStyle
  2
Conceptual
 70
     9
177
     3
291
     0
 70
    58
 90
        3
176
     1
 90
        2
176
     1
 90
        0
176
     1
 90
        0
176
     1
 40
0.6
176
     1
 40
30.0
176
     1
 62
     7
420
 16777215
176
     1
 90
        2
176
     1
 90
        2
176
     1
 62
     7
176
     1
 62
   257
176
     1
 90
        1
176
     1
 90
        1
176
     1
 40
179.0
176
     1
 90
        8
176
     1
 62
     7
176
     1
 40
1.0
176
     1
 90
        1
176
     1
 90
        6
176
     1
 90
        2
176
     1
 62
     7
176
     1
 90
        3
176
     1
 90
        0
176
     1
 90
        0
176
     1
290
     0
176
     1
 90
        1
176
     1
 40
0.0
176
     1
 90
        0
176
     1
290
     0
176
     1
290
     1
176
     1
290
     1
176
     1
290
     0
176
     1
290
     0
176
     1
290
     0
176
     1
290
     0
176
     1
290
     0
176
     1
290
     0
176
     1
 90
       50
176
     1
 40
0.0
176
     1
 40
1.0
176
     1
 90
        0
176
     1
 62
    18
420
        0
176
     1
 90
       50
176
     1
 90
        3
176
     1
 62
     5
420
      255
176
     1
290
     0
176
     1
 90
       50
176
     1
 90
       50
176
     1
 90
       50
176
     1
290
     0
176
     1
 90
       50
176
     1
 62
   256
176
     0
 40
1.0
176
     0
 90
        2
176
     1
  1
strokes_ogs.tif
176
     1
290
     0
176
     1
 40
1.0
176
     1
 40
1.0
176
     1
  0
VISUALSTYLE
  5
35
102
{ACAD_REACTORS
330
2A
102
}
330
2A
100
AcDbVisualStyle
  2
Dim
 70
    11
177
     3
291
     1
 70
    58
 90
        2
176
     1
 90
        2
176
     1
 90
        0
176
     1
 90
        0
176
     1
 40
0.6
176
     1
 40
30.0
176
     1
 62
     7
420
 16777215
176
     1
 90
        1
176
     1
 90
        4
176
     1
 62
     7
176
     1
 62
   257
176
     1
 90
        1
176
     1
 90
        1
176
     1
 40
1.0
176
     1
 90
        8
176
     1
 62
     7
176
     1
 40
1.0
176
     1
 90
        1
176
     1
 90
        6
176
     1
 90
        2
176
     1
 62
     7
176
     1
 90
        5
176
     1
 90
        0
176
     1
 90
        0
176
     1
290
     0
176
     1
 90
        1
176
     1
 40
-50.0
176
     1
 90
        0
176
     1
290
     0
176
     1
290
     1
176
     1
290
     1
176
     1
290
     0
176
     1
290
     0
176
     1
290
     0
176
     1
290
     0
176
     1
290
     0
176
     1
290
     0
176
     1
 90
       50
176
     1
 40
0.0
176
     1
 40
1.0
176
     1
 90
        0
176
     1
 62
    18
420
        0
176
     1
 90
       50
176
     1
 90
        3
176
     1
 62
     5
420
      255
176
     1
290
     0
176
     1
 90
       50
176
     1
 90
       50
176
     1
 90
       50
176
     1
290
     0
176
     1
 90
       50
176
     1
 62
   256
176
     0
 40
1.0
176
     0
 90
        2
176
     1
  1
strokes_ogs.tif
176
     1
290
     0
176
     1
 40
1.0
176
     1
 40
1.0
176
     1
  0
VISUALSTYLE
  5
3D
102
{ACAD_REACTORS
330
2A
102
}
330
2A
100
AcDbVisualStyle
  2
EdgeColorOff
 70
    22
177
     3
291
     1
 70
    58
 90
        2
176
     0
 90
        2
176
     0
 90
        0
176
     0
 90
        0
176
     0
 40
0.6
176
     0
 40
30.0
176
     0
 62
     7
420
 16777215
176
     0
 90
        1
176
     0
 90
        4
176
     0
 62
     7
176
     0
 62
   257
176
     0
 90
        1
176
     0
 90
        1
176
     0
 40
1.0
176
     0
 90
        8
176
     2
 62
     7
176
     0
 40
1.0
176
     0
 90
        1
176
     0
 90
        6
176
     0
 90
        2
176
     0
 62
     7
176
     0
 90
        5
176
     0
 90
        0
176
     0
 90
        0
176
     0
290
     0
176
     0
 90
        1
176
     0
 40
0.0
176
     0
 90
        0
176
     0
290
     0
176
     0
290
     1
176
     0
290
     1
176
     0
290
     0
176
     0
290
     0
176
     0
290
     0
176
     0
290
     0
176
     0
290
     0
176
     0
290
     0
176
     0
 90
       50
176
     0
 40
0.0
176
     0
 40
1.0
176
     0
 90
        0
176
     0
 62
    18
420
        0
176
     0
 90
       50
176
     0
 90
        3
176
     0
 62
     5
420
      255
176
     0
290
     0
176
     0
 90
       50
176
     0
 90
       50
176
     0
 90
       50
176
     0
290
     0
176
     0
 90
       50
176
     0
 62
   256
176
     0
 40
1.0
176
     0
 90
        2
176
     0
  1
strokes_ogs.tif
176
     0
290
     0
176
     0
 40
1.0
176
     0
 40
1.0
176
     0
  0
VISUALSTYLE
  5
39
102
{ACAD_REACTORS
330
2A
102
}
330
2A
100
AcDbVisualStyle
  2
Facepattern
 70
    15
177
     3
291
     1
 70
    58
 90
        2
176
     1
 90
        2
176
     1
 90
        0
176
     1
 90
        0
176
     1
 40
0.6
176
     1
 40
30.0
176
     1
 62
     7
420
 16777215
176
     1
 90
        1
176
     1
 90
        4
176
     1
 62
     7
176
     1
 62
   257
176
     1
 90
        1
176
     1
 90
        1
176
     1
 40
1.0
176
     1
 90
        8
176
     1
 62
     7
176
     1
 40
1.0
176
     1
 90
        1
176
     1
 90
        6
176
     1
 90
        2
176
     1
 62
     7
176
     1
 90
        5
176
     1
 90
        0
176
     1
 90
        0
176
     1
290
     0
176
     1
 90
        1
176
     1
 40
0.0
176
     1
 90
        0
176
     1
290
     0
176
     1
290
     1
176
     1
290
     1
176
     1
290
     0
176
     1
290
     0
176
     1
290
     0
176
     1
290
     0
176
     1
290
     0
176
     1
290
     0
176
     1
 90
       50
176
     1
 40
0.0
176
     1
 40
1.0
176
     1
 90
        0
176
     1
 62
    18
420
        0
176
     1
 90
       50
176
     1
 90
        3
176
     1
 62
     5
420
      255
176
     1
290
     0
176
     1
 90
       50
176
     1
 90
       50
176
     1
 90
       50
176
     1
290
     0
176
     1
 90
       50
176
     1
 62
   256
176
     0
 40
1.0
176
     0
 90
        2
176
     1
  1
strokes_ogs.tif
176
     1
290
     0
176
     1
 40
1.0
176
     1
 40
1.0
176
     1
  0
VISUALSTYLE
  5
2B
102
{ACAD_REACTORS
330
2A
102
}
330
2A
100
AcDbVisualStyle
  2
Flat
 70
     0
177
     3
291
     1
 70
    58
 90
        2
176
     1
 90
        1
176
     1
 90
        1
176
     1
 90
        2
176
     1
 40
0.6
176
     1
 40
30.0
176
     1
 62
     7
420
 16777215
176
     1
 90
        0
176
     1
 90
        0
176
     1
 62
     7
176
     1
 62
   257
176
     1
 90
        1
176
     1
 90
        1
176
     1
 40
1.0
176
     1
 90
        8
176
     1
 62
     7
176
     1
 40
1.0
176
     1
 90
        1
176
     1
 90
        6
176
     1
 90
        2
176
     1
 62
     7
176
     1
 90
        5
176
     1
 90
        0
176
     1
 90
        0
176
     1
290
     0
176
     1
 90
       13
176
     1
 40
0.0
176
     1
 90
        0
176
     1
290
     0
176
     1
290
     1
176
     1
290
     1
176
     1
290
     0
176
     1
290
     0
176
     1
290
     0
176
     1
290
     0
176
     1
290
     0
176
     1
290
     0
176
     1
 90
       50
176
     1
 40
0.0
176
     1
 40
1.0
176
     1
 90
        0
176
     1
 62
    18
420
        0
176
     1
 90
       50
176
     1
 90
        3
176
     1
 62
     5
420
      255
176
     1
290
     0
176
     1
 90
       50
176
     1
 90
       50
176
     1
 90
       50
176
     1
290
     0
176
     1
 90
       50
176
     1
 62
   256
176
     0
 40
1.0
176
     0
 90
        2
176
     1
  1
strokes_ogs.tif
176
     1
290
     0
176
     1
 40
1.0
176
     1
 40
1.0
176
     1
  0
VISUALSTYLE
  5
2C
102
{ACAD_REACTORS
330
2A
102
}
330
2A
100
AcDbVisualStyle
  2
FlatWithEdges
 70
     1
177
     3
291
     1
 70
    58
 90
        2
176
     1
 90
        1
176
     1
 90
        1
176
     1
 90
        2
176
     1
 40
0.6
176
     1
 40
30.0
176
     1
 62
     7
420
 16777215
176
     1
 90
        1
176
     1
 90
        0
176
     1
 62
     7
176
     1
 62
   257
176
     1
 90
        1
176
     1
 90
        1
176
     1
 40
1.0
176
     1
 90
        0
176
     1
 62
   257
176
     1
 40
1.0
176
     1
 90
        1
176
     1
 90
        6
176
     1
 90
        2
176
     1
 62
     7
176
     1
 90
        5
176
     1
 90
        0
176
     1
 90
        0
176
     1
290
     0
176
     1
 90
       13
176
     1
 40
0.0
176
     1
 90
        0
176
     1
290
     0
176
     1
290
     1
176
     1
290
     1
176
     1
290
     0
176
     1
290
     0
176
     1
290
     0
176
     1
290
     0
176
     1
290
     0
176
     1
290
     0
176
     1
 90
       50
176
     1
 40
0.0
176
     1
 40
1.0
176
     1
 90
        0
176
     1
 62
    18
420
        0
176
     1
 90
       50
176
     1
 90
        3
176
     1
 62
     5
420
      255
176
     1
290
     0
176
     1
 90
       50
176
     1
 90
       50
176
     1
 90
       50
176
     1
290
     0
176
     1
 90
       50
176
     1
 62
   256
176
     0
 40
1.0
176
     0
 90
        2
176
     1
  1
strokes_ogs.tif
176
     1
290
     0
176
     1
 40
1.0
176
     1
 40
1.0
176
     1
  0
VISUALSTYLE
  5
2D
102
{ACAD_REACTORS
330
2A
102
}
330
2A
100
AcDbVisualStyle
  2
Gouraud
 70
     2
177
     3
291
     1
 70
    58
 90
        2
176
     1
 90
        2
176
     1
 90
        1
176
     1
 90
        2
176
     1
 40
0.6
176
     1
 40
30.0
176
     1
 62
     7
420
 16777215
176
     1
 90
        0
176
     1
 90
        0
176
     1
 62
     7
176
     1
 62
   257
176
     1
 90
        1
176
     1
 90
        1
176
     1
 40
1.0
176
     1
 90
        0
176
     1
 62
     7
176
     1
 40
1.0
176
     1
 90
        1
176
     1
 90
        6
176
     1
 90
        2
176
     1
 62
     7
176
     1
 90
        5
176
     1
 90
        0
176
     1
 90
        0
176
     1
290
     0
176
     1
 90
       13
176
     1
 40
0.0
176
     1
 90
        0
176
     1
290
     0
176
     1
290
     1
176
     1
290
     1
176
     1
290
     0
176
     1
290
     0
176
     1
290
     0
176
     1
290
     0
176
     1
290
     0
176
     1
290
     0
176
     1
 90
       50
176
     1
 40
0.0
176
     1
 40
1.0
176
     1
 90
        0
176
     1
 62
    18
420
        0
176
     1
 90
       50
176
     1
 90
        3
176
     1
 62
     5
420
      255
176
     1
290
     0
176
     1
 90
       50
176
     1
 90
       50
176
     1
 90
       50
176
     1
290
     0
176
     1
 90
       50
176
     1
 62
   256
176
     0
 40
1.0
176
     0
 90
        2
176
     1
  1
strokes_ogs.tif
176
     1
290
     0
176
     1
 40
1.0
176
     1
 40
1.0
176
     1
  0
VISUALSTYLE
  5
2E
102
{ACAD_REACTORS
330
2A
102
}
330
2A
100
AcDbVisualStyle
  2
GouraudWithEdges
 70
     3
177
     3
291
     1
 70
    58
 90
        2
176
     1
 90
        2
176
     1
 90
        1
176
     1
 90
        2
176
     1
 40
0.6
176
     1
 40
30.0
176
     1
 62
     7
420
 16777215
176
     1
 90
        1
176
     1
 90
        0
176
     1
 62
     7
176
     1
 62
   257
176
     1
 90
        1
176
     1
 90
        1
176
     1
 40
1.0
176
     1
 90
        0
176
     1
 62
   257
176
     1
 40
1.0
176
     1
 90
        1
176
     1
 90
        6
176
     1
 90
        2
176
     1
 62
     7
176
     1
 90
        5
176
     1
 90
        0
176
     1
 90
        0
176
     1
290
     0
176
     1
 90
       13
176
     1
 40
0.0
176
     1
 90
        0
176
     1
290
     0
176
     1
290
     1
176
     1
290
     1
176
     1
290
     0
176
     1
290
     0
176
     1
290
     0
176
     1
290
     0
176
     1
290
     0
176
     1
290
     0
176
     1
 90
       50
176
     1
 40
0.0
176
     1
 40
1.0
176
     1
 90
        0
176
     1
 62
    18
420
        0
176
     1
 90
       50
176
     1
 90
        3
176
     1
 62
     5
420
      255
176
     1
290
     0
176
     1
 90
       50
176
     1
 90
       50
176
     1
 90
       50
176
     1
290
     0
176
     1
 90
       50
176
     1
 62
   256
176
     0
 40
1.0
176
     0
 90
        2
176
     1
  1
strokes_ogs.tif
176
     1
290
     0
176
     1
 40
1.0
176
     1
 40
1.0
176
     1
  0
VISUALSTYLE
  5
31
102
{ACAD_REACTORS
330
2A
102
}
330
2A
100
AcDbVisualStyle
  2
Hidden
 70
     6
177
     3
291
     0
 70
    58
 90
        1
176
     1
 90
        2
176
     1
 90
        2
176
     1
 90
        0
176
     1
 40
0.6
176
     1
 40
30.0
176
     1
 62
     7
420
 16777215
176
     1
 90
        2
176
     1
 90
        2
176
     1
 62
     7
176
     1
 62
   257
176
     1
 90
        2
176
     1
 90
        1
176
     1
 40
40.0
176
     1
 90
        0
176
     1
 62
   257
176
     1
 40
1.0
176
     1
 90
        1
176
     1
 90
        6
176
     1
 90
        2
176
     1
 62
     7
176
     1
 90
        3
176
     1
 90
        0
176
     1
 90
        0
176
     1
290
     0
176
     1
 90
        1
176
     1
 40
0.0
176
     1
 90
        0
176
     1
290
     0
176
     1
290
     1
176
     1
290
     1
176
     1
290
     0
176
     1
290
     0
176
     1
290
     0
176
     1
290
     0
176
     1
290
     0
176
     1
290
     0
176
     1
 90
       50
176
     1
 40
0.0
176
     1
 40
1.0
176
     1
 90
        0
176
     1
 62
    18
420
        0
176
     1
 90
       50
176
     1
 90
        3
176
     1
 62
     5
420
      255
176
     1
290
     0
176
     1
 90
       50
176
     1
 90
       50
176
     1
 90
       50
176
     1
290
     0
176
     1
 90
       50
176
     1
 62
   256
176
     0
 40
1.0
176
     0
 90
        2
176
     1
  1
strokes_ogs.tif
176
     1
290
     0
176
     1
 40
1.0
176
     1
 40
1.0
176
     1
  0
VISUALSTYLE
  5
3B
102
{ACAD_REACTORS
330
2A
102
}
330
2A
100
AcDbVisualStyle
  2
JitterOff
 70
    20
177
     3
291
     1
 70
    58
 90
        2
176
     0
 90
        2
176
     0
 90
        0
176
     0
 90
        0
176
     0
 40
0.6
176
     0
 40
30.0
176
     0
 62
     7
420
 16777215
176
     0
 90
        1
176
     0
 90
        4
176
     0
 62
     7
176
     0
 62
   257
176
     0
 90
        1
176
     0
 90
        1
176
     0
 40
1.0
176
     0
 90
       10
176
     2
 62
     7
176
     0
 40
1.0
176
     0
 90
        1
176
     0
 90
        6
176
     0
 90
        2
176
     0
 62
     7
176
     0
 90
        5
176
     0
 90
        0
176
     0
 90
        0
176
     0
290
     0
176
     0
 90
        1
176
     0
 40
0.0
176
     0
 90
        0
176
     0
290
     0
176
     0
290
     1
176
     0
290
     1
176
     0
290
     0
176
     0
290
     0
176
     0
290
     0
176
     0
290
     0
176
     0
290
     0
176
     0
290
     0
176
     0
 90
       50
176
     0
 40
0.0
176
     0
 40
1.0
176
     0
 90
        0
176
     0
 62
    18
420
        0
176
     0
 90
       50
176
     0
 90
        3
176
     0
 62
     5
420
      255
176
     0
290
     0
176
     0
 90
       50
176
     0
 90
       50
176
     0
 90
       50
176
     0
290
     0
176
     0
 90
       50
176
     0
 62
   256
176
     0
 40
1.0
176
     0
 90
        2
176
     0
  1
strokes_ogs.tif
176
     0
290
     0
176
     0
 40
1.0
176
     0
 40
1.0
176
     0
  0
VISUALSTYLE
  5
38
102
{ACAD_REACTORS
330
2A
102
}
330
2A
100
AcDbVisualStyle
  2
Linepattern
 70
    14
177
     3
291
     1
 70
    58
 90
        2
176
     1
 90
        2
176
     1
 90
        0
176
     1
 90
        0
176
     1
 40
0.6
176
     1
 40
30.0
176
     1
 62
     7
420
 16777215
176
     1
 90
        1
176
     1
 90
        4
176
     1
 62
     7
176
     1
 62
   257
176
     1
 90
        7
176
     1
 90
        7
176
     1
 40
1.0
176
     1
 90
        8
176
     1
 62
     7
176
     1
 40
1.0
176
     1
 90
        1
176
     1
 90
        6
176
     1
 90
        2
176
     1
 62
     7
176
     1
 90
        5
176
     1
 90
        0
176
     1
 90
        0
176
     1
290
     0
176
     1
 90
        1
176
     1
 40
0.0
176
     1
 90
        0
176
     1
290
     0
176
     1
290
     1
176
     1
290
     1
176
     1
290
     0
176
     1
290
     0
176
     1
290
     0
176
     1
290
     0
176
     1
290
     0
176
     1
290
     0
176
     1
 90
       50
176
     1
 40
0.0
176
     1
 40
1.0
176
     1
 90
        0
176
     1
 62
    18
420
        0
176
     1
 90
       50
176
     1
 90
        3
176
     1
 62
     5
420
      255
176
     1
290
     0
176
     1
 90
       50
176
     1
 90
       50
176
     1
 90
       50
176
     1
290
     0
176
     1
 90
       50
176
     1
 62
   256
176
     0
 40
1.0
176
     0
 90
        2
176
     1
  1
strokes_ogs.tif
176
     1
290
     0
176
     1
 40
1.0
176
     1
 40
1.0
176
     1
  0
VISUALSTYLE
  5
3C
102
{ACAD_REACTORS
330
2A
102
}
330
2A
100
AcDbVisualStyle
  2
OverhangOff
 70
    21
177
     3
291
     1
 70
    58
 90
        2
176
     0
 90
        2
176
     0
 90
        0
176
     0
 90
        0
176
     0
 40
0.6
176
     0
 40
30.0
176
     0
 62
     7
420
 16777215
176
     0
 90
        1
176
     0
 90
        4
176
     0
 62
     7
176
     0
 62
   257
176
     0
 90
        1
176
     0
 90
        1
176
     0
 40
1.0
176
     0
 90
        9
176
     2
 62
     7
176
     0
 40
1.0
176
     0
 90
        1
176
     0
 90
        6
176
     0
 90
        2
176
     0
 62
     7
176
     0
 90
        5
176
     0
 90
        0
176
     0
 90
        0
176
     0
290
     0
176
     0
 90
        1
176
     0
 40
0.0
176
     0
 90
        0
176
     0
290
     0
176
     0
290
     1
176
     0
290
     1
176
     0
290
     0
176
     0
290
     0
176
     0
290
     0
176
     0
290
     0
176
     0
290
     0
176
     0
290
     0
176
     0
 90
       50
176
     0
 40
0.0
176
     0
 40
1.0
176
     0
 90
        0
176
     0
 62
    18
420
        0
176
     0
 90
       50
176
     0
 90
        3
176
     0
 62
     5
420
      255
176
     0
290
     0
176
     0
 90
       50
176
     0
 90
       50
176
     0
 90
       50
176
     0
290
     0
176
     0
 90
       50
176
     0
 62
   256
176
     0
 40
1.0
176
     0
 90
        2
176
     0
  1
strokes_ogs.tif
176
     0
290
     0
176
     0
 40
1.0
176
     0
 40
1.0
176
     0
  0
VISUALSTYLE
  5
33
102
{ACAD_REACTORS
330
2A
102
}
330
2A
100
AcDbVisualStyle
  2
Realistic
 70
     8
177
     3
291
     0
 70
    58
 90
        2
176
     1
 90
        3
176
     1
 90
        0
176
     1
 90
        2
176
     1
 40
0.6
176
     1
 40
30.0
176
     1
 62
     7
420
 16777215
176
     1
 90
        0
176
     1
 90
        0
176
     1
 62
     7
176
     1
 62
   257
176
     1
 90
        1
176
     1
 90
        1
176
     1
 40
1.0
176
     1
 90
        8
176
     1
 62
   257
176
     1
 40
1.0
176
     1
 90
        1
176
     1
 90
        6
176
     1
 90
        2
176
     1
 62
     7
176
     1
 90
        3
176
     1
 90
        0
176
     1
 90
        0
176
     1
290
     0
176
     1
 90
       13
176
     1
 40
0.0
176
     1
 90
        0
176
     1
290
     0
176
     1
290
     1
176
     1
290
     1
176
     1
290
     0
176
     1
290
     0
176
     1
290
     0
176
     1
290
     0
176
     1
290
     0
176
     1
290
     0
176
     1
 90
       50
176
     1
 40
0.0
176
     1
 40
1.0
176
     1
 90
        0
176
     1
 62
    18
420
        0
176
     1
 90
       50
176
     1
 90
        3
176
     1
 62
     5
420
      255
176
     1
290
     0
176
     1
 90
       50
176
     1
 90
       50
176
     1
 90
       50
176
     1
290
     0
176
     1
 90
       50
176
     1
 62
   256
176
     0
 40
1.0
176
     0
 90
        2
176
     1
  1
strokes_ogs.tif
176
     1
290
     0
176
     1
 40
1.0
176
     1
 40
1.0
176
     1
  0
VISUALSTYLE
  5
42
102
{ACAD_REACTORS
330
2A
102
}
330
2A
100
AcDbVisualStyle
  2
Shaded
 70
    27
177
     3
291
     0
 70
    58
 90
        2
176
     1
 90
        2
176
     1
 90
        1
176
     1
 90
        2
176
     1
 40
0.6
176
     1
 40
30.0
176
     1
 62
     7
420
 16777215
176
     1
 90
        0
176
     1
 90
        4
176
     1
 62
     7
176
     1
 62
   257
176
     1
 90
        1
176
     1
 90
        1
176
     1
 40
1.0
176
     1
 90
        8
176
     1
 62
   257
176
     1
 40
1.0
176
     1
 90
        1
176
     1
 90
        6
176
     1
 90
        2
176
     1
 62
     8
420
  7895160
176
     1
 90
        3
176
     1
 90
        0
176
     1
 90
        0
176
     1
290
     0
176
     1
 90
        5
176
     1
 40
0.0
176
     1
 90
        0
176
     1
290
     0
176
     1
290
     1
176
     1
290
     1
176
     1
290
     0
176
     1
290
     0
176
     1
290
     0
176
     1
290
     0
176
     1
290
     0
176
     1
290
     0
176
     1
 90
       50
176
     1
 40
0.0
176
     1
 40
1.0
176
     1
 90
        0
176
     1
 62
    18
420
        0
176
     1
 90
       50
176
     1
 90
        3
176
     1
 62
     5
420
      255
176
     1
290
     0
176
     1
 90
       50
176
     1
 90
       50
176
     1
 90
       50
176
     1
290
     0
176
     1
 90
       50
176
     1
 62
   256
176
     0
 40
1.0
176
     0
 90
        2
176
     1
  1
strokes_ogs.tif
176
     1
290
     0
176
     1
 40
1.0
176
     1
 40
1.0
176
     1
  0
VISUALSTYLE
  5
41
102
{ACAD_REACTORS
330
2A
102
}
330
2A
100
AcDbVisualStyle
  2
Shaded with edges
 70
    26
177
     3
291
     0
 70
    58
 90
        2
176
     1
 90
        2
176
     1
 90
        1
176
     1
 90
        2
176
     1
 40
0.6
176
     1
 40
30.0
176
     1
 62
     7
420
 16777215
176
     1
 90
        1
176
     1
 90
       10
176
     1
 62
     7
176
     1
 62
   257
176
     1
 90
        2
176
     1
 90
        1
176
     1
 40
1.0
176
     1
 90
        8
176
     1
 62
   257
176
     1
 40
1.0
176
     1
 90
        1
176
     1
 90
        6
176
     1
 90
        2
176
     1
 62
     7
176
     1
 90
        3
176
     1
 90
        0
176
     1
 90
        0
176
     1
290
     0
176
     1
 90
        5
176
     1
 40
0.0
176
     1
 90
        0
176
     1
290
     0
176
     1
290
     1
176
     1
290
     1
176
     1
290
     0
176
     1
290
     0
176
     1
290
     0
176
     1
290
     0
176
     1
290
     0
176
     1
290
     0
176
     1
 90
       50
176
     1
 40
0.0
176
     1
 40
1.0
176
     1
 90
        0
176
     1
 62
    18
420
        0
176
     1
 90
       50
176
     1
 90
        3
176
     1
 62
     5
420
      255
176
     1
290
     0
176
     1
 90
       50
176
     1
 90
       50
176
     1
 90
       50
176
     1
290
     0
176
     1
 90
       50
176
     1
 62
   256
176
     0
 40
1.0
176
     0
 90
        2
176
     1
  1
strokes_ogs.tif
176
     1
290
     0
176
     1
 40
1.0
176
     1
 40
1.0
176
     1
  0
VISUALSTYLE
  5
3E
102
{ACAD_REACTORS
330
2A
102
}
330
2A
100
AcDbVisualStyle
  2
Shades of Gray
 70
    23
177
     3
291
     0
 70
    58
 90
        2
176
     1
 90
        2
176
     1
 90
        3
176
     1
 90
        0
176
     1
 40
0.6
176
     1
 40
30.0
176
     1
 62
     7
420
 16777215
176
     1
 90
        2
176
     1
 90
        2
176
     1
 62
     7
176
     1
 62
     7
176
     1
 90
        1
176
     1
 90
        1
176
     1
 40
40.0
176
     1
 90
        8
176
     1
 62
     7
176
     1
 40
1.0
176
     1
 90
        1
176
     1
 90
        6
176
     1
 90
        2
176
     1
 62
     7
176
     1
 90
        3
176
     1
 90
        0
176
     1
 90
        0
176
     1
290
     0
176
     1
 90
        1
176
     1
 40
0.0
176
     1
 90
        0
176
     1
290
     0
176
     1
290
     1
176
     1
290
     1
176
     1
290
     0
176
     1
290
     0
176
     1
290
     0
176
     1
290
     0
176
     1
290
     0
176
     1
290
     0
176
     1
 90
       50
176
     1
 40
0.0
176
     1
 40
1.0
176
     1
 90
        0
176
     1
 62
    18
420
        0
176
     1
 90
       50
176
     1
 90
        3
176
     1
 62
     5
420
      255
176
     1
290
     0
176
     1
 90
       50
176
     1
 90
       50
176
     1
 90
       50
176
     1
290
     0
176
     1
 90
       50
176
     1
 62
   256
176
     0
 40
1.0
176
     0
 90
        2
176
     1
  1
strokes_ogs.tif
176
     1
290
     0
176
     1
 40
1.0
176
     1
 40
1.0
176
     1
  0
VISUALSTYLE
  5
3F
102
{ACAD_REACTORS
330
2A
102
}
330
2A
100
AcDbVisualStyle
  2
Sketchy
 70
    24
177
     3
291
     0
 70
    58
 90
        1
176
     1
 90
        2
176
     1
 90
        2
176
     1
 90
        0
176
     1
 40
0.6
176
     1
 40
30.0
176
     1
 62
     7
420
 16777215
176
     1
 90
        2
176
     1
 90
        2
176
     1
 62
     7
176
     1
 62
     7
176
     1
 90
        1
176
     1
 90
        1
176
     1
 40
40.0
176
     1
 90
       11
176
     1
 62
     7
176
     1
 40
1.0
176
     1
 90
        1
176
     1
 90
        6
176
     1
 90
        2
176
     1
 62
     7
176
     1
 90
        6
176
     1
 90
        0
176
     1
 90
        0
176
     1
290
     0
176
     1
 90
        1
176
     1
 40
0.0
176
     1
 90
        0
176
     1
290
     0
176
     1
290
     1
176
     1
290
     1
176
     1
290
     0
176
     1
290
     0
176
     1
290
     0
176
     1
290
     0
176
     1
290
     0
176
     1
290
     0
176
     1
 90
       50
176
     1
 40
0.0
176
     1
 40
1.0
176
     1
 90
        0
176
     1
 62
    18
420
        0
176
     1
 90
       50
176
     1
 90
        3
176
     1
 62
     5
420
      255
176
     1
290
     0
176
     1
 90
       50
176
     1
 90
       50
176
     1
 90
       50
176
     1
290
     0
176
     1
 90
       50
176
     1
 62
   256
176
     0
 40
1.0
176
     0
 90
        2
176
     1
  1
strokes_ogs.tif
176
     1
290
     0
176
     1
 40
1.0
176
     1
 40
1.0
176
     1
  0
VISUALSTYLE
  5
37
102
{ACAD_REACTORS
330
2A
102
}
330
2A
100
AcDbVisualStyle
  2
Thicken
 70
    13
177
     3
291
     1
 70
    58
 90
        2
176
     1
 90
        2
176
     1
 90
        0
176
     1
 90
        0
176
     1
 40
0.6
176
     1
 40
30.0
176
     1
 62
     7
420
 16777215
176
     1
 90
        1
176
     1
 90
        4
176
     1
 62
     7
176
     1
 62
   257
176
     1
 90
        1
176
     1
 90
        1
176
     1
 40
1.0
176
     1
 90
       12
176
     1
 62
     7
176
     1
 40
1.0
176
     1
 90
        1
176
     1
 90
        6
176
     1
 90
        2
176
     1
 62
     7
176
     1
 90
        5
176
     1
 90
        0
176
     1
 90
        0
176
     1
290
     0
176
     1
 90
        1
176
     1
 40
0.0
176
     1
 90
        0
176
     1
290
     0
176
     1
290
     1
176
     1
290
     1
176
     1
290
     0
176
     1
290
     0
176
     1
290
     0
176
     1
290
     0
176
     1
290
     0
176
     1
290
     0
176
     1
 90
       50
176
     1
 40
0.0
176
     1
 40
1.0
176
     1
 90
        0
176
     1
 62
    18
420
        0
176
     1
 90
       50
176
     1
 90
        3
176
     1
 62
     5
420
      255
176
     1
290
     0
176
     1
 90
       50
176
     1
 90
       50
176
     1
 90
       50
176
     1
290
     0
176
     1
 90
       50
176
     1
 62
   256
176
     0
 40
1.0
176
     0
 90
        2
176
     1
  1
strokes_ogs.tif
176
     1
290
     0
176
     1
 40
1.0
176
     1
 40
1.0
176
     1
  0
VISUALSTYLE
  5
30
102
{ACAD_REACTORS
330
2A
102
}
330
2A
100
AcDbVisualStyle
  2
Wireframe
 70
     5
177
     3
291
     0
 70
    58
 90
        0
176
     1
 90
        2
176
     1
 90
        0
176
     1
 90
        0
176
     1
 40
0.6
176
     1
 40
30.0
176
     1
 62
     7
420
 16777215
176
     1
 90
        1
176
     1
 90
        4
176
     1
 62
     7
176
     1
 62
   257
176
     1
 90
        1
176
     1
 90
        1
176
     1
 40
1.0
176
     1
 90
        0
176
     1
 62
   257
176
     1
 40
1.0
176
     1
 90
        1
176
     1
 90
        6
176
     1
 90
        2
176
     1
 62
     7
176
     1
 90
        3
176
     1
 90
        0
176
     1
 90
        0
176
     1
290
     0
176
     1
 90
        1
176
     1
 40
0.0
176
     1
 90
        0
176
     1
290
     0
176
     1
290
     1
176
     1
290
     1
176
     1
290
     0
176
     1
290
     0
176
     1
290
     0
176
     1
290
     0
176
     1
290
     0
176
     1
290
     0
176
     1
 90
       50
176
     1
 40
0.0
176
     1
 40
1.0
176
     1
 90
        0
176
     1
 62
    18
420
        0
176
     1
 90
       50
176
     1
 90
        3
176
     1
 62
     5
420
      255
176
     1
290
     0
176
     1
 90
       50
176
     1
 90
       50
176
     1
 90
       50
176
     1
290
     0
176
     1
 90
       50
176
     1
 62
   256
176
     0
 40
1.0
176
     0
 90
        2
176
     1
  1
strokes_ogs.tif
176
     1
290
     0
176
     1
 40
1.0
176
     1
 40
1.0
176
     1
  0
VISUALSTYLE
  5
40
102
{ACAD_REACTORS
330
2A
102
}
330
2A
100
AcDbVisualStyle
  2
X-Ray
 70
    25
177
     3
291
     0
 70
    58
 90
        2
176
     1
 90
        2
176
     1
 90
        1
176
     1
 90
        1
176
     1
 40
0.5
176
     1
 40
30.0
176
     1
 62
     7
420
 16777215
176
     1
 90
        1
176
     1
 90
        0
176
     1
 62
     7
176
     1
 62
   257
176
     1
 90
        1
176
     1
 90
        1
176
     1
 40
1.0
176
     1
 90
        8
176
     1
 62
     7
176
     1
 40
1.0
176
     1
 90
        1
176
     1
 90
        6
176
     1
 90
        2
176
     1
 62
     7
176
     1
 90
        3
176
     1
 90
        0
176
     1
 90
        0
176
     1
290
     0
176
     1
 90
       13
176
     1
 40
0.0
176
     1
 90
        0
176
     1
290
     0
176
     1
290
     1
176
     1
290
     1
176
     1
290
     0
176
     1
290
     0
176
     1
290
     0
176
     1
290
     0
176
     1
290
     0
176
     1
290
     0
176
     1
 90
       50
176
     1
 40
0.0
176
     1
 40
1.0
176
     1
 90
        0
176
     1
 62
    18
420
        0
176
     1
 90
       50
176
     1
 90
        3
176
     1
 62
     5
420
      255
176
     1
290
     0
176
     1
 90
       50
176
     1
 90
       50
176
     1
 90
       50
176
     1
290
     0
176
     1
 90
       50
176
     1
 62
   256
176
     0
 40
1.0
176
     0
 90
        2
176
     1
  1
strokes_ogs.tif
176
     1
290
     0
176
     1
 40
1.0
176
     1
 40
1.0
176
     1
  0
DICTIONARYVAR
  5
99
102
{ACAD_REACTORS
330
98
102
}
330
98
100
DictionaryVariables
280
     0
  1
1:1
  0
DICTIONARYVAR
  5
A1
102
{ACAD_REACTORS
330
98
102
}
330
98
100
DictionaryVariables
280
     0
  1
3.500000
  0
DICTIONARYVAR
  5
A2
102
{ACAD_REACTORS
330
98
102
}
330
98
100
DictionaryVariables
280
     0
  1
acadiso.lin
  0
DICTIONARYVAR
  5
9E
102
{ACAD_REACTORS
330
98
102
}
330
98
100
DictionaryVariables
280
     0
  1
Standard
  0
DICTIONARYVAR
  5
9D
102
{ACAD_REACTORS
330
98
102
}
330
98
100
DictionaryVariables
280
     0
  1
Standard
  0
DICTIONARY
  5
9A
330
5A
100
AcDbDictionary
280
     1
281
     1
  3
ACAD_ROUNDTRIP_2008_TABLESTYLE_CELLSTYLEMAP
360
9B
  0
CELLSTYLEMAP
  5
9B
102
{ACAD_REACTORS
330
9A
102
}
330
9A
100
AcDbCellStyleMap
 90
        3
300
CELLSTYLE
  1
TABLEFORMAT_BEGIN
 90
        5
170
     1
 91
        0
 92
    32768
 62
   257
 93
        1
300
CONTENTFORMAT
  1
CONTENTFORMAT_BEGIN
 90
        0
 91
        0
 92
        4
 93
        0
300

 40
0.0
140
1.0
 94
        5
 62
     0
340
11
144
6.0
309
CONTENTFORMAT_END
171
     1
301
MARGIN
  1
CELLMARGIN_BEGIN
 40
1.5
 40
1.5
 40
1.5
 40
1.5
 40
1.5
 40
1.5
309
CELLMARGIN_END
 94
        6
 95
        1
302
GRIDFORMAT
  1
GRIDFORMAT_BEGIN
 90
        0
 91
        1
 62
     0
 92
       -2
340
14
 93
        0
 40
0.045
309
GRIDFORMAT_END
 95
        2
302
GRIDFORMAT
  1
GRIDFORMAT_BEGIN
 90
        0
 91
        1
 62
     0
 92
       -2
340
14
 93
        0
 40
0.045
309
GRIDFORMAT_END
 95
        4
302
GRIDFORMAT
  1
GRIDFORMAT_BEGIN
 90
        0
 91
        1
 62
     0
 92
       -2
340
14
 93
        0
 40
0.045
309
GRIDFORMAT_END
 95
        8
302
GRIDFORMAT
  1
GRIDFORMAT_BEGIN
 90
        0
 91
        1
 62
     0
 92
       -2
340
14
 93
        0
 40
0.045
309
GRIDFORMAT_END
 95
       16
302
GRIDFORMAT
  1
GRIDFORMAT_BEGIN
 90
        0
 91
        1
 62
     0
 92
       -2
340
14
 93
        0
 40
0.045
309
GRIDFORMAT_END
 95
       32
302
GRIDFORMAT
  1
GRIDFORMAT_BEGIN
 90
        0
 91
        1
 62
     0
 92
       -2
340
14
 93
        0
 40
0.045
309
GRIDFORMAT_END
309
TABLEFORMAT_END
  1
CELLSTYLE_BEGIN
 90
        1
 91
        1
300
_TITLE
309
CELLSTYLE_END
300
CELLSTYLE
  1
TABLEFORMAT_BEGIN
 90
        5
170
     1
 91
        0
 92
        0
 62
   257
 93
        1
300
CONTENTFORMAT
  1
CONTENTFORMAT_BEGIN
 90
        0
 91
        0
 92
        4
 93
        0
300

 40
0.0
140
1.0
 94
        5
 62
     0
340
11
144
4.5
309
CONTENTFORMAT_END
171
     1
301
MARGIN
  1
CELLMARGIN_BEGIN
 40
1.5
 40
1.5
 40
1.5
 40
1.5
 40
1.5
 40
1.5
309
CELLMARGIN_END
 94
        6
 95
        1
302
GRIDFORMAT
  1
GRIDFORMAT_BEGIN
 90
        0
 91
        1
 62
     0
 92
       -2
340
14
 93
        0
 40
0.045
309
GRIDFORMAT_END
 95
        2
302
GRIDFORMAT
  1
GRIDFORMAT_BEGIN
 90
        0
 91
        1
 62
     0
 92
       -2
340
14
 93
        0
 40
0.045
309
GRIDFORMAT_END
 95
        4
302
GRIDFORMAT
  1
GRIDFORMAT_BEGIN
 90
        0
 91
        1
 62
     0
 92
       -2
340
14
 93
        0
 40
0.045
309
GRIDFORMAT_END
 95
        8
302
GRIDFORMAT
  1
GRIDFORMAT_BEGIN
 90
        0
 91
        1
 62
     0
 92
       -2
340
14
 93
        0
 40
0.045
309
GRIDFORMAT_END
 95
       16
302
GRIDFORMAT
  1
GRIDFORMAT_BEGIN
 90
        0
 91
        1
 62
     0
 92
       -2
340
14
 93
        0
 40
0.045
309
GRIDFORMAT_END
 95
       32
302
GRIDFORMAT
  1
GRIDFORMAT_BEGIN
 90
        0
 91
        1
 62
     0
 92
       -2
340
14
 93
        0
 40
0.045
309
GRIDFORMAT_END
309
TABLEFORMAT_END
  1
CELLSTYLE_BEGIN
 90
        2
 91
        1
300
_HEADER
309
CELLSTYLE_END
300
CELLSTYLE
  1
TABLEFORMAT_BEGIN
 90
        5
170
     1
 91
        0
 92
        0
 62
   257
 93
        1
300
CONTENTFORMAT
  1
CONTENTFORMAT_BEGIN
 90
        0
 91
        0
 92
        4
 93
        0
300

 40
0.0
140
1.0
 94
        2
 62
     0
340
11
144
4.5
309
CONTENTFORMAT_END
171
     1
301
MARGIN
  1
CELLMARGIN_BEGIN
 40
1.5
 40
1.5
 40
1.5
 40
1.5
 40
1.5
 40
1.5
309
CELLMARGIN_END
 94
        6
 95
        1
302
GRIDFORMAT
  1
GRIDFORMAT_BEGIN
 90
        0
 91
        1
 62
     0
 92
       -2
340
14
 93
        0
 40
0.045
309
GRIDFORMAT_END
 95
        2
302
GRIDFORMAT
  1
GRIDFORMAT_BEGIN
 90
        0
 91
        1
 62
     0
 92
       -2
340
14
 93
        0
 40
0.045
309
GRIDFORMAT_END
 95
        4
302
GRIDFORMAT
  1
GRIDFORMAT_BEGIN
 90
        0
 91
        1
 62
     0
 92
       -2
340
14
 93
        0
 40
0.045
309
GRIDFORMAT_END
 95
        8
302
GRIDFORMAT
  1
GRIDFORMAT_BEGIN
 90
        0
 91
        1
 62
     0
 92
       -2
340
14
 93
        0
 40
0.045
309
GRIDFORMAT_END
 95
       16
302
GRIDFORMAT
  1
GRIDFORMAT_BEGIN
 90
        0
 91
        1
 62
     0
 92
       -2
340
14
 93
        0
 40
0.045
309
GRIDFORMAT_END
 95
       32
302
GRIDFORMAT
  1
GRIDFORMAT_BEGIN
 90
        0
 91
        1
 62
     0
 92
       -2
340
14
 93
        0
 40
0.045
309
GRIDFORMAT_END
309
TABLEFORMAT_END
  1
CELLSTYLE_BEGIN
 90
        3
 91
        2
300
_DATA
309
CELLSTYLE_END
  0
ENDSEC
  0
EOF
