  0
SECTION
  2
HEADER
  9
$ACADVER
  1
AC1027
  9
$ACADMAINTVER
 70
   105
  9
$DWGCODEPAGE
  3
ANSI_932
  9
$LASTSAVEDBY
  1
a.yasuda
  9
$REQUIREDVERSIONS
160
                 0
  9
$INSBASE
 10
0.0
 20
0.0
 30
0.0
  9
$EXTMIN
 10
0.0
 20
0.0
 30
0.0
  9
$EXTMAX
 10
302.9997823349792
 20
216.0016055409748
 30
0.0
  9
$LIMMIN
 10
0.0
 20
0.0
  9
$LIMMAX
 10
302.9997823349792
 20
216.0016055409748
  9
$ORTHOMODE
 70
     0
  9
$REGENMODE
 70
     1
  9
$FILLMODE
 70
     1
  9
$QTEXTMODE
 70
     0
  9
$MIRRTEXT
 70
     1
  9
$LTSCALE
 40
1.0
  9
$ATTMODE
 70
     1
  9
$TEXTSIZE
 40
2.5
  9
$TRACEWID
 40
1.0
  9
$TEXTSTYLE
  7
Standard
  9
$CLAYER
  8
0
  9
$CELTYPE
  6
ByLayer
  9
$CECOLOR
 62
   256
  9
$CELTSCALE
 40
1.0
  9
$DISPSILH
 70
     0
  9
$DIMSCALE
 40
1.0
  9
$DIMASZ
 40
2.5
  9
$DIMEXO
 40
0.625
  9
$DIMDLI
 40
3.75
  9
$DIMRND
 40
0.0
  9
$DIMDLE
 40
0.0
  9
$DIMEXE
 40
1.25
  9
$DIMTP
 40
0.0
  9
$DIMTM
 40
0.0
  9
$DIMTXT
 40
2.5
  9
$DIMCEN
 40
2.5
  9
$DIMTSZ
 40
0.0
  9
$DIMTOL
 70
     0
  9
$DIMLIM
 70
     0
  9
$DIMTIH
 70
     0
  9
$DIMTOH
 70
     0
  9
$DIMSE1
 70
     0
  9
$DIMSE2
 70
     0
  9
$DIMTAD
 70
     1
  9
$DIMZIN
 70
     8
  9
$DIMBLK
  1

  9
$DIMASO
 70
     1
  9
$DIMSHO
 70
     1
  9
$DIMPOST
  1

  9
$DIMAPOST
  1

  9
$DIMALT
 70
     0
  9
$DIMALTD
 70
     3
  9
$DIMALTF
 40
0.03937007874016
  9
$DIMLFAC
 40
1.0
  9
$DIMTOFL
 70
     1
  9
$DIMTVP
 40
0.0
  9
$DIMTIX
 70
     0
  9
$DIMSOXD
 70
     0
  9
$DIMSAH
 70
     0
  9
$DIMBLK1
  1

  9
$DIMBLK2
  1

  9
$DIMSTYLE
  2
ISO-25
  9
$DIMCLRD
 70
     0
  9
$DIMCLRE
 70
     0
  9
$DIMCLRT
 70
     0
  9
$DIMTFAC
 40
1.0
  9
$DIMGAP
 40
0.625
  9
$DIMJUST
 70
     0
  9
$DIMSD1
 70
     0
  9
$DIMSD2
 70
     0
  9
$DIMTOLJ
 70
     0
  9
$DIMTZIN
 70
     8
  9
$DIMALTZ
 70
     0
  9
$DIMALTTZ
 70
     0
  9
$DIMUPT
 70
     0
  9
$DIMDEC
 70
     2
  9
$DIMTDEC
 70
     2
  9
$DIMALTU
 70
     2
  9
$DIMALTTD
 70
     3
  9
$DIMTXSTY
  7
Standard
  9
$DIMAUNIT
 70
     0
  9
$DIMADEC
 70
     0
  9
$DIMALTRND
 40
0.0
  9
$DIMAZIN
 70
     0
  9
$DIMDSEP
 70
    44
  9
$DIMATFIT
 70
     3
  9
$DIMFRAC
 70
     0
  9
$DIMLDRBLK
  1

  9
$DIMLUNIT
 70
     2
  9
$DIMLWD
 70
    -2
  9
$DIMLWE
 70
    -2
  9
$DIMTMOVE
 70
     0
  9
$DIMFXL
 40
1.0
  9
$DIMFXLON
 70
     0
  9
$DIMJOGANG
 40
0.7853981633974483
  9
$DIMTFILL
 70
     0
  9
$DIMTFILLCLR
 70
     0
  9
$DIMARCSYM
 70
     0
  9
$DIMLTYPE
  6

  9
$DIMLTEX1
  6

  9
$DIMLTEX2
  6

  9
$DIMTXTDIRECTION
 70
     0
  9
$LUNITS
 70
     2
  9
$LUPREC
 70
     4
  9
$SKETCHINC
 40
1.0
  9
$FILLETRAD
 40
0.0
  9
$AUNITS
 70
     0
  9
$AUPREC
 70
     0
  9
$MENU
  1
.
  9
$ELEVATION
 40
0.0
  9
$PELEVATION
 40
0.0
  9
$THICKNESS
 40
0.0
  9
$LIMCHECK
 70
     0
  9
$CHAMFERA
 40
0.0
  9
$CHAMFERB
 40
0.0
  9
$CHAMFERC
 40
0.0
  9
$CHAMFERD
 40
0.0
  9
$SKPOLY
 70
     0
  9
$TDCREATE
 40
2459873.457577905
  9
$TDUCREATE
 40
2459873.082577905
  9
$TDUPDATE
 40
2459873.457577951
  9
$TDUUPDATE
 40
2459873.082577951
  9
$TDINDWG
 40
0.0000000116
  9
$TDUSRTIMER
 40
0.0000000116
  9
$USRTIMER
 70
     1
  9
$ANGBASE
 50
0.0
  9
$ANGDIR
 70
     0
  9
$PDMODE
 70
     0
  9
$PDSIZE
 40
0.0
  9
$PLINEWID
 40
0.0
  9
$SPLFRAME
 70
     0
  9
$SPLINETYPE
 70
     6
  9
$SPLINESEGS
 70
     8
  9
$HANDSEED
  5
A2
  9
$SURFTAB1
 70
     6
  9
$SURFTAB2
 70
     6
  9
$SURFTYPE
 70
     6
  9
$SURFU
 70
     6
  9
$SURFV
 70
     6
  9
$UCSBASE
  2

  9
$UCSNAME
  2

  9
$UCSORG
 10
0.0
 20
0.0
 30
0.0
  9
$UCSXDIR
 10
1.0
 20
0.0
 30
0.0
  9
$UCSYDIR
 10
0.0
 20
1.0
 30
0.0
  9
$UCSORTHOREF
  2

  9
$UCSORTHOVIEW
 70
     0
  9
$UCSORGTOP
 10
0.0
 20
0.0
 30
0.0
  9
$UCSORGBOTTOM
 10
0.0
 20
0.0
 30
0.0
  9
$UCSORGLEFT
 10
0.0
 20
0.0
 30
0.0
  9
$UCSORGRIGHT
 10
0.0
 20
0.0
 30
0.0
  9
$UCSORGFRONT
 10
0.0
 20
0.0
 30
0.0
  9
$UCSORGBACK
 10
0.0
 20
0.0
 30
0.0
  9
$PUCSBASE
  2

  9
$PUCSNAME
  2

  9
$PUCSORG
 10
0.0
 20
0.0
 30
0.0
  9
$PUCSXDIR
 10
1.0
 20
0.0
 30
0.0
  9
$PUCSYDIR
 10
0.0
 20
1.0
 30
0.0
  9
$PUCSORTHOREF
  2

  9
$PUCSORTHOVIEW
 70
     0
  9
$PUCSORGTOP
 10
0.0
 20
0.0
 30
0.0
  9
$PUCSORGBOTTOM
 10
0.0
 20
0.0
 30
0.0
  9
$PUCSORGLEFT
 10
0.0
 20
0.0
 30
0.0
  9
$PUCSORGRIGHT
 10
0.0
 20
0.0
 30
0.0
  9
$PUCSORGFRONT
 10
0.0
 20
0.0
 30
0.0
  9
$PUCSORGBACK
 10
0.0
 20
0.0
 30
0.0
  9
$USERI1
 70
     0
  9
$USERI2
 70
     0
  9
$USERI3
 70
     0
  9
$USERI4
 70
     0
  9
$USERI5
 70
     0
  9
$USERR1
 40
0.0
  9
$USERR2
 40
0.0
  9
$USERR3
 40
0.0
  9
$USERR4
 40
0.0
  9
$USERR5
 40
0.0
  9
$WORLDVIEW
 70
     1
  9
$SHADEDGE
 70
     3
  9
$SHADEDIF
 70
    70
  9
$TILEMODE
 70
     1
  9
$MAXACTVP
 70
    64
  9
$PINSBASE
 10
0.0
 20
0.0
 30
0.0
  9
$PLIMCHECK
 70
     0
  9
$PEXTMIN
 10
1.000000000000000E+20
 20
1.000000000000000E+20
 30
1.000000000000000E+20
  9
$PEXTMAX
 10
-1.000000000000000E+20
 20
-1.000000000000000E+20
 30
-1.000000000000000E+20
  9
$PLIMMIN
 10
0.0
 20
0.0
  9
$PLIMMAX
 10
420.0
 20
297.0
  9
$UNITMODE
 70
     0
  9
$VISRETAIN
 70
     1
  9
$PLINEGEN
 70
     0
  9
$PSLTSCALE
 70
     1
  9
$TREEDEPTH
 70
  3020
  9
$CMLSTYLE
  2
Standard
  9
$CMLJUST
 70
     0
  9
$CMLSCALE
 40
20.0
  9
$PROXYGRAPHICS
 70
     1
  9
$MEASUREMENT
 70
     1
  9
$CELWEIGHT
370
    -1
  9
$ENDCAPS
280
     0
  9
$JOINSTYLE
280
     0
  9
$LWDISPLAY
290
     0
  9
$INSUNITS
 70
     4
  9
$HYPERLINKBASE
  1

  9
$STYLESHEET
  1

  9
$XEDIT
290
     1
  9
$CEPSNTYPE
380
     0
  9
$PSTYLEMODE
290
     1
  9
$FINGERPRINTGUID
  2
{6fe97cff-6dbc-4c7b-b3ca-f58e6bf6e077}
  9
$VERSIONGUID
  2
{FAEB1C32-E019-11D5-929B-00C0DF256EC4}
  9
$EXTNAMES
290
     1
  9
$PSVPSCALE
 40
0.0
  9
$OLESTARTUP
290
     0
  9
$SORTENTS
280
   127
  9
$INDEXCTL
280
     0
  9
$HIDETEXT
280
     1
  9
$XCLIPFRAME
280
     2
  9
$HALOGAP
280
     0
  9
$OBSCOLOR
 70
   257
  9
$OBSLTYPE
280
     0
  9
$INTERSECTIONDISPLAY
280
     0
  9
$INTERSECTIONCOLOR
 70
   257
  9
$DIMASSOC
280
     2
  9
$PROJECTNAME
  1

  9
$CAMERADISPLAY
290
     0
  9
$LENSLENGTH
 40
50.0
  9
$CAMERAHEIGHT
 40
0.0
  9
$STEPSPERSEC
 40
2.0
  9
$STEPSIZE
 40
6.0
  9
$3DDWFPREC
 40
2.0
  9
$PSOLWIDTH
 40
5.0
  9
$PSOLHEIGHT
 40
80.0
  9
$LOFTANG1
 40
1.570796326794897
  9
$LOFTANG2
 40
1.570796326794897
  9
$LOFTMAG1
 40
0.0
  9
$LOFTMAG2
 40
0.0
  9
$LOFTPARAM
 70
     7
  9
$LOFTNORMALS
280
     1
  9
$LATITUDE
 40
37.795
  9
$LONGITUDE
 40
-122.394
  9
$NORTHDIRECTION
 40
0.0
  9
$TIMEZONE
 70
 -8000
  9
$LIGHTGLYPHDISPLAY
280
     1
  9
$TILEMODELIGHTSYNCH
280
     1
  9
$CMATERIAL
347
44
  9
$SOLIDHIST
280
     0
  9
$SHOWHIST
280
     1
  9
$DWFFRAME
280
     2
  9
$DGNFRAME
280
     2
  9
$REALWORLDSCALE
290
     1
  9
$INTERFERECOLOR
 62
   256
  9
$CSHADOW
280
     0
  9
$SHADOWPLANELOCATION
 40
0.0
  0
ENDSEC
  0
SECTION
  2
CLASSES
  0
CLASS
  1
ACDBDICTIONARYWDFLT
  2
AcDbDictionaryWithDefault
  3
ObjectDBX Classes
 90
        0
 91
        3
280
     0
281
     0
  0
CLASS
  1
VISUALSTYLE
  2
AcDbVisualStyle
  3
ObjectDBX Classes
 90
     4095
 91
        3
280
     0
281
     0
  0
CLASS
  1
MATERIAL
  2
AcDbMaterial
  3
ObjectDBX Classes
 90
     1153
 91
        3
280
     0
281
     0
  0
CLASS
  1
SCALE
  2
AcDbScale
  3
ObjectDBX Classes
 90
     1153
 91
        3
280
     0
281
     0
  0
CLASS
  1
TABLESTYLE
  2
AcDbTableStyle
  3
ObjectDBX Classes
 90
     4095
 91
        3
280
     0
281
     0
  0
CLASS
  1
MLEADERSTYLE
  2
AcDbMLeaderStyle
  3
ACDB_MLEADERSTYLE_CLASS
 90
     4095
 91
        3
280
     0
281
     0
  0
CLASS
  1
SUN
  2
AcDbSun
  3
SCENEOE
 90
     1153
 91
        3
280
     0
281
     0
  0
CLASS
  1
DICTIONARYVAR
  2
AcDbDictionaryVar
  3
ObjectDBX Classes
 90
        0
 91
        3
280
     0
281
     0
  0
CLASS
  1
CELLSTYLEMAP
  2
AcDbCellStyleMap
  3
ObjectDBX Classes
 90
     1152
 91
        3
280
     0
281
     0
  0
ENDSEC
  0
SECTION
  2
TABLES
  0
TABLE
  2
VPORT
  5
8
330
0
100
AcDbSymbolTable
 70
     1
  0
VPORT
  5
29
330
8
100
AcDbSymbolTableRecord
100
AcDbViewportTableRecord
  2
*Active
 70
     0
 10
0.0
 20
0.0
 11
1.0
 21
1.0
 12
151.4998911674896
 22
108.0008027704874
 13
0.0
 23
0.0
 14
10.0
 24
10.0
 15
10.0
 25
10.0
 16
0.0
 26
0.0
 36
1.0
 17
0.0
 27
0.0
 37
0.0
 40
237.6017660950723
 41
1.402766343222857
 42
50.0
 43
0.0
 44
0.0
 50
0.0
 51
0.0
 71
     0
 72
 10000
 73
     1
 74
     3
 75
     0
 76
     0
 77
     0
 78
     0
281
     0
 65
     1
110
0.0
120
0.0
130
0.0
111
1.0
121
0.0
131
0.0
112
0.0
122
1.0
132
0.0
 79
     0
146
0.0
348
2F
 60
     3
 61
     5
292
     1
282
     1
141
0.0
142
0.0
 63
   250
361
5D
  0
ENDTAB
  0
TABLE
  2
LTYPE
  5
5
330
0
100
AcDbSymbolTable
 70
     2
  0
LTYPE
  5
14
330
5
100
AcDbSymbolTableRecord
100
AcDbLinetypeTableRecord
  2
ByBlock
 70
     0
  3

 72
    65
 73
     0
 40
0.0
  0
LTYPE
  5
15
330
5
100
AcDbSymbolTableRecord
100
AcDbLinetypeTableRecord
  2
ByLayer
 70
     0
  3

 72
    65
 73
     0
 40
0.0
  0
LTYPE
  5
16
330
5
100
AcDbSymbolTableRecord
100
AcDbLinetypeTableRecord
  2
Continuous
 70
     0
  3
Solid line
 72
    65
 73
     0
 40
0.0
  0
LTYPE
  5
5F
330
5
100
AcDbSymbolTableRecord
100
AcDbLinetypeTableRecord
  2
UserDefined01
 70
     0
  3
----------------                
 72
    65
 73
     2
 40
0.7055555449591743
 49
0.3527777724795871
 74
     0
 49
-0.3527777724795871
 74
     0
  0
ENDTAB
  0
TABLE
  2
LAYER
  5
2
330
0
100
AcDbSymbolTable
 70
     3
  0
LAYER
  5
10
330
2
100
AcDbSymbolTableRecord
100
AcDbLayerTableRecord
  2
0
 70
     0
 62
     7
  6
Continuous
370
    -3
390
F
347
46
348
0
  0
LAYER
  5
60
330
2
100
AcDbSymbolTableRecord
100
AcDbLayerTableRecord
  2
外枠
 70
     0
 62
     7
  6
Continuous
370
    -3
390
F
347
46
348
0
  0
LAYER
  5
61
330
2
100
AcDbSymbolTableRecord
100
AcDbLayerTableRecord
  2
ISS138金台
 70
     0
 62
     7
  6
Continuous
370
    -3
390
F
347
46
348
0
  0
ENDTAB
  0
TABLE
  2
STYLE
  5
3
330
0
100
AcDbSymbolTable
 70
     2
  0
STYLE
  5
11
330
3
100
AcDbSymbolTableRecord
100
AcDbTextStyleTableRecord
  2
Standard
 70
     0
 40
0.0
 41
1.0
 50
0.0
 71
     0
 42
2.5
  3

  4

  0
STYLE
  5
5E
330
3
100
AcDbSymbolTableRecord
100
AcDbTextStyleTableRecord
  2
MS Gothic
 70
     0
 40
1.0
 41
1.0
 50
0.0
 71
     0
 42
2.5
  3
msgothic.ttc
  4

1001
ACAD
1000
MS Gothic
1071
    32817
  0
ENDTAB
  0
TABLE
  2
VIEW
  5
6
330
0
100
AcDbSymbolTable
 70
     0
  0
ENDTAB
  0
TABLE
  2
UCS
  5
7
330
0
100
AcDbSymbolTable
 70
     0
  0
ENDTAB
  0
TABLE
  2
APPID
  5
9
330
0
100
AcDbSymbolTable
 70
     1
  0
APPID
  5
12
330
9
100
AcDbSymbolTableRecord
100
AcDbRegAppTableRecord
  2
ACAD
 70
     0
  0
ENDTAB
  0
TABLE
  2
DIMSTYLE
  5
A
330
0
100
AcDbSymbolTable
 70
     1
100
AcDbDimStyleTable
  0
DIMSTYLE
105
27
330
A
100
AcDbSymbolTableRecord
100
AcDbDimStyleTableRecord
  2
ISO-25
 70
     0
 41
2.5
 42
0.625
 43
3.75
 44
1.25
 73
     0
 74
     0
 77
     1
 78
     8
140
2.5
141
2.5
143
0.03937007874016
147
0.625
171
     3
172
     1
178
     0
271
     2
272
     2
274
     3
278
    44
283
     0
284
     8
340
11
  0
ENDTAB
  0
TABLE
  2
BLOCK_RECORD
  5
1
330
0
100
AcDbSymbolTable
 70
     1
  0
BLOCK_RECORD
  5
1F
330
1
100
AcDbSymbolTableRecord
100
AcDbBlockTableRecord
  2
*Model_Space
340
22
 70
     0
280
     1
281
     0
  0
BLOCK_RECORD
  5
1B
330
1
100
AcDbSymbolTableRecord
100
AcDbBlockTableRecord
  2
*Paper_Space
340
1E
 70
     0
280
     1
281
     0
  0
BLOCK_RECORD
  5
23
330
1
100
AcDbSymbolTableRecord
100
AcDbBlockTableRecord
  2
*Paper_Space0
340
26
 70
     0
280
     1
281
     0
  0
ENDTAB
  0
ENDSEC
  0
SECTION
  2
BLOCKS
  0
BLOCK
  5
20
330
1F
100
AcDbEntity
  8
0
100
AcDbBlockBegin
  2
*Model_Space
 70
     0
 10
0.0
 20
0.0
 30
0.0
  3
*Model_Space
  1

  0
ENDBLK
  5
21
330
1F
100
AcDbEntity
  8
0
100
AcDbBlockEnd
  0
BLOCK
  5
1C
330
1B
100
AcDbEntity
 67
     1
  8
0
100
AcDbBlockBegin
  2
*Paper_Space
 70
     0
 10
0.0
 20
0.0
 30
0.0
  3
*Paper_Space
  1

  0
ENDBLK
  5
1D
330
1B
100
AcDbEntity
 67
     1
  8
0
100
AcDbBlockEnd
  0
BLOCK
  5
24
330
23
100
AcDbEntity
  8
0
100
AcDbBlockBegin
  2
*Paper_Space0
 70
     0
 10
0.0
 20
0.0
 30
0.0
  3
*Paper_Space0
  1

  0
ENDBLK
  5
25
330
23
100
AcDbEntity
  8
0
100
AcDbBlockEnd
  0
ENDSEC
  0
SECTION
  2
ENTITIES
  0
LWPOLYLINE
  5
62
330
1F
100
AcDbEntity
  8
外枠
  6
Continuous
 62
   250
420
  2367521
370
   100
100
AcDbPolyline
 90
        5
 70
     0
 43
0.0
 10
281.9999662644599
 20
13.29407825637392
 10
20.99981607051935
 20
13.29407825637392
 10
20.99981607051935
 20
193.0018900389566
 10
281.9999662644599
 20
193.0018900389566
 10
281.9999662644599
 20
13.29407825637392
  0
LINE
  5
63
330
1F
100
AcDbEntity
  8
外枠
  6
Continuous
 62
   250
420
  2367521
370
    25
100
AcDbLine
 10
223.3097080177524
 20
174.0786160074276
 30
0.0
 11
281.9999232007669
 21
174.0786160074276
 31
0.0
  0
LINE
  5
64
330
1F
100
AcDbEntity
  8
外枠
  6
Continuous
 62
   250
420
  2367521
370
    25
100
AcDbLine
 10
223.3097080177524
 20
50.37109023844297
 30
0.0
 11
281.9999232007669
 21
50.37109023844297
 31
0.0
  0
LINE
  5
65
330
1F
100
AcDbEntity
  8
外枠
  6
Continuous
 62
   250
420
  2367521
370
    25
100
AcDbLine
 10
223.3097080177524
 20
36.25997933925949
 30
0.0
 11
281.9999232007669
 21
36.25997933925949
 31
0.0
  0
LINE
  5
66
330
1F
100
AcDbEntity
  8
外枠
  6
Continuous
 62
   250
420
  2367521
370
    50
100
AcDbLine
 10
223.0158413772006
 20
193.3637327187979
 30
0.0
 11
223.0158413772006
 21
13.29396655992039
 31
0.0
  0
TEXT
  5
67
330
1F
100
AcDbEntity
  8
外枠
  6
Continuous
 62
   250
420
  2367521
100
AcDbText
 10
224.7190965599536
 20
186.6888051931772
 30
0.0
 40
2.688166626294454
  1
品名：
 41
0.974166170756022
  7
MS Gothic
100
AcDbText
  0
TEXT
  5
68
330
1F
100
AcDbEntity
  8
外枠
  6
Continuous
 62
   250
420
  2367521
100
AcDbText
 10
224.7190965599536
 20
168.1080059455944
 30
0.0
 40
2.688166626294454
  1
仕様：
 41
0.9978878657023111
  7
MS Gothic
100
AcDbText
  0
TEXT
  5
69
330
1F
100
AcDbEntity
  8
外枠
  6
Continuous
 62
   250
420
  2367521
100
AcDbText
 10
224.7190965599536
 20
44.16660664327048
 30
0.0
 40
2.688166626294454
  1
縮尺：
 41
0.9939999262491861
  7
MS Gothic
100
AcDbText
  0
TEXT
  5
6A
330
1F
100
AcDbEntity
  8
外枠
  6
Continuous
 62
   250
420
  2367521
100
AcDbText
 10
250.2379519709696
 20
40.59738467878129
 30
0.0
 40
2.150533301035563
  1
1/1
 41
1.000003814697266
  7
MS Gothic
100
AcDbText
  0
TEXT
  5
6B
330
1F
100
AcDbEntity
  8
外枠
  6
Continuous
 62
   250
420
  2367521
100
AcDbText
 10
232.7757967427735
 20
181.9845273775436
 30
0.0
 40
2.688166626294454
  1
フロアーエッジFEA-2(S)
 41
1.015318714488636
  7
MS Gothic
100
AcDbText
  0
TEXT
  5
6C
330
1F
100
AcDbEntity
  8
外枠
  6
Continuous
 62
   250
420
  2367521
100
AcDbText
 10
226.1633020978884
 20
24.25683874973963
 30
0.0
 40
2.553758294979732
  1
ヤスダインテリアサプライ株式会社
 41
1.0194908945184
  7
MS Gothic
100
AcDbText
  0
TEXT
  5
6D
330
1F
100
AcDbEntity
  8
外枠
  6
Continuous
 62
   250
420
  2367521
100
AcDbText
 10
227.7635273953072
 20
161.7763665048245
 30
0.0
 40
2.150533301035563
  1
材質
 41
1.028502464294433
  7
MS Gothic
100
AcDbText
  0
TEXT
  5
6E
330
1F
100
AcDbEntity
  8
外枠
  6
Continuous
 62
   250
420
  2367521
100
AcDbText
 10
233.5984640006548
 20
156.9052368606422
 30
0.0
 40
2.016124969720841
  1
アルミ押出形材（A6063S-T5）
 41
1.033106825086805
  7
MS Gothic
100
AcDbText
  0
TEXT
  5
6F
330
1F
100
AcDbEntity
  8
外枠
  6
Continuous
 62
   250
420
  2367521
100
AcDbText
 10
233.5984640006548
 20
152.6719035908871
 30
0.0
 40
2.016124969720841
  1
シルバー仕上（アルマイト）
 41
1.002858636318109
  7
MS Gothic
100
AcDbText
  0
HATCH
  5
70
330
1F
100
AcDbEntity
  8
ISS138金台
  6
Continuous
 62
     7
420
 16777215
370
    50
100
AcDbHatch
 10
0.0
 20
0.0
 30
0.0
210
0.0
220
0.0
230
1.0
  2
SOLID
 70
     1
 71
     0
 91
        1
 92
        3
 72
     0
 73
     1
 93
      109
 10
117.6040062937965
 20
106.6074339220561
 10
117.5912594406893
 20
106.4541271752266
 10
117.5939724533439
 20
106.3028228901183
 10
117.6115639719056
 20
106.154436170206
 10
117.6434095728271
 20
106.0099467145038
 10
117.688895598484
 20
105.8702588605633
 10
117.7473868594057
 20
105.7363523073986
 10
117.8182804638911
 20
105.6091421584845
 10
117.900962754316
 20
105.4895650491421
 10
117.9948093071329
 20
105.3786006783856
 10
118.0992172306408
 20
105.2771641496899
 10
118.2135621012923
 20
105.1862028642993
 10
118.3372302614629
 20
105.106653457535
 10
118.4696080535286
 20
105.0394740965647
 10
118.6100710539419
 20
104.9855906507865
 10
118.7580163710017
 20
104.945961287368
 10
118.9128088152372
 20
104.9215118757072
 10
133.444081400412
 20
104.9412673448387
 10
133.4282016636442
 20
104.9412673448387
 10
133.4240783150461
 20
105.0230345317889
 10
133.4119666514097
 20
105.1024547474743
 10
133.3922650118944
 20
105.1791188868123
 10
133.3654040334295
 20
105.25261784472
 10
133.331749757405
 20
105.3225532820377
 10
133.2917220548269
 20
105.3885268596059
 10
133.2456977330083
 20
105.4501187064185
 10
133.1940858970322
 20
105.5069412492392
 10
133.1373171838277
 20
105.5585961489083
 10
133.0757468688615
 20
105.604674300343
 10
133.0098163549863
 20
105.6447558325373
 10
132.939902449515
 20
105.6784639381779
 10
132.8664034916073
 20
105.7053787462589
 10
132.7897285863461
 20
105.7251019176207
 10
132.7102868388142
 20
105.7372351131037
 10
132.6284550563246
 20
105.7413692276249
 10
126.1242978969272
 20
105.8955264823898
 10
125.9034565136608
 20
105.6690437553496
 10
125.682970405861
 20
105.9106956682242
 10
119.4335134582959
 20
106.1195438130097
 10
119.3777136781824
 20
106.1534887689615
 10
119.3242931671032
 20
106.1908034588851
 10
119.2734564775997
 20
106.2313479257783
 10
119.2253328007508
 20
106.274971446716
 10
119.180126689098
 20
106.321523298773
 10
119.1379565677966
 20
106.3708850567936
 10
119.0990377553114
 20
106.4228844660061
 10
119.063488676798
 20
106.4773923353318
 10
119.0315138847978
 20
106.5342579418454
 10
119.0032641022359
 20
106.5933413285448
 10
118.9789115838842
 20
106.6545025384282
 10
118.9586070526679
 20
106.7175800826468
 10
118.9425227633587
 20
106.7824555360453
 10
118.9308309707283
 20
106.8489566438519
 10
118.9236931636252
 20
106.9169649809111
 10
118.9212815968211
 20
106.9863190583742
 10
119.4211649443484
 20
109.4391839439534
 10
113.4239428121954
 20
109.4391839439534
 10
113.4239428121954
 20
104.9412673448387
 10
114.1411363201688
 20
104.9359705106084
 10
114.1919837755955
 20
104.9385650981074
 10
114.2409794922262
 20
104.9461766058327
 10
114.2879189175195
 20
104.9585681834732
 10
114.332597498934
 20
104.9754706829481
 10
114.3748214498515
 20
104.9966041902533
 10
114.4143969836538
 20
105.0217749187707
 10
114.451141079646
 20
105.0506814226497
 10
114.4848276534402
 20
105.083076085656
 10
114.515295216188
 20
105.1187220574785
 10
114.5423284494245
 20
105.1573501900364
 10
114.565744332455
 20
105.1987128670953
 10
114.585338312738
 20
105.2425624724209
 10
114.6009166036553
 20
105.2886190920092
 10
114.6122854185887
 20
105.3366566414722
 10
114.6192509709201
 20
105.3864059727291
 10
114.6216194740312
 20
105.4376194695457
 10
114.6219747494979
 20
107.2233846879519
 10
114.6272285200353
 20
107.3257686178921
 10
114.642591492488
 20
107.4253749396384
 10
114.6675792003104
 20
107.521708420722
 10
114.701653347341
 20
107.6142092331348
 10
114.7442971692645
 20
107.7023498466385
 10
114.7949723699195
 20
107.785613496918
 10
114.8531621849907
 20
107.863483419658
 10
114.9183498501629
 20
107.935378255004
 10
114.9900078351978
 20
108.0008135364106
 10
115.0676193757802
 20
108.0592402017929
 10
115.1506461757486
 20
108.1101307209125
 10
115.2385714707877
 20
108.1529683294543
 10
115.3308677306591
 20
108.1872039653333
 10
115.427028956971
 20
108.2123100983113
 10
115.5265168535617
 20
108.227769964073
 10
115.6288038901928
 20
108.2330345005337
 10
116.7428723922058
 20
108.2362104478873
 10
116.8449010466793
 20
108.2309136136569
 10
116.9437645197225
 20
108.2153460886629
 10
117.0389783447899
 20
108.1900892327596
 10
117.1300903531058
 20
108.1556382784159
 10
117.2166268440479
 20
108.1125745854863
 10
117.2981033510708
 20
108.0614149182859
 10
117.3740569394755
 20
108.0026975729763
 10
117.4440139086396
 20
107.9369716116424
 10
117.5075113238644
 20
107.8647645645227
 10
117.5640754845275
 20
107.7866254937019
 10
117.6132219240834
 20
107.7030926953416
 10
117.6544984737565
 20
107.6147044656035
 10
117.687409901078
 20
107.5219991006492
 10
117.7115148031953
 20
107.4255148966404
 10
117.7263179476399
 20
107.3258009156618
 10
117.7313563997126
 20
107.2233846879519
 97
        0
 75
     1
 76
     1
 98
        0
  0
LWPOLYLINE
  5
71
330
1F
100
AcDbEntity
  8
ISS138金台
  6
Continuous
 62
     7
420
 16777215
370
    50
100
AcDbPolyline
 90
      110
 70
     0
 43
0.0
 10
117.6040062937965
 20
106.6074339220561
 10
117.5912594406893
 20
106.4541271752266
 10
117.5939724533439
 20
106.3028228901183
 10
117.6115639719056
 20
106.154436170206
 10
117.6434095728271
 20
106.0099467145038
 10
117.688895598484
 20
105.8702588605633
 10
117.7473868594057
 20
105.7363523073986
 10
117.8182804638911
 20
105.6091421584845
 10
117.900962754316
 20
105.4895650491421
 10
117.9948093071329
 20
105.3786006783856
 10
118.0992172306408
 20
105.2771641496899
 10
118.2135621012923
 20
105.1862028642993
 10
118.3372302614629
 20
105.106653457535
 10
118.4696080535286
 20
105.0394740965647
 10
118.6100710539419
 20
104.9855906507865
 10
118.7580163710017
 20
104.945961287368
 10
118.9128088152372
 20
104.9215118757072
 10
133.444081400412
 20
104.9412673448387
 10
133.4282016636442
 20
104.9412673448387
 10
133.4240783150461
 20
105.0230345317889
 10
133.4119666514097
 20
105.1024547474743
 10
133.3922650118944
 20
105.1791188868123
 10
133.3654040334295
 20
105.25261784472
 10
133.331749757405
 20
105.3225532820377
 10
133.2917220548269
 20
105.3885268596059
 10
133.2456977330083
 20
105.4501187064185
 10
133.1940858970322
 20
105.5069412492392
 10
133.1373171838277
 20
105.5585961489083
 10
133.0757468688615
 20
105.604674300343
 10
133.0098163549863
 20
105.6447558325373
 10
132.939902449515
 20
105.6784639381779
 10
132.8664034916073
 20
105.7053787462589
 10
132.7897285863461
 20
105.7251019176207
 10
132.7102868388142
 20
105.7372351131037
 10
132.6284550563246
 20
105.7413692276249
 10
126.1242978969272
 20
105.8955264823898
 10
125.9034565136608
 20
105.6690437553496
 10
125.682970405861
 20
105.9106956682242
 10
119.4335134582959
 20
106.1195438130097
 10
119.3777136781824
 20
106.1534887689615
 10
119.3242931671032
 20
106.1908034588851
 10
119.2734564775997
 20
106.2313479257783
 10
119.2253328007508
 20
106.274971446716
 10
119.180126689098
 20
106.321523298773
 10
119.1379565677966
 20
106.3708850567936
 10
119.0990377553114
 20
106.4228844660061
 10
119.063488676798
 20
106.4773923353318
 10
119.0315138847978
 20
106.5342579418454
 10
119.0032641022359
 20
106.5933413285448
 10
118.9789115838842
 20
106.6545025384282
 10
118.9586070526679
 20
106.7175800826468
 10
118.9425227633587
 20
106.7824555360453
 10
118.9308309707283
 20
106.8489566438519
 10
118.9236931636252
 20
106.9169649809111
 10
118.9212815968211
 20
106.9863190583742
 10
119.4211649443484
 20
109.4391839439534
 10
113.4239428121954
 20
109.4391839439534
 10
113.4239428121954
 20
104.9412673448387
 10
114.1411363201688
 20
104.9359705106084
 10
114.1919837755955
 20
104.9385650981074
 10
114.2409794922262
 20
104.9461766058327
 10
114.2879189175195
 20
104.9585681834732
 10
114.332597498934
 20
104.9754706829481
 10
114.3748214498515
 20
104.9966041902533
 10
114.4143969836538
 20
105.0217749187707
 10
114.451141079646
 20
105.0506814226497
 10
114.4848276534402
 20
105.083076085656
 10
114.515295216188
 20
105.1187220574785
 10
114.5423284494245
 20
105.1573501900364
 10
114.565744332455
 20
105.1987128670953
 10
114.585338312738
 20
105.2425624724209
 10
114.6009166036553
 20
105.2886190920092
 10
114.6122854185887
 20
105.3366566414722
 10
114.6192509709201
 20
105.3864059727291
 10
114.6216194740312
 20
105.4376194695457
 10
114.6219747494979
 20
107.2233846879519
 10
114.6272285200353
 20
107.3257686178921
 10
114.642591492488
 20
107.4253749396384
 10
114.6675792003104
 20
107.521708420722
 10
114.701653347341
 20
107.6142092331348
 10
114.7442971692645
 20
107.7023498466385
 10
114.7949723699195
 20
107.785613496918
 10
114.8531621849907
 20
107.863483419658
 10
114.9183498501629
 20
107.935378255004
 10
114.9900078351978
 20
108.0008135364106
 10
115.0676193757802
 20
108.0592402017929
 10
115.1506461757486
 20
108.1101307209125
 10
115.2385714707877
 20
108.1529683294543
 10
115.3308677306591
 20
108.1872039653333
 10
115.427028956971
 20
108.2123100983113
 10
115.5265168535617
 20
108.227769964073
 10
115.6288038901928
 20
108.2330345005337
 10
116.7428723922058
 20
108.2362104478873
 10
116.8449010466793
 20
108.2309136136569
 10
116.9437645197225
 20
108.2153460886629
 10
117.0389783447899
 20
108.1900892327596
 10
117.1300903531058
 20
108.1556382784159
 10
117.2166268440479
 20
108.1125745854863
 10
117.2981033510708
 20
108.0614149182859
 10
117.3740569394755
 20
108.0026975729763
 10
117.4440139086396
 20
107.9369716116424
 10
117.5075113238644
 20
107.8647645645227
 10
117.5640754845275
 20
107.7866254937019
 10
117.6132219240834
 20
107.7030926953416
 10
117.6544984737565
 20
107.6147044656035
 10
117.687409901078
 20
107.5219991006492
 10
117.7115148031953
 20
107.4255148966404
 10
117.7263179476399
 20
107.3258009156618
 10
117.7313563997126
 20
107.2233846879519
 10
117.6040062937965
 20
106.6074339220561
  0
LWPOLYLINE
  5
72
330
1F
100
AcDbEntity
  8
ISS138金台
  6
Continuous
 62
   250
420
  2367521
370
    25
100
AcDbPolyline
 90
      110
 70
     0
 43
0.0
 10
117.6040062937965
 20
106.6074339220561
 10
117.5912594406893
 20
106.4541271752266
 10
117.5939724533439
 20
106.3028228901183
 10
117.6115639719056
 20
106.154436170206
 10
117.6434095728271
 20
106.0099467145038
 10
117.688895598484
 20
105.8702588605633
 10
117.7473868594057
 20
105.7363523073986
 10
117.8182804638911
 20
105.6091421584845
 10
117.900962754316
 20
105.4895650491421
 10
117.9948093071329
 20
105.3786006783856
 10
118.0992172306408
 20
105.2771641496899
 10
118.2135621012923
 20
105.1862028642993
 10
118.3372302614629
 20
105.106653457535
 10
118.4696080535286
 20
105.0394740965647
 10
118.6100710539419
 20
104.9855906507865
 10
118.7580163710017
 20
104.945961287368
 10
118.9128088152372
 20
104.9215118757072
 10
133.444081400412
 20
104.9412673448387
 10
133.4282016636442
 20
104.9412673448387
 10
133.4240783150461
 20
105.0230345317889
 10
133.4119666514097
 20
105.1024547474743
 10
133.3922650118944
 20
105.1791188868123
 10
133.3654040334295
 20
105.25261784472
 10
133.331749757405
 20
105.3225532820377
 10
133.2917220548269
 20
105.3885268596059
 10
133.2456977330083
 20
105.4501187064185
 10
133.1940858970322
 20
105.5069412492392
 10
133.1373171838277
 20
105.5585961489083
 10
133.0757468688615
 20
105.604674300343
 10
133.0098163549863
 20
105.6447558325373
 10
132.939902449515
 20
105.6784639381779
 10
132.8664034916073
 20
105.7053787462589
 10
132.7897285863461
 20
105.7251019176207
 10
132.7102868388142
 20
105.7372351131037
 10
132.6284550563246
 20
105.7413692276249
 10
126.1242978969272
 20
105.8955264823898
 10
125.9034565136608
 20
105.6690437553496
 10
125.682970405861
 20
105.9106956682242
 10
119.4335134582959
 20
106.1195438130097
 10
119.3777136781824
 20
106.1534887689615
 10
119.3242931671032
 20
106.1908034588851
 10
119.2734564775997
 20
106.2313479257783
 10
119.2253328007508
 20
106.274971446716
 10
119.180126689098
 20
106.321523298773
 10
119.1379565677966
 20
106.3708850567936
 10
119.0990377553114
 20
106.4228844660061
 10
119.063488676798
 20
106.4773923353318
 10
119.0315138847978
 20
106.5342579418454
 10
119.0032641022359
 20
106.5933413285448
 10
118.9789115838842
 20
106.6545025384282
 10
118.9586070526679
 20
106.7175800826468
 10
118.9425227633587
 20
106.7824555360453
 10
118.9308309707283
 20
106.8489566438519
 10
118.9236931636252
 20
106.9169649809111
 10
118.9212815968211
 20
106.9863190583742
 10
119.4211649443484
 20
109.4391839439534
 10
113.4239428121954
 20
109.4391839439534
 10
113.4239428121954
 20
104.9412673448387
 10
114.1411363201688
 20
104.9359705106084
 10
114.1919837755955
 20
104.9385650981074
 10
114.2409794922262
 20
104.9461766058327
 10
114.2879189175195
 20
104.9585681834732
 10
114.332597498934
 20
104.9754706829481
 10
114.3748214498515
 20
104.9966041902533
 10
114.4143969836538
 20
105.0217749187707
 10
114.451141079646
 20
105.0506814226497
 10
114.4848276534402
 20
105.083076085656
 10
114.515295216188
 20
105.1187220574785
 10
114.5423284494245
 20
105.1573501900364
 10
114.565744332455
 20
105.1987128670953
 10
114.585338312738
 20
105.2425624724209
 10
114.6009166036553
 20
105.2886190920092
 10
114.6122854185887
 20
105.3366566414722
 10
114.6192509709201
 20
105.3864059727291
 10
114.6216194740312
 20
105.4376194695457
 10
114.6219747494979
 20
107.2233846879519
 10
114.6272285200353
 20
107.3257686178921
 10
114.642591492488
 20
107.4253749396384
 10
114.6675792003104
 20
107.521708420722
 10
114.701653347341
 20
107.6142092331348
 10
114.7442971692645
 20
107.7023498466385
 10
114.7949723699195
 20
107.785613496918
 10
114.8531621849907
 20
107.863483419658
 10
114.9183498501629
 20
107.935378255004
 10
114.9900078351978
 20
108.0008135364106
 10
115.0676193757802
 20
108.0592402017929
 10
115.1506461757486
 20
108.1101307209125
 10
115.2385714707877
 20
108.1529683294543
 10
115.3308677306591
 20
108.1872039653333
 10
115.427028956971
 20
108.2123100983113
 10
115.5265168535617
 20
108.227769964073
 10
115.6288038901928
 20
108.2330345005337
 10
116.7428723922058
 20
108.2362104478873
 10
116.8449010466793
 20
108.2309136136569
 10
116.9437645197225
 20
108.2153460886629
 10
117.0389783447899
 20
108.1900892327596
 10
117.1300903531058
 20
108.1556382784159
 10
117.2166268440479
 20
108.1125745854863
 10
117.2981033510708
 20
108.0614149182859
 10
117.3740569394755
 20
108.0026975729763
 10
117.4440139086396
 20
107.9369716116424
 10
117.5075113238644
 20
107.8647645645227
 10
117.5640754845275
 20
107.7866254937019
 10
117.6132219240834
 20
107.7030926953416
 10
117.6544984737565
 20
107.6147044656035
 10
117.687409901078
 20
107.5219991006492
 10
117.7115148031953
 20
107.4255148966404
 10
117.7263179476399
 20
107.3258009156618
 10
117.7313563997126
 20
107.2233846879519
 10
117.6040062937965
 20
106.6074339220561
  0
LINE
  5
73
330
1F
100
AcDbEntity
  8
ISS138金台
  6
Continuous
 62
   250
420
  2367521
370
    13
100
AcDbLine
 10
133.4039029749086
 20
103.9788584034007
 30
0.0
 11
133.4039029749086
 21
93.94656824374073
 31
0.0
  0
LINE
  5
74
330
1F
100
AcDbEntity
  8
ISS138金台
  6
Continuous
 62
   250
420
  2367521
370
    13
100
AcDbLine
 10
113.449910219032
 20
94.43179916974864
 30
0.0
 11
133.4040752296803
 21
94.43179916974864
 31
0.0
  0
LINE
  5
75
330
1F
100
AcDbEntity
  8
ISS138金台
  6
Continuous
 62
   250
420
  2367521
370
    13
100
AcDbLine
 10
113.449910219032
 20
93.94672973258922
 30
0.0
 11
113.449910219032
 21
103.9790198922492
 31
0.0
  0
LINE
  5
76
330
1F
100
AcDbEntity
  8
ISS138金台
  6
Continuous
 62
   250
420
  2367521
370
    13
100
AcDbLine
 10
112.4356848890764
 20
104.9489865117963
 30
0.0
 11
107.4526988528022
 21
104.9489865117963
 31
0.0
  0
LINE
  5
77
330
1F
100
AcDbEntity
  8
ISS138金台
  6
Continuous
 62
   250
420
  2367521
370
    13
100
AcDbLine
 10
107.9597953688951
 20
104.9489865117963
 30
0.0
 11
107.9597953688951
 21
109.4246822453594
 31
0.0
  0
LINE
  5
78
330
1F
100
AcDbEntity
  8
ISS138金台
  6
Continuous
 62
   250
420
  2367521
370
    13
100
AcDbLine
 10
107.452688086879
 20
109.4246822453594
 30
0.0
 11
112.4356741231531
 21
109.4246822453594
 31
0.0
  0
LINE
  5
79
330
1F
100
AcDbEntity
  8
ISS138金台
  6
Continuous
 62
   250
420
  2367521
370
    13
100
AcDbLine
 10
113.449910219032
 20
110.4168697304582
 30
0.0
 11
113.449910219032
 21
115.4220766322841
 31
0.0
  0
LINE
  5
7A
330
1F
100
AcDbEntity
  8
ISS138金台
  6
Continuous
 62
   250
420
  2367521
370
    13
100
AcDbLine
 10
119.4250729744817
 20
110.4168697304582
 30
0.0
 11
119.4250729744817
 21
115.4220766322841
 31
0.0
  0
LINE
  5
7B
330
1F
100
AcDbEntity
  8
ISS138金台
  6
Continuous
 62
   250
420
  2367521
370
    13
100
AcDbLine
 10
119.4250729744817
 20
114.9147970954962
 30
0.0
 11
113.449727198337
 21
114.9147970954962
 31
0.0
  0
HATCH
  5
7C
330
1F
100
AcDbEntity
  8
ISS138金台
  6
Continuous
 62
   250
420
  2367521
370
    13
100
AcDbHatch
 10
0.0
 20
0.0
 30
0.0
210
0.0
220
0.0
230
1.0
  2
SOLID
 70
     1
 71
     0
 91
        1
 92
        3
 72
     0
 73
     1
 93
       67
 10
119.4250729744817
 20
114.6646616351144
 10
119.450609744389
 20
114.6659643118255
 10
119.4754144315165
 20
114.6697539168033
 10
119.4993686107086
 20
114.6759227908155
 10
119.5223430908866
 20
114.6843525087065
 10
119.5442086809716
 20
114.694892347551
 10
119.5648254239616
 20
114.7074238821935
 10
119.5840964265477
 20
114.7218394534017
 10
119.6018601998811
 20
114.7379991041736
 10
119.618019850653
 20
114.755762877507
 10
119.6324246559379
 20
114.7750231141698
 10
119.6449669565037
 20
114.7956506230831
 10
119.6555067953482
 20
114.8175054472449
 10
119.6639365132392
 20
114.8404799274229
 10
119.6701053872514
 20
114.864434106615
 10
119.6739057581524
 20
114.8892495596657
 10
119.6751976689403
 20
114.914786329573
 10
119.6751976689403
 20
114.914786329573
 10
119.6739057581524
 20
114.9403338654035
 10
119.6701161531746
 20
114.9651385525309
 10
119.6639365132392
 20
114.9890927317231
 10
119.6555175612715
 20
115.0120456800545
 10
119.6449669565037
 20
115.0339220360628
 10
119.6324246559379
 20
115.0545495449761
 10
119.6180090847297
 20
115.0737990157156
 10
119.6018601998811
 20
115.0915627890491
 10
119.5840964265477
 20
115.107722439821
 10
119.5648254239616
 20
115.1221380110292
 10
119.5442086809716
 20
115.1346695456717
 10
119.5223430908866
 20
115.1452201504395
 10
119.4993793766318
 20
115.1536391024072
 10
119.4754251974397
 20
115.1598079764194
 10
119.450609744389
 20
115.1636083473204
 10
119.4250729744817
 20
115.1649002581083
 10
119.4250729744817
 20
115.1649002581083
 10
119.3995469704977
 20
115.1636083473204
 10
119.3747099856005
 20
115.1598187423426
 10
119.3507665723316
 20
115.153628336484
 10
119.3278028580769
 20
115.1452093845162
 10
119.3059480339151
 20
115.1346695456717
 10
119.2853205250018
 20
115.1221272451059
 10
119.2660602883391
 20
115.107722439821
 10
119.2482857490823
 20
115.0915627890491
 10
119.2321368642337
 20
115.0737882497924
 10
119.2177212930255
 20
115.0545387790529
 10
119.2051789924598
 20
115.0339112701396
 10
119.194628387692
 20
115.0120564459778
 10
119.1862094357243
 20
114.9890927317231
 10
119.1800405617121
 20
114.9651385525309
 10
119.1762401908111
 20
114.9403230994802
 10
119.1749482800232
 20
114.914786329573
 10
119.1749482800232
 20
114.914786329573
 10
119.1762294248878
 20
114.8892387937425
 10
119.1800405617121
 20
114.864434106615
 10
119.1862094357243
 20
114.8404799274229
 10
119.194628387692
 20
114.8175054472449
 10
119.2051789924598
 20
114.7956506230831
 10
119.2177212930255
 20
114.7750231141698
 10
119.2321260983105
 20
114.755762877507
 10
119.2482857490823
 20
114.7379991041736
 10
119.2660602883391
 20
114.7218286874785
 10
119.2853205250018
 20
114.7074346481168
 10
119.3059372679919
 20
114.694892347551
 10
119.3278028580769
 20
114.6843417427832
 10
119.3507773382549
 20
114.6759227908155
 10
119.3747207515238
 20
114.6697539168033
 10
119.3995362045745
 20
114.6659535459023
 97
        0
 75
     1
 76
     1
 98
        0
  0
LWPOLYLINE
  5
7D
330
1F
100
AcDbEntity
  8
ISS138金台
  6
Continuous
 62
   250
420
  2367521
370
    13
100
AcDbPolyline
 90
       68
 70
     0
 43
0.0
 10
119.4250729744817
 20
114.6646616351144
 10
119.450609744389
 20
114.6659643118255
 10
119.4754144315165
 20
114.6697539168033
 10
119.4993686107086
 20
114.6759227908155
 10
119.5223430908866
 20
114.6843525087065
 10
119.5442086809716
 20
114.694892347551
 10
119.5648254239616
 20
114.7074238821935
 10
119.5840964265477
 20
114.7218394534017
 10
119.6018601998811
 20
114.7379991041736
 10
119.618019850653
 20
114.755762877507
 10
119.6324246559379
 20
114.7750231141698
 10
119.6449669565037
 20
114.7956506230831
 10
119.6555067953482
 20
114.8175054472449
 10
119.6639365132392
 20
114.8404799274229
 10
119.6701053872514
 20
114.864434106615
 10
119.6739057581524
 20
114.8892495596657
 10
119.6751976689403
 20
114.914786329573
 10
119.6751976689403
 20
114.914786329573
 10
119.6739057581524
 20
114.9403338654035
 10
119.6701161531746
 20
114.9651385525309
 10
119.6639365132392
 20
114.9890927317231
 10
119.6555175612715
 20
115.0120456800545
 10
119.6449669565037
 20
115.0339220360628
 10
119.6324246559379
 20
115.0545495449761
 10
119.6180090847297
 20
115.0737990157156
 10
119.6018601998811
 20
115.0915627890491
 10
119.5840964265477
 20
115.107722439821
 10
119.5648254239616
 20
115.1221380110292
 10
119.5442086809716
 20
115.1346695456717
 10
119.5223430908866
 20
115.1452201504395
 10
119.4993793766318
 20
115.1536391024072
 10
119.4754251974397
 20
115.1598079764194
 10
119.450609744389
 20
115.1636083473204
 10
119.4250729744817
 20
115.1649002581083
 10
119.4250729744817
 20
115.1649002581083
 10
119.3995469704977
 20
115.1636083473204
 10
119.3747099856005
 20
115.1598187423426
 10
119.3507665723316
 20
115.153628336484
 10
119.3278028580769
 20
115.1452093845162
 10
119.3059480339151
 20
115.1346695456717
 10
119.2853205250018
 20
115.1221272451059
 10
119.2660602883391
 20
115.107722439821
 10
119.2482857490823
 20
115.0915627890491
 10
119.2321368642337
 20
115.0737882497924
 10
119.2177212930255
 20
115.0545387790529
 10
119.2051789924598
 20
115.0339112701396
 10
119.194628387692
 20
115.0120564459778
 10
119.1862094357243
 20
114.9890927317231
 10
119.1800405617121
 20
114.9651385525309
 10
119.1762401908111
 20
114.9403230994802
 10
119.1749482800232
 20
114.914786329573
 10
119.1749482800232
 20
114.914786329573
 10
119.1762294248878
 20
114.8892387937425
 10
119.1800405617121
 20
114.864434106615
 10
119.1862094357243
 20
114.8404799274229
 10
119.194628387692
 20
114.8175054472449
 10
119.2051789924598
 20
114.7956506230831
 10
119.2177212930255
 20
114.7750231141698
 10
119.2321260983105
 20
114.755762877507
 10
119.2482857490823
 20
114.7379991041736
 10
119.2660602883391
 20
114.7218286874785
 10
119.2853205250018
 20
114.7074346481168
 10
119.3059372679919
 20
114.694892347551
 10
119.3278028580769
 20
114.6843417427832
 10
119.3507773382549
 20
114.6759227908155
 10
119.3747207515238
 20
114.6697539168033
 10
119.3995362045745
 20
114.6659535459023
 10
119.4250729744817
 20
114.6646616351144
  0
HATCH
  5
7E
330
1F
100
AcDbEntity
  8
ISS138金台
  6
Continuous
 62
   250
420
  2367521
370
    13
100
AcDbHatch
 10
0.0
 20
0.0
 30
0.0
210
0.0
220
0.0
230
1.0
  2
SOLID
 70
     1
 71
     0
 91
        1
 92
        3
 72
     0
 73
     1
 93
       67
 10
113.449910219032
 20
114.6646616351144
 10
113.4754469889392
 20
114.6659643118255
 10
113.5002624419899
 20
114.6697539168033
 10
113.5242058552588
 20
114.6759227908155
 10
113.5471803354368
 20
114.6843525087065
 10
113.5690351595986
 20
114.694892347551
 10
113.5896626685119
 20
114.7074238821935
 10
113.6089229051747
 20
114.7218394534017
 10
113.6266974444313
 20
114.7379991041736
 10
113.6428570952032
 20
114.755762877507
 10
113.6572619004882
 20
114.7750231141698
 10
113.6698042010539
 20
114.7956506230831
 10
113.6803548058217
 20
114.8175054472449
 10
113.6887737577894
 20
114.8404799274229
 10
113.6949426318016
 20
114.864434106615
 10
113.6987430027026
 20
114.8892495596657
 10
113.7000349134905
 20
114.914786329573
 10
113.7000349134905
 20
114.914786329573
 10
113.6987430027026
 20
114.9403338654035
 10
113.6949426318016
 20
114.9651385525309
 10
113.6887737577894
 20
114.9890927317231
 10
113.6803548058217
 20
115.0120456800545
 10
113.6698042010539
 20
115.0339220360628
 10
113.6572619004882
 20
115.0545495449761
 10
113.6428570952032
 20
115.0737990157156
 10
113.6266974444313
 20
115.0915627890491
 10
113.6089336710979
 20
115.107722439821
 10
113.5896626685119
 20
115.1221380110292
 10
113.5690459255218
 20
115.1346695456717
 10
113.5471803354368
 20
115.1452201504395
 10
113.524216621182
 20
115.1536391024072
 10
113.5002624419899
 20
115.1598079764194
 10
113.4754469889392
 20
115.1636083473204
 10
113.449910219032
 20
115.1649002581083
 10
113.449910219032
 20
115.1649002581083
 10
113.4243626832015
 20
115.1636083473204
 10
113.399557996074
 20
115.1598187423426
 10
113.3756038168819
 20
115.153628336484
 10
113.3526401026271
 20
115.1452093845162
 10
113.3307745125421
 20
115.1346695456717
 10
113.3101577695521
 20
115.1221272451059
 10
113.2908975328893
 20
115.107722439821
 10
113.2731229936326
 20
115.0915627890491
 10
113.256974108784
 20
115.0737882497924
 10
113.2425585375758
 20
115.0545387790529
 10
113.23001623701
 20
115.0339112701396
 10
113.2194656322422
 20
115.0120564459778
 10
113.2110466802745
 20
114.9890927317231
 10
113.2048778062623
 20
114.9651385525309
 10
113.2010774353613
 20
114.9403230994802
 10
113.1997855245734
 20
114.914786329573
 10
113.1997855245734
 20
114.914786329573
 10
113.2010882012845
 20
114.8892387937425
 10
113.2048778062623
 20
114.864434106615
 10
113.2110574461977
 20
114.8404799274229
 10
113.2194656322422
 20
114.8175054472449
 10
113.23001623701
 20
114.7956506230831
 10
113.2425585375758
 20
114.7750231141698
 10
113.256974108784
 20
114.755762877507
 10
113.2731229936326
 20
114.7379991041736
 10
113.2908975328893
 20
114.7218286874785
 10
113.3101577695521
 20
114.7074346481168
 10
113.3307745125421
 20
114.694892347551
 10
113.3526401026271
 20
114.6843417427832
 10
113.3756038168819
 20
114.6759227908155
 10
113.399557996074
 20
114.6697539168033
 10
113.4243734491247
 20
114.6659535459023
 97
        0
 75
     1
 76
     1
 98
        0
  0
LWPOLYLINE
  5
7F
330
1F
100
AcDbEntity
  8
ISS138金台
  6
Continuous
 62
   250
420
  2367521
370
    13
100
AcDbPolyline
 90
       68
 70
     0
 43
0.0
 10
113.449910219032
 20
114.6646616351144
 10
113.4754469889392
 20
114.6659643118255
 10
113.5002624419899
 20
114.6697539168033
 10
113.5242058552588
 20
114.6759227908155
 10
113.5471803354368
 20
114.6843525087065
 10
113.5690351595986
 20
114.694892347551
 10
113.5896626685119
 20
114.7074238821935
 10
113.6089229051747
 20
114.7218394534017
 10
113.6266974444313
 20
114.7379991041736
 10
113.6428570952032
 20
114.755762877507
 10
113.6572619004882
 20
114.7750231141698
 10
113.6698042010539
 20
114.7956506230831
 10
113.6803548058217
 20
114.8175054472449
 10
113.6887737577894
 20
114.8404799274229
 10
113.6949426318016
 20
114.864434106615
 10
113.6987430027026
 20
114.8892495596657
 10
113.7000349134905
 20
114.914786329573
 10
113.7000349134905
 20
114.914786329573
 10
113.6987430027026
 20
114.9403338654035
 10
113.6949426318016
 20
114.9651385525309
 10
113.6887737577894
 20
114.9890927317231
 10
113.6803548058217
 20
115.0120456800545
 10
113.6698042010539
 20
115.0339220360628
 10
113.6572619004882
 20
115.0545495449761
 10
113.6428570952032
 20
115.0737990157156
 10
113.6266974444313
 20
115.0915627890491
 10
113.6089336710979
 20
115.107722439821
 10
113.5896626685119
 20
115.1221380110292
 10
113.5690459255218
 20
115.1346695456717
 10
113.5471803354368
 20
115.1452201504395
 10
113.524216621182
 20
115.1536391024072
 10
113.5002624419899
 20
115.1598079764194
 10
113.4754469889392
 20
115.1636083473204
 10
113.449910219032
 20
115.1649002581083
 10
113.449910219032
 20
115.1649002581083
 10
113.4243626832015
 20
115.1636083473204
 10
113.399557996074
 20
115.1598187423426
 10
113.3756038168819
 20
115.153628336484
 10
113.3526401026271
 20
115.1452093845162
 10
113.3307745125421
 20
115.1346695456717
 10
113.3101577695521
 20
115.1221272451059
 10
113.2908975328893
 20
115.107722439821
 10
113.2731229936326
 20
115.0915627890491
 10
113.256974108784
 20
115.0737882497924
 10
113.2425585375758
 20
115.0545387790529
 10
113.23001623701
 20
115.0339112701396
 10
113.2194656322422
 20
115.0120564459778
 10
113.2110466802745
 20
114.9890927317231
 10
113.2048778062623
 20
114.9651385525309
 10
113.2010774353613
 20
114.9403230994802
 10
113.1997855245734
 20
114.914786329573
 10
113.1997855245734
 20
114.914786329573
 10
113.2010882012845
 20
114.8892387937425
 10
113.2048778062623
 20
114.864434106615
 10
113.2110574461977
 20
114.8404799274229
 10
113.2194656322422
 20
114.8175054472449
 10
113.23001623701
 20
114.7956506230831
 10
113.2425585375758
 20
114.7750231141698
 10
113.256974108784
 20
114.755762877507
 10
113.2731229936326
 20
114.7379991041736
 10
113.2908975328893
 20
114.7218286874785
 10
113.3101577695521
 20
114.7074346481168
 10
113.3307745125421
 20
114.694892347551
 10
113.3526401026271
 20
114.6843417427832
 10
113.3756038168819
 20
114.6759227908155
 10
113.399557996074
 20
114.6697539168033
 10
113.4243734491247
 20
114.6659535459023
 10
113.449910219032
 20
114.6646616351144
  0
HATCH
  5
80
330
1F
100
AcDbEntity
  8
ISS138金台
  6
Continuous
 62
   250
420
  2367521
370
    13
100
AcDbHatch
 10
0.0
 20
0.0
 30
0.0
210
0.0
220
0.0
230
1.0
  2
SOLID
 70
     1
 71
     0
 91
        1
 92
        3
 72
     0
 73
     1
 93
       67
 10
107.9597953688951
 20
109.1745683168241
 10
107.9853321388024
 20
109.1758602276119
 10
108.0101368259299
 20
109.1796713644362
 10
108.034091005122
 20
109.1858294725252
 10
108.0570654853
 20
109.1942484244929
 10
108.078931075385
 20
109.2047882633374
 10
108.0995478183751
 20
109.2173305639032
 10
108.1188188209611
 20
109.2317569010346
 10
108.1365825942946
 20
109.24789501996
 10
108.1527314791432
 20
109.2656695592167
 10
108.1671470503513
 20
109.2849297958795
 10
108.1796893509171
 20
109.3055573047928
 10
108.1902291897616
 20
109.3274121289546
 10
108.1986589076526
 20
109.3503866091325
 10
108.2048277816648
 20
109.3743407883246
 10
108.2086281525658
 20
109.3991562413754
 10
108.2099200633537
 20
109.4246930112826
 10
108.2099200633537
 20
109.4246930112826
 10
108.2086281525658
 20
109.4502297811899
 10
108.204838547588
 20
109.4750452342406
 10
108.1986589076526
 20
109.4989994134327
 10
108.1902399556849
 20
109.5219631276874
 10
108.1796893509171
 20
109.5438179518492
 10
108.1671470503513
 20
109.5644454607625
 10
108.1527314791432
 20
109.5837056974253
 10
108.1365825942946
 20
109.6014694707588
 10
108.1188080550378
 20
109.6176291215306
 10
108.0995478183751
 20
109.6320339268156
 10
108.078931075385
 20
109.6445762273813
 10
108.0570654853
 20
109.6551268321491
 10
108.0341017710452
 20
109.6635457841169
 10
108.0101475918531
 20
109.669714658129
 10
107.9853321388024
 20
109.6735150290301
 10
107.9597953688951
 20
109.6748069398179
 10
107.9597953688951
 20
109.6748069398179
 10
107.9342693649111
 20
109.6735150290301
 10
107.9094323800139
 20
109.6697254240523
 10
107.8854889667451
 20
109.6635457841169
 10
107.8625252524903
 20
109.6551160662259
 10
107.8406704283286
 20
109.6445762273813
 10
107.8200429194152
 20
109.6320339268156
 10
107.8007826827525
 20
109.6176291215306
 10
107.7830081434958
 20
109.6014694707588
 10
107.7668484927239
 20
109.5837056974253
 10
107.7524436874389
 20
109.5644454607625
 10
107.7399013868732
 20
109.5438179518492
 10
107.7293507821054
 20
109.5219631276874
 10
107.7209318301377
 20
109.4989886475095
 10
107.7147629561255
 20
109.4750452342406
 10
107.7109625852245
 20
109.4502297811899
 10
107.7096706744366
 20
109.4246930112826
 10
107.7096706744366
 20
109.4246930112826
 10
107.7109625852245
 20
109.3991562413754
 10
107.7147629561255
 20
109.3743300224014
 10
107.7209318301377
 20
109.3503866091325
 10
107.7293507821054
 20
109.3274121289546
 10
107.7399013868732
 20
109.3055573047928
 10
107.7524436874389
 20
109.2849297958795
 10
107.7668484927239
 20
109.2656695592167
 10
107.7830081434958
 20
109.24789501996
 10
107.8007826827525
 20
109.2317461351114
 10
107.8200429194152
 20
109.2173413298264
 10
107.8406596624053
 20
109.2047990292607
 10
107.8625252524903
 20
109.1942484244929
 10
107.8854997326683
 20
109.1858294725252
 10
107.9094431459372
 20
109.179660598513
 10
107.9342585989879
 20
109.1758602276119
 97
        0
 75
     1
 76
     1
 98
        0
  0
LWPOLYLINE
  5
81
330
1F
100
AcDbEntity
  8
ISS138金台
  6
Continuous
 62
   250
420
  2367521
370
    13
100
AcDbPolyline
 90
       68
 70
     0
 43
0.0
 10
107.9597953688951
 20
109.1745683168241
 10
107.9853321388024
 20
109.1758602276119
 10
108.0101368259299
 20
109.1796713644362
 10
108.034091005122
 20
109.1858294725252
 10
108.0570654853
 20
109.1942484244929
 10
108.078931075385
 20
109.2047882633374
 10
108.0995478183751
 20
109.2173305639032
 10
108.1188188209611
 20
109.2317569010346
 10
108.1365825942946
 20
109.24789501996
 10
108.1527314791432
 20
109.2656695592167
 10
108.1671470503513
 20
109.2849297958795
 10
108.1796893509171
 20
109.3055573047928
 10
108.1902291897616
 20
109.3274121289546
 10
108.1986589076526
 20
109.3503866091325
 10
108.2048277816648
 20
109.3743407883246
 10
108.2086281525658
 20
109.3991562413754
 10
108.2099200633537
 20
109.4246930112826
 10
108.2099200633537
 20
109.4246930112826
 10
108.2086281525658
 20
109.4502297811899
 10
108.204838547588
 20
109.4750452342406
 10
108.1986589076526
 20
109.4989994134327
 10
108.1902399556849
 20
109.5219631276874
 10
108.1796893509171
 20
109.5438179518492
 10
108.1671470503513
 20
109.5644454607625
 10
108.1527314791432
 20
109.5837056974253
 10
108.1365825942946
 20
109.6014694707588
 10
108.1188080550378
 20
109.6176291215306
 10
108.0995478183751
 20
109.6320339268156
 10
108.078931075385
 20
109.6445762273813
 10
108.0570654853
 20
109.6551268321491
 10
108.0341017710452
 20
109.6635457841169
 10
108.0101475918531
 20
109.669714658129
 10
107.9853321388024
 20
109.6735150290301
 10
107.9597953688951
 20
109.6748069398179
 10
107.9597953688951
 20
109.6748069398179
 10
107.9342693649111
 20
109.6735150290301
 10
107.9094323800139
 20
109.6697254240523
 10
107.8854889667451
 20
109.6635457841169
 10
107.8625252524903
 20
109.6551160662259
 10
107.8406704283286
 20
109.6445762273813
 10
107.8200429194152
 20
109.6320339268156
 10
107.8007826827525
 20
109.6176291215306
 10
107.7830081434958
 20
109.6014694707588
 10
107.7668484927239
 20
109.5837056974253
 10
107.7524436874389
 20
109.5644454607625
 10
107.7399013868732
 20
109.5438179518492
 10
107.7293507821054
 20
109.5219631276874
 10
107.7209318301377
 20
109.4989886475095
 10
107.7147629561255
 20
109.4750452342406
 10
107.7109625852245
 20
109.4502297811899
 10
107.7096706744366
 20
109.4246930112826
 10
107.7096706744366
 20
109.4246930112826
 10
107.7109625852245
 20
109.3991562413754
 10
107.7147629561255
 20
109.3743300224014
 10
107.7209318301377
 20
109.3503866091325
 10
107.7293507821054
 20
109.3274121289546
 10
107.7399013868732
 20
109.3055573047928
 10
107.7524436874389
 20
109.2849297958795
 10
107.7668484927239
 20
109.2656695592167
 10
107.7830081434958
 20
109.24789501996
 10
107.8007826827525
 20
109.2317461351114
 10
107.8200429194152
 20
109.2173413298264
 10
107.8406596624053
 20
109.2047990292607
 10
107.8625252524903
 20
109.1942484244929
 10
107.8854997326683
 20
109.1858294725252
 10
107.9094431459372
 20
109.179660598513
 10
107.9342585989879
 20
109.1758602276119
 10
107.9597953688951
 20
109.1745683168241
  0
HATCH
  5
82
330
1F
100
AcDbEntity
  8
ISS138金台
  6
Continuous
 62
   250
420
  2367521
370
    13
100
AcDbHatch
 10
0.0
 20
0.0
 30
0.0
210
0.0
220
0.0
230
1.0
  2
SOLID
 70
     1
 71
     0
 91
        1
 92
        3
 72
     0
 73
     1
 93
       67
 10
107.9597953688951
 20
104.698872583261
 10
107.9853321388024
 20
104.7001644940489
 10
108.0101368259299
 20
104.70396486495
 10
108.034091005122
 20
104.7101445048853
 10
108.0570654853
 20
104.7185634568531
 10
108.078931075385
 20
104.7291032956976
 10
108.0995478183751
 20
104.7416455962634
 10
108.1188188209611
 20
104.7560504015483
 10
108.1365825942946
 20
104.7721992863969
 10
108.1527314791432
 20
104.7899738256537
 10
108.1671470503513
 20
104.8092340623164
 10
108.1796893509171
 20
104.8298615712297
 10
108.1902291897616
 20
104.8517163953915
 10
108.1986589076526
 20
104.8746908755695
 10
108.2048277816648
 20
104.8986450547616
 10
108.2086281525658
 20
104.9234605078123
 10
108.2099200633537
 20
104.9489972777196
 10
108.2099200633537
 20
104.9489972777196
 10
108.2086281525658
 20
104.9745448135501
 10
108.204838547588
 20
104.9993495006776
 10
108.1986589076526
 20
105.0233036798697
 10
108.1902399556849
 20
105.0462673941244
 10
108.1796893509171
 20
105.0681222182862
 10
108.1671470503513
 20
105.0887497271995
 10
108.1527314791432
 20
105.1080099638623
 10
108.1365825942946
 20
105.1257737371957
 10
108.1188080550378
 20
105.1419333879676
 10
108.0995478183751
 20
105.1563489591758
 10
108.078931075385
 20
105.1688804938183
 10
108.0570654853
 20
105.1794310985861
 10
108.0341017710452
 20
105.1878500505538
 10
108.0101475918531
 20
105.194018924566
 10
107.9853321388024
 20
105.197819295467
 10
107.9597953688951
 20
105.1991112062549
 10
107.9597953688951
 20
105.1991112062549
 10
107.9342693649111
 20
105.1978085295438
 10
107.9094323800139
 20
105.194018924566
 10
107.8854889667451
 20
105.1878500505538
 10
107.8625252524903
 20
105.1794310985861
 10
107.8406704283286
 20
105.1688804938183
 10
107.8200429194152
 20
105.1563381932526
 10
107.8007826827525
 20
105.1419333879676
 10
107.7830081434958
 20
105.1257737371957
 10
107.7668484927239
 20
105.1080099638623
 10
107.7524436874389
 20
105.0887497271995
 10
107.7399013868732
 20
105.0681222182862
 10
107.7293507821054
 20
105.0462673941244
 10
107.7209318301377
 20
105.0232929139464
 10
107.7147629561255
 20
104.9993495006776
 10
107.7109625852245
 20
104.9745340476268
 10
107.7096706744366
 20
104.9489972777196
 10
107.7096706744366
 20
104.9489972777196
 10
107.7109625852245
 20
104.9234497418891
 10
107.7147629561255
 20
104.8986450547616
 10
107.7209318301377
 20
104.8746908755695
 10
107.7293507821054
 20
104.8517271613148
 10
107.7399013868732
 20
104.8298508053065
 10
107.7524436874389
 20
104.8092340623164
 10
107.7668484927239
 20
104.7899845915769
 10
107.7830081434958
 20
104.7721992863969
 10
107.8007826827525
 20
104.7560611674716
 10
107.8200429194152
 20
104.7416455962634
 10
107.8406596624053
 20
104.7291032956976
 10
107.8625252524903
 20
104.7185526909299
 10
107.8854997326683
 20
104.7101337389621
 10
107.9094431459372
 20
104.70396486495
 10
107.9342585989879
 20
104.7001644940489
 97
        0
 75
     1
 76
     1
 98
        0
  0
LWPOLYLINE
  5
83
330
1F
100
AcDbEntity
  8
ISS138金台
  6
Continuous
 62
   250
420
  2367521
370
    13
100
AcDbPolyline
 90
       68
 70
     0
 43
0.0
 10
107.9597953688951
 20
104.698872583261
 10
107.9853321388024
 20
104.7001644940489
 10
108.0101368259299
 20
104.70396486495
 10
108.034091005122
 20
104.7101445048853
 10
108.0570654853
 20
104.7185634568531
 10
108.078931075385
 20
104.7291032956976
 10
108.0995478183751
 20
104.7416455962634
 10
108.1188188209611
 20
104.7560504015483
 10
108.1365825942946
 20
104.7721992863969
 10
108.1527314791432
 20
104.7899738256537
 10
108.1671470503513
 20
104.8092340623164
 10
108.1796893509171
 20
104.8298615712297
 10
108.1902291897616
 20
104.8517163953915
 10
108.1986589076526
 20
104.8746908755695
 10
108.2048277816648
 20
104.8986450547616
 10
108.2086281525658
 20
104.9234605078123
 10
108.2099200633537
 20
104.9489972777196
 10
108.2099200633537
 20
104.9489972777196
 10
108.2086281525658
 20
104.9745448135501
 10
108.204838547588
 20
104.9993495006776
 10
108.1986589076526
 20
105.0233036798697
 10
108.1902399556849
 20
105.0462673941244
 10
108.1796893509171
 20
105.0681222182862
 10
108.1671470503513
 20
105.0887497271995
 10
108.1527314791432
 20
105.1080099638623
 10
108.1365825942946
 20
105.1257737371957
 10
108.1188080550378
 20
105.1419333879676
 10
108.0995478183751
 20
105.1563489591758
 10
108.078931075385
 20
105.1688804938183
 10
108.0570654853
 20
105.1794310985861
 10
108.0341017710452
 20
105.1878500505538
 10
108.0101475918531
 20
105.194018924566
 10
107.9853321388024
 20
105.197819295467
 10
107.9597953688951
 20
105.1991112062549
 10
107.9597953688951
 20
105.1991112062549
 10
107.9342693649111
 20
105.1978085295438
 10
107.9094323800139
 20
105.194018924566
 10
107.8854889667451
 20
105.1878500505538
 10
107.8625252524903
 20
105.1794310985861
 10
107.8406704283286
 20
105.1688804938183
 10
107.8200429194152
 20
105.1563381932526
 10
107.8007826827525
 20
105.1419333879676
 10
107.7830081434958
 20
105.1257737371957
 10
107.7668484927239
 20
105.1080099638623
 10
107.7524436874389
 20
105.0887497271995
 10
107.7399013868732
 20
105.0681222182862
 10
107.7293507821054
 20
105.0462673941244
 10
107.7209318301377
 20
105.0232929139464
 10
107.7147629561255
 20
104.9993495006776
 10
107.7109625852245
 20
104.9745340476268
 10
107.7096706744366
 20
104.9489972777196
 10
107.7096706744366
 20
104.9489972777196
 10
107.7109625852245
 20
104.9234497418891
 10
107.7147629561255
 20
104.8986450547616
 10
107.7209318301377
 20
104.8746908755695
 10
107.7293507821054
 20
104.8517271613148
 10
107.7399013868732
 20
104.8298508053065
 10
107.7524436874389
 20
104.8092340623164
 10
107.7668484927239
 20
104.7899845915769
 10
107.7830081434958
 20
104.7721992863969
 10
107.8007826827525
 20
104.7560611674716
 10
107.8200429194152
 20
104.7416455962634
 10
107.8406596624053
 20
104.7291032956976
 10
107.8625252524903
 20
104.7185526909299
 10
107.8854997326683
 20
104.7101337389621
 10
107.9094431459372
 20
104.70396486495
 10
107.9342585989879
 20
104.7001644940489
 10
107.9597953688951
 20
104.698872583261
  0
HATCH
  5
84
330
1F
100
AcDbEntity
  8
ISS138金台
  6
Continuous
 62
   250
420
  2367521
370
    13
100
AcDbHatch
 10
0.0
 20
0.0
 30
0.0
210
0.0
220
0.0
230
1.0
  2
SOLID
 70
     1
 71
     0
 91
        1
 92
        3
 72
     0
 73
     1
 93
       67
 10
113.449910219032
 20
94.18168524121333
 10
113.4754469889392
 20
94.18296638607798
 10
113.5002624419899
 20
94.18677752290225
 10
113.5242058552588
 20
94.19294639691442
 10
113.5471803354368
 20
94.2013761148054
 10
113.5690351595986
 20
94.21191595364994
 10
113.5896626685119
 20
94.22445825421568
 10
113.6089229051747
 20
94.23886305950064
 10
113.6266974444313
 20
94.2550227102725
 10
113.6428570952032
 20
94.27278648360597
 10
113.6572619004882
 20
94.29204672026876
 10
113.6698042010539
 20
94.31267422918205
 10
113.6803548058217
 20
94.33452905334383
 10
113.6887737577894
 20
94.3575035335218
 10
113.6949426318016
 20
94.38145771271391
 10
113.6987430027026
 20
94.40627316576462
 10
113.7000349134905
 20
94.43180993567188
 10
113.7000349134905
 20
94.43180993567188
 10
113.6987430027026
 20
94.45734670557917
 10
113.6949426318016
 20
94.48216215862986
 10
113.6887737577894
 20
94.50610557189874
 10
113.6803548058217
 20
94.5290800520767
 10
113.6698042010539
 20
94.55094564216174
 10
113.6572619004882
 20
94.5715623851518
 10
113.6428570952032
 20
94.59082262181457
 10
113.6266974444313
 20
94.60858639514805
 10
113.6089336710979
 20
94.62474604591989
 10
113.5896626685119
 20
94.63916161712808
 10
113.5690459255218
 20
94.65169315177062
 10
113.5471803354368
 20
94.66224375653837
 10
113.524216621182
 20
94.67066270850611
 10
113.5002624419899
 20
94.67683158251829
 10
113.4754469889392
 20
94.68063195341932
 10
113.449910219032
 20
94.68192386420722
 10
113.449910219032
 20
94.68192386420722
 10
113.4243626832015
 20
94.68062118749609
 10
113.399557996074
 20
94.67683158251829
 10
113.3756038168819
 20
94.67066270850611
 10
113.3526401026271
 20
94.66224375653837
 10
113.3307745125421
 20
94.65170391769385
 10
113.3101577695521
 20
94.63915085120485
 10
113.2908975328893
 20
94.62474604591989
 10
113.2731229936326
 20
94.60858639514805
 10
113.256974108784
 20
94.59082262181457
 10
113.2425585375758
 20
94.5715623851518
 10
113.23001623701
 20
94.5509348762385
 10
113.2194656322422
 20
94.5290800520767
 10
113.2110466802745
 20
94.50611633782196
 10
113.2048778062623
 20
94.48216215862986
 10
113.2010774353613
 20
94.45734670557917
 10
113.1997855245734
 20
94.43180993567188
 10
113.1997855245734
 20
94.43180993567188
 10
113.2010882012845
 20
94.40627316576462
 10
113.2048778062623
 20
94.38145771271391
 10
113.2110574461977
 20
94.3575035335218
 10
113.2194656322422
 20
94.33453981926706
 10
113.23001623701
 20
94.31267422918205
 10
113.2425585375758
 20
94.29204672026876
 10
113.256974108784
 20
94.27278648360597
 10
113.2731229936326
 20
94.2550227102725
 10
113.2908975328893
 20
94.23887382542388
 10
113.3101577695521
 20
94.22445825421568
 10
113.3307745125421
 20
94.21191595364994
 10
113.3526401026271
 20
94.20136534888216
 10
113.3756038168819
 20
94.19294639691442
 10
113.399557996074
 20
94.18677752290225
 10
113.4243734491247
 20
94.1829771520012
 97
        0
 75
     1
 76
     1
 98
        0
  0
LWPOLYLINE
  5
85
330
1F
100
AcDbEntity
  8
ISS138金台
  6
Continuous
 62
   250
420
  2367521
370
    13
100
AcDbPolyline
 90
       68
 70
     0
 43
0.0
 10
113.449910219032
 20
94.18168524121333
 10
113.4754469889392
 20
94.18296638607798
 10
113.5002624419899
 20
94.18677752290225
 10
113.5242058552588
 20
94.19294639691442
 10
113.5471803354368
 20
94.2013761148054
 10
113.5690351595986
 20
94.21191595364994
 10
113.5896626685119
 20
94.22445825421568
 10
113.6089229051747
 20
94.23886305950064
 10
113.6266974444313
 20
94.2550227102725
 10
113.6428570952032
 20
94.27278648360597
 10
113.6572619004882
 20
94.29204672026876
 10
113.6698042010539
 20
94.31267422918205
 10
113.6803548058217
 20
94.33452905334383
 10
113.6887737577894
 20
94.3575035335218
 10
113.6949426318016
 20
94.38145771271391
 10
113.6987430027026
 20
94.40627316576462
 10
113.7000349134905
 20
94.43180993567188
 10
113.7000349134905
 20
94.43180993567188
 10
113.6987430027026
 20
94.45734670557917
 10
113.6949426318016
 20
94.48216215862986
 10
113.6887737577894
 20
94.50610557189874
 10
113.6803548058217
 20
94.5290800520767
 10
113.6698042010539
 20
94.55094564216174
 10
113.6572619004882
 20
94.5715623851518
 10
113.6428570952032
 20
94.59082262181457
 10
113.6266974444313
 20
94.60858639514805
 10
113.6089336710979
 20
94.62474604591989
 10
113.5896626685119
 20
94.63916161712808
 10
113.5690459255218
 20
94.65169315177062
 10
113.5471803354368
 20
94.66224375653837
 10
113.524216621182
 20
94.67066270850611
 10
113.5002624419899
 20
94.67683158251829
 10
113.4754469889392
 20
94.68063195341932
 10
113.449910219032
 20
94.68192386420722
 10
113.449910219032
 20
94.68192386420722
 10
113.4243626832015
 20
94.68062118749609
 10
113.399557996074
 20
94.67683158251829
 10
113.3756038168819
 20
94.67066270850611
 10
113.3526401026271
 20
94.66224375653837
 10
113.3307745125421
 20
94.65170391769385
 10
113.3101577695521
 20
94.63915085120485
 10
113.2908975328893
 20
94.62474604591989
 10
113.2731229936326
 20
94.60858639514805
 10
113.256974108784
 20
94.59082262181457
 10
113.2425585375758
 20
94.5715623851518
 10
113.23001623701
 20
94.5509348762385
 10
113.2194656322422
 20
94.5290800520767
 10
113.2110466802745
 20
94.50611633782196
 10
113.2048778062623
 20
94.48216215862986
 10
113.2010774353613
 20
94.45734670557917
 10
113.1997855245734
 20
94.43180993567188
 10
113.1997855245734
 20
94.43180993567188
 10
113.2010882012845
 20
94.40627316576462
 10
113.2048778062623
 20
94.38145771271391
 10
113.2110574461977
 20
94.3575035335218
 10
113.2194656322422
 20
94.33453981926706
 10
113.23001623701
 20
94.31267422918205
 10
113.2425585375758
 20
94.29204672026876
 10
113.256974108784
 20
94.27278648360597
 10
113.2731229936326
 20
94.2550227102725
 10
113.2908975328893
 20
94.23887382542388
 10
113.3101577695521
 20
94.22445825421568
 10
113.3307745125421
 20
94.21191595364994
 10
113.3526401026271
 20
94.20136534888216
 10
113.3756038168819
 20
94.19294639691442
 10
113.399557996074
 20
94.18677752290225
 10
113.4243734491247
 20
94.1829771520012
 10
113.449910219032
 20
94.18168524121333
  0
HATCH
  5
86
330
1F
100
AcDbEntity
  8
ISS138金台
  6
Continuous
 62
   250
420
  2367521
370
    13
100
AcDbHatch
 10
0.0
 20
0.0
 30
0.0
210
0.0
220
0.0
230
1.0
  2
SOLID
 70
     1
 71
     0
 91
        1
 92
        3
 72
     0
 73
     1
 93
       67
 10
133.4039029749086
 20
94.18168524121333
 10
133.4294397448159
 20
94.18296638607798
 10
133.4542551978666
 20
94.18677752290225
 10
133.4781986111355
 20
94.19294639691442
 10
133.5011730913134
 20
94.2013761148054
 10
133.5230386813984
 20
94.21191595364994
 10
133.5436554243885
 20
94.22445825421568
 10
133.5629156610513
 20
94.23886305950064
 10
133.580690200308
 20
94.2550227102725
 10
133.5968498510799
 20
94.27278648360597
 10
133.6112654222881
 20
94.29204672026876
 10
133.6237969569306
 20
94.31267422918205
 10
133.6343475616983
 20
94.33452905334383
 10
133.6427665136661
 20
94.3575035335218
 10
133.6489353876783
 20
94.38145771271391
 10
133.6527357585793
 20
94.40627316576462
 10
133.6540276693672
 20
94.43180993567188
 10
133.6540276693672
 20
94.43180993567188
 10
133.6527357585793
 20
94.45734670557917
 10
133.6489353876783
 20
94.48216215862986
 10
133.6427665136661
 20
94.50610557189874
 10
133.6343475616983
 20
94.5290800520767
 10
133.6237969569306
 20
94.55094564216174
 10
133.6112546563648
 20
94.5715623851518
 10
133.5968390851566
 20
94.59082262181457
 10
133.580690200308
 20
94.60858639514805
 10
133.5629156610513
 20
94.62474604591989
 10
133.5436554243885
 20
94.63916161712808
 10
133.5230386813984
 20
94.65169315177062
 10
133.5011730913134
 20
94.66224375653837
 10
133.4782093770587
 20
94.67066270850611
 10
133.4542551978666
 20
94.67683158251829
 10
133.4294397448159
 20
94.68063195341932
 10
133.4039029749086
 20
94.68192386420722
 10
133.4039029749086
 20
94.68192386420722
 10
133.3783769709246
 20
94.68062118749609
 10
133.3535507519506
 20
94.67683158251829
 10
133.3295965727585
 20
94.67066270850611
 10
133.3066328585038
 20
94.66224375653837
 10
133.2847672684188
 20
94.65170391769385
 10
133.2641505254287
 20
94.63915085120485
 10
133.2448902887659
 20
94.62474604591989
 10
133.2271157495092
 20
94.60858639514805
 10
133.2109668646606
 20
94.59082262181457
 10
133.1965512934524
 20
94.5715623851518
 10
133.1840089928866
 20
94.5509348762385
 10
133.1734583881189
 20
94.5290800520767
 10
133.1650394361511
 20
94.50611633782196
 10
133.158870562139
 20
94.48216215862986
 10
133.1550701912379
 20
94.45734670557917
 10
133.15377828045
 20
94.43180993567188
 10
133.15377828045
 20
94.43180993567188
 10
133.1550594253147
 20
94.40627316576462
 10
133.158870562139
 20
94.38145771271391
 10
133.1650394361511
 20
94.3575035335218
 10
133.1734583881189
 20
94.33453981926706
 10
133.1840089928866
 20
94.31267422918205
 10
133.1965512934524
 20
94.29204672026876
 10
133.2109668646606
 20
94.27278648360597
 10
133.2271157495092
 20
94.2550227102725
 10
133.2448902887659
 20
94.23887382542388
 10
133.2641397595055
 20
94.22445825421568
 10
133.2847672684188
 20
94.21191595364994
 10
133.3066328585038
 20
94.20136534888216
 10
133.3295965727585
 20
94.19294639691442
 10
133.3535507519506
 20
94.18677752290225
 10
133.3783662050013
 20
94.1829771520012
 97
        0
 75
     1
 76
     1
 98
        0
  0
LWPOLYLINE
  5
87
330
1F
100
AcDbEntity
  8
ISS138金台
  6
Continuous
 62
   250
420
  2367521
370
    13
100
AcDbPolyline
 90
       68
 70
     0
 43
0.0
 10
133.4039029749086
 20
94.18168524121333
 10
133.4294397448159
 20
94.18296638607798
 10
133.4542551978666
 20
94.18677752290225
 10
133.4781986111355
 20
94.19294639691442
 10
133.5011730913134
 20
94.2013761148054
 10
133.5230386813984
 20
94.21191595364994
 10
133.5436554243885
 20
94.22445825421568
 10
133.5629156610513
 20
94.23886305950064
 10
133.580690200308
 20
94.2550227102725
 10
133.5968498510799
 20
94.27278648360597
 10
133.6112654222881
 20
94.29204672026876
 10
133.6237969569306
 20
94.31267422918205
 10
133.6343475616983
 20
94.33452905334383
 10
133.6427665136661
 20
94.3575035335218
 10
133.6489353876783
 20
94.38145771271391
 10
133.6527357585793
 20
94.40627316576462
 10
133.6540276693672
 20
94.43180993567188
 10
133.6540276693672
 20
94.43180993567188
 10
133.6527357585793
 20
94.45734670557917
 10
133.6489353876783
 20
94.48216215862986
 10
133.6427665136661
 20
94.50610557189874
 10
133.6343475616983
 20
94.5290800520767
 10
133.6237969569306
 20
94.55094564216174
 10
133.6112546563648
 20
94.5715623851518
 10
133.5968390851566
 20
94.59082262181457
 10
133.580690200308
 20
94.60858639514805
 10
133.5629156610513
 20
94.62474604591989
 10
133.5436554243885
 20
94.63916161712808
 10
133.5230386813984
 20
94.65169315177062
 10
133.5011730913134
 20
94.66224375653837
 10
133.4782093770587
 20
94.67066270850611
 10
133.4542551978666
 20
94.67683158251829
 10
133.4294397448159
 20
94.68063195341932
 10
133.4039029749086
 20
94.68192386420722
 10
133.4039029749086
 20
94.68192386420722
 10
133.3783769709246
 20
94.68062118749609
 10
133.3535507519506
 20
94.67683158251829
 10
133.3295965727585
 20
94.67066270850611
 10
133.3066328585038
 20
94.66224375653837
 10
133.2847672684188
 20
94.65170391769385
 10
133.2641505254287
 20
94.63915085120485
 10
133.2448902887659
 20
94.62474604591989
 10
133.2271157495092
 20
94.60858639514805
 10
133.2109668646606
 20
94.59082262181457
 10
133.1965512934524
 20
94.5715623851518
 10
133.1840089928866
 20
94.5509348762385
 10
133.1734583881189
 20
94.5290800520767
 10
133.1650394361511
 20
94.50611633782196
 10
133.158870562139
 20
94.48216215862986
 10
133.1550701912379
 20
94.45734670557917
 10
133.15377828045
 20
94.43180993567188
 10
133.15377828045
 20
94.43180993567188
 10
133.1550594253147
 20
94.40627316576462
 10
133.158870562139
 20
94.38145771271391
 10
133.1650394361511
 20
94.3575035335218
 10
133.1734583881189
 20
94.33453981926706
 10
133.1840089928866
 20
94.31267422918205
 10
133.1965512934524
 20
94.29204672026876
 10
133.2109668646606
 20
94.27278648360597
 10
133.2271157495092
 20
94.2550227102725
 10
133.2448902887659
 20
94.23887382542388
 10
133.2641397595055
 20
94.22445825421568
 10
133.2847672684188
 20
94.21191595364994
 10
133.3066328585038
 20
94.20136534888216
 10
133.3295965727585
 20
94.19294639691442
 10
133.3535507519506
 20
94.18677752290225
 10
133.3783662050013
 20
94.1829771520012
 10
133.4039029749086
 20
94.18168524121333
  0
TEXT
  5
88
330
1F
100
AcDbEntity
  8
ISS138金台
  6
Continuous
 62
   250
420
  2367521
100
AcDbText
 10
121.938625369322
 20
95.46914220972488
 30
0.0
 40
2.150533301035563
  1
20
 41
0.9460029602050779
  7
MS Gothic
100
AcDbText
  0
TEXT
  5
89
330
1F
100
AcDbEntity
  8
ISS138金台
  6
Continuous
 62
   250
420
  2367521
100
AcDbText
 10
107.0326953828188
 20
104.7064517758224
 30
0.0
 40
2.150533301035563
  1
4.5
 50
90.00000250447816
 41
0.9673334757486979
  7
MS Gothic
100
AcDbText
  0
TEXT
  5
8A
330
1F
100
AcDbEntity
  8
ISS138金台
  6
Continuous
 62
   250
420
  2367521
100
AcDbText
 10
115.8532087940491
 20
115.9962265911091
 30
0.0
 40
2.150533301035563
  1
6
 41
0.8919982910156248
  7
MS Gothic
100
AcDbText
  0
LINE
  5
8B
330
1F
100
AcDbEntity
  8
ISS138金台
  6
Continuous
 62
   250
420
  2367521
370
    13
100
AcDbLine
 10
134.4219502076117
 20
106.1471584061009
 30
0.0
 11
143.8809764869923
 21
106.1471584061009
 31
0.0
  0
LINE
  5
8C
330
1F
100
AcDbEntity
  8
ISS138金台
  6
Continuous
 62
   250
420
  2367521
370
    13
100
AcDbLine
 10
134.4219502076117
 20
109.1459417269491
 30
0.0
 11
143.9691709301122
 21
109.1459417269491
 31
0.0
  0
LINE
  5
8D
330
1F
100
AcDbEntity
  8
ISS138金台
  6
Continuous
 62
   250
420
  2367521
370
    13
100
AcDbLine
 10
143.8694031195175
 20
106.1513248183918
 30
0.0
 11
143.8694031195175
 21
109.8773677854357
 31
0.0
  0
HATCH
  5
8E
330
1F
100
AcDbEntity
  8
ISS138金台
  6
Continuous
 62
   250
420
  2367521
370
    13
100
AcDbHatch
 10
0.0
 20
0.0
 30
0.0
210
0.0
220
0.0
230
1.0
  2
SOLID
 70
     1
 71
     0
 91
        1
 92
        3
 72
     0
 73
     1
 93
       67
 10
143.8807934662974
 20
108.8961830738804
 10
143.9063194702814
 20
108.8974642187451
 10
143.9311241574089
 20
108.9012430577996
 10
143.9550675706778
 20
108.9073796340421
 10
143.9779989871628
 20
108.9157662882402
 10
143.9998430454014
 20
108.9262630633918
 10
144.0204274906217
 20
108.9387515343414
 10
144.0396661954381
 20
108.9531025100102
 10
144.0573976710018
 20
108.9692083311659
 10
144.073525024004
 20
108.9869398067296
 10
144.0879082974425
 20
109.0061569796995
 10
144.1004183002385
 20
109.0267414249198
 10
144.1109366072366
 20
109.0485854831584
 10
144.1193340273579
 20
109.0715491974131
 10
144.1254813695236
 20
109.0955141425285
 10
144.1292709745014
 20
109.1203618933489
 10
144.1305628852893
 20
109.1459524928723
 10
144.1305628852893
 20
109.1459524928723
 10
144.1292709745014
 20
109.1715430923957
 10
144.1254813695236
 20
109.1963908432162
 10
144.1193340273579
 20
109.2203450224083
 10
144.1109366072366
 20
109.2433195025862
 10
144.1004183002385
 20
109.2651527949016
 10
144.0879082974425
 20
109.2857372401219
 10
144.073525024004
 20
109.304965179015
 10
144.0573976710018
 20
109.3226966545788
 10
144.0396661954381
 20
109.3387917098112
 10
144.020438256545
 20
109.3531534514033
 10
143.9998430454014
 20
109.3656311564296
 10
143.978009753086
 20
109.3761279315812
 10
143.9550568047545
 20
109.3845145857793
 10
143.9311241574089
 20
109.3906511620217
 10
143.9063302362047
 20
109.3944300010763
 10
143.8807934662974
 20
109.395711145941
 10
143.8807934662974
 20
109.395711145941
 10
143.8551921008507
 20
109.3944300010763
 10
143.8303443500303
 20
109.3906511620217
 10
143.8063686389917
 20
109.384503819856
 10
143.7833726269673
 20
109.3761386975045
 10
143.7615070368823
 20
109.3656311564296
 10
143.7408687620457
 20
109.35314268548
 10
143.7216300572294
 20
109.338780943888
 10
143.7038770498192
 20
109.3226966545788
 10
143.6877281649706
 20
109.304965179015
 10
143.6733448915321
 20
109.2857480060451
 10
143.660834888736
 20
109.2651527949016
 10
143.6503058158148
 20
109.2433195025862
 10
143.6418976297702
 20
109.2203557883315
 10
143.6357395216813
 20
109.1963908432162
 10
143.6319606826267
 20
109.1715430923957
 10
143.6306687718388
 20
109.1459524928723
 10
143.6306687718388
 20
109.1459524928723
 10
143.6319606826267
 20
109.1203618933489
 10
143.6357287557581
 20
109.0955249084517
 10
143.6419083956935
 20
109.0715384314899
 10
143.6503058158148
 20
109.0485854831584
 10
143.6608241228128
 20
109.0267414249198
 10
143.6733448915321
 20
109.0061569796995
 10
143.6877281649706
 20
108.9869398067296
 10
143.7038770498192
 20
108.9692083311659
 10
143.7216300572294
 20
108.9531025100102
 10
143.7408902938922
 20
108.9387515343414
 10
143.7615070368823
 20
108.9262522974685
 10
143.7833726269673
 20
108.9157662882402
 10
143.8063578730685
 20
108.9073796340421
 10
143.8303443500303
 20
108.9012430577996
 10
143.8551921008507
 20
108.8974642187451
 97
        0
 75
     1
 76
     1
 98
        0
  0
LWPOLYLINE
  5
8F
330
1F
100
AcDbEntity
  8
ISS138金台
  6
Continuous
 62
   250
420
  2367521
370
    13
100
AcDbPolyline
 90
       68
 70
     0
 43
0.0
 10
143.8807934662974
 20
108.8961830738804
 10
143.9063194702814
 20
108.8974642187451
 10
143.9311241574089
 20
108.9012430577996
 10
143.9550675706778
 20
108.9073796340421
 10
143.9779989871628
 20
108.9157662882402
 10
143.9998430454014
 20
108.9262630633918
 10
144.0204274906217
 20
108.9387515343414
 10
144.0396661954381
 20
108.9531025100102
 10
144.0573976710018
 20
108.9692083311659
 10
144.073525024004
 20
108.9869398067296
 10
144.0879082974425
 20
109.0061569796995
 10
144.1004183002385
 20
109.0267414249198
 10
144.1109366072366
 20
109.0485854831584
 10
144.1193340273579
 20
109.0715491974131
 10
144.1254813695236
 20
109.0955141425285
 10
144.1292709745014
 20
109.1203618933489
 10
144.1305628852893
 20
109.1459524928723
 10
144.1305628852893
 20
109.1459524928723
 10
144.1292709745014
 20
109.1715430923957
 10
144.1254813695236
 20
109.1963908432162
 10
144.1193340273579
 20
109.2203450224083
 10
144.1109366072366
 20
109.2433195025862
 10
144.1004183002385
 20
109.2651527949016
 10
144.0879082974425
 20
109.2857372401219
 10
144.073525024004
 20
109.304965179015
 10
144.0573976710018
 20
109.3226966545788
 10
144.0396661954381
 20
109.3387917098112
 10
144.020438256545
 20
109.3531534514033
 10
143.9998430454014
 20
109.3656311564296
 10
143.978009753086
 20
109.3761279315812
 10
143.9550568047545
 20
109.3845145857793
 10
143.9311241574089
 20
109.3906511620217
 10
143.9063302362047
 20
109.3944300010763
 10
143.8807934662974
 20
109.395711145941
 10
143.8807934662974
 20
109.395711145941
 10
143.8551921008507
 20
109.3944300010763
 10
143.8303443500303
 20
109.3906511620217
 10
143.8063686389917
 20
109.384503819856
 10
143.7833726269673
 20
109.3761386975045
 10
143.7615070368823
 20
109.3656311564296
 10
143.7408687620457
 20
109.35314268548
 10
143.7216300572294
 20
109.338780943888
 10
143.7038770498192
 20
109.3226966545788
 10
143.6877281649706
 20
109.304965179015
 10
143.6733448915321
 20
109.2857480060451
 10
143.660834888736
 20
109.2651527949016
 10
143.6503058158148
 20
109.2433195025862
 10
143.6418976297702
 20
109.2203557883315
 10
143.6357395216813
 20
109.1963908432162
 10
143.6319606826267
 20
109.1715430923957
 10
143.6306687718388
 20
109.1459524928723
 10
143.6306687718388
 20
109.1459524928723
 10
143.6319606826267
 20
109.1203618933489
 10
143.6357287557581
 20
109.0955249084517
 10
143.6419083956935
 20
109.0715384314899
 10
143.6503058158148
 20
109.0485854831584
 10
143.6608241228128
 20
109.0267414249198
 10
143.6733448915321
 20
109.0061569796995
 10
143.6877281649706
 20
108.9869398067296
 10
143.7038770498192
 20
108.9692083311659
 10
143.7216300572294
 20
108.9531025100102
 10
143.7408902938922
 20
108.9387515343414
 10
143.7615070368823
 20
108.9262522974685
 10
143.7833726269673
 20
108.9157662882402
 10
143.8063578730685
 20
108.9073796340421
 10
143.8303443500303
 20
108.9012430577996
 10
143.8551921008507
 20
108.8974642187451
 10
143.8807934662974
 20
108.8961830738804
  0
HATCH
  5
90
330
1F
100
AcDbEntity
  8
ISS138金台
  6
Continuous
 62
   250
420
  2367521
370
    13
100
AcDbHatch
 10
0.0
 20
0.0
 30
0.0
210
0.0
220
0.0
230
1.0
  2
SOLID
 70
     1
 71
     0
 91
        1
 92
        3
 72
     0
 73
     1
 93
       67
 10
143.8367070106607
 20
105.8977550284989
 10
143.8622330146447
 20
105.8990469392868
 10
143.8870377017722
 20
105.9028150124181
 10
143.9109811150411
 20
105.9089515886606
 10
143.9339125315261
 20
105.9173274769354
 10
143.9557565897647
 20
105.927824252087
 10
143.9763518009083
 20
105.9403019571134
 10
143.9955797398013
 20
105.9546421668589
 10
144.0133112153651
 20
105.9707372220914
 10
144.0294385683673
 20
105.9884471658087
 10
144.0438218418058
 20
106.0076320410088
 10
144.0563210786786
 20
106.028205720306
 10
144.0668501515999
 20
106.0500067148516
 10
144.0752475717211
 20
106.0729273654134
 10
144.0814056798101
 20
106.0968492468358
 10
144.0851845188647
 20
106.1216324021168
 10
144.0864764296526
 20
106.1471691720241
 10
144.0864764296526
 20
106.1471691720241
 10
144.0851845188647
 20
106.1728243670869
 10
144.0813949138869
 20
106.1977259475235
 10
144.0752475717211
 20
106.2217339563318
 10
144.0668501515999
 20
106.2447299683562
 10
144.0563318446018
 20
106.2666170902877
 10
144.0438218418058
 20
106.2872338332778
 10
144.029427802444
 20
106.3064833040173
 10
144.0133112153651
 20
106.3242255455043
 10
143.9955797398013
 20
106.3403421325832
 10
143.9763518009083
 20
106.3547038741753
 10
143.9557565897647
 20
106.3671923451248
 10
143.9339232974493
 20
106.3776998861997
 10
143.9109811150411
 20
106.3860865403977
 10
143.8870377017722
 20
106.3922231166402
 10
143.862243780568
 20
106.3960019556948
 10
143.8367070106607
 20
106.3972831005594
 10
143.8367070106607
 20
106.3972831005594
 10
143.811105645214
 20
106.3960019556948
 10
143.7862471284704
 20
106.3922231166402
 10
143.7622714174318
 20
106.3860865403977
 10
143.7392861713306
 20
106.3776891202764
 10
143.7174205812456
 20
106.3672031110481
 10
143.6968038382555
 20
106.354693108252
 10
143.6775436015927
 20
106.34033136666
 10
143.6597905941825
 20
106.3242147795811
 10
143.6436524752571
 20
106.3064725380941
 10
143.6292692018186
 20
106.2872338332778
 10
143.6167376671761
 20
106.2666170902877
 10
143.606219360178
 20
106.2447407342794
 10
143.5978111741335
 20
106.2217339563318
 10
143.5916638319678
 20
106.1977259475235
 10
143.58787422699
 20
106.1728243670869
 10
143.5865823162021
 20
106.1471691720241
 10
143.5865823162021
 20
106.1471691720241
 10
143.5878634610668
 20
106.1216324021168
 10
143.5916530660446
 20
106.0968492468358
 10
143.5978111741335
 20
106.0729273654134
 10
143.606219360178
 20
106.0500067148516
 10
143.6167376671761
 20
106.028205720306
 10
143.6292692018186
 20
106.0076428069321
 10
143.6436524752571
 20
105.9884363998855
 10
143.6597905941825
 20
105.9707372220914
 10
143.677554367516
 20
105.9546529327822
 10
143.6967930723323
 20
105.9403019571134
 10
143.7174205812456
 20
105.927824252087
 10
143.7392861713306
 20
105.9173274769354
 10
143.7622714174318
 20
105.9089515886606
 10
143.7862578943936
 20
105.9028150124181
 10
143.811105645214
 20
105.8990361733635
 97
        0
 75
     1
 76
     1
 98
        0
  0
LWPOLYLINE
  5
91
330
1F
100
AcDbEntity
  8
ISS138金台
  6
Continuous
 62
   250
420
  2367521
370
    13
100
AcDbPolyline
 90
       68
 70
     0
 43
0.0
 10
143.8367070106607
 20
105.8977550284989
 10
143.8622330146447
 20
105.8990469392868
 10
143.8870377017722
 20
105.9028150124181
 10
143.9109811150411
 20
105.9089515886606
 10
143.9339125315261
 20
105.9173274769354
 10
143.9557565897647
 20
105.927824252087
 10
143.9763518009083
 20
105.9403019571134
 10
143.9955797398013
 20
105.9546421668589
 10
144.0133112153651
 20
105.9707372220914
 10
144.0294385683673
 20
105.9884471658087
 10
144.0438218418058
 20
106.0076320410088
 10
144.0563210786786
 20
106.028205720306
 10
144.0668501515999
 20
106.0500067148516
 10
144.0752475717211
 20
106.0729273654134
 10
144.0814056798101
 20
106.0968492468358
 10
144.0851845188647
 20
106.1216324021168
 10
144.0864764296526
 20
106.1471691720241
 10
144.0864764296526
 20
106.1471691720241
 10
144.0851845188647
 20
106.1728243670869
 10
144.0813949138869
 20
106.1977259475235
 10
144.0752475717211
 20
106.2217339563318
 10
144.0668501515999
 20
106.2447299683562
 10
144.0563318446018
 20
106.2666170902877
 10
144.0438218418058
 20
106.2872338332778
 10
144.029427802444
 20
106.3064833040173
 10
144.0133112153651
 20
106.3242255455043
 10
143.9955797398013
 20
106.3403421325832
 10
143.9763518009083
 20
106.3547038741753
 10
143.9557565897647
 20
106.3671923451248
 10
143.9339232974493
 20
106.3776998861997
 10
143.9109811150411
 20
106.3860865403977
 10
143.8870377017722
 20
106.3922231166402
 10
143.862243780568
 20
106.3960019556948
 10
143.8367070106607
 20
106.3972831005594
 10
143.8367070106607
 20
106.3972831005594
 10
143.811105645214
 20
106.3960019556948
 10
143.7862471284704
 20
106.3922231166402
 10
143.7622714174318
 20
106.3860865403977
 10
143.7392861713306
 20
106.3776891202764
 10
143.7174205812456
 20
106.3672031110481
 10
143.6968038382555
 20
106.354693108252
 10
143.6775436015927
 20
106.34033136666
 10
143.6597905941825
 20
106.3242147795811
 10
143.6436524752571
 20
106.3064725380941
 10
143.6292692018186
 20
106.2872338332778
 10
143.6167376671761
 20
106.2666170902877
 10
143.606219360178
 20
106.2447407342794
 10
143.5978111741335
 20
106.2217339563318
 10
143.5916638319678
 20
106.1977259475235
 10
143.58787422699
 20
106.1728243670869
 10
143.5865823162021
 20
106.1471691720241
 10
143.5865823162021
 20
106.1471691720241
 10
143.5878634610668
 20
106.1216324021168
 10
143.5916530660446
 20
106.0968492468358
 10
143.5978111741335
 20
106.0729273654134
 10
143.606219360178
 20
106.0500067148516
 10
143.6167376671761
 20
106.028205720306
 10
143.6292692018186
 20
106.0076428069321
 10
143.6436524752571
 20
105.9884363998855
 10
143.6597905941825
 20
105.9707372220914
 10
143.677554367516
 20
105.9546529327822
 10
143.6967930723323
 20
105.9403019571134
 10
143.7174205812456
 20
105.927824252087
 10
143.7392861713306
 20
105.9173274769354
 10
143.7622714174318
 20
105.9089515886606
 10
143.7862578943936
 20
105.9028150124181
 10
143.811105645214
 20
105.8990361733635
 10
143.8367070106607
 20
105.8977550284989
  0
TEXT
  5
92
330
1F
100
AcDbEntity
  8
ISS138金台
  6
Continuous
 62
   250
420
  2367521
100
AcDbText
 10
144.034086174363
 20
110.4909284989798
 30
0.0
 40
2.150533301035563
  1
3.3
 50
90.00000250447816
 41
0.950665791829427
  7
MS Gothic
100
AcDbText
  0
LINE
  5
93
330
1F
100
AcDbEntity
  8
ISS138金台
  6
UserDefined01
 62
   140
420
    44526
370
    13
100
AcDbLine
 10
125.7971322558175
 20
99.98804908630214
 30
0.0
 11
133.3818543641286
 21
99.98804908630214
 31
0.0
  0
TEXT
  5
94
330
1F
100
AcDbEntity
  8
ISS138金台
  6
Continuous
 62
   140
420
    44526
100
AcDbText
 10
127.6967363464832
 20
100.777212963339
 30
0.0
 40
1.881716638406118
  1
7.5
 41
1.017611821492513
  7
MS Gothic
100
AcDbText
  0
HATCH
  5
95
330
1F
100
AcDbEntity
  8
ISS138金台
  6
Continuous
 62
   140
420
    44526
370
    50
100
AcDbHatch
 10
0.0
 20
0.0
 30
0.0
210
0.0
220
0.0
230
1.0
  2
SOLID
 70
     1
 71
     0
 91
        1
 92
        3
 72
     0
 73
     1
 93
        3
 10
124.9310675613863
 20
109.159743640533
 10
126.6632077161719
 20
109.1590330895997
 10
125.7978428067509
 20
107.6607933829615
 97
        0
 75
     1
 76
     1
 98
        0
  0
LWPOLYLINE
  5
96
330
1F
100
AcDbEntity
  8
ISS138金台
  6
Continuous
 62
   140
420
    44526
370
    50
100
AcDbPolyline
 90
        4
 70
     0
 43
0.0
 10
124.9310675613863
 20
109.159743640533
 10
126.6632077161719
 20
109.1590330895997
 10
125.7978428067509
 20
107.6607933829615
 10
124.9310675613863
 20
109.159743640533
  0
ENDSEC
  0
SECTION
  2
OBJECTS
  0
DICTIONARY
  5
C
330
0
100
AcDbDictionary
281
     1
  3
ACAD_DETAILVIEWSTYLE
350
9E
  3
ACAD_GROUP
350
D
  3
ACAD_LAYOUT
350
1A
  3
ACAD_MATERIAL
350
43
  3
ACAD_MLEADERSTYLE
350
5B
  3
ACAD_MLINESTYLE
350
17
  3
ACAD_PLOTSETTINGS
350
19
  3
ACAD_PLOTSTYLENAME
350
E
  3
ACAD_SCALELIST
350
47
  3
ACAD_SECTIONVIEWSTYLE
350
9F
  3
ACAD_TABLESTYLE
350
59
  3
ACAD_VISUALSTYLE
350
2A
  3
ACDB_RECOMPOSE_DATA
350
9B
  3
AcDbVariableDictionary
350
97
  0
SUN
  5
5D
330
29
100
AcDbSun
 90
        1
290
     0
 63
     7
421
 16777215
 40
1.0
291
     1
 91
  2455826
 92
 54000000
292
     0
 70
     2
 71
   256
280
     1
  0
DICTIONARY
  5
9E
102
{ACAD_REACTORS
330
C
102
}
330
C
100
AcDbDictionary
281
     1
  0
DICTIONARY
  5
D
102
{ACAD_REACTORS
330
C
102
}
330
C
100
AcDbDictionary
281
     1
  0
DICTIONARY
  5
1A
102
{ACAD_REACTORS
330
C
102
}
330
C
100
AcDbDictionary
281
     1
  3
Layout1
350
1E
  3
Layout2
350
26
  3
Model
350
22
  0
DICTIONARY
  5
43
102
{ACAD_REACTORS
330
C
102
}
330
C
100
AcDbDictionary
281
     1
  3
ByBlock
350
45
  3
ByLayer
350
44
  3
Global
350
46
  0
DICTIONARY
  5
5B
102
{ACAD_REACTORS
330
C
102
}
330
C
100
AcDbDictionary
281
     1
  3
Standard
350
5C
  0
DICTIONARY
  5
17
102
{ACAD_REACTORS
330
C
102
}
330
C
100
AcDbDictionary
281
     1
  3
Standard
350
18
  0
DICTIONARY
  5
19
102
{ACAD_REACTORS
330
C
102
}
330
C
100
AcDbDictionary
281
     1
  0
ACDBDICTIONARYWDFLT
  5
E
102
{ACAD_REACTORS
330
C
102
}
330
C
100
AcDbDictionary
281
     1
  3
Normal
350
F
100
AcDbDictionaryWithDefault
340
F
  0
DICTIONARY
  5
47
102
{ACAD_REACTORS
330
C
102
}
330
C
100
AcDbDictionary
281
     1
  3
A0
350
48
  3
A1
350
49
  3
A2
350
4A
  3
A3
350
4B
  3
A4
350
4C
  3
A5
350
4D
  3
A6
350
4E
  3
A7
350
4F
  3
A8
350
50
  3
A9
350
51
  3
B0
350
52
  3
B1
350
53
  3
B2
350
54
  3
B3
350
55
  3
B4
350
56
  3
B5
350
57
  3
B6
350
58
  0
DICTIONARY
  5
9F
102
{ACAD_REACTORS
330
C
102
}
330
C
100
AcDbDictionary
281
     1
  0
DICTIONARY
  5
59
102
{ACAD_REACTORS
330
C
102
}
330
C
100
AcDbDictionary
281
     1
  3
Standard
350
5A
  0
DICTIONARY
  5
2A
102
{ACAD_REACTORS
330
C
102
}
330
C
100
AcDbDictionary
281
     1
  3
2dWireframe
350
2F
  3
Basic
350
32
  3
Brighten
350
36
  3
ColorChange
350
3A
  3
Conceptual
350
34
  3
Dim
350
35
  3
EdgeColorOff
350
3D
  3
Facepattern
350
39
  3
Flat
350
2B
  3
FlatWithEdges
350
2C
  3
Gouraud
350
2D
  3
GouraudWithEdges
350
2E
  3
Hidden
350
31
  3
JitterOff
350
3B
  3
Linepattern
350
38
  3
OverhangOff
350
3C
  3
Realistic
350
33
  3
Shaded
350
42
  3
Shaded with edges
350
41
  3
Shades of Gray
350
3E
  3
Sketchy
350
3F
  3
Thicken
350
37
  3
Wireframe
350
30
  3
X-Ray
350
40
  0
XRECORD
  5
9B
102
{ACAD_REACTORS
330
C
102
}
330
C
100
AcDbXrecord
280
     1
 90
        1
330
5A
  0
DICTIONARY
  5
97
102
{ACAD_REACTORS
330
C
102
}
330
C
100
AcDbDictionary
281
     1
  3
CANNOSCALE
350
98
  3
CENTEREXE
350
A0
  3
CENTERLTYPEFILE
350
A1
  3
CMLEADERSTYLE
350
9D
  3
CTABLESTYLE
350
9C
  0
LAYOUT
  5
1E
102
{ACAD_REACTORS
330
1A
102
}
330
1A
100
AcDbPlotSettings
  1

  2
none_device
  4

  6

 40
0.0
 41
0.0
 42
0.0
 43
0.0
 44
0.0
 45
0.0
 46
0.0
 47
0.0
 48
0.0
 49
0.0
140
0.0
141
0.0
142
1.0
143
1.0
 70
   688
 72
     1
 73
     0
 74
     5
  7

 75
    16
 76
     0
 77
     5
 78
   300
147
1.0
148
0.0
149
0.0
100
AcDbLayout
  1
Layout1
 70
     1
 71
     1
 10
0.0
 20
0.0
 11
420.0
 21
297.0
 12
0.0
 22
0.0
 32
0.0
 14
1.000000000000000E+20
 24
1.000000000000000E+20
 34
1.000000000000000E+20
 15
-1.000000000000000E+20
 25
-1.000000000000000E+20
 35
-1.000000000000000E+20
146
0.0
 13
0.0
 23
0.0
 33
0.0
 16
1.0
 26
0.0
 36
0.0
 17
0.0
 27
1.0
 37
0.0
 76
     0
330
1B
  0
LAYOUT
  5
26
102
{ACAD_REACTORS
330
1A
102
}
330
1A
100
AcDbPlotSettings
  1

  2
none_device
  4

  6

 40
0.0
 41
0.0
 42
0.0
 43
0.0
 44
0.0
 45
0.0
 46
0.0
 47
0.0
 48
0.0
 49
0.0
140
0.0
141
0.0
142
1.0
143
1.0
 70
   688
 72
     1
 73
     0
 74
     5
  7

 75
    16
 76
     0
 77
     5
 78
   300
147
1.0
148
0.0
149
0.0
100
AcDbLayout
  1
Layout2
 70
     1
 71
     2
 10
0.0
 20
0.0
 11
0.0
 21
0.0
 12
0.0
 22
0.0
 32
0.0
 14
0.0
 24
0.0
 34
0.0
 15
0.0
 25
0.0
 35
0.0
146
0.0
 13
0.0
 23
0.0
 33
0.0
 16
1.0
 26
0.0
 36
0.0
 17
0.0
 27
1.0
 37
0.0
 76
     0
330
23
  0
LAYOUT
  5
22
102
{ACAD_REACTORS
330
1A
102
}
330
1A
100
AcDbPlotSettings
  1

  2
none_device
  4
Letter_(8.50_x_11.00_Inches)
  6

 40
6.35
 41
6.35
 42
6.35000508
 43
6.35000508
 44
215.9
 45
279.4
 46
0.0
 47
0.0
 48
0.0
 49
0.0
140
0.0
141
0.0
142
1.0
143
1.0
 70
  1712
 72
     1
 73
     0
 74
     0
  7

 75
     0
 76
     0
 77
     5
 78
   300
147
1.0
148
0.0
149
0.0
100
AcDbLayout
  1
Model
 70
     1
 71
     0
 10
0.0
 20
0.0
 11
302.9997823349792
 21
216.0016055409748
 12
0.0
 22
0.0
 32
0.0
 14
0.0
 24
0.0
 34
0.0
 15
302.9997823349792
 25
216.0016055409748
 35
0.0
146
0.0
 13
0.0
 23
0.0
 33
0.0
 16
1.0
 26
0.0
 36
0.0
 17
0.0
 27
1.0
 37
0.0
 76
     0
330
1F
331
29
  0
MATERIAL
  5
45
102
{ACAD_REACTORS
330
43
102
}
330
43
100
AcDbMaterial
  1
ByBlock
 72
     1
 94
      127
  0
MATERIAL
  5
44
102
{ACAD_REACTORS
330
43
102
}
330
43
100
AcDbMaterial
  1
ByLayer
 72
     1
 94
      127
  0
MATERIAL
  5
46
102
{ACAD_REACTORS
330
43
102
}
330
43
100
AcDbMaterial
  1
Global
 72
     1
 94
      127
  0
MLEADERSTYLE
  5
5C
102
{ACAD_REACTORS
330
5B
102
}
330
5B
100
AcDbMLeaderStyle
179
     2
170
     2
171
     1
172
     0
 90
        2
 40
0.0
 41
0.0
173
     1
 91
-1056964608
340
14
 92
       -2
290
     1
 42
2.0
291
     1
 43
8.0
  3
Standard
341
0
 44
4.0
300

342
11
174
     1
178
     6
175
     1
176
     0
 93
-1056964608
 45
4.0
292
     0
297
     0
 46
4.0
343
0
 94
-1056964608
 47
1.0
 49
1.0
140
1.0
293
     1
141
0.0
294
     1
177
     0
142
1.0
295
     0
296
     0
143
3.75
271
     0
272
     9
273
     9
298
     0
  0
MLINESTYLE
  5
18
102
{ACAD_REACTORS
330
17
102
}
330
17
100
AcDbMlineStyle
  2
Standard
 70
     0
  3

 62
   256
 51
90.0
 52
90.0
 71
     2
 49
0.5
 62
   256
  6
BYLAYER
 49
-0.5
 62
   256
  6
BYLAYER
  0
ACDBPLACEHOLDER
  5
F
102
{ACAD_REACTORS
330
E
102
}
330
E
  0
SCALE
  5
48
102
{ACAD_REACTORS
330
47
102
}
330
47
100
AcDbScale
 70
     0
300
1:1
140
1.0
141
1.0
290
     1
  0
SCALE
  5
49
102
{ACAD_REACTORS
330
47
102
}
330
47
100
AcDbScale
 70
     0
300
1:2
140
1.0
141
2.0
290
     0
  0
SCALE
  5
4A
102
{ACAD_REACTORS
330
47
102
}
330
47
100
AcDbScale
 70
     0
300
1:4
140
1.0
141
4.0
290
     0
  0
SCALE
  5
4B
102
{ACAD_REACTORS
330
47
102
}
330
47
100
AcDbScale
 70
     0
300
1:5
140
1.0
141
5.0
290
     0
  0
SCALE
  5
4C
102
{ACAD_REACTORS
330
47
102
}
330
47
100
AcDbScale
 70
     0
300
1:8
140
1.0
141
8.0
290
     0
  0
SCALE
  5
4D
102
{ACAD_REACTORS
330
47
102
}
330
47
100
AcDbScale
 70
     0
300
1:10
140
1.0
141
10.0
290
     0
  0
SCALE
  5
4E
102
{ACAD_REACTORS
330
47
102
}
330
47
100
AcDbScale
 70
     0
300
1:16
140
1.0
141
16.0
290
     0
  0
SCALE
  5
4F
102
{ACAD_REACTORS
330
47
102
}
330
47
100
AcDbScale
 70
     0
300
1:20
140
1.0
141
20.0
290
     0
  0
SCALE
  5
50
102
{ACAD_REACTORS
330
47
102
}
330
47
100
AcDbScale
 70
     0
300
1:30
140
1.0
141
30.0
290
     0
  0
SCALE
  5
51
102
{ACAD_REACTORS
330
47
102
}
330
47
100
AcDbScale
 70
     0
300
1:40
140
1.0
141
40.0
290
     0
  0
SCALE
  5
52
102
{ACAD_REACTORS
330
47
102
}
330
47
100
AcDbScale
 70
     0
300
1:50
140
1.0
141
50.0
290
     0
  0
SCALE
  5
53
102
{ACAD_REACTORS
330
47
102
}
330
47
100
AcDbScale
 70
     0
300
1:100
140
1.0
141
100.0
290
     0
  0
SCALE
  5
54
102
{ACAD_REACTORS
330
47
102
}
330
47
100
AcDbScale
 70
     0
300
2:1
140
2.0
141
1.0
290
     0
  0
SCALE
  5
55
102
{ACAD_REACTORS
330
47
102
}
330
47
100
AcDbScale
 70
     0
300
4:1
140
4.0
141
1.0
290
     0
  0
SCALE
  5
56
102
{ACAD_REACTORS
330
47
102
}
330
47
100
AcDbScale
 70
     0
300
8:1
140
8.0
141
1.0
290
     0
  0
SCALE
  5
57
102
{ACAD_REACTORS
330
47
102
}
330
47
100
AcDbScale
 70
     0
300
10:1
140
10.0
141
1.0
290
     0
  0
SCALE
  5
58
102
{ACAD_REACTORS
330
47
102
}
330
47
100
AcDbScale
 70
     0
300
100:1
140
100.0
141
1.0
290
     0
  0
TABLESTYLE
  5
5A
102
{ACAD_REACTORS
330
59
102
}
102
{ACAD_XDICTIONARY
360
99
102
}
330
59
100
AcDbTableStyle
  3
Standard
 70
     0
 71
     0
 40
0.06
 41
0.06
280
     0
281
     0
  7
Standard
140
4.5
170
     2
 62
     0
 63
   257
283
     0
 90
        4
 91
        0
  1

274
    -2
284
     1
 64
     0
275
    -2
285
     1
 65
     0
276
    -2
286
     1
 66
     0
277
    -2
287
     1
 67
     0
278
    -2
288
     1
 68
     0
279
    -2
289
     1
 69
     0
  7
Standard
140
6.0
170
     5
 62
     0
 63
   257
283
     0
 90
        4
 91
        0
  1

274
    -2
284
     1
 64
     0
275
    -2
285
     1
 65
     0
276
    -2
286
     1
 66
     0
277
    -2
287
     1
 67
     0
278
    -2
288
     1
 68
     0
279
    -2
289
     1
 69
     0
  7
Standard
140
4.5
170
     5
 62
     0
 63
   257
283
     0
 90
        4
 91
        0
  1

274
    -2
284
     1
 64
     0
275
    -2
285
     1
 65
     0
276
    -2
286
     1
 66
     0
277
    -2
287
     1
 67
     0
278
    -2
288
     1
 68
     0
279
    -2
289
     1
 69
     0
  0
VISUALSTYLE
  5
2F
102
{ACAD_REACTORS
330
2A
102
}
330
2A
100
AcDbVisualStyle
  2
2dWireframe
 70
     4
177
     3
291
     0
 70
    58
 90
        0
176
     1
 90
        2
176
     1
 90
        0
176
     1
 90
        0
176
     1
 40
0.6
176
     1
 40
30.0
176
     1
 62
     7
420
 16777215
176
     1
 90
        1
176
     1
 90
        4
176
     1
 62
     7
176
     1
 62
   257
176
     1
 90
        1
176
     1
 90
        1
176
     1
 40
1.0
176
     1
 90
        0
176
     1
 62
   257
176
     1
 40
1.0
176
     1
 90
        1
176
     1
 90
        6
176
     1
 90
        2
176
     1
 62
     7
176
     1
 90
        5
176
     1
 90
        0
176
     1
 90
        0
176
     1
290
     0
176
     1
 90
        1
176
     1
 40
0.0
176
     1
 90
        0
176
     1
290
     1
176
     1
290
     1
176
     1
290
     0
176
     1
290
     0
176
     1
290
     0
176
     1
290
     0
176
     1
290
     0
176
     1
290
     0
176
     1
290
     0
176
     1
 90
       50
176
     1
 40
0.0
176
     1
 40
1.0
176
     1
 90
        0
176
     1
 62
    18
420
        0
176
     1
 90
       50
176
     1
 90
        3
176
     1
 62
     5
420
      255
176
     1
290
     0
176
     1
 90
       50
176
     1
 90
       50
176
     1
 90
       50
176
     1
290
     0
176
     1
 90
       50
176
     1
 62
   256
176
     0
 40
1.0
176
     0
 90
        2
176
     1
  1
strokes_ogs.tif
176
     1
290
     0
176
     1
 40
1.0
176
     1
 40
1.0
176
     1
  0
VISUALSTYLE
  5
32
102
{ACAD_REACTORS
330
2A
102
}
330
2A
100
AcDbVisualStyle
  2
Basic
 70
     7
177
     3
291
     1
 70
    58
 90
        1
176
     1
 90
        0
176
     1
 90
        1
176
     1
 90
        0
176
     1
 40
0.6
176
     1
 40
30.0
176
     1
 62
     7
420
 16777215
176
     1
 90
        0
176
     1
 90
        4
176
     1
 62
     7
176
     1
 62
   257
176
     1
 90
        1
176
     1
 90
        1
176
     1
 40
1.0
176
     1
 90
        8
176
     1
 62
     7
176
     1
 40
1.0
176
     1
 90
        1
176
     1
 90
        6
176
     1
 90
        2
176
     1
 62
     7
176
     1
 90
        5
176
     1
 90
        0
176
     1
 90
        0
176
     1
290
     0
176
     1
 90
        1
176
     1
 40
0.0
176
     1
 90
        0
176
     1
290
     0
176
     1
290
     1
176
     1
290
     1
176
     1
290
     0
176
     1
290
     0
176
     1
290
     0
176
     1
290
     0
176
     1
290
     0
176
     1
290
     0
176
     1
 90
       50
176
     1
 40
0.0
176
     1
 40
1.0
176
     1
 90
        0
176
     1
 62
    18
420
        0
176
     1
 90
       50
176
     1
 90
        3
176
     1
 62
     5
420
      255
176
     1
290
     0
176
     1
 90
       50
176
     1
 90
       50
176
     1
 90
       50
176
     1
290
     0
176
     1
 90
       50
176
     1
 62
   256
176
     0
 40
1.0
176
     0
 90
        2
176
     1
  1
strokes_ogs.tif
176
     1
290
     0
176
     1
 40
1.0
176
     1
 40
1.0
176
     1
  0
VISUALSTYLE
  5
36
102
{ACAD_REACTORS
330
2A
102
}
330
2A
100
AcDbVisualStyle
  2
Brighten
 70
    12
177
     3
291
     1
 70
    58
 90
        2
176
     1
 90
        2
176
     1
 90
        0
176
     1
 90
        0
176
     1
 40
0.6
176
     1
 40
30.0
176
     1
 62
     7
420
 16777215
176
     1
 90
        1
176
     1
 90
        4
176
     1
 62
     7
176
     1
 62
   257
176
     1
 90
        1
176
     1
 90
        1
176
     1
 40
1.0
176
     1
 90
        8
176
     1
 62
     7
176
     1
 40
1.0
176
     1
 90
        1
176
     1
 90
        6
176
     1
 90
        2
176
     1
 62
     7
176
     1
 90
        5
176
     1
 90
        0
176
     1
 90
        0
176
     1
290
     0
176
     1
 90
        1
176
     1
 40
50.0
176
     1
 90
        0
176
     1
290
     0
176
     1
290
     1
176
     1
290
     1
176
     1
290
     0
176
     1
290
     0
176
     1
290
     0
176
     1
290
     0
176
     1
290
     0
176
     1
290
     0
176
     1
 90
       50
176
     1
 40
0.0
176
     1
 40
1.0
176
     1
 90
        0
176
     1
 62
    18
420
        0
176
     1
 90
       50
176
     1
 90
        3
176
     1
 62
     5
420
      255
176
     1
290
     0
176
     1
 90
       50
176
     1
 90
       50
176
     1
 90
       50
176
     1
290
     0
176
     1
 90
       50
176
     1
 62
   256
176
     0
 40
1.0
176
     0
 90
        2
176
     1
  1
strokes_ogs.tif
176
     1
290
     0
176
     1
 40
1.0
176
     1
 40
1.0
176
     1
  0
VISUALSTYLE
  5
3A
102
{ACAD_REACTORS
330
2A
102
}
330
2A
100
AcDbVisualStyle
  2
ColorChange
 70
    16
177
     3
291
     1
 70
    58
 90
        2
176
     1
 90
        2
176
     1
 90
        3
176
     1
 90
        0
176
     1
 40
0.6
176
     1
 40
30.0
176
     1
 62
     8
420
  8421504
176
     1
 90
        1
176
     1
 90
        4
176
     1
 62
     7
176
     1
 62
   257
176
     1
 90
        1
176
     1
 90
        1
176
     1
 40
1.0
176
     1
 90
        8
176
     1
 62
     8
420
  8421504
176
     1
 40
1.0
176
     1
 90
        1
176
     1
 90
        6
176
     1
 90
        2
176
     1
 62
     7
176
     1
 90
        5
176
     1
 90
        0
176
     1
 90
        0
176
     1
290
     0
176
     1
 90
        1
176
     1
 40
0.0
176
     1
 90
        0
176
     1
290
     0
176
     1
290
     1
176
     1
290
     1
176
     1
290
     0
176
     1
290
     0
176
     1
290
     0
176
     1
290
     0
176
     1
290
     0
176
     1
290
     0
176
     1
 90
       50
176
     1
 40
0.0
176
     1
 40
1.0
176
     1
 90
        0
176
     1
 62
    18
420
        0
176
     1
 90
       50
176
     1
 90
        3
176
     1
 62
     5
420
      255
176
     1
290
     0
176
     1
 90
       50
176
     1
 90
       50
176
     1
 90
       50
176
     1
290
     0
176
     1
 90
       50
176
     1
 62
   256
176
     0
 40
1.0
176
     0
 90
        2
176
     1
  1
strokes_ogs.tif
176
     1
290
     0
176
     1
 40
1.0
176
     1
 40
1.0
176
     1
  0
VISUALSTYLE
  5
34
102
{ACAD_REACTORS
330
2A
102
}
330
2A
100
AcDbVisualStyle
  2
Conceptual
 70
     9
177
     3
291
     0
 70
    58
 90
        3
176
     1
 90
        2
176
     1
 90
        0
176
     1
 90
        0
176
     1
 40
0.6
176
     1
 40
30.0
176
     1
 62
     7
420
 16777215
176
     1
 90
        2
176
     1
 90
        2
176
     1
 62
     7
176
     1
 62
   257
176
     1
 90
        1
176
     1
 90
        1
176
     1
 40
179.0
176
     1
 90
        8
176
     1
 62
     7
176
     1
 40
1.0
176
     1
 90
        1
176
     1
 90
        6
176
     1
 90
        2
176
     1
 62
     7
176
     1
 90
        3
176
     1
 90
        0
176
     1
 90
        0
176
     1
290
     0
176
     1
 90
        1
176
     1
 40
0.0
176
     1
 90
        0
176
     1
290
     0
176
     1
290
     1
176
     1
290
     1
176
     1
290
     0
176
     1
290
     0
176
     1
290
     0
176
     1
290
     0
176
     1
290
     0
176
     1
290
     0
176
     1
 90
       50
176
     1
 40
0.0
176
     1
 40
1.0
176
     1
 90
        0
176
     1
 62
    18
420
        0
176
     1
 90
       50
176
     1
 90
        3
176
     1
 62
     5
420
      255
176
     1
290
     0
176
     1
 90
       50
176
     1
 90
       50
176
     1
 90
       50
176
     1
290
     0
176
     1
 90
       50
176
     1
 62
   256
176
     0
 40
1.0
176
     0
 90
        2
176
     1
  1
strokes_ogs.tif
176
     1
290
     0
176
     1
 40
1.0
176
     1
 40
1.0
176
     1
  0
VISUALSTYLE
  5
35
102
{ACAD_REACTORS
330
2A
102
}
330
2A
100
AcDbVisualStyle
  2
Dim
 70
    11
177
     3
291
     1
 70
    58
 90
        2
176
     1
 90
        2
176
     1
 90
        0
176
     1
 90
        0
176
     1
 40
0.6
176
     1
 40
30.0
176
     1
 62
     7
420
 16777215
176
     1
 90
        1
176
     1
 90
        4
176
     1
 62
     7
176
     1
 62
   257
176
     1
 90
        1
176
     1
 90
        1
176
     1
 40
1.0
176
     1
 90
        8
176
     1
 62
     7
176
     1
 40
1.0
176
     1
 90
        1
176
     1
 90
        6
176
     1
 90
        2
176
     1
 62
     7
176
     1
 90
        5
176
     1
 90
        0
176
     1
 90
        0
176
     1
290
     0
176
     1
 90
        1
176
     1
 40
-50.0
176
     1
 90
        0
176
     1
290
     0
176
     1
290
     1
176
     1
290
     1
176
     1
290
     0
176
     1
290
     0
176
     1
290
     0
176
     1
290
     0
176
     1
290
     0
176
     1
290
     0
176
     1
 90
       50
176
     1
 40
0.0
176
     1
 40
1.0
176
     1
 90
        0
176
     1
 62
    18
420
        0
176
     1
 90
       50
176
     1
 90
        3
176
     1
 62
     5
420
      255
176
     1
290
     0
176
     1
 90
       50
176
     1
 90
       50
176
     1
 90
       50
176
     1
290
     0
176
     1
 90
       50
176
     1
 62
   256
176
     0
 40
1.0
176
     0
 90
        2
176
     1
  1
strokes_ogs.tif
176
     1
290
     0
176
     1
 40
1.0
176
     1
 40
1.0
176
     1
  0
VISUALSTYLE
  5
3D
102
{ACAD_REACTORS
330
2A
102
}
330
2A
100
AcDbVisualStyle
  2
EdgeColorOff
 70
    22
177
     3
291
     1
 70
    58
 90
        2
176
     0
 90
        2
176
     0
 90
        0
176
     0
 90
        0
176
     0
 40
0.6
176
     0
 40
30.0
176
     0
 62
     7
420
 16777215
176
     0
 90
        1
176
     0
 90
        4
176
     0
 62
     7
176
     0
 62
   257
176
     0
 90
        1
176
     0
 90
        1
176
     0
 40
1.0
176
     0
 90
        8
176
     2
 62
     7
176
     0
 40
1.0
176
     0
 90
        1
176
     0
 90
        6
176
     0
 90
        2
176
     0
 62
     7
176
     0
 90
        5
176
     0
 90
        0
176
     0
 90
        0
176
     0
290
     0
176
     0
 90
        1
176
     0
 40
0.0
176
     0
 90
        0
176
     0
290
     0
176
     0
290
     1
176
     0
290
     1
176
     0
290
     0
176
     0
290
     0
176
     0
290
     0
176
     0
290
     0
176
     0
290
     0
176
     0
290
     0
176
     0
 90
       50
176
     0
 40
0.0
176
     0
 40
1.0
176
     0
 90
        0
176
     0
 62
    18
420
        0
176
     0
 90
       50
176
     0
 90
        3
176
     0
 62
     5
420
      255
176
     0
290
     0
176
     0
 90
       50
176
     0
 90
       50
176
     0
 90
       50
176
     0
290
     0
176
     0
 90
       50
176
     0
 62
   256
176
     0
 40
1.0
176
     0
 90
        2
176
     0
  1
strokes_ogs.tif
176
     0
290
     0
176
     0
 40
1.0
176
     0
 40
1.0
176
     0
  0
VISUALSTYLE
  5
39
102
{ACAD_REACTORS
330
2A
102
}
330
2A
100
AcDbVisualStyle
  2
Facepattern
 70
    15
177
     3
291
     1
 70
    58
 90
        2
176
     1
 90
        2
176
     1
 90
        0
176
     1
 90
        0
176
     1
 40
0.6
176
     1
 40
30.0
176
     1
 62
     7
420
 16777215
176
     1
 90
        1
176
     1
 90
        4
176
     1
 62
     7
176
     1
 62
   257
176
     1
 90
        1
176
     1
 90
        1
176
     1
 40
1.0
176
     1
 90
        8
176
     1
 62
     7
176
     1
 40
1.0
176
     1
 90
        1
176
     1
 90
        6
176
     1
 90
        2
176
     1
 62
     7
176
     1
 90
        5
176
     1
 90
        0
176
     1
 90
        0
176
     1
290
     0
176
     1
 90
        1
176
     1
 40
0.0
176
     1
 90
        0
176
     1
290
     0
176
     1
290
     1
176
     1
290
     1
176
     1
290
     0
176
     1
290
     0
176
     1
290
     0
176
     1
290
     0
176
     1
290
     0
176
     1
290
     0
176
     1
 90
       50
176
     1
 40
0.0
176
     1
 40
1.0
176
     1
 90
        0
176
     1
 62
    18
420
        0
176
     1
 90
       50
176
     1
 90
        3
176
     1
 62
     5
420
      255
176
     1
290
     0
176
     1
 90
       50
176
     1
 90
       50
176
     1
 90
       50
176
     1
290
     0
176
     1
 90
       50
176
     1
 62
   256
176
     0
 40
1.0
176
     0
 90
        2
176
     1
  1
strokes_ogs.tif
176
     1
290
     0
176
     1
 40
1.0
176
     1
 40
1.0
176
     1
  0
VISUALSTYLE
  5
2B
102
{ACAD_REACTORS
330
2A
102
}
330
2A
100
AcDbVisualStyle
  2
Flat
 70
     0
177
     3
291
     1
 70
    58
 90
        2
176
     1
 90
        1
176
     1
 90
        1
176
     1
 90
        2
176
     1
 40
0.6
176
     1
 40
30.0
176
     1
 62
     7
420
 16777215
176
     1
 90
        0
176
     1
 90
        0
176
     1
 62
     7
176
     1
 62
   257
176
     1
 90
        1
176
     1
 90
        1
176
     1
 40
1.0
176
     1
 90
        8
176
     1
 62
     7
176
     1
 40
1.0
176
     1
 90
        1
176
     1
 90
        6
176
     1
 90
        2
176
     1
 62
     7
176
     1
 90
        5
176
     1
 90
        0
176
     1
 90
        0
176
     1
290
     0
176
     1
 90
       13
176
     1
 40
0.0
176
     1
 90
        0
176
     1
290
     0
176
     1
290
     1
176
     1
290
     1
176
     1
290
     0
176
     1
290
     0
176
     1
290
     0
176
     1
290
     0
176
     1
290
     0
176
     1
290
     0
176
     1
 90
       50
176
     1
 40
0.0
176
     1
 40
1.0
176
     1
 90
        0
176
     1
 62
    18
420
        0
176
     1
 90
       50
176
     1
 90
        3
176
     1
 62
     5
420
      255
176
     1
290
     0
176
     1
 90
       50
176
     1
 90
       50
176
     1
 90
       50
176
     1
290
     0
176
     1
 90
       50
176
     1
 62
   256
176
     0
 40
1.0
176
     0
 90
        2
176
     1
  1
strokes_ogs.tif
176
     1
290
     0
176
     1
 40
1.0
176
     1
 40
1.0
176
     1
  0
VISUALSTYLE
  5
2C
102
{ACAD_REACTORS
330
2A
102
}
330
2A
100
AcDbVisualStyle
  2
FlatWithEdges
 70
     1
177
     3
291
     1
 70
    58
 90
        2
176
     1
 90
        1
176
     1
 90
        1
176
     1
 90
        2
176
     1
 40
0.6
176
     1
 40
30.0
176
     1
 62
     7
420
 16777215
176
     1
 90
        1
176
     1
 90
        0
176
     1
 62
     7
176
     1
 62
   257
176
     1
 90
        1
176
     1
 90
        1
176
     1
 40
1.0
176
     1
 90
        0
176
     1
 62
   257
176
     1
 40
1.0
176
     1
 90
        1
176
     1
 90
        6
176
     1
 90
        2
176
     1
 62
     7
176
     1
 90
        5
176
     1
 90
        0
176
     1
 90
        0
176
     1
290
     0
176
     1
 90
       13
176
     1
 40
0.0
176
     1
 90
        0
176
     1
290
     0
176
     1
290
     1
176
     1
290
     1
176
     1
290
     0
176
     1
290
     0
176
     1
290
     0
176
     1
290
     0
176
     1
290
     0
176
     1
290
     0
176
     1
 90
       50
176
     1
 40
0.0
176
     1
 40
1.0
176
     1
 90
        0
176
     1
 62
    18
420
        0
176
     1
 90
       50
176
     1
 90
        3
176
     1
 62
     5
420
      255
176
     1
290
     0
176
     1
 90
       50
176
     1
 90
       50
176
     1
 90
       50
176
     1
290
     0
176
     1
 90
       50
176
     1
 62
   256
176
     0
 40
1.0
176
     0
 90
        2
176
     1
  1
strokes_ogs.tif
176
     1
290
     0
176
     1
 40
1.0
176
     1
 40
1.0
176
     1
  0
VISUALSTYLE
  5
2D
102
{ACAD_REACTORS
330
2A
102
}
330
2A
100
AcDbVisualStyle
  2
Gouraud
 70
     2
177
     3
291
     1
 70
    58
 90
        2
176
     1
 90
        2
176
     1
 90
        1
176
     1
 90
        2
176
     1
 40
0.6
176
     1
 40
30.0
176
     1
 62
     7
420
 16777215
176
     1
 90
        0
176
     1
 90
        0
176
     1
 62
     7
176
     1
 62
   257
176
     1
 90
        1
176
     1
 90
        1
176
     1
 40
1.0
176
     1
 90
        0
176
     1
 62
     7
176
     1
 40
1.0
176
     1
 90
        1
176
     1
 90
        6
176
     1
 90
        2
176
     1
 62
     7
176
     1
 90
        5
176
     1
 90
        0
176
     1
 90
        0
176
     1
290
     0
176
     1
 90
       13
176
     1
 40
0.0
176
     1
 90
        0
176
     1
290
     0
176
     1
290
     1
176
     1
290
     1
176
     1
290
     0
176
     1
290
     0
176
     1
290
     0
176
     1
290
     0
176
     1
290
     0
176
     1
290
     0
176
     1
 90
       50
176
     1
 40
0.0
176
     1
 40
1.0
176
     1
 90
        0
176
     1
 62
    18
420
        0
176
     1
 90
       50
176
     1
 90
        3
176
     1
 62
     5
420
      255
176
     1
290
     0
176
     1
 90
       50
176
     1
 90
       50
176
     1
 90
       50
176
     1
290
     0
176
     1
 90
       50
176
     1
 62
   256
176
     0
 40
1.0
176
     0
 90
        2
176
     1
  1
strokes_ogs.tif
176
     1
290
     0
176
     1
 40
1.0
176
     1
 40
1.0
176
     1
  0
VISUALSTYLE
  5
2E
102
{ACAD_REACTORS
330
2A
102
}
330
2A
100
AcDbVisualStyle
  2
GouraudWithEdges
 70
     3
177
     3
291
     1
 70
    58
 90
        2
176
     1
 90
        2
176
     1
 90
        1
176
     1
 90
        2
176
     1
 40
0.6
176
     1
 40
30.0
176
     1
 62
     7
420
 16777215
176
     1
 90
        1
176
     1
 90
        0
176
     1
 62
     7
176
     1
 62
   257
176
     1
 90
        1
176
     1
 90
        1
176
     1
 40
1.0
176
     1
 90
        0
176
     1
 62
   257
176
     1
 40
1.0
176
     1
 90
        1
176
     1
 90
        6
176
     1
 90
        2
176
     1
 62
     7
176
     1
 90
        5
176
     1
 90
        0
176
     1
 90
        0
176
     1
290
     0
176
     1
 90
       13
176
     1
 40
0.0
176
     1
 90
        0
176
     1
290
     0
176
     1
290
     1
176
     1
290
     1
176
     1
290
     0
176
     1
290
     0
176
     1
290
     0
176
     1
290
     0
176
     1
290
     0
176
     1
290
     0
176
     1
 90
       50
176
     1
 40
0.0
176
     1
 40
1.0
176
     1
 90
        0
176
     1
 62
    18
420
        0
176
     1
 90
       50
176
     1
 90
        3
176
     1
 62
     5
420
      255
176
     1
290
     0
176
     1
 90
       50
176
     1
 90
       50
176
     1
 90
       50
176
     1
290
     0
176
     1
 90
       50
176
     1
 62
   256
176
     0
 40
1.0
176
     0
 90
        2
176
     1
  1
strokes_ogs.tif
176
     1
290
     0
176
     1
 40
1.0
176
     1
 40
1.0
176
     1
  0
VISUALSTYLE
  5
31
102
{ACAD_REACTORS
330
2A
102
}
330
2A
100
AcDbVisualStyle
  2
Hidden
 70
     6
177
     3
291
     0
 70
    58
 90
        1
176
     1
 90
        2
176
     1
 90
        2
176
     1
 90
        0
176
     1
 40
0.6
176
     1
 40
30.0
176
     1
 62
     7
420
 16777215
176
     1
 90
        2
176
     1
 90
        2
176
     1
 62
     7
176
     1
 62
   257
176
     1
 90
        2
176
     1
 90
        1
176
     1
 40
40.0
176
     1
 90
        0
176
     1
 62
   257
176
     1
 40
1.0
176
     1
 90
        1
176
     1
 90
        6
176
     1
 90
        2
176
     1
 62
     7
176
     1
 90
        3
176
     1
 90
        0
176
     1
 90
        0
176
     1
290
     0
176
     1
 90
        1
176
     1
 40
0.0
176
     1
 90
        0
176
     1
290
     0
176
     1
290
     1
176
     1
290
     1
176
     1
290
     0
176
     1
290
     0
176
     1
290
     0
176
     1
290
     0
176
     1
290
     0
176
     1
290
     0
176
     1
 90
       50
176
     1
 40
0.0
176
     1
 40
1.0
176
     1
 90
        0
176
     1
 62
    18
420
        0
176
     1
 90
       50
176
     1
 90
        3
176
     1
 62
     5
420
      255
176
     1
290
     0
176
     1
 90
       50
176
     1
 90
       50
176
     1
 90
       50
176
     1
290
     0
176
     1
 90
       50
176
     1
 62
   256
176
     0
 40
1.0
176
     0
 90
        2
176
     1
  1
strokes_ogs.tif
176
     1
290
     0
176
     1
 40
1.0
176
     1
 40
1.0
176
     1
  0
VISUALSTYLE
  5
3B
102
{ACAD_REACTORS
330
2A
102
}
330
2A
100
AcDbVisualStyle
  2
JitterOff
 70
    20
177
     3
291
     1
 70
    58
 90
        2
176
     0
 90
        2
176
     0
 90
        0
176
     0
 90
        0
176
     0
 40
0.6
176
     0
 40
30.0
176
     0
 62
     7
420
 16777215
176
     0
 90
        1
176
     0
 90
        4
176
     0
 62
     7
176
     0
 62
   257
176
     0
 90
        1
176
     0
 90
        1
176
     0
 40
1.0
176
     0
 90
       10
176
     2
 62
     7
176
     0
 40
1.0
176
     0
 90
        1
176
     0
 90
        6
176
     0
 90
        2
176
     0
 62
     7
176
     0
 90
        5
176
     0
 90
        0
176
     0
 90
        0
176
     0
290
     0
176
     0
 90
        1
176
     0
 40
0.0
176
     0
 90
        0
176
     0
290
     0
176
     0
290
     1
176
     0
290
     1
176
     0
290
     0
176
     0
290
     0
176
     0
290
     0
176
     0
290
     0
176
     0
290
     0
176
     0
290
     0
176
     0
 90
       50
176
     0
 40
0.0
176
     0
 40
1.0
176
     0
 90
        0
176
     0
 62
    18
420
        0
176
     0
 90
       50
176
     0
 90
        3
176
     0
 62
     5
420
      255
176
     0
290
     0
176
     0
 90
       50
176
     0
 90
       50
176
     0
 90
       50
176
     0
290
     0
176
     0
 90
       50
176
     0
 62
   256
176
     0
 40
1.0
176
     0
 90
        2
176
     0
  1
strokes_ogs.tif
176
     0
290
     0
176
     0
 40
1.0
176
     0
 40
1.0
176
     0
  0
VISUALSTYLE
  5
38
102
{ACAD_REACTORS
330
2A
102
}
330
2A
100
AcDbVisualStyle
  2
Linepattern
 70
    14
177
     3
291
     1
 70
    58
 90
        2
176
     1
 90
        2
176
     1
 90
        0
176
     1
 90
        0
176
     1
 40
0.6
176
     1
 40
30.0
176
     1
 62
     7
420
 16777215
176
     1
 90
        1
176
     1
 90
        4
176
     1
 62
     7
176
     1
 62
   257
176
     1
 90
        7
176
     1
 90
        7
176
     1
 40
1.0
176
     1
 90
        8
176
     1
 62
     7
176
     1
 40
1.0
176
     1
 90
        1
176
     1
 90
        6
176
     1
 90
        2
176
     1
 62
     7
176
     1
 90
        5
176
     1
 90
        0
176
     1
 90
        0
176
     1
290
     0
176
     1
 90
        1
176
     1
 40
0.0
176
     1
 90
        0
176
     1
290
     0
176
     1
290
     1
176
     1
290
     1
176
     1
290
     0
176
     1
290
     0
176
     1
290
     0
176
     1
290
     0
176
     1
290
     0
176
     1
290
     0
176
     1
 90
       50
176
     1
 40
0.0
176
     1
 40
1.0
176
     1
 90
        0
176
     1
 62
    18
420
        0
176
     1
 90
       50
176
     1
 90
        3
176
     1
 62
     5
420
      255
176
     1
290
     0
176
     1
 90
       50
176
     1
 90
       50
176
     1
 90
       50
176
     1
290
     0
176
     1
 90
       50
176
     1
 62
   256
176
     0
 40
1.0
176
     0
 90
        2
176
     1
  1
strokes_ogs.tif
176
     1
290
     0
176
     1
 40
1.0
176
     1
 40
1.0
176
     1
  0
VISUALSTYLE
  5
3C
102
{ACAD_REACTORS
330
2A
102
}
330
2A
100
AcDbVisualStyle
  2
OverhangOff
 70
    21
177
     3
291
     1
 70
    58
 90
        2
176
     0
 90
        2
176
     0
 90
        0
176
     0
 90
        0
176
     0
 40
0.6
176
     0
 40
30.0
176
     0
 62
     7
420
 16777215
176
     0
 90
        1
176
     0
 90
        4
176
     0
 62
     7
176
     0
 62
   257
176
     0
 90
        1
176
     0
 90
        1
176
     0
 40
1.0
176
     0
 90
        9
176
     2
 62
     7
176
     0
 40
1.0
176
     0
 90
        1
176
     0
 90
        6
176
     0
 90
        2
176
     0
 62
     7
176
     0
 90
        5
176
     0
 90
        0
176
     0
 90
        0
176
     0
290
     0
176
     0
 90
        1
176
     0
 40
0.0
176
     0
 90
        0
176
     0
290
     0
176
     0
290
     1
176
     0
290
     1
176
     0
290
     0
176
     0
290
     0
176
     0
290
     0
176
     0
290
     0
176
     0
290
     0
176
     0
290
     0
176
     0
 90
       50
176
     0
 40
0.0
176
     0
 40
1.0
176
     0
 90
        0
176
     0
 62
    18
420
        0
176
     0
 90
       50
176
     0
 90
        3
176
     0
 62
     5
420
      255
176
     0
290
     0
176
     0
 90
       50
176
     0
 90
       50
176
     0
 90
       50
176
     0
290
     0
176
     0
 90
       50
176
     0
 62
   256
176
     0
 40
1.0
176
     0
 90
        2
176
     0
  1
strokes_ogs.tif
176
     0
290
     0
176
     0
 40
1.0
176
     0
 40
1.0
176
     0
  0
VISUALSTYLE
  5
33
102
{ACAD_REACTORS
330
2A
102
}
330
2A
100
AcDbVisualStyle
  2
Realistic
 70
     8
177
     3
291
     0
 70
    58
 90
        2
176
     1
 90
        3
176
     1
 90
        0
176
     1
 90
        2
176
     1
 40
0.6
176
     1
 40
30.0
176
     1
 62
     7
420
 16777215
176
     1
 90
        0
176
     1
 90
        0
176
     1
 62
     7
176
     1
 62
   257
176
     1
 90
        1
176
     1
 90
        1
176
     1
 40
1.0
176
     1
 90
        8
176
     1
 62
   257
176
     1
 40
1.0
176
     1
 90
        1
176
     1
 90
        6
176
     1
 90
        2
176
     1
 62
     7
176
     1
 90
        3
176
     1
 90
        0
176
     1
 90
        0
176
     1
290
     0
176
     1
 90
       13
176
     1
 40
0.0
176
     1
 90
        0
176
     1
290
     0
176
     1
290
     1
176
     1
290
     1
176
     1
290
     0
176
     1
290
     0
176
     1
290
     0
176
     1
290
     0
176
     1
290
     0
176
     1
290
     0
176
     1
 90
       50
176
     1
 40
0.0
176
     1
 40
1.0
176
     1
 90
        0
176
     1
 62
    18
420
        0
176
     1
 90
       50
176
     1
 90
        3
176
     1
 62
     5
420
      255
176
     1
290
     0
176
     1
 90
       50
176
     1
 90
       50
176
     1
 90
       50
176
     1
290
     0
176
     1
 90
       50
176
     1
 62
   256
176
     0
 40
1.0
176
     0
 90
        2
176
     1
  1
strokes_ogs.tif
176
     1
290
     0
176
     1
 40
1.0
176
     1
 40
1.0
176
     1
  0
VISUALSTYLE
  5
42
102
{ACAD_REACTORS
330
2A
102
}
330
2A
100
AcDbVisualStyle
  2
Shaded
 70
    27
177
     3
291
     0
 70
    58
 90
        2
176
     1
 90
        2
176
     1
 90
        1
176
     1
 90
        2
176
     1
 40
0.6
176
     1
 40
30.0
176
     1
 62
     7
420
 16777215
176
     1
 90
        0
176
     1
 90
        4
176
     1
 62
     7
176
     1
 62
   257
176
     1
 90
        1
176
     1
 90
        1
176
     1
 40
1.0
176
     1
 90
        8
176
     1
 62
   257
176
     1
 40
1.0
176
     1
 90
        1
176
     1
 90
        6
176
     1
 90
        2
176
     1
 62
     8
420
  7895160
176
     1
 90
        3
176
     1
 90
        0
176
     1
 90
        0
176
     1
290
     0
176
     1
 90
        5
176
     1
 40
0.0
176
     1
 90
        0
176
     1
290
     0
176
     1
290
     1
176
     1
290
     1
176
     1
290
     0
176
     1
290
     0
176
     1
290
     0
176
     1
290
     0
176
     1
290
     0
176
     1
290
     0
176
     1
 90
       50
176
     1
 40
0.0
176
     1
 40
1.0
176
     1
 90
        0
176
     1
 62
    18
420
        0
176
     1
 90
       50
176
     1
 90
        3
176
     1
 62
     5
420
      255
176
     1
290
     0
176
     1
 90
       50
176
     1
 90
       50
176
     1
 90
       50
176
     1
290
     0
176
     1
 90
       50
176
     1
 62
   256
176
     0
 40
1.0
176
     0
 90
        2
176
     1
  1
strokes_ogs.tif
176
     1
290
     0
176
     1
 40
1.0
176
     1
 40
1.0
176
     1
  0
VISUALSTYLE
  5
41
102
{ACAD_REACTORS
330
2A
102
}
330
2A
100
AcDbVisualStyle
  2
Shaded with edges
 70
    26
177
     3
291
     0
 70
    58
 90
        2
176
     1
 90
        2
176
     1
 90
        1
176
     1
 90
        2
176
     1
 40
0.6
176
     1
 40
30.0
176
     1
 62
     7
420
 16777215
176
     1
 90
        1
176
     1
 90
       10
176
     1
 62
     7
176
     1
 62
   257
176
     1
 90
        2
176
     1
 90
        1
176
     1
 40
1.0
176
     1
 90
        8
176
     1
 62
   257
176
     1
 40
1.0
176
     1
 90
        1
176
     1
 90
        6
176
     1
 90
        2
176
     1
 62
     7
176
     1
 90
        3
176
     1
 90
        0
176
     1
 90
        0
176
     1
290
     0
176
     1
 90
        5
176
     1
 40
0.0
176
     1
 90
        0
176
     1
290
     0
176
     1
290
     1
176
     1
290
     1
176
     1
290
     0
176
     1
290
     0
176
     1
290
     0
176
     1
290
     0
176
     1
290
     0
176
     1
290
     0
176
     1
 90
       50
176
     1
 40
0.0
176
     1
 40
1.0
176
     1
 90
        0
176
     1
 62
    18
420
        0
176
     1
 90
       50
176
     1
 90
        3
176
     1
 62
     5
420
      255
176
     1
290
     0
176
     1
 90
       50
176
     1
 90
       50
176
     1
 90
       50
176
     1
290
     0
176
     1
 90
       50
176
     1
 62
   256
176
     0
 40
1.0
176
     0
 90
        2
176
     1
  1
strokes_ogs.tif
176
     1
290
     0
176
     1
 40
1.0
176
     1
 40
1.0
176
     1
  0
VISUALSTYLE
  5
3E
102
{ACAD_REACTORS
330
2A
102
}
330
2A
100
AcDbVisualStyle
  2
Shades of Gray
 70
    23
177
     3
291
     0
 70
    58
 90
        2
176
     1
 90
        2
176
     1
 90
        3
176
     1
 90
        0
176
     1
 40
0.6
176
     1
 40
30.0
176
     1
 62
     7
420
 16777215
176
     1
 90
        2
176
     1
 90
        2
176
     1
 62
     7
176
     1
 62
     7
176
     1
 90
        1
176
     1
 90
        1
176
     1
 40
40.0
176
     1
 90
        8
176
     1
 62
     7
176
     1
 40
1.0
176
     1
 90
        1
176
     1
 90
        6
176
     1
 90
        2
176
     1
 62
     7
176
     1
 90
        3
176
     1
 90
        0
176
     1
 90
        0
176
     1
290
     0
176
     1
 90
        1
176
     1
 40
0.0
176
     1
 90
        0
176
     1
290
     0
176
     1
290
     1
176
     1
290
     1
176
     1
290
     0
176
     1
290
     0
176
     1
290
     0
176
     1
290
     0
176
     1
290
     0
176
     1
290
     0
176
     1
 90
       50
176
     1
 40
0.0
176
     1
 40
1.0
176
     1
 90
        0
176
     1
 62
    18
420
        0
176
     1
 90
       50
176
     1
 90
        3
176
     1
 62
     5
420
      255
176
     1
290
     0
176
     1
 90
       50
176
     1
 90
       50
176
     1
 90
       50
176
     1
290
     0
176
     1
 90
       50
176
     1
 62
   256
176
     0
 40
1.0
176
     0
 90
        2
176
     1
  1
strokes_ogs.tif
176
     1
290
     0
176
     1
 40
1.0
176
     1
 40
1.0
176
     1
  0
VISUALSTYLE
  5
3F
102
{ACAD_REACTORS
330
2A
102
}
330
2A
100
AcDbVisualStyle
  2
Sketchy
 70
    24
177
     3
291
     0
 70
    58
 90
        1
176
     1
 90
        2
176
     1
 90
        2
176
     1
 90
        0
176
     1
 40
0.6
176
     1
 40
30.0
176
     1
 62
     7
420
 16777215
176
     1
 90
        2
176
     1
 90
        2
176
     1
 62
     7
176
     1
 62
     7
176
     1
 90
        1
176
     1
 90
        1
176
     1
 40
40.0
176
     1
 90
       11
176
     1
 62
     7
176
     1
 40
1.0
176
     1
 90
        1
176
     1
 90
        6
176
     1
 90
        2
176
     1
 62
     7
176
     1
 90
        6
176
     1
 90
        0
176
     1
 90
        0
176
     1
290
     0
176
     1
 90
        1
176
     1
 40
0.0
176
     1
 90
        0
176
     1
290
     0
176
     1
290
     1
176
     1
290
     1
176
     1
290
     0
176
     1
290
     0
176
     1
290
     0
176
     1
290
     0
176
     1
290
     0
176
     1
290
     0
176
     1
 90
       50
176
     1
 40
0.0
176
     1
 40
1.0
176
     1
 90
        0
176
     1
 62
    18
420
        0
176
     1
 90
       50
176
     1
 90
        3
176
     1
 62
     5
420
      255
176
     1
290
     0
176
     1
 90
       50
176
     1
 90
       50
176
     1
 90
       50
176
     1
290
     0
176
     1
 90
       50
176
     1
 62
   256
176
     0
 40
1.0
176
     0
 90
        2
176
     1
  1
strokes_ogs.tif
176
     1
290
     0
176
     1
 40
1.0
176
     1
 40
1.0
176
     1
  0
VISUALSTYLE
  5
37
102
{ACAD_REACTORS
330
2A
102
}
330
2A
100
AcDbVisualStyle
  2
Thicken
 70
    13
177
     3
291
     1
 70
    58
 90
        2
176
     1
 90
        2
176
     1
 90
        0
176
     1
 90
        0
176
     1
 40
0.6
176
     1
 40
30.0
176
     1
 62
     7
420
 16777215
176
     1
 90
        1
176
     1
 90
        4
176
     1
 62
     7
176
     1
 62
   257
176
     1
 90
        1
176
     1
 90
        1
176
     1
 40
1.0
176
     1
 90
       12
176
     1
 62
     7
176
     1
 40
1.0
176
     1
 90
        1
176
     1
 90
        6
176
     1
 90
        2
176
     1
 62
     7
176
     1
 90
        5
176
     1
 90
        0
176
     1
 90
        0
176
     1
290
     0
176
     1
 90
        1
176
     1
 40
0.0
176
     1
 90
        0
176
     1
290
     0
176
     1
290
     1
176
     1
290
     1
176
     1
290
     0
176
     1
290
     0
176
     1
290
     0
176
     1
290
     0
176
     1
290
     0
176
     1
290
     0
176
     1
 90
       50
176
     1
 40
0.0
176
     1
 40
1.0
176
     1
 90
        0
176
     1
 62
    18
420
        0
176
     1
 90
       50
176
     1
 90
        3
176
     1
 62
     5
420
      255
176
     1
290
     0
176
     1
 90
       50
176
     1
 90
       50
176
     1
 90
       50
176
     1
290
     0
176
     1
 90
       50
176
     1
 62
   256
176
     0
 40
1.0
176
     0
 90
        2
176
     1
  1
strokes_ogs.tif
176
     1
290
     0
176
     1
 40
1.0
176
     1
 40
1.0
176
     1
  0
VISUALSTYLE
  5
30
102
{ACAD_REACTORS
330
2A
102
}
330
2A
100
AcDbVisualStyle
  2
Wireframe
 70
     5
177
     3
291
     0
 70
    58
 90
        0
176
     1
 90
        2
176
     1
 90
        0
176
     1
 90
        0
176
     1
 40
0.6
176
     1
 40
30.0
176
     1
 62
     7
420
 16777215
176
     1
 90
        1
176
     1
 90
        4
176
     1
 62
     7
176
     1
 62
   257
176
     1
 90
        1
176
     1
 90
        1
176
     1
 40
1.0
176
     1
 90
        0
176
     1
 62
   257
176
     1
 40
1.0
176
     1
 90
        1
176
     1
 90
        6
176
     1
 90
        2
176
     1
 62
     7
176
     1
 90
        3
176
     1
 90
        0
176
     1
 90
        0
176
     1
290
     0
176
     1
 90
        1
176
     1
 40
0.0
176
     1
 90
        0
176
     1
290
     0
176
     1
290
     1
176
     1
290
     1
176
     1
290
     0
176
     1
290
     0
176
     1
290
     0
176
     1
290
     0
176
     1
290
     0
176
     1
290
     0
176
     1
 90
       50
176
     1
 40
0.0
176
     1
 40
1.0
176
     1
 90
        0
176
     1
 62
    18
420
        0
176
     1
 90
       50
176
     1
 90
        3
176
     1
 62
     5
420
      255
176
     1
290
     0
176
     1
 90
       50
176
     1
 90
       50
176
     1
 90
       50
176
     1
290
     0
176
     1
 90
       50
176
     1
 62
   256
176
     0
 40
1.0
176
     0
 90
        2
176
     1
  1
strokes_ogs.tif
176
     1
290
     0
176
     1
 40
1.0
176
     1
 40
1.0
176
     1
  0
VISUALSTYLE
  5
40
102
{ACAD_REACTORS
330
2A
102
}
330
2A
100
AcDbVisualStyle
  2
X-Ray
 70
    25
177
     3
291
     0
 70
    58
 90
        2
176
     1
 90
        2
176
     1
 90
        1
176
     1
 90
        1
176
     1
 40
0.5
176
     1
 40
30.0
176
     1
 62
     7
420
 16777215
176
     1
 90
        1
176
     1
 90
        0
176
     1
 62
     7
176
     1
 62
   257
176
     1
 90
        1
176
     1
 90
        1
176
     1
 40
1.0
176
     1
 90
        8
176
     1
 62
     7
176
     1
 40
1.0
176
     1
 90
        1
176
     1
 90
        6
176
     1
 90
        2
176
     1
 62
     7
176
     1
 90
        3
176
     1
 90
        0
176
     1
 90
        0
176
     1
290
     0
176
     1
 90
       13
176
     1
 40
0.0
176
     1
 90
        0
176
     1
290
     0
176
     1
290
     1
176
     1
290
     1
176
     1
290
     0
176
     1
290
     0
176
     1
290
     0
176
     1
290
     0
176
     1
290
     0
176
     1
290
     0
176
     1
 90
       50
176
     1
 40
0.0
176
     1
 40
1.0
176
     1
 90
        0
176
     1
 62
    18
420
        0
176
     1
 90
       50
176
     1
 90
        3
176
     1
 62
     5
420
      255
176
     1
290
     0
176
     1
 90
       50
176
     1
 90
       50
176
     1
 90
       50
176
     1
290
     0
176
     1
 90
       50
176
     1
 62
   256
176
     0
 40
1.0
176
     0
 90
        2
176
     1
  1
strokes_ogs.tif
176
     1
290
     0
176
     1
 40
1.0
176
     1
 40
1.0
176
     1
  0
DICTIONARYVAR
  5
98
102
{ACAD_REACTORS
330
97
102
}
330
97
100
DictionaryVariables
280
     0
  1
1:1
  0
DICTIONARYVAR
  5
A0
102
{ACAD_REACTORS
330
97
102
}
330
97
100
DictionaryVariables
280
     0
  1
3.500000
  0
DICTIONARYVAR
  5
A1
102
{ACAD_REACTORS
330
97
102
}
330
97
100
DictionaryVariables
280
     0
  1
acadiso.lin
  0
DICTIONARYVAR
  5
9D
102
{ACAD_REACTORS
330
97
102
}
330
97
100
DictionaryVariables
280
     0
  1
Standard
  0
DICTIONARYVAR
  5
9C
102
{ACAD_REACTORS
330
97
102
}
330
97
100
DictionaryVariables
280
     0
  1
Standard
  0
DICTIONARY
  5
99
330
5A
100
AcDbDictionary
280
     1
281
     1
  3
ACAD_ROUNDTRIP_2008_TABLESTYLE_CELLSTYLEMAP
360
9A
  0
CELLSTYLEMAP
  5
9A
102
{ACAD_REACTORS
330
99
102
}
330
99
100
AcDbCellStyleMap
 90
        3
300
CELLSTYLE
  1
TABLEFORMAT_BEGIN
 90
        5
170
     1
 91
        0
 92
    32768
 62
   257
 93
        1
300
CONTENTFORMAT
  1
CONTENTFORMAT_BEGIN
 90
        0
 91
        0
 92
        4
 93
        0
300

 40
0.0
140
1.0
 94
        5
 62
     0
340
11
144
6.0
309
CONTENTFORMAT_END
171
     1
301
MARGIN
  1
CELLMARGIN_BEGIN
 40
1.5
 40
1.5
 40
1.5
 40
1.5
 40
1.5
 40
1.5
309
CELLMARGIN_END
 94
        6
 95
        1
302
GRIDFORMAT
  1
GRIDFORMAT_BEGIN
 90
        0
 91
        1
 62
     0
 92
       -2
340
14
 93
        0
 40
0.045
309
GRIDFORMAT_END
 95
        2
302
GRIDFORMAT
  1
GRIDFORMAT_BEGIN
 90
        0
 91
        1
 62
     0
 92
       -2
340
14
 93
        0
 40
0.045
309
GRIDFORMAT_END
 95
        4
302
GRIDFORMAT
  1
GRIDFORMAT_BEGIN
 90
        0
 91
        1
 62
     0
 92
       -2
340
14
 93
        0
 40
0.045
309
GRIDFORMAT_END
 95
        8
302
GRIDFORMAT
  1
GRIDFORMAT_BEGIN
 90
        0
 91
        1
 62
     0
 92
       -2
340
14
 93
        0
 40
0.045
309
GRIDFORMAT_END
 95
       16
302
GRIDFORMAT
  1
GRIDFORMAT_BEGIN
 90
        0
 91
        1
 62
     0
 92
       -2
340
14
 93
        0
 40
0.045
309
GRIDFORMAT_END
 95
       32
302
GRIDFORMAT
  1
GRIDFORMAT_BEGIN
 90
        0
 91
        1
 62
     0
 92
       -2
340
14
 93
        0
 40
0.045
309
GRIDFORMAT_END
309
TABLEFORMAT_END
  1
CELLSTYLE_BEGIN
 90
        1
 91
        1
300
_TITLE
309
CELLSTYLE_END
300
CELLSTYLE
  1
TABLEFORMAT_BEGIN
 90
        5
170
     1
 91
        0
 92
        0
 62
   257
 93
        1
300
CONTENTFORMAT
  1
CONTENTFORMAT_BEGIN
 90
        0
 91
        0
 92
        4
 93
        0
300

 40
0.0
140
1.0
 94
        5
 62
     0
340
11
144
4.5
309
CONTENTFORMAT_END
171
     1
301
MARGIN
  1
CELLMARGIN_BEGIN
 40
1.5
 40
1.5
 40
1.5
 40
1.5
 40
1.5
 40
1.5
309
CELLMARGIN_END
 94
        6
 95
        1
302
GRIDFORMAT
  1
GRIDFORMAT_BEGIN
 90
        0
 91
        1
 62
     0
 92
       -2
340
14
 93
        0
 40
0.045
309
GRIDFORMAT_END
 95
        2
302
GRIDFORMAT
  1
GRIDFORMAT_BEGIN
 90
        0
 91
        1
 62
     0
 92
       -2
340
14
 93
        0
 40
0.045
309
GRIDFORMAT_END
 95
        4
302
GRIDFORMAT
  1
GRIDFORMAT_BEGIN
 90
        0
 91
        1
 62
     0
 92
       -2
340
14
 93
        0
 40
0.045
309
GRIDFORMAT_END
 95
        8
302
GRIDFORMAT
  1
GRIDFORMAT_BEGIN
 90
        0
 91
        1
 62
     0
 92
       -2
340
14
 93
        0
 40
0.045
309
GRIDFORMAT_END
 95
       16
302
GRIDFORMAT
  1
GRIDFORMAT_BEGIN
 90
        0
 91
        1
 62
     0
 92
       -2
340
14
 93
        0
 40
0.045
309
GRIDFORMAT_END
 95
       32
302
GRIDFORMAT
  1
GRIDFORMAT_BEGIN
 90
        0
 91
        1
 62
     0
 92
       -2
340
14
 93
        0
 40
0.045
309
GRIDFORMAT_END
309
TABLEFORMAT_END
  1
CELLSTYLE_BEGIN
 90
        2
 91
        1
300
_HEADER
309
CELLSTYLE_END
300
CELLSTYLE
  1
TABLEFORMAT_BEGIN
 90
        5
170
     1
 91
        0
 92
        0
 62
   257
 93
        1
300
CONTENTFORMAT
  1
CONTENTFORMAT_BEGIN
 90
        0
 91
        0
 92
        4
 93
        0
300

 40
0.0
140
1.0
 94
        2
 62
     0
340
11
144
4.5
309
CONTENTFORMAT_END
171
     1
301
MARGIN
  1
CELLMARGIN_BEGIN
 40
1.5
 40
1.5
 40
1.5
 40
1.5
 40
1.5
 40
1.5
309
CELLMARGIN_END
 94
        6
 95
        1
302
GRIDFORMAT
  1
GRIDFORMAT_BEGIN
 90
        0
 91
        1
 62
     0
 92
       -2
340
14
 93
        0
 40
0.045
309
GRIDFORMAT_END
 95
        2
302
GRIDFORMAT
  1
GRIDFORMAT_BEGIN
 90
        0
 91
        1
 62
     0
 92
       -2
340
14
 93
        0
 40
0.045
309
GRIDFORMAT_END
 95
        4
302
GRIDFORMAT
  1
GRIDFORMAT_BEGIN
 90
        0
 91
        1
 62
     0
 92
       -2
340
14
 93
        0
 40
0.045
309
GRIDFORMAT_END
 95
        8
302
GRIDFORMAT
  1
GRIDFORMAT_BEGIN
 90
        0
 91
        1
 62
     0
 92
       -2
340
14
 93
        0
 40
0.045
309
GRIDFORMAT_END
 95
       16
302
GRIDFORMAT
  1
GRIDFORMAT_BEGIN
 90
        0
 91
        1
 62
     0
 92
       -2
340
14
 93
        0
 40
0.045
309
GRIDFORMAT_END
 95
       32
302
GRIDFORMAT
  1
GRIDFORMAT_BEGIN
 90
        0
 91
        1
 62
     0
 92
       -2
340
14
 93
        0
 40
0.045
309
GRIDFORMAT_END
309
TABLEFORMAT_END
  1
CELLSTYLE_BEGIN
 90
        3
 91
        2
300
_DATA
309
CELLSTYLE_END
  0
ENDSEC
  0
EOF
