  0
SECTION
  2
HEADER
  9
$ACADVER
  1
AC1027
  9
$ACADMAINTVER
 70
   105
  9
$DWGCODEPAGE
  3
ANSI_932
  9
$LASTSAVEDBY
  1
a.yasuda
  9
$REQUIREDVERSIONS
160
                 0
  9
$INSBASE
 10
0.0
 20
0.0
 30
0.0
  9
$EXTMIN
 10
0.0
 20
0.0
 30
0.0
  9
$EXTMAX
 10
302.9997823349792
 20
216.0016055409748
 30
0.0
  9
$LIMMIN
 10
0.0
 20
0.0
  9
$LIMMAX
 10
302.9997823349792
 20
216.0016055409748
  9
$ORTHOMODE
 70
     0
  9
$REGENMODE
 70
     1
  9
$FILLMODE
 70
     1
  9
$QTEXTMODE
 70
     0
  9
$MIRRTEXT
 70
     1
  9
$LTSCALE
 40
1.0
  9
$ATTMODE
 70
     1
  9
$TEXTSIZE
 40
2.5
  9
$TRACEWID
 40
1.0
  9
$TEXTSTYLE
  7
Standard
  9
$CLAYER
  8
0
  9
$CELTYPE
  6
ByLayer
  9
$CECOLOR
 62
   256
  9
$CELTSCALE
 40
1.0
  9
$DISPSILH
 70
     0
  9
$DIMSCALE
 40
1.0
  9
$DIMASZ
 40
2.5
  9
$DIMEXO
 40
0.625
  9
$DIMDLI
 40
3.75
  9
$DIMRND
 40
0.0
  9
$DIMDLE
 40
0.0
  9
$DIMEXE
 40
1.25
  9
$DIMTP
 40
0.0
  9
$DIMTM
 40
0.0
  9
$DIMTXT
 40
2.5
  9
$DIMCEN
 40
2.5
  9
$DIMTSZ
 40
0.0
  9
$DIMTOL
 70
     0
  9
$DIMLIM
 70
     0
  9
$DIMTIH
 70
     0
  9
$DIMTOH
 70
     0
  9
$DIMSE1
 70
     0
  9
$DIMSE2
 70
     0
  9
$DIMTAD
 70
     1
  9
$DIMZIN
 70
     8
  9
$DIMBLK
  1

  9
$DIMASO
 70
     1
  9
$DIMSHO
 70
     1
  9
$DIMPOST
  1

  9
$DIMAPOST
  1

  9
$DIMALT
 70
     0
  9
$DIMALTD
 70
     3
  9
$DIMALTF
 40
0.03937007874016
  9
$DIMLFAC
 40
1.0
  9
$DIMTOFL
 70
     1
  9
$DIMTVP
 40
0.0
  9
$DIMTIX
 70
     0
  9
$DIMSOXD
 70
     0
  9
$DIMSAH
 70
     0
  9
$DIMBLK1
  1

  9
$DIMBLK2
  1

  9
$DIMSTYLE
  2
ISO-25
  9
$DIMCLRD
 70
     0
  9
$DIMCLRE
 70
     0
  9
$DIMCLRT
 70
     0
  9
$DIMTFAC
 40
1.0
  9
$DIMGAP
 40
0.625
  9
$DIMJUST
 70
     0
  9
$DIMSD1
 70
     0
  9
$DIMSD2
 70
     0
  9
$DIMTOLJ
 70
     0
  9
$DIMTZIN
 70
     8
  9
$DIMALTZ
 70
     0
  9
$DIMALTTZ
 70
     0
  9
$DIMUPT
 70
     0
  9
$DIMDEC
 70
     2
  9
$DIMTDEC
 70
     2
  9
$DIMALTU
 70
     2
  9
$DIMALTTD
 70
     3
  9
$DIMTXSTY
  7
Standard
  9
$DIMAUNIT
 70
     0
  9
$DIMADEC
 70
     0
  9
$DIMALTRND
 40
0.0
  9
$DIMAZIN
 70
     0
  9
$DIMDSEP
 70
    44
  9
$DIMATFIT
 70
     3
  9
$DIMFRAC
 70
     0
  9
$DIMLDRBLK
  1

  9
$DIMLUNIT
 70
     2
  9
$DIMLWD
 70
    -2
  9
$DIMLWE
 70
    -2
  9
$DIMTMOVE
 70
     0
  9
$DIMFXL
 40
1.0
  9
$DIMFXLON
 70
     0
  9
$DIMJOGANG
 40
0.7853981633974483
  9
$DIMTFILL
 70
     0
  9
$DIMTFILLCLR
 70
     0
  9
$DIMARCSYM
 70
     0
  9
$DIMLTYPE
  6

  9
$DIMLTEX1
  6

  9
$DIMLTEX2
  6

  9
$DIMTXTDIRECTION
 70
     0
  9
$LUNITS
 70
     2
  9
$LUPREC
 70
     4
  9
$SKETCHINC
 40
1.0
  9
$FILLETRAD
 40
0.0
  9
$AUNITS
 70
     0
  9
$AUPREC
 70
     0
  9
$MENU
  1
.
  9
$ELEVATION
 40
0.0
  9
$PELEVATION
 40
0.0
  9
$THICKNESS
 40
0.0
  9
$LIMCHECK
 70
     0
  9
$CHAMFERA
 40
0.0
  9
$CHAMFERB
 40
0.0
  9
$CHAMFERC
 40
0.0
  9
$CHAMFERD
 40
0.0
  9
$SKPOLY
 70
     0
  9
$TDCREATE
 40
2459873.457578866
  9
$TDUCREATE
 40
2459873.082578866
  9
$TDUPDATE
 40
2459873.457578912
  9
$TDUUPDATE
 40
2459873.082578912
  9
$TDINDWG
 40
0.0000000116
  9
$TDUSRTIMER
 40
0.0000000116
  9
$USRTIMER
 70
     1
  9
$ANGBASE
 50
0.0
  9
$ANGDIR
 70
     0
  9
$PDMODE
 70
     0
  9
$PDSIZE
 40
0.0
  9
$PLINEWID
 40
0.0
  9
$SPLFRAME
 70
     0
  9
$SPLINETYPE
 70
     6
  9
$SPLINESEGS
 70
     8
  9
$HANDSEED
  5
A2
  9
$SURFTAB1
 70
     6
  9
$SURFTAB2
 70
     6
  9
$SURFTYPE
 70
     6
  9
$SURFU
 70
     6
  9
$SURFV
 70
     6
  9
$UCSBASE
  2

  9
$UCSNAME
  2

  9
$UCSORG
 10
0.0
 20
0.0
 30
0.0
  9
$UCSXDIR
 10
1.0
 20
0.0
 30
0.0
  9
$UCSYDIR
 10
0.0
 20
1.0
 30
0.0
  9
$UCSORTHOREF
  2

  9
$UCSORTHOVIEW
 70
     0
  9
$UCSORGTOP
 10
0.0
 20
0.0
 30
0.0
  9
$UCSORGBOTTOM
 10
0.0
 20
0.0
 30
0.0
  9
$UCSORGLEFT
 10
0.0
 20
0.0
 30
0.0
  9
$UCSORGRIGHT
 10
0.0
 20
0.0
 30
0.0
  9
$UCSORGFRONT
 10
0.0
 20
0.0
 30
0.0
  9
$UCSORGBACK
 10
0.0
 20
0.0
 30
0.0
  9
$PUCSBASE
  2

  9
$PUCSNAME
  2

  9
$PUCSORG
 10
0.0
 20
0.0
 30
0.0
  9
$PUCSXDIR
 10
1.0
 20
0.0
 30
0.0
  9
$PUCSYDIR
 10
0.0
 20
1.0
 30
0.0
  9
$PUCSORTHOREF
  2

  9
$PUCSORTHOVIEW
 70
     0
  9
$PUCSORGTOP
 10
0.0
 20
0.0
 30
0.0
  9
$PUCSORGBOTTOM
 10
0.0
 20
0.0
 30
0.0
  9
$PUCSORGLEFT
 10
0.0
 20
0.0
 30
0.0
  9
$PUCSORGRIGHT
 10
0.0
 20
0.0
 30
0.0
  9
$PUCSORGFRONT
 10
0.0
 20
0.0
 30
0.0
  9
$PUCSORGBACK
 10
0.0
 20
0.0
 30
0.0
  9
$USERI1
 70
     0
  9
$USERI2
 70
     0
  9
$USERI3
 70
     0
  9
$USERI4
 70
     0
  9
$USERI5
 70
     0
  9
$USERR1
 40
0.0
  9
$USERR2
 40
0.0
  9
$USERR3
 40
0.0
  9
$USERR4
 40
0.0
  9
$USERR5
 40
0.0
  9
$WORLDVIEW
 70
     1
  9
$SHADEDGE
 70
     3
  9
$SHADEDIF
 70
    70
  9
$TILEMODE
 70
     1
  9
$MAXACTVP
 70
    64
  9
$PINSBASE
 10
0.0
 20
0.0
 30
0.0
  9
$PLIMCHECK
 70
     0
  9
$PEXTMIN
 10
1.000000000000000E+20
 20
1.000000000000000E+20
 30
1.000000000000000E+20
  9
$PEXTMAX
 10
-1.000000000000000E+20
 20
-1.000000000000000E+20
 30
-1.000000000000000E+20
  9
$PLIMMIN
 10
0.0
 20
0.0
  9
$PLIMMAX
 10
420.0
 20
297.0
  9
$UNITMODE
 70
     0
  9
$VISRETAIN
 70
     1
  9
$PLINEGEN
 70
     0
  9
$PSLTSCALE
 70
     1
  9
$TREEDEPTH
 70
  3020
  9
$CMLSTYLE
  2
Standard
  9
$CMLJUST
 70
     0
  9
$CMLSCALE
 40
20.0
  9
$PROXYGRAPHICS
 70
     1
  9
$MEASUREMENT
 70
     1
  9
$CELWEIGHT
370
    -1
  9
$ENDCAPS
280
     0
  9
$JOINSTYLE
280
     0
  9
$LWDISPLAY
290
     0
  9
$INSUNITS
 70
     4
  9
$HYPERLINKBASE
  1

  9
$STYLESHEET
  1

  9
$XEDIT
290
     1
  9
$CEPSNTYPE
380
     0
  9
$PSTYLEMODE
290
     1
  9
$FINGERPRINTGUID
  2
{ed2b3882-1281-426a-a35a-1f191d27e830}
  9
$VERSIONGUID
  2
{FAEB1C32-E019-11D5-929B-00C0DF256EC4}
  9
$EXTNAMES
290
     1
  9
$PSVPSCALE
 40
0.0
  9
$OLESTARTUP
290
     0
  9
$SORTENTS
280
   127
  9
$INDEXCTL
280
     0
  9
$HIDETEXT
280
     1
  9
$XCLIPFRAME
280
     2
  9
$HALOGAP
280
     0
  9
$OBSCOLOR
 70
   257
  9
$OBSLTYPE
280
     0
  9
$INTERSECTIONDISPLAY
280
     0
  9
$INTERSECTIONCOLOR
 70
   257
  9
$DIMASSOC
280
     2
  9
$PROJECTNAME
  1

  9
$CAMERADISPLAY
290
     0
  9
$LENSLENGTH
 40
50.0
  9
$CAMERAHEIGHT
 40
0.0
  9
$STEPSPERSEC
 40
2.0
  9
$STEPSIZE
 40
6.0
  9
$3DDWFPREC
 40
2.0
  9
$PSOLWIDTH
 40
5.0
  9
$PSOLHEIGHT
 40
80.0
  9
$LOFTANG1
 40
1.570796326794897
  9
$LOFTANG2
 40
1.570796326794897
  9
$LOFTMAG1
 40
0.0
  9
$LOFTMAG2
 40
0.0
  9
$LOFTPARAM
 70
     7
  9
$LOFTNORMALS
280
     1
  9
$LATITUDE
 40
37.795
  9
$LONGITUDE
 40
-122.394
  9
$NORTHDIRECTION
 40
0.0
  9
$TIMEZONE
 70
 -8000
  9
$LIGHTGLYPHDISPLAY
280
     1
  9
$TILEMODELIGHTSYNCH
280
     1
  9
$CMATERIAL
347
44
  9
$SOLIDHIST
280
     0
  9
$SHOWHIST
280
     1
  9
$DWFFRAME
280
     2
  9
$DGNFRAME
280
     2
  9
$REALWORLDSCALE
290
     1
  9
$INTERFERECOLOR
 62
   256
  9
$CSHADOW
280
     0
  9
$SHADOWPLANELOCATION
 40
0.0
  0
ENDSEC
  0
SECTION
  2
CLASSES
  0
CLASS
  1
ACDBDICTIONARYWDFLT
  2
AcDbDictionaryWithDefault
  3
ObjectDBX Classes
 90
        0
 91
        3
280
     0
281
     0
  0
CLASS
  1
VISUALSTYLE
  2
AcDbVisualStyle
  3
ObjectDBX Classes
 90
     4095
 91
        3
280
     0
281
     0
  0
CLASS
  1
MATERIAL
  2
AcDbMaterial
  3
ObjectDBX Classes
 90
     1153
 91
        3
280
     0
281
     0
  0
CLASS
  1
SCALE
  2
AcDbScale
  3
ObjectDBX Classes
 90
     1153
 91
        3
280
     0
281
     0
  0
CLASS
  1
TABLESTYLE
  2
AcDbTableStyle
  3
ObjectDBX Classes
 90
     4095
 91
        3
280
     0
281
     0
  0
CLASS
  1
MLEADERSTYLE
  2
AcDbMLeaderStyle
  3
ACDB_MLEADERSTYLE_CLASS
 90
     4095
 91
        3
280
     0
281
     0
  0
CLASS
  1
SUN
  2
AcDbSun
  3
SCENEOE
 90
     1153
 91
        3
280
     0
281
     0
  0
CLASS
  1
DICTIONARYVAR
  2
AcDbDictionaryVar
  3
ObjectDBX Classes
 90
        0
 91
        3
280
     0
281
     0
  0
CLASS
  1
CELLSTYLEMAP
  2
AcDbCellStyleMap
  3
ObjectDBX Classes
 90
     1152
 91
        3
280
     0
281
     0
  0
ENDSEC
  0
SECTION
  2
TABLES
  0
TABLE
  2
VPORT
  5
8
330
0
100
AcDbSymbolTable
 70
     1
  0
VPORT
  5
29
330
8
100
AcDbSymbolTableRecord
100
AcDbViewportTableRecord
  2
*Active
 70
     0
 10
0.0
 20
0.0
 11
1.0
 21
1.0
 12
151.4998911674896
 22
108.0008027704874
 13
0.0
 23
0.0
 14
10.0
 24
10.0
 15
10.0
 25
10.0
 16
0.0
 26
0.0
 36
1.0
 17
0.0
 27
0.0
 37
0.0
 40
237.6017660950723
 41
1.402766343222857
 42
50.0
 43
0.0
 44
0.0
 50
0.0
 51
0.0
 71
     0
 72
 10000
 73
     1
 74
     3
 75
     0
 76
     0
 77
     0
 78
     0
281
     0
 65
     1
110
0.0
120
0.0
130
0.0
111
1.0
121
0.0
131
0.0
112
0.0
122
1.0
132
0.0
 79
     0
146
0.0
348
2F
 60
     3
 61
     5
292
     1
282
     1
141
0.0
142
0.0
 63
   250
361
5D
  0
ENDTAB
  0
TABLE
  2
LTYPE
  5
5
330
0
100
AcDbSymbolTable
 70
     2
  0
LTYPE
  5
14
330
5
100
AcDbSymbolTableRecord
100
AcDbLinetypeTableRecord
  2
ByBlock
 70
     0
  3

 72
    65
 73
     0
 40
0.0
  0
LTYPE
  5
15
330
5
100
AcDbSymbolTableRecord
100
AcDbLinetypeTableRecord
  2
ByLayer
 70
     0
  3

 72
    65
 73
     0
 40
0.0
  0
LTYPE
  5
16
330
5
100
AcDbSymbolTableRecord
100
AcDbLinetypeTableRecord
  2
Continuous
 70
     0
  3
Solid line
 72
    65
 73
     0
 40
0.0
  0
LTYPE
  5
5F
330
5
100
AcDbSymbolTableRecord
100
AcDbLinetypeTableRecord
  2
UserDefined01
 70
     0
  3
----------------                
 72
    65
 73
     2
 40
0.7055555449591743
 49
0.3527777724795871
 74
     0
 49
-0.3527777724795871
 74
     0
  0
ENDTAB
  0
TABLE
  2
LAYER
  5
2
330
0
100
AcDbSymbolTable
 70
     3
  0
LAYER
  5
10
330
2
100
AcDbSymbolTableRecord
100
AcDbLayerTableRecord
  2
0
 70
     0
 62
     7
  6
Continuous
370
    -3
390
F
347
46
348
0
  0
LAYER
  5
60
330
2
100
AcDbSymbolTableRecord
100
AcDbLayerTableRecord
  2
外枠
 70
     0
 62
     7
  6
Continuous
370
    -3
390
F
347
46
348
0
  0
LAYER
  5
61
330
2
100
AcDbSymbolTableRecord
100
AcDbLayerTableRecord
  2
ISS138金台
 70
     0
 62
     7
  6
Continuous
370
    -3
390
F
347
46
348
0
  0
ENDTAB
  0
TABLE
  2
STYLE
  5
3
330
0
100
AcDbSymbolTable
 70
     2
  0
STYLE
  5
11
330
3
100
AcDbSymbolTableRecord
100
AcDbTextStyleTableRecord
  2
Standard
 70
     0
 40
0.0
 41
1.0
 50
0.0
 71
     0
 42
2.5
  3

  4

  0
STYLE
  5
5E
330
3
100
AcDbSymbolTableRecord
100
AcDbTextStyleTableRecord
  2
MS Gothic
 70
     0
 40
1.0
 41
1.0
 50
0.0
 71
     0
 42
2.5
  3
msgothic.ttc
  4

1001
ACAD
1000
MS Gothic
1071
    32817
  0
ENDTAB
  0
TABLE
  2
VIEW
  5
6
330
0
100
AcDbSymbolTable
 70
     0
  0
ENDTAB
  0
TABLE
  2
UCS
  5
7
330
0
100
AcDbSymbolTable
 70
     0
  0
ENDTAB
  0
TABLE
  2
APPID
  5
9
330
0
100
AcDbSymbolTable
 70
     1
  0
APPID
  5
12
330
9
100
AcDbSymbolTableRecord
100
AcDbRegAppTableRecord
  2
ACAD
 70
     0
  0
ENDTAB
  0
TABLE
  2
DIMSTYLE
  5
A
330
0
100
AcDbSymbolTable
 70
     1
100
AcDbDimStyleTable
  0
DIMSTYLE
105
27
330
A
100
AcDbSymbolTableRecord
100
AcDbDimStyleTableRecord
  2
ISO-25
 70
     0
 41
2.5
 42
0.625
 43
3.75
 44
1.25
 73
     0
 74
     0
 77
     1
 78
     8
140
2.5
141
2.5
143
0.03937007874016
147
0.625
171
     3
172
     1
178
     0
271
     2
272
     2
274
     3
278
    44
283
     0
284
     8
340
11
  0
ENDTAB
  0
TABLE
  2
BLOCK_RECORD
  5
1
330
0
100
AcDbSymbolTable
 70
     1
  0
BLOCK_RECORD
  5
1F
330
1
100
AcDbSymbolTableRecord
100
AcDbBlockTableRecord
  2
*Model_Space
340
22
 70
     0
280
     1
281
     0
  0
BLOCK_RECORD
  5
1B
330
1
100
AcDbSymbolTableRecord
100
AcDbBlockTableRecord
  2
*Paper_Space
340
1E
 70
     0
280
     1
281
     0
  0
BLOCK_RECORD
  5
23
330
1
100
AcDbSymbolTableRecord
100
AcDbBlockTableRecord
  2
*Paper_Space0
340
26
 70
     0
280
     1
281
     0
  0
ENDTAB
  0
ENDSEC
  0
SECTION
  2
BLOCKS
  0
BLOCK
  5
20
330
1F
100
AcDbEntity
  8
0
100
AcDbBlockBegin
  2
*Model_Space
 70
     0
 10
0.0
 20
0.0
 30
0.0
  3
*Model_Space
  1

  0
ENDBLK
  5
21
330
1F
100
AcDbEntity
  8
0
100
AcDbBlockEnd
  0
BLOCK
  5
1C
330
1B
100
AcDbEntity
 67
     1
  8
0
100
AcDbBlockBegin
  2
*Paper_Space
 70
     0
 10
0.0
 20
0.0
 30
0.0
  3
*Paper_Space
  1

  0
ENDBLK
  5
1D
330
1B
100
AcDbEntity
 67
     1
  8
0
100
AcDbBlockEnd
  0
BLOCK
  5
24
330
23
100
AcDbEntity
  8
0
100
AcDbBlockBegin
  2
*Paper_Space0
 70
     0
 10
0.0
 20
0.0
 30
0.0
  3
*Paper_Space0
  1

  0
ENDBLK
  5
25
330
23
100
AcDbEntity
  8
0
100
AcDbBlockEnd
  0
ENDSEC
  0
SECTION
  2
ENTITIES
  0
LWPOLYLINE
  5
62
330
1F
100
AcDbEntity
  8
外枠
  6
Continuous
 62
   250
420
  2367521
370
   100
100
AcDbPolyline
 90
        5
 70
     0
 43
0.0
 10
281.9999662644599
 20
13.29407825637392
 10
20.99981607051935
 20
13.29407825637392
 10
20.99981607051935
 20
193.0018900389566
 10
281.9999662644599
 20
193.0018900389566
 10
281.9999662644599
 20
13.29407825637392
  0
LINE
  5
63
330
1F
100
AcDbEntity
  8
外枠
  6
Continuous
 62
   250
420
  2367521
370
    25
100
AcDbLine
 10
223.3097080177524
 20
174.0786160074276
 30
0.0
 11
281.9999232007669
 21
174.0786160074276
 31
0.0
  0
LINE
  5
64
330
1F
100
AcDbEntity
  8
外枠
  6
Continuous
 62
   250
420
  2367521
370
    25
100
AcDbLine
 10
223.3097080177524
 20
50.37109023844297
 30
0.0
 11
281.9999232007669
 21
50.37109023844297
 31
0.0
  0
LINE
  5
65
330
1F
100
AcDbEntity
  8
外枠
  6
Continuous
 62
   250
420
  2367521
370
    25
100
AcDbLine
 10
223.3097080177524
 20
36.25997933925949
 30
0.0
 11
281.9999232007669
 21
36.25997933925949
 31
0.0
  0
LINE
  5
66
330
1F
100
AcDbEntity
  8
外枠
  6
Continuous
 62
   250
420
  2367521
370
    50
100
AcDbLine
 10
223.0158413772006
 20
193.3637327187979
 30
0.0
 11
223.0158413772006
 21
13.29396655992039
 31
0.0
  0
TEXT
  5
67
330
1F
100
AcDbEntity
  8
外枠
  6
Continuous
 62
   250
420
  2367521
100
AcDbText
 10
224.7190965599536
 20
186.6888051931772
 30
0.0
 40
2.688166626294454
  1
品名：
 41
0.974166170756022
  7
MS Gothic
100
AcDbText
  0
TEXT
  5
68
330
1F
100
AcDbEntity
  8
外枠
  6
Continuous
 62
   250
420
  2367521
100
AcDbText
 10
224.7190965599536
 20
168.1080059455944
 30
0.0
 40
2.688166626294454
  1
仕様：
 41
0.9978878657023111
  7
MS Gothic
100
AcDbText
  0
TEXT
  5
69
330
1F
100
AcDbEntity
  8
外枠
  6
Continuous
 62
   250
420
  2367521
100
AcDbText
 10
224.7190965599536
 20
44.16660664327048
 30
0.0
 40
2.688166626294454
  1
縮尺：
 41
0.9939999262491861
  7
MS Gothic
100
AcDbText
  0
TEXT
  5
6A
330
1F
100
AcDbEntity
  8
外枠
  6
Continuous
 62
   250
420
  2367521
100
AcDbText
 10
250.2379519709696
 20
40.59738467878129
 30
0.0
 40
2.150533301035563
  1
1/1
 41
1.000003814697266
  7
MS Gothic
100
AcDbText
  0
TEXT
  5
6B
330
1F
100
AcDbEntity
  8
外枠
  6
Continuous
 62
   250
420
  2367521
100
AcDbText
 10
232.7757967427735
 20
181.9845273775436
 30
0.0
 40
2.688166626294454
  1
フロアーエッジFEA-2(U)
 41
1.02998081554066
  7
MS Gothic
100
AcDbText
  0
TEXT
  5
6C
330
1F
100
AcDbEntity
  8
外枠
  6
Continuous
 62
   250
420
  2367521
100
AcDbText
 10
226.1633020978884
 20
24.25683874973963
 30
0.0
 40
2.553758294979732
  1
ヤスダインテリアサプライ株式会社
 41
1.0194908945184
  7
MS Gothic
100
AcDbText
  0
TEXT
  5
6D
330
1F
100
AcDbEntity
  8
外枠
  6
Continuous
 62
   250
420
  2367521
100
AcDbText
 10
227.7635273953072
 20
161.7763665048245
 30
0.0
 40
2.150533301035563
  1
材質
 41
1.028502464294433
  7
MS Gothic
100
AcDbText
  0
TEXT
  5
6E
330
1F
100
AcDbEntity
  8
外枠
  6
Continuous
 62
   250
420
  2367521
100
AcDbText
 10
233.5984640006548
 20
156.9052368606422
 30
0.0
 40
2.016124969720841
  1
アルミ押出形材（A6063S-T5）
 41
1.033106825086805
  7
MS Gothic
100
AcDbText
  0
TEXT
  5
6F
330
1F
100
AcDbEntity
  8
外枠
  6
Continuous
 62
   250
420
  2367521
100
AcDbText
 10
233.5984640006548
 20
152.6719035908871
 30
0.0
 40
2.016124969720841
  1
アンバー仕上（アルマイト）
 41
1.001955316005609
  7
MS Gothic
100
AcDbText
  0
HATCH
  5
70
330
1F
100
AcDbEntity
  8
ISS138金台
  6
Continuous
 62
     7
420
 16777215
370
    50
100
AcDbHatch
 10
0.0
 20
0.0
 30
0.0
210
0.0
220
0.0
230
1.0
  2
SOLID
 70
     1
 71
     0
 91
        1
 92
        3
 72
     0
 73
     1
 93
      109
 10
115.5846851367864
 20
107.0298133882332
 10
115.5719382836792
 20
106.8765066414037
 10
115.5746728281803
 20
106.7251915903722
 10
115.5922751126652
 20
106.5768156363831
 10
115.6241422454332
 20
106.4323154147577
 10
115.6696498029366
 20
106.2926383267404
 10
115.7281625957047
 20
106.1587210076525
 10
115.7990992638831
 20
106.0315108587383
 10
115.8818138520777
 20
105.9119445153192
 10
115.9757034685875
 20
105.8009801445627
 10
116.0801436898651
 20
105.699543615867
 10
116.194510092363
 20
105.6085823304764
 10
116.3182105503034
 20
105.5290329237121
 10
116.4506098742155
 20
105.4618535627419
 10
116.591083640552
 20
105.4079701169637
 10
116.739039723535
 20
105.3683407535452
 10
116.8938429336938
 20
105.3438913418843
 10
131.4251155188686
 20
105.3636468110158
 10
131.4092357821008
 20
105.3636468110158
 10
131.4051124335027
 20
105.445413997966
 10
131.3929900039431
 20
105.5248342136514
 10
131.3732775985045
 20
105.6014875870662
 10
131.3463950881932
 20
105.6749973108971
 10
131.3127192803222
 20
105.7449327482148
 10
131.2726485140512
 20
105.8108955598598
 10
131.2266134263094
 20
105.8724981725957
 10
131.17499082441
 20
105.9293207154163
 10
131.118200579359
 20
105.9809756150854
 10
131.0566302643929
 20
106.0270430005969
 10
130.9906889845944
 20
106.0671352987144
 10
130.9207858450463
 20
106.100843404355
 10
130.8473084189852
 20
106.1277582124361
 10
130.7706658114936
 20
106.1474813837979
 10
130.6912563617314
 20
106.1596145792808
 10
130.6094891747812
 20
106.163748693802
 10
124.1049767399171
 20
106.3179059485669
 10
123.8844906321174
 20
106.0914232215267
 10
123.6640045243176
 20
106.3330751344013
 10
117.4141923012859
 20
106.5419232791868
 10
117.3584355848652
 20
106.5758790010619
 10
117.3050796693254
 20
106.6131936909854
 10
117.2542645116684
 20
106.6537381578786
 10
117.2061516007428
 20
106.6973401469699
 10
117.1609562550131
 20
106.7439135308733
 10
117.1187861337118
 20
106.7932645229707
 10
117.0798565553034
 20
106.8452639321832
 10
117.04430747679
 20
106.8997718015089
 10
117.0123111529433
 20
106.9566374080225
 10
116.984039838535
 20
107.015720794722
 10
116.9596550224135
 20
107.076871238682
 10
116.9393289593508
 20
107.139959548824
 10
116.9232339041183
 20
107.2048350022225
 10
116.9115313455647
 20
107.271336110029
 10
116.9043827725384
 20
107.3393444470882
 10
116.9019604398111
 20
107.4086985245514
 10
117.402199062805
 20
109.8615634101306
 10
111.404976930652
 20
109.8615634101306
 10
111.404976930652
 20
105.3636468110158
 10
112.1218151631587
 20
105.3583499767855
 10
112.1727487459712
 20
105.3609445642845
 10
112.2217875262949
 20
105.368566837933
 10
112.2687700152811
 20
105.3809368837271
 10
112.3134808944653
 20
105.3978393832019
 10
112.3557371431525
 20
105.4189944223536
 10
112.3953449747245
 20
105.4441543849478
 10
112.4321106025632
 20
105.4730501229036
 10
112.4658294741271
 20
105.5054663177564
 10
112.4962970368749
 20
105.5411015236556
 10
112.5233518019579
 20
105.5797296562135
 10
112.5467676849884
 20
105.6210923332724
 10
112.5663724311946
 20
105.6649311726748
 10
112.5819507221119
 20
105.7109985581863
 10
112.5933195370453
 20
105.7590361076493
 10
112.6002850893767
 20
105.8087854389062
 10
112.6026535924878
 20
105.8599989357228
 10
112.6026535924878
 20
107.645764154129
 10
112.607896597102
 20
107.7481911477622
 10
112.6232811014011
 20
107.8478405332013
 10
112.6482580433003
 20
107.9441847802082
 10
112.6823321903309
 20
108.0366748266978
 10
112.7249867781777
 20
108.1248154402015
 10
112.7756619788326
 20
108.2080467927113
 10
112.8338733257503
 20
108.2858521199119
 10
112.899082522769
 20
108.357703891565
 10
112.9707620396504
 20
108.4230961092787
 10
113.048384346156
 20
108.4814689450448
 10
113.1314326779708
 20
108.5323164004715
 10
113.2194010367028
 20
108.575100179397
 10
113.3117403602672
 20
108.6092819856599
 10
113.407944650272
 20
108.6343665867914
 10
113.5074863764789
 20
108.6497941547835
 10
113.6098380086494
 20
108.6550586912442
 10
114.7235512351957
 20
108.6585899140644
 10
114.8255798896692
 20
108.653293079834
 10
114.9244433627124
 20
108.6377470866864
 10
115.0196571877799
 20
108.6124902307832
 10
115.1107691960957
 20
108.5780715742092
 10
115.1973056870378
 20
108.535029413126
 10
115.2787821940607
 20
108.4838805118488
 10
115.3547357824654
 20
108.425195464309
 10
115.4247035175528
 20
108.3594802688983
 10
115.4881901668543
 20
108.287294753625
 10
115.5447543275174
 20
108.2091556828042
 10
115.5939007670734
 20
108.125622884444
 10
115.6351773167464
 20
108.0372238887826
 10
115.6680995099911
 20
107.9445077579051
 10
115.6921936461852
 20
107.8480020220498
 10
115.7069967906298
 20
107.7482342114551
 10
115.7120352427026
 20
107.645764154129
 97
        0
 75
     1
 76
     1
 98
        0
  0
LWPOLYLINE
  5
71
330
1F
100
AcDbEntity
  8
ISS138金台
  6
Continuous
 62
     7
420
 16777215
370
    50
100
AcDbPolyline
 90
      110
 70
     0
 43
0.0
 10
115.5846851367864
 20
107.0298133882332
 10
115.5719382836792
 20
106.8765066414037
 10
115.5746728281803
 20
106.7251915903722
 10
115.5922751126652
 20
106.5768156363831
 10
115.6241422454332
 20
106.4323154147577
 10
115.6696498029366
 20
106.2926383267404
 10
115.7281625957047
 20
106.1587210076525
 10
115.7990992638831
 20
106.0315108587383
 10
115.8818138520777
 20
105.9119445153192
 10
115.9757034685875
 20
105.8009801445627
 10
116.0801436898651
 20
105.699543615867
 10
116.194510092363
 20
105.6085823304764
 10
116.3182105503034
 20
105.5290329237121
 10
116.4506098742155
 20
105.4618535627419
 10
116.591083640552
 20
105.4079701169637
 10
116.739039723535
 20
105.3683407535452
 10
116.8938429336938
 20
105.3438913418843
 10
131.4251155188686
 20
105.3636468110158
 10
131.4092357821008
 20
105.3636468110158
 10
131.4051124335027
 20
105.445413997966
 10
131.3929900039431
 20
105.5248342136514
 10
131.3732775985045
 20
105.6014875870662
 10
131.3463950881932
 20
105.6749973108971
 10
131.3127192803222
 20
105.7449327482148
 10
131.2726485140512
 20
105.8108955598598
 10
131.2266134263094
 20
105.8724981725957
 10
131.17499082441
 20
105.9293207154163
 10
131.118200579359
 20
105.9809756150854
 10
131.0566302643929
 20
106.0270430005969
 10
130.9906889845944
 20
106.0671352987144
 10
130.9207858450463
 20
106.100843404355
 10
130.8473084189852
 20
106.1277582124361
 10
130.7706658114936
 20
106.1474813837979
 10
130.6912563617314
 20
106.1596145792808
 10
130.6094891747812
 20
106.163748693802
 10
124.1049767399171
 20
106.3179059485669
 10
123.8844906321174
 20
106.0914232215267
 10
123.6640045243176
 20
106.3330751344013
 10
117.4141923012859
 20
106.5419232791868
 10
117.3584355848652
 20
106.5758790010619
 10
117.3050796693254
 20
106.6131936909854
 10
117.2542645116684
 20
106.6537381578786
 10
117.2061516007428
 20
106.6973401469699
 10
117.1609562550131
 20
106.7439135308733
 10
117.1187861337118
 20
106.7932645229707
 10
117.0798565553034
 20
106.8452639321832
 10
117.04430747679
 20
106.8997718015089
 10
117.0123111529433
 20
106.9566374080225
 10
116.984039838535
 20
107.015720794722
 10
116.9596550224135
 20
107.076871238682
 10
116.9393289593508
 20
107.139959548824
 10
116.9232339041183
 20
107.2048350022225
 10
116.9115313455647
 20
107.271336110029
 10
116.9043827725384
 20
107.3393444470882
 10
116.9019604398111
 20
107.4086985245514
 10
117.402199062805
 20
109.8615634101306
 10
111.404976930652
 20
109.8615634101306
 10
111.404976930652
 20
105.3636468110158
 10
112.1218151631587
 20
105.3583499767855
 10
112.1727487459712
 20
105.3609445642845
 10
112.2217875262949
 20
105.368566837933
 10
112.2687700152811
 20
105.3809368837271
 10
112.3134808944653
 20
105.3978393832019
 10
112.3557371431525
 20
105.4189944223536
 10
112.3953449747245
 20
105.4441543849478
 10
112.4321106025632
 20
105.4730501229036
 10
112.4658294741271
 20
105.5054663177564
 10
112.4962970368749
 20
105.5411015236556
 10
112.5233518019579
 20
105.5797296562135
 10
112.5467676849884
 20
105.6210923332724
 10
112.5663724311946
 20
105.6649311726748
 10
112.5819507221119
 20
105.7109985581863
 10
112.5933195370453
 20
105.7590361076493
 10
112.6002850893767
 20
105.8087854389062
 10
112.6026535924878
 20
105.8599989357228
 10
112.6026535924878
 20
107.645764154129
 10
112.607896597102
 20
107.7481911477622
 10
112.6232811014011
 20
107.8478405332013
 10
112.6482580433003
 20
107.9441847802082
 10
112.6823321903309
 20
108.0366748266978
 10
112.7249867781777
 20
108.1248154402015
 10
112.7756619788326
 20
108.2080467927113
 10
112.8338733257503
 20
108.2858521199119
 10
112.899082522769
 20
108.357703891565
 10
112.9707620396504
 20
108.4230961092787
 10
113.048384346156
 20
108.4814689450448
 10
113.1314326779708
 20
108.5323164004715
 10
113.2194010367028
 20
108.575100179397
 10
113.3117403602672
 20
108.6092819856599
 10
113.407944650272
 20
108.6343665867914
 10
113.5074863764789
 20
108.6497941547835
 10
113.6098380086494
 20
108.6550586912442
 10
114.7235512351957
 20
108.6585899140644
 10
114.8255798896692
 20
108.653293079834
 10
114.9244433627124
 20
108.6377470866864
 10
115.0196571877799
 20
108.6124902307832
 10
115.1107691960957
 20
108.5780715742092
 10
115.1973056870378
 20
108.535029413126
 10
115.2787821940607
 20
108.4838805118488
 10
115.3547357824654
 20
108.425195464309
 10
115.4247035175528
 20
108.3594802688983
 10
115.4881901668543
 20
108.287294753625
 10
115.5447543275174
 20
108.2091556828042
 10
115.5939007670734
 20
108.125622884444
 10
115.6351773167464
 20
108.0372238887826
 10
115.6680995099911
 20
107.9445077579051
 10
115.6921936461852
 20
107.8480020220498
 10
115.7069967906298
 20
107.7482342114551
 10
115.7120352427026
 20
107.645764154129
 10
115.5846851367864
 20
107.0298133882332
  0
LWPOLYLINE
  5
72
330
1F
100
AcDbEntity
  8
ISS138金台
  6
Continuous
 62
   250
420
  2367521
370
    25
100
AcDbPolyline
 90
      110
 70
     0
 43
0.0
 10
115.5846851367864
 20
107.0298133882332
 10
115.5719382836792
 20
106.8765066414037
 10
115.5746728281803
 20
106.7251915903722
 10
115.5922751126652
 20
106.5768156363831
 10
115.6241422454332
 20
106.4323154147577
 10
115.6696498029366
 20
106.2926383267404
 10
115.7281625957047
 20
106.1587210076525
 10
115.7990992638831
 20
106.0315108587383
 10
115.8818138520777
 20
105.9119445153192
 10
115.9757034685875
 20
105.8009801445627
 10
116.0801436898651
 20
105.699543615867
 10
116.194510092363
 20
105.6085823304764
 10
116.3182105503034
 20
105.5290329237121
 10
116.4506098742155
 20
105.4618535627419
 10
116.591083640552
 20
105.4079701169637
 10
116.739039723535
 20
105.3683407535452
 10
116.8938429336938
 20
105.3438913418843
 10
131.4251155188686
 20
105.3636468110158
 10
131.4092357821008
 20
105.3636468110158
 10
131.4051124335027
 20
105.445413997966
 10
131.3929900039431
 20
105.5248342136514
 10
131.3732775985045
 20
105.6014875870662
 10
131.3463950881932
 20
105.6749973108971
 10
131.3127192803222
 20
105.7449327482148
 10
131.2726485140512
 20
105.8108955598598
 10
131.2266134263094
 20
105.8724981725957
 10
131.17499082441
 20
105.9293207154163
 10
131.118200579359
 20
105.9809756150854
 10
131.0566302643929
 20
106.0270430005969
 10
130.9906889845944
 20
106.0671352987144
 10
130.9207858450463
 20
106.100843404355
 10
130.8473084189852
 20
106.1277582124361
 10
130.7706658114936
 20
106.1474813837979
 10
130.6912563617314
 20
106.1596145792808
 10
130.6094891747812
 20
106.163748693802
 10
124.1049767399171
 20
106.3179059485669
 10
123.8844906321174
 20
106.0914232215267
 10
123.6640045243176
 20
106.3330751344013
 10
117.4141923012859
 20
106.5419232791868
 10
117.3584355848652
 20
106.5758790010619
 10
117.3050796693254
 20
106.6131936909854
 10
117.2542645116684
 20
106.6537381578786
 10
117.2061516007428
 20
106.6973401469699
 10
117.1609562550131
 20
106.7439135308733
 10
117.1187861337118
 20
106.7932645229707
 10
117.0798565553034
 20
106.8452639321832
 10
117.04430747679
 20
106.8997718015089
 10
117.0123111529433
 20
106.9566374080225
 10
116.984039838535
 20
107.015720794722
 10
116.9596550224135
 20
107.076871238682
 10
116.9393289593508
 20
107.139959548824
 10
116.9232339041183
 20
107.2048350022225
 10
116.9115313455647
 20
107.271336110029
 10
116.9043827725384
 20
107.3393444470882
 10
116.9019604398111
 20
107.4086985245514
 10
117.402199062805
 20
109.8615634101306
 10
111.404976930652
 20
109.8615634101306
 10
111.404976930652
 20
105.3636468110158
 10
112.1218151631587
 20
105.3583499767855
 10
112.1727487459712
 20
105.3609445642845
 10
112.2217875262949
 20
105.368566837933
 10
112.2687700152811
 20
105.3809368837271
 10
112.3134808944653
 20
105.3978393832019
 10
112.3557371431525
 20
105.4189944223536
 10
112.3953449747245
 20
105.4441543849478
 10
112.4321106025632
 20
105.4730501229036
 10
112.4658294741271
 20
105.5054663177564
 10
112.4962970368749
 20
105.5411015236556
 10
112.5233518019579
 20
105.5797296562135
 10
112.5467676849884
 20
105.6210923332724
 10
112.5663724311946
 20
105.6649311726748
 10
112.5819507221119
 20
105.7109985581863
 10
112.5933195370453
 20
105.7590361076493
 10
112.6002850893767
 20
105.8087854389062
 10
112.6026535924878
 20
105.8599989357228
 10
112.6026535924878
 20
107.645764154129
 10
112.607896597102
 20
107.7481911477622
 10
112.6232811014011
 20
107.8478405332013
 10
112.6482580433003
 20
107.9441847802082
 10
112.6823321903309
 20
108.0366748266978
 10
112.7249867781777
 20
108.1248154402015
 10
112.7756619788326
 20
108.2080467927113
 10
112.8338733257503
 20
108.2858521199119
 10
112.899082522769
 20
108.357703891565
 10
112.9707620396504
 20
108.4230961092787
 10
113.048384346156
 20
108.4814689450448
 10
113.1314326779708
 20
108.5323164004715
 10
113.2194010367028
 20
108.575100179397
 10
113.3117403602672
 20
108.6092819856599
 10
113.407944650272
 20
108.6343665867914
 10
113.5074863764789
 20
108.6497941547835
 10
113.6098380086494
 20
108.6550586912442
 10
114.7235512351957
 20
108.6585899140644
 10
114.8255798896692
 20
108.653293079834
 10
114.9244433627124
 20
108.6377470866864
 10
115.0196571877799
 20
108.6124902307832
 10
115.1107691960957
 20
108.5780715742092
 10
115.1973056870378
 20
108.535029413126
 10
115.2787821940607
 20
108.4838805118488
 10
115.3547357824654
 20
108.425195464309
 10
115.4247035175528
 20
108.3594802688983
 10
115.4881901668543
 20
108.287294753625
 10
115.5447543275174
 20
108.2091556828042
 10
115.5939007670734
 20
108.125622884444
 10
115.6351773167464
 20
108.0372238887826
 10
115.6680995099911
 20
107.9445077579051
 10
115.6921936461852
 20
107.8480020220498
 10
115.7069967906298
 20
107.7482342114551
 10
115.7120352427026
 20
107.645764154129
 10
115.5846851367864
 20
107.0298133882332
  0
LINE
  5
73
330
1F
100
AcDbEntity
  8
ISS138金台
  6
Continuous
 62
   250
420
  2367521
370
    13
100
AcDbLine
 10
131.3845602860521
 20
104.4011948058849
 30
0.0
 11
131.3845602860521
 21
94.36890464622492
 31
0.0
  0
LINE
  5
74
330
1F
100
AcDbEntity
  8
ISS138金台
  6
Continuous
 62
   250
420
  2367521
370
    13
100
AcDbLine
 10
111.4305782960986
 20
94.85413557223283
 30
0.0
 11
131.384743306747
 21
94.85413557223283
 31
0.0
  0
LINE
  5
75
330
1F
100
AcDbEntity
  8
ISS138金台
  6
Continuous
 62
   250
420
  2367521
370
    13
100
AcDbLine
 10
111.4305782960986
 20
94.36907690099665
 30
0.0
 11
111.4305782960986
 21
104.4013670606566
 31
0.0
  0
LINE
  5
76
330
1F
100
AcDbEntity
  8
ISS138金台
  6
Continuous
 62
   250
420
  2367521
370
    13
100
AcDbLine
 10
110.4163422002198
 20
105.3713336802038
 30
0.0
 11
105.4333561639457
 21
105.3713336802038
 31
0.0
  0
LINE
  5
77
330
1F
100
AcDbEntity
  8
ISS138金台
  6
Continuous
 62
   250
420
  2367521
370
    13
100
AcDbLine
 10
105.9404634459618
 20
105.3713336802038
 30
0.0
 11
105.9404634459618
 21
109.8473739233102
 31
0.0
  0
LINE
  5
78
330
1F
100
AcDbEntity
  8
ISS138金台
  6
Continuous
 62
   250
420
  2367521
370
    13
100
AcDbLine
 10
105.4333561639457
 20
109.8471909026153
 30
0.0
 11
110.4163422002198
 21
109.8471909026153
 31
0.0
  0
LINE
  5
79
330
1F
100
AcDbEntity
  8
ISS138金台
  6
Continuous
 62
   250
420
  2367521
370
    13
100
AcDbLine
 10
111.4305782960986
 20
110.8393891536374
 30
0.0
 11
111.4305782960986
 21
115.8445960554632
 31
0.0
  0
LINE
  5
7A
330
1F
100
AcDbEntity
  8
ISS138金台
  6
Continuous
 62
   250
420
  2367521
370
    13
100
AcDbLine
 10
117.4057410515484
 20
110.8393891536374
 30
0.0
 11
117.4057410515484
 21
115.8445960554632
 31
0.0
  0
LINE
  5
7B
330
1F
100
AcDbEntity
  8
ISS138金台
  6
Continuous
 62
   250
420
  2367521
370
    13
100
AcDbLine
 10
117.4057410515484
 20
115.3373057527521
 30
0.0
 11
111.4303952754037
 21
115.3373057527521
 31
0.0
  0
HATCH
  5
7C
330
1F
100
AcDbEntity
  8
ISS138金台
  6
Continuous
 62
   250
420
  2367521
370
    13
100
AcDbHatch
 10
0.0
 20
0.0
 30
0.0
210
0.0
220
0.0
230
1.0
  2
SOLID
 70
     1
 71
     0
 91
        1
 92
        3
 72
     0
 73
     1
 93
       67
 10
117.4057410515484
 20
115.0871918242168
 10
117.4312778214557
 20
115.0884945009279
 10
117.4560932745064
 20
115.0922733399825
 10
117.4800474536985
 20
115.0984529799179
 10
117.5030111679532
 20
115.1068826978088
 10
117.5248767580383
 20
115.1174117707301
 10
117.5455042669516
 20
115.1299540712959
 10
117.5647537376911
 20
115.1443696425041
 10
117.5825282769478
 20
115.1605292932759
 10
117.5986771617964
 20
115.1783038325326
 10
117.6130927330046
 20
115.1975533032722
 10
117.6256350335704
 20
115.2181808121855
 10
117.6361856383381
 20
115.2400356363473
 10
117.6446045903059
 20
115.2630101165253
 10
117.650773464318
 20
115.2869642957173
 10
117.6545738352191
 20
115.3117797487681
 10
117.655865746007
 20
115.3373165186753
 10
117.655865746007
 20
115.3373165186753
 10
117.6545738352191
 20
115.3628640545058
 10
117.650773464318
 20
115.3876795075565
 10
117.6446045903059
 20
115.4116229208254
 10
117.6361748724149
 20
115.4345758691569
 10
117.6256457994936
 20
115.4564414592419
 10
117.6130927330046
 20
115.4770689681552
 10
117.5986771617964
 20
115.496329204818
 10
117.5825282769478
 20
115.5140929781515
 10
117.5647537376911
 20
115.5302526289233
 10
117.5454935010283
 20
115.5446574342083
 10
117.5248767580383
 20
115.557199734774
 10
117.5030111679532
 20
115.5677503395418
 10
117.4800366877753
 20
115.5761692915096
 10
117.4560932745064
 20
115.5823381655217
 10
117.4312778214557
 20
115.5861385364228
 10
117.4057410515484
 20
115.5874304472107
 10
117.4057410515484
 20
115.5874304472107
 10
117.3802042816412
 20
115.5861385364228
 10
117.3553888285904
 20
115.5823381655217
 10
117.3314346493983
 20
115.5761692915096
 10
117.3084601692204
 20
115.5677503395418
 10
117.2866053450586
 20
115.557199734774
 10
117.2659886020685
 20
115.5446574342083
 10
117.2467283654057
 20
115.5302526289233
 10
117.228953826149
 20
115.5140929781515
 10
117.2127941753772
 20
115.496329204818
 10
117.1983893700922
 20
115.4770689681552
 10
117.1858470695265
 20
115.4564414592419
 10
117.1753072306819
 20
115.4345866350802
 10
117.166877512791
 20
115.4116121549022
 10
117.1607086387788
 20
115.3876687416333
 10
117.1569082678777
 20
115.3628532885826
 10
117.1556163570899
 20
115.3373165186753
 10
117.1556163570899
 20
115.3373165186753
 10
117.1569082678777
 20
115.3117797487681
 10
117.1607086387788
 20
115.2869642957173
 10
117.1668882787142
 20
115.2630101165253
 10
117.1752964647587
 20
115.2400356363473
 10
117.1858470695265
 20
115.2181700462622
 10
117.1983893700922
 20
115.1975533032722
 10
117.2127941753772
 20
115.1782930666094
 10
117.228953826149
 20
115.1605292932759
 10
117.2467175994825
 20
115.1443804084273
 10
117.2659778361453
 20
115.1299648372191
 10
117.2866053450586
 20
115.1174225366534
 10
117.3084709351436
 20
115.1068719318856
 10
117.3314346493983
 20
115.0984529799179
 10
117.3553888285904
 20
115.0922841059057
 10
117.3802042816412
 20
115.0884837350047
 97
        0
 75
     1
 76
     1
 98
        0
  0
LWPOLYLINE
  5
7D
330
1F
100
AcDbEntity
  8
ISS138金台
  6
Continuous
 62
   250
420
  2367521
370
    13
100
AcDbPolyline
 90
       68
 70
     0
 43
0.0
 10
117.4057410515484
 20
115.0871918242168
 10
117.4312778214557
 20
115.0884945009279
 10
117.4560932745064
 20
115.0922733399825
 10
117.4800474536985
 20
115.0984529799179
 10
117.5030111679532
 20
115.1068826978088
 10
117.5248767580383
 20
115.1174117707301
 10
117.5455042669516
 20
115.1299540712959
 10
117.5647537376911
 20
115.1443696425041
 10
117.5825282769478
 20
115.1605292932759
 10
117.5986771617964
 20
115.1783038325326
 10
117.6130927330046
 20
115.1975533032722
 10
117.6256350335704
 20
115.2181808121855
 10
117.6361856383381
 20
115.2400356363473
 10
117.6446045903059
 20
115.2630101165253
 10
117.650773464318
 20
115.2869642957173
 10
117.6545738352191
 20
115.3117797487681
 10
117.655865746007
 20
115.3373165186753
 10
117.655865746007
 20
115.3373165186753
 10
117.6545738352191
 20
115.3628640545058
 10
117.650773464318
 20
115.3876795075565
 10
117.6446045903059
 20
115.4116229208254
 10
117.6361748724149
 20
115.4345758691569
 10
117.6256457994936
 20
115.4564414592419
 10
117.6130927330046
 20
115.4770689681552
 10
117.5986771617964
 20
115.496329204818
 10
117.5825282769478
 20
115.5140929781515
 10
117.5647537376911
 20
115.5302526289233
 10
117.5454935010283
 20
115.5446574342083
 10
117.5248767580383
 20
115.557199734774
 10
117.5030111679532
 20
115.5677503395418
 10
117.4800366877753
 20
115.5761692915096
 10
117.4560932745064
 20
115.5823381655217
 10
117.4312778214557
 20
115.5861385364228
 10
117.4057410515484
 20
115.5874304472107
 10
117.4057410515484
 20
115.5874304472107
 10
117.3802042816412
 20
115.5861385364228
 10
117.3553888285904
 20
115.5823381655217
 10
117.3314346493983
 20
115.5761692915096
 10
117.3084601692204
 20
115.5677503395418
 10
117.2866053450586
 20
115.557199734774
 10
117.2659886020685
 20
115.5446574342083
 10
117.2467283654057
 20
115.5302526289233
 10
117.228953826149
 20
115.5140929781515
 10
117.2127941753772
 20
115.496329204818
 10
117.1983893700922
 20
115.4770689681552
 10
117.1858470695265
 20
115.4564414592419
 10
117.1753072306819
 20
115.4345866350802
 10
117.166877512791
 20
115.4116121549022
 10
117.1607086387788
 20
115.3876687416333
 10
117.1569082678777
 20
115.3628532885826
 10
117.1556163570899
 20
115.3373165186753
 10
117.1556163570899
 20
115.3373165186753
 10
117.1569082678777
 20
115.3117797487681
 10
117.1607086387788
 20
115.2869642957173
 10
117.1668882787142
 20
115.2630101165253
 10
117.1752964647587
 20
115.2400356363473
 10
117.1858470695265
 20
115.2181700462622
 10
117.1983893700922
 20
115.1975533032722
 10
117.2127941753772
 20
115.1782930666094
 10
117.228953826149
 20
115.1605292932759
 10
117.2467175994825
 20
115.1443804084273
 10
117.2659778361453
 20
115.1299648372191
 10
117.2866053450586
 20
115.1174225366534
 10
117.3084709351436
 20
115.1068719318856
 10
117.3314346493983
 20
115.0984529799179
 10
117.3553888285904
 20
115.0922841059057
 10
117.3802042816412
 20
115.0884837350047
 10
117.4057410515484
 20
115.0871918242168
  0
HATCH
  5
7E
330
1F
100
AcDbEntity
  8
ISS138金台
  6
Continuous
 62
   250
420
  2367521
370
    13
100
AcDbHatch
 10
0.0
 20
0.0
 30
0.0
210
0.0
220
0.0
230
1.0
  2
SOLID
 70
     1
 71
     0
 91
        1
 92
        3
 72
     0
 73
     1
 93
       67
 10
111.4305782960986
 20
115.0871918242168
 10
111.4561258319292
 20
115.0884945009279
 10
111.4809305190566
 20
115.0922733399825
 10
111.5048739323255
 20
115.0984529799179
 10
111.5278591784267
 20
115.1068826978088
 10
111.5497032366653
 20
115.1174117707301
 10
111.5703307455785
 20
115.1299540712959
 10
111.5895909822413
 20
115.1443696425041
 10
111.607365521498
 20
115.1605292932759
 10
111.6235251722699
 20
115.1783038325326
 10
111.6379299775548
 20
115.1975533032722
 10
111.6504722781206
 20
115.2181808121855
 10
111.6610121169651
 20
115.2400356363473
 10
111.6694418348561
 20
115.2630101165253
 10
111.6756107088683
 20
115.2869642957173
 10
111.6794110797693
 20
115.3117797487681
 10
111.6807029905572
 20
115.3373165186753
 10
111.6807029905572
 20
115.3373165186753
 10
111.6794110797693
 20
115.3628640545058
 10
111.6756107088683
 20
115.3876795075565
 10
111.6694310689329
 20
115.4116229208254
 10
111.6610121169651
 20
115.4345758691569
 10
111.6504722781206
 20
115.4564414592419
 10
111.6379299775548
 20
115.4770689681552
 10
111.6235251722699
 20
115.496329204818
 10
111.607365521498
 20
115.5140929781515
 10
111.5896017481646
 20
115.5302526289233
 10
111.5703307455785
 20
115.5446574342083
 10
111.5497140025885
 20
115.557199734774
 10
111.5278484125035
 20
115.5677503395418
 10
111.5048846982487
 20
115.5761692915096
 10
111.4809305190566
 20
115.5823381655217
 10
111.4561150660059
 20
115.5861385364228
 10
111.4305782960986
 20
115.5874304472107
 10
111.4305782960986
 20
115.5874304472107
 10
111.4050415261914
 20
115.5861385364228
 10
111.3802260731407
 20
115.5823381655217
 10
111.3562718939486
 20
115.5761692915096
 10
111.3332974137706
 20
115.5677503395418
 10
111.3114425896088
 20
115.557199734774
 10
111.2908258466187
 20
115.5446574342083
 10
111.2715548440327
 20
115.5302526289233
 10
111.2537910706993
 20
115.5140929781515
 10
111.2376421858506
 20
115.496329204818
 10
111.2232266146424
 20
115.4770689681552
 10
111.2106843140767
 20
115.4564414592419
 10
111.2001444752322
 20
115.4345866350802
 10
111.1917147573412
 20
115.4116121549022
 10
111.185545883329
 20
115.3876687416333
 10
111.181745512428
 20
115.3628532885826
 10
111.1804536016401
 20
115.3373165186753
 10
111.1804536016401
 20
115.3373165186753
 10
111.181745512428
 20
115.3117797487681
 10
111.185545883329
 20
115.2869642957173
 10
111.1917147573412
 20
115.2630101165253
 10
111.2001444752322
 20
115.2400356363473
 10
111.2106735481535
 20
115.2181700462622
 10
111.2232266146424
 20
115.1975533032722
 10
111.2376421858506
 20
115.1782930666094
 10
111.2537910706993
 20
115.1605292932759
 10
111.271565609956
 20
115.1443804084273
 10
111.2908258466187
 20
115.1299648372191
 10
111.3114425896088
 20
115.1174225366534
 10
111.3333081796938
 20
115.1068719318856
 10
111.3562826598718
 20
115.0984529799179
 10
111.3802260731407
 20
115.0922841059057
 10
111.4050415261914
 20
115.0884837350047
 97
        0
 75
     1
 76
     1
 98
        0
  0
LWPOLYLINE
  5
7F
330
1F
100
AcDbEntity
  8
ISS138金台
  6
Continuous
 62
   250
420
  2367521
370
    13
100
AcDbPolyline
 90
       68
 70
     0
 43
0.0
 10
111.4305782960986
 20
115.0871918242168
 10
111.4561258319292
 20
115.0884945009279
 10
111.4809305190566
 20
115.0922733399825
 10
111.5048739323255
 20
115.0984529799179
 10
111.5278591784267
 20
115.1068826978088
 10
111.5497032366653
 20
115.1174117707301
 10
111.5703307455785
 20
115.1299540712959
 10
111.5895909822413
 20
115.1443696425041
 10
111.607365521498
 20
115.1605292932759
 10
111.6235251722699
 20
115.1783038325326
 10
111.6379299775548
 20
115.1975533032722
 10
111.6504722781206
 20
115.2181808121855
 10
111.6610121169651
 20
115.2400356363473
 10
111.6694418348561
 20
115.2630101165253
 10
111.6756107088683
 20
115.2869642957173
 10
111.6794110797693
 20
115.3117797487681
 10
111.6807029905572
 20
115.3373165186753
 10
111.6807029905572
 20
115.3373165186753
 10
111.6794110797693
 20
115.3628640545058
 10
111.6756107088683
 20
115.3876795075565
 10
111.6694310689329
 20
115.4116229208254
 10
111.6610121169651
 20
115.4345758691569
 10
111.6504722781206
 20
115.4564414592419
 10
111.6379299775548
 20
115.4770689681552
 10
111.6235251722699
 20
115.496329204818
 10
111.607365521498
 20
115.5140929781515
 10
111.5896017481646
 20
115.5302526289233
 10
111.5703307455785
 20
115.5446574342083
 10
111.5497140025885
 20
115.557199734774
 10
111.5278484125035
 20
115.5677503395418
 10
111.5048846982487
 20
115.5761692915096
 10
111.4809305190566
 20
115.5823381655217
 10
111.4561150660059
 20
115.5861385364228
 10
111.4305782960986
 20
115.5874304472107
 10
111.4305782960986
 20
115.5874304472107
 10
111.4050415261914
 20
115.5861385364228
 10
111.3802260731407
 20
115.5823381655217
 10
111.3562718939486
 20
115.5761692915096
 10
111.3332974137706
 20
115.5677503395418
 10
111.3114425896088
 20
115.557199734774
 10
111.2908258466187
 20
115.5446574342083
 10
111.2715548440327
 20
115.5302526289233
 10
111.2537910706993
 20
115.5140929781515
 10
111.2376421858506
 20
115.496329204818
 10
111.2232266146424
 20
115.4770689681552
 10
111.2106843140767
 20
115.4564414592419
 10
111.2001444752322
 20
115.4345866350802
 10
111.1917147573412
 20
115.4116121549022
 10
111.185545883329
 20
115.3876687416333
 10
111.181745512428
 20
115.3628532885826
 10
111.1804536016401
 20
115.3373165186753
 10
111.1804536016401
 20
115.3373165186753
 10
111.181745512428
 20
115.3117797487681
 10
111.185545883329
 20
115.2869642957173
 10
111.1917147573412
 20
115.2630101165253
 10
111.2001444752322
 20
115.2400356363473
 10
111.2106735481535
 20
115.2181700462622
 10
111.2232266146424
 20
115.1975533032722
 10
111.2376421858506
 20
115.1782930666094
 10
111.2537910706993
 20
115.1605292932759
 10
111.271565609956
 20
115.1443804084273
 10
111.2908258466187
 20
115.1299648372191
 10
111.3114425896088
 20
115.1174225366534
 10
111.3333081796938
 20
115.1068719318856
 10
111.3562826598718
 20
115.0984529799179
 10
111.3802260731407
 20
115.0922841059057
 10
111.4050415261914
 20
115.0884837350047
 10
111.4305782960986
 20
115.0871918242168
  0
HATCH
  5
80
330
1F
100
AcDbEntity
  8
ISS138金台
  6
Continuous
 62
   250
420
  2367521
370
    13
100
AcDbHatch
 10
0.0
 20
0.0
 30
0.0
210
0.0
220
0.0
230
1.0
  2
SOLID
 70
     1
 71
     0
 91
        1
 92
        3
 72
     0
 73
     1
 93
       67
 10
105.9404634459618
 20
109.59707697408
 10
105.9660109817924
 20
109.5983688848679
 10
105.9908156689198
 20
109.6021584898456
 10
106.0147698481119
 20
109.608338129781
 10
106.0377335623667
 20
109.6167570817488
 10
106.0595991524517
 20
109.6273076865166
 10
106.080226661365
 20
109.6398499870823
 10
106.0994761321045
 20
109.6542547923673
 10
106.1172506713612
 20
109.6704144431391
 10
106.1334103221331
 20
109.6881782164726
 10
106.147815127418
 20
109.7074384531354
 10
106.1603574279838
 20
109.7280659620487
 10
106.1709080327516
 20
109.7499315521337
 10
106.1793269847193
 20
109.7728952663884
 10
106.1854958587315
 20
109.7968494455805
 10
106.1892962296325
 20
109.8216648986312
 10
106.1905881404204
 20
109.8472016685385
 10
106.1905881404204
 20
109.8472016685385
 10
106.1892962296325
 20
109.8727384384458
 10
106.1854958587315
 20
109.8975538914965
 10
106.1793269847193
 20
109.9215080706886
 10
106.1708972668283
 20
109.9444610190201
 10
106.1603574279838
 20
109.9663266091051
 10
106.147815127418
 20
109.9869541180184
 10
106.1333995562099
 20
110.0062143546812
 10
106.1172506713612
 20
110.0239888939379
 10
106.0994868980278
 20
110.0401377787865
 10
106.0802158954418
 20
110.0545533499947
 10
106.0595991524517
 20
110.0670848846373
 10
106.0377335623667
 20
110.077635489405
 10
106.0147590821887
 20
110.0860544413728
 10
105.9908156689198
 20
110.0922233153849
 10
105.9660002158691
 20
110.096023686286
 10
105.9404634459618
 20
110.0973155970739
 10
105.9404634459618
 20
110.0973155970739
 10
105.9149266760546
 20
110.096023686286
 10
105.8901112230039
 20
110.0922233153849
 10
105.8661570438118
 20
110.0860544413728
 10
105.8431825636338
 20
110.0776247234818
 10
105.821327739472
 20
110.0670956505605
 10
105.8007109964819
 20
110.0545425840715
 10
105.7814507598192
 20
110.0401377787865
 10
105.7636762205624
 20
110.0239888939379
 10
105.7475273357138
 20
110.0062143546812
 10
105.7331117645056
 20
109.9869541180184
 10
105.7205694639399
 20
109.9663266091051
 10
105.7100296250953
 20
109.9444717849433
 10
105.7015999072044
 20
109.9214973047654
 10
105.6954310331922
 20
109.8975538914965
 10
105.6916306622912
 20
109.8727384384458
 10
105.6903387515033
 20
109.8472016685385
 10
105.6903387515033
 20
109.8472016685385
 10
105.6916306622912
 20
109.821654132708
 10
105.6954310331922
 20
109.7968494455805
 10
105.7016106731276
 20
109.7728845004652
 10
105.7100188591721
 20
109.7499207862105
 10
105.7205694639399
 20
109.7280659620487
 10
105.7331117645056
 20
109.7074492190586
 10
105.7475165697906
 20
109.6881782164726
 10
105.7636762205624
 20
109.6704144431391
 10
105.7814507598192
 20
109.6542547923673
 10
105.8007002305587
 20
109.6398499870823
 10
105.821327739472
 20
109.6273076865166
 10
105.843193329557
 20
109.6167570817488
 10
105.8661570438118
 20
109.608338129781
 10
105.8901112230039
 20
109.6021692557689
 10
105.9149266760546
 20
109.5983688848679
 97
        0
 75
     1
 76
     1
 98
        0
  0
LWPOLYLINE
  5
81
330
1F
100
AcDbEntity
  8
ISS138金台
  6
Continuous
 62
   250
420
  2367521
370
    13
100
AcDbPolyline
 90
       68
 70
     0
 43
0.0
 10
105.9404634459618
 20
109.59707697408
 10
105.9660109817924
 20
109.5983688848679
 10
105.9908156689198
 20
109.6021584898456
 10
106.0147698481119
 20
109.608338129781
 10
106.0377335623667
 20
109.6167570817488
 10
106.0595991524517
 20
109.6273076865166
 10
106.080226661365
 20
109.6398499870823
 10
106.0994761321045
 20
109.6542547923673
 10
106.1172506713612
 20
109.6704144431391
 10
106.1334103221331
 20
109.6881782164726
 10
106.147815127418
 20
109.7074384531354
 10
106.1603574279838
 20
109.7280659620487
 10
106.1709080327516
 20
109.7499315521337
 10
106.1793269847193
 20
109.7728952663884
 10
106.1854958587315
 20
109.7968494455805
 10
106.1892962296325
 20
109.8216648986312
 10
106.1905881404204
 20
109.8472016685385
 10
106.1905881404204
 20
109.8472016685385
 10
106.1892962296325
 20
109.8727384384458
 10
106.1854958587315
 20
109.8975538914965
 10
106.1793269847193
 20
109.9215080706886
 10
106.1708972668283
 20
109.9444610190201
 10
106.1603574279838
 20
109.9663266091051
 10
106.147815127418
 20
109.9869541180184
 10
106.1333995562099
 20
110.0062143546812
 10
106.1172506713612
 20
110.0239888939379
 10
106.0994868980278
 20
110.0401377787865
 10
106.0802158954418
 20
110.0545533499947
 10
106.0595991524517
 20
110.0670848846373
 10
106.0377335623667
 20
110.077635489405
 10
106.0147590821887
 20
110.0860544413728
 10
105.9908156689198
 20
110.0922233153849
 10
105.9660002158691
 20
110.096023686286
 10
105.9404634459618
 20
110.0973155970739
 10
105.9404634459618
 20
110.0973155970739
 10
105.9149266760546
 20
110.096023686286
 10
105.8901112230039
 20
110.0922233153849
 10
105.8661570438118
 20
110.0860544413728
 10
105.8431825636338
 20
110.0776247234818
 10
105.821327739472
 20
110.0670956505605
 10
105.8007109964819
 20
110.0545425840715
 10
105.7814507598192
 20
110.0401377787865
 10
105.7636762205624
 20
110.0239888939379
 10
105.7475273357138
 20
110.0062143546812
 10
105.7331117645056
 20
109.9869541180184
 10
105.7205694639399
 20
109.9663266091051
 10
105.7100296250953
 20
109.9444717849433
 10
105.7015999072044
 20
109.9214973047654
 10
105.6954310331922
 20
109.8975538914965
 10
105.6916306622912
 20
109.8727384384458
 10
105.6903387515033
 20
109.8472016685385
 10
105.6903387515033
 20
109.8472016685385
 10
105.6916306622912
 20
109.821654132708
 10
105.6954310331922
 20
109.7968494455805
 10
105.7016106731276
 20
109.7728845004652
 10
105.7100188591721
 20
109.7499207862105
 10
105.7205694639399
 20
109.7280659620487
 10
105.7331117645056
 20
109.7074492190586
 10
105.7475165697906
 20
109.6881782164726
 10
105.7636762205624
 20
109.6704144431391
 10
105.7814507598192
 20
109.6542547923673
 10
105.8007002305587
 20
109.6398499870823
 10
105.821327739472
 20
109.6273076865166
 10
105.843193329557
 20
109.6167570817488
 10
105.8661570438118
 20
109.608338129781
 10
105.8901112230039
 20
109.6021692557689
 10
105.9149266760546
 20
109.5983688848679
 10
105.9404634459618
 20
109.59707697408
  0
HATCH
  5
82
330
1F
100
AcDbEntity
  8
ISS138金台
  6
Continuous
 62
   250
420
  2367521
370
    13
100
AcDbHatch
 10
0.0
 20
0.0
 30
0.0
210
0.0
220
0.0
230
1.0
  2
SOLID
 70
     1
 71
     0
 91
        1
 92
        3
 72
     0
 73
     1
 93
       67
 10
105.9404634459618
 20
105.1212089857452
 10
105.9660109817924
 20
105.1225116624563
 10
105.9908156689198
 20
105.1262905015109
 10
106.0147698481119
 20
105.1324701414463
 10
106.0377335623667
 20
105.140889093414
 10
106.0595991524517
 20
105.1514289322586
 10
106.080226661365
 20
105.1639819987476
 10
106.0994761321045
 20
105.1783868040325
 10
106.1172506713612
 20
105.1945464548044
 10
106.1334103221331
 20
105.2123102281378
 10
106.147815127418
 20
105.2315704648006
 10
106.1603574279838
 20
105.2521979737139
 10
106.1709080327516
 20
105.2740635637989
 10
106.1793269847193
 20
105.2970272780537
 10
106.1854958587315
 20
105.3209814572458
 10
106.1892962296325
 20
105.3457969102965
 10
106.1905881404204
 20
105.3713336802038
 10
106.1905881404204
 20
105.3713336802038
 10
106.1892962296325
 20
105.3968812160343
 10
106.1854958587315
 20
105.4216859031617
 10
106.1793269847193
 20
105.4456293164306
 10
106.1708972668283
 20
105.4685930306853
 10
106.1603574279838
 20
105.4904586207704
 10
106.147815127418
 20
105.5110861296837
 10
106.1333995562099
 20
105.5303463663464
 10
106.1172506713612
 20
105.5481209056031
 10
106.0994868980278
 20
105.5642697904518
 10
106.0802158954418
 20
105.57868536166
 10
106.0595991524517
 20
105.5912168963025
 10
106.0377335623667
 20
105.6017675010702
 10
106.0147590821887
 20
105.610186453038
 10
105.9908156689198
 20
105.6163553270502
 10
105.9660002158691
 20
105.6201556979512
 10
105.9404634459618
 20
105.6214476087391
 10
105.9404634459618
 20
105.6214476087391
 10
105.9149266760546
 20
105.6201556979512
 10
105.8901112230039
 20
105.6163553270502
 10
105.8661570438118
 20
105.610186453038
 10
105.8431825636338
 20
105.601756735147
 10
105.821327739472
 20
105.5912168963025
 10
105.8007109964819
 20
105.5786745957367
 10
105.7814507598192
 20
105.5642590245285
 10
105.7636762205624
 20
105.5481209056031
 10
105.7475273357138
 20
105.5303463663464
 10
105.7331117645056
 20
105.5110861296837
 10
105.7205694639399
 20
105.4904586207704
 10
105.7100296250953
 20
105.4686037966086
 10
105.7015999072044
 20
105.4456293164306
 10
105.6954310331922
 20
105.4216859031617
 10
105.6916306622912
 20
105.396870450111
 10
105.6903387515033
 20
105.3713336802038
 10
105.6903387515033
 20
105.3713336802038
 10
105.6916306622912
 20
105.3457969102965
 10
105.6954310331922
 20
105.3209814572458
 10
105.7016106731276
 20
105.2970272780537
 10
105.7100188591721
 20
105.2740527978757
 10
105.7205694639399
 20
105.2521872077907
 10
105.7331117645056
 20
105.2315812307239
 10
105.7475165697906
 20
105.2123102281378
 10
105.7636762205624
 20
105.1945464548044
 10
105.7814507598192
 20
105.1783868040325
 10
105.8007002305587
 20
105.1639819987476
 10
105.821327739472
 20
105.1514396981818
 10
105.843193329557
 20
105.140889093414
 10
105.8661570438118
 20
105.1324701414463
 10
105.8901112230039
 20
105.1263012674341
 10
105.9149266760546
 20
105.1225008965331
 97
        0
 75
     1
 76
     1
 98
        0
  0
LWPOLYLINE
  5
83
330
1F
100
AcDbEntity
  8
ISS138金台
  6
Continuous
 62
   250
420
  2367521
370
    13
100
AcDbPolyline
 90
       68
 70
     0
 43
0.0
 10
105.9404634459618
 20
105.1212089857452
 10
105.9660109817924
 20
105.1225116624563
 10
105.9908156689198
 20
105.1262905015109
 10
106.0147698481119
 20
105.1324701414463
 10
106.0377335623667
 20
105.140889093414
 10
106.0595991524517
 20
105.1514289322586
 10
106.080226661365
 20
105.1639819987476
 10
106.0994761321045
 20
105.1783868040325
 10
106.1172506713612
 20
105.1945464548044
 10
106.1334103221331
 20
105.2123102281378
 10
106.147815127418
 20
105.2315704648006
 10
106.1603574279838
 20
105.2521979737139
 10
106.1709080327516
 20
105.2740635637989
 10
106.1793269847193
 20
105.2970272780537
 10
106.1854958587315
 20
105.3209814572458
 10
106.1892962296325
 20
105.3457969102965
 10
106.1905881404204
 20
105.3713336802038
 10
106.1905881404204
 20
105.3713336802038
 10
106.1892962296325
 20
105.3968812160343
 10
106.1854958587315
 20
105.4216859031617
 10
106.1793269847193
 20
105.4456293164306
 10
106.1708972668283
 20
105.4685930306853
 10
106.1603574279838
 20
105.4904586207704
 10
106.147815127418
 20
105.5110861296837
 10
106.1333995562099
 20
105.5303463663464
 10
106.1172506713612
 20
105.5481209056031
 10
106.0994868980278
 20
105.5642697904518
 10
106.0802158954418
 20
105.57868536166
 10
106.0595991524517
 20
105.5912168963025
 10
106.0377335623667
 20
105.6017675010702
 10
106.0147590821887
 20
105.610186453038
 10
105.9908156689198
 20
105.6163553270502
 10
105.9660002158691
 20
105.6201556979512
 10
105.9404634459618
 20
105.6214476087391
 10
105.9404634459618
 20
105.6214476087391
 10
105.9149266760546
 20
105.6201556979512
 10
105.8901112230039
 20
105.6163553270502
 10
105.8661570438118
 20
105.610186453038
 10
105.8431825636338
 20
105.601756735147
 10
105.821327739472
 20
105.5912168963025
 10
105.8007109964819
 20
105.5786745957367
 10
105.7814507598192
 20
105.5642590245285
 10
105.7636762205624
 20
105.5481209056031
 10
105.7475273357138
 20
105.5303463663464
 10
105.7331117645056
 20
105.5110861296837
 10
105.7205694639399
 20
105.4904586207704
 10
105.7100296250953
 20
105.4686037966086
 10
105.7015999072044
 20
105.4456293164306
 10
105.6954310331922
 20
105.4216859031617
 10
105.6916306622912
 20
105.396870450111
 10
105.6903387515033
 20
105.3713336802038
 10
105.6903387515033
 20
105.3713336802038
 10
105.6916306622912
 20
105.3457969102965
 10
105.6954310331922
 20
105.3209814572458
 10
105.7016106731276
 20
105.2970272780537
 10
105.7100188591721
 20
105.2740527978757
 10
105.7205694639399
 20
105.2521872077907
 10
105.7331117645056
 20
105.2315812307239
 10
105.7475165697906
 20
105.2123102281378
 10
105.7636762205624
 20
105.1945464548044
 10
105.7814507598192
 20
105.1783868040325
 10
105.8007002305587
 20
105.1639819987476
 10
105.821327739472
 20
105.1514396981818
 10
105.843193329557
 20
105.140889093414
 10
105.8661570438118
 20
105.1324701414463
 10
105.8901112230039
 20
105.1263012674341
 10
105.9149266760546
 20
105.1225008965331
 10
105.9404634459618
 20
105.1212089857452
  0
HATCH
  5
84
330
1F
100
AcDbEntity
  8
ISS138金台
  6
Continuous
 62
   250
420
  2367521
370
    13
100
AcDbHatch
 10
0.0
 20
0.0
 30
0.0
210
0.0
220
0.0
230
1.0
  2
SOLID
 70
     1
 71
     0
 91
        1
 92
        3
 72
     0
 73
     1
 93
       67
 10
111.4305782960986
 20
94.60402164369751
 10
111.4561258319292
 20
94.60531355448539
 10
111.4809305190566
 20
94.6091031594632
 10
111.5048739323255
 20
94.61529356532183
 10
111.5278591784267
 20
94.62370175136635
 10
111.5497032366653
 20
94.63425235613411
 10
111.5703307455785
 20
94.64679465669987
 10
111.5895909822413
 20
94.66119946198484
 10
111.607365521498
 20
94.67735911275668
 10
111.6235251722699
 20
94.69512288609016
 10
111.6379299775548
 20
94.71438312275293
 10
111.6504722781206
 20
94.73501063166623
 10
111.6610121169651
 20
94.75687622175124
 10
111.6694418348561
 20
94.77983993600597
 10
111.6756107088683
 20
94.80379411519809
 10
111.6794110797693
 20
94.8286095682488
 10
111.6807029905572
 20
94.85414633815607
 10
111.6807029905572
 20
94.85414633815607
 10
111.6794110797693
 20
94.87969387398658
 10
111.6756107088683
 20
94.90449856111405
 10
111.6694310689329
 20
94.92845274030616
 10
111.6610121169651
 20
94.95140568863766
 10
111.6504722781206
 20
94.97327127872268
 10
111.6379299775548
 20
94.99389878763597
 10
111.6235251722699
 20
95.01315902429874
 10
111.607365521498
 20
95.03092279763223
 10
111.5896017481646
 20
95.04708244840407
 10
111.5703307455785
 20
95.06149801961227
 10
111.5497140025885
 20
95.07402955425479
 10
111.5278484125035
 20
95.08458015902255
 10
111.5048846982487
 20
95.09299911099029
 10
111.4809305190566
 20
95.09916798500248
 10
111.4561150660059
 20
95.10296835590351
 10
111.4305782960986
 20
95.1042602666914
 10
111.4305782960986
 20
95.1042602666914
 10
111.4050415261914
 20
95.10296835590351
 10
111.3802260731407
 20
95.09916798500248
 10
111.3562718939486
 20
95.09299911099029
 10
111.3332974137706
 20
95.08456939309931
 10
111.3114425896088
 20
95.07404032017803
 10
111.2908258466187
 20
95.06148725368904
 10
111.2715548440327
 20
95.04708244840407
 10
111.2537910706993
 20
95.03092279763223
 10
111.2376421858506
 20
95.01315902429874
 10
111.2232266146424
 20
94.99389878763597
 10
111.2106843140767
 20
94.97327127872268
 10
111.2001444752322
 20
94.95141645456088
 10
111.1917147573412
 20
94.92844197438293
 10
111.185545883329
 20
94.90449856111405
 10
111.181745512428
 20
94.87968310806335
 10
111.1804536016401
 20
94.85414633815607
 10
111.1804536016401
 20
94.85414633815607
 10
111.181745512428
 20
94.8286095682488
 10
111.185545883329
 20
94.80379411519809
 10
111.1917147573412
 20
94.77983993600597
 10
111.2001444752322
 20
94.75686545582802
 10
111.2106735481535
 20
94.73501063166623
 10
111.2232266146424
 20
94.71438312275293
 10
111.2376421858506
 20
94.69512288609016
 10
111.2537910706993
 20
94.67735911275668
 10
111.271565609956
 20
94.66119946198484
 10
111.2908258466187
 20
94.64679465669987
 10
111.3114425896088
 20
94.63425235613411
 10
111.3333081796938
 20
94.62370175136635
 10
111.3562826598718
 20
94.61528279939861
 10
111.3802260731407
 20
94.60911392538642
 10
111.4050415261914
 20
94.60531355448539
 97
        0
 75
     1
 76
     1
 98
        0
  0
LWPOLYLINE
  5
85
330
1F
100
AcDbEntity
  8
ISS138金台
  6
Continuous
 62
   250
420
  2367521
370
    13
100
AcDbPolyline
 90
       68
 70
     0
 43
0.0
 10
111.4305782960986
 20
94.60402164369751
 10
111.4561258319292
 20
94.60531355448539
 10
111.4809305190566
 20
94.6091031594632
 10
111.5048739323255
 20
94.61529356532183
 10
111.5278591784267
 20
94.62370175136635
 10
111.5497032366653
 20
94.63425235613411
 10
111.5703307455785
 20
94.64679465669987
 10
111.5895909822413
 20
94.66119946198484
 10
111.607365521498
 20
94.67735911275668
 10
111.6235251722699
 20
94.69512288609016
 10
111.6379299775548
 20
94.71438312275293
 10
111.6504722781206
 20
94.73501063166623
 10
111.6610121169651
 20
94.75687622175124
 10
111.6694418348561
 20
94.77983993600597
 10
111.6756107088683
 20
94.80379411519809
 10
111.6794110797693
 20
94.8286095682488
 10
111.6807029905572
 20
94.85414633815607
 10
111.6807029905572
 20
94.85414633815607
 10
111.6794110797693
 20
94.87969387398658
 10
111.6756107088683
 20
94.90449856111405
 10
111.6694310689329
 20
94.92845274030616
 10
111.6610121169651
 20
94.95140568863766
 10
111.6504722781206
 20
94.97327127872268
 10
111.6379299775548
 20
94.99389878763597
 10
111.6235251722699
 20
95.01315902429874
 10
111.607365521498
 20
95.03092279763223
 10
111.5896017481646
 20
95.04708244840407
 10
111.5703307455785
 20
95.06149801961227
 10
111.5497140025885
 20
95.07402955425479
 10
111.5278484125035
 20
95.08458015902255
 10
111.5048846982487
 20
95.09299911099029
 10
111.4809305190566
 20
95.09916798500248
 10
111.4561150660059
 20
95.10296835590351
 10
111.4305782960986
 20
95.1042602666914
 10
111.4305782960986
 20
95.1042602666914
 10
111.4050415261914
 20
95.10296835590351
 10
111.3802260731407
 20
95.09916798500248
 10
111.3562718939486
 20
95.09299911099029
 10
111.3332974137706
 20
95.08456939309931
 10
111.3114425896088
 20
95.07404032017803
 10
111.2908258466187
 20
95.06148725368904
 10
111.2715548440327
 20
95.04708244840407
 10
111.2537910706993
 20
95.03092279763223
 10
111.2376421858506
 20
95.01315902429874
 10
111.2232266146424
 20
94.99389878763597
 10
111.2106843140767
 20
94.97327127872268
 10
111.2001444752322
 20
94.95141645456088
 10
111.1917147573412
 20
94.92844197438293
 10
111.185545883329
 20
94.90449856111405
 10
111.181745512428
 20
94.87968310806335
 10
111.1804536016401
 20
94.85414633815607
 10
111.1804536016401
 20
94.85414633815607
 10
111.181745512428
 20
94.8286095682488
 10
111.185545883329
 20
94.80379411519809
 10
111.1917147573412
 20
94.77983993600597
 10
111.2001444752322
 20
94.75686545582802
 10
111.2106735481535
 20
94.73501063166623
 10
111.2232266146424
 20
94.71438312275293
 10
111.2376421858506
 20
94.69512288609016
 10
111.2537910706993
 20
94.67735911275668
 10
111.271565609956
 20
94.66119946198484
 10
111.2908258466187
 20
94.64679465669987
 10
111.3114425896088
 20
94.63425235613411
 10
111.3333081796938
 20
94.62370175136635
 10
111.3562826598718
 20
94.61528279939861
 10
111.3802260731407
 20
94.60911392538642
 10
111.4050415261914
 20
94.60531355448539
 10
111.4305782960986
 20
94.60402164369751
  0
HATCH
  5
86
330
1F
100
AcDbEntity
  8
ISS138金台
  6
Continuous
 62
   250
420
  2367521
370
    13
100
AcDbHatch
 10
0.0
 20
0.0
 30
0.0
210
0.0
220
0.0
230
1.0
  2
SOLID
 70
     1
 71
     0
 91
        1
 92
        3
 72
     0
 73
     1
 93
       67
 10
131.3845602860521
 20
94.60402164369751
 10
131.4100970559593
 20
94.60531355448539
 10
131.43491250901
 20
94.6091031594632
 10
131.4588666882021
 20
94.61529356532183
 10
131.4818304024569
 20
94.62370175136635
 10
131.5036959925419
 20
94.63425235613411
 10
131.5243235014552
 20
94.64679465669987
 10
131.5435729721947
 20
94.66119946198484
 10
131.5613475114515
 20
94.67735911275668
 10
131.5774963963001
 20
94.69512288609016
 10
131.5919227334315
 20
94.71438312275293
 10
131.604454268074
 20
94.73501063166623
 10
131.6150048728418
 20
94.75687622175124
 10
131.6234238248095
 20
94.77983993600597
 10
131.6295926988217
 20
94.80379411519809
 10
131.6333930697227
 20
94.8286095682488
 10
131.6346849805106
 20
94.85414633815607
 10
131.6346849805106
 20
94.85414633815607
 10
131.6333930697227
 20
94.87969387398658
 10
131.6295926988217
 20
94.90449856111405
 10
131.6234238248095
 20
94.92845274030616
 10
131.6149941069186
 20
94.95140568863766
 10
131.6044650339973
 20
94.97327127872268
 10
131.5919119675083
 20
94.99389878763597
 10
131.5774963963001
 20
95.01315902429874
 10
131.5613475114515
 20
95.03092279763223
 10
131.5435729721947
 20
95.04708244840407
 10
131.524312735532
 20
95.06149801961227
 10
131.5036959925419
 20
95.07402955425479
 10
131.4818304024569
 20
95.08458015902255
 10
131.4588559222789
 20
95.09299911099029
 10
131.43491250901
 20
95.09916798500248
 10
131.4100970559593
 20
95.10296835590351
 10
131.3845602860521
 20
95.1042602666914
 10
131.3845602860521
 20
95.1042602666914
 10
131.3590235161448
 20
95.10296835590351
 10
131.3342080630941
 20
95.09916798500248
 10
131.310253883902
 20
95.09299911099029
 10
131.287279403724
 20
95.08456939309931
 10
131.2654353454855
 20
95.07404032017803
 10
131.2448078365722
 20
95.06148725368904
 10
131.2255475999094
 20
95.04708244840407
 10
131.2077730606527
 20
95.03092279763223
 10
131.1916134098808
 20
95.01315902429874
 10
131.1772086045959
 20
94.99389878763597
 10
131.1646663040301
 20
94.97327127872268
 10
131.1541264651856
 20
94.95141645456088
 10
131.1456967472946
 20
94.92844197438293
 10
131.1395278732824
 20
94.90449856111405
 10
131.1357275023814
 20
94.87968310806335
 10
131.1344355915935
 20
94.85414633815607
 10
131.1344355915935
 20
94.85414633815607
 10
131.1357275023814
 20
94.8286095682488
 10
131.1395278732824
 20
94.80379411519809
 10
131.1457075132178
 20
94.77983993600597
 10
131.1541156992623
 20
94.75686545582802
 10
131.1646770699533
 20
94.73501063166623
 10
131.1772086045959
 20
94.71438312275293
 10
131.1916134098808
 20
94.69512288609016
 10
131.2077730606527
 20
94.67735911275668
 10
131.2255368339862
 20
94.66119946198484
 10
131.2447970706489
 20
94.64679465669987
 10
131.2654245795622
 20
94.63425235613411
 10
131.2872901696472
 20
94.62370175136635
 10
131.310253883902
 20
94.61528279939861
 10
131.3342080630941
 20
94.60911392538642
 10
131.3590235161448
 20
94.60531355448539
 97
        0
 75
     1
 76
     1
 98
        0
  0
LWPOLYLINE
  5
87
330
1F
100
AcDbEntity
  8
ISS138金台
  6
Continuous
 62
   250
420
  2367521
370
    13
100
AcDbPolyline
 90
       68
 70
     0
 43
0.0
 10
131.3845602860521
 20
94.60402164369751
 10
131.4100970559593
 20
94.60531355448539
 10
131.43491250901
 20
94.6091031594632
 10
131.4588666882021
 20
94.61529356532183
 10
131.4818304024569
 20
94.62370175136635
 10
131.5036959925419
 20
94.63425235613411
 10
131.5243235014552
 20
94.64679465669987
 10
131.5435729721947
 20
94.66119946198484
 10
131.5613475114515
 20
94.67735911275668
 10
131.5774963963001
 20
94.69512288609016
 10
131.5919227334315
 20
94.71438312275293
 10
131.604454268074
 20
94.73501063166623
 10
131.6150048728418
 20
94.75687622175124
 10
131.6234238248095
 20
94.77983993600597
 10
131.6295926988217
 20
94.80379411519809
 10
131.6333930697227
 20
94.8286095682488
 10
131.6346849805106
 20
94.85414633815607
 10
131.6346849805106
 20
94.85414633815607
 10
131.6333930697227
 20
94.87969387398658
 10
131.6295926988217
 20
94.90449856111405
 10
131.6234238248095
 20
94.92845274030616
 10
131.6149941069186
 20
94.95140568863766
 10
131.6044650339973
 20
94.97327127872268
 10
131.5919119675083
 20
94.99389878763597
 10
131.5774963963001
 20
95.01315902429874
 10
131.5613475114515
 20
95.03092279763223
 10
131.5435729721947
 20
95.04708244840407
 10
131.524312735532
 20
95.06149801961227
 10
131.5036959925419
 20
95.07402955425479
 10
131.4818304024569
 20
95.08458015902255
 10
131.4588559222789
 20
95.09299911099029
 10
131.43491250901
 20
95.09916798500248
 10
131.4100970559593
 20
95.10296835590351
 10
131.3845602860521
 20
95.1042602666914
 10
131.3845602860521
 20
95.1042602666914
 10
131.3590235161448
 20
95.10296835590351
 10
131.3342080630941
 20
95.09916798500248
 10
131.310253883902
 20
95.09299911099029
 10
131.287279403724
 20
95.08456939309931
 10
131.2654353454855
 20
95.07404032017803
 10
131.2448078365722
 20
95.06148725368904
 10
131.2255475999094
 20
95.04708244840407
 10
131.2077730606527
 20
95.03092279763223
 10
131.1916134098808
 20
95.01315902429874
 10
131.1772086045959
 20
94.99389878763597
 10
131.1646663040301
 20
94.97327127872268
 10
131.1541264651856
 20
94.95141645456088
 10
131.1456967472946
 20
94.92844197438293
 10
131.1395278732824
 20
94.90449856111405
 10
131.1357275023814
 20
94.87968310806335
 10
131.1344355915935
 20
94.85414633815607
 10
131.1344355915935
 20
94.85414633815607
 10
131.1357275023814
 20
94.8286095682488
 10
131.1395278732824
 20
94.80379411519809
 10
131.1457075132178
 20
94.77983993600597
 10
131.1541156992623
 20
94.75686545582802
 10
131.1646770699533
 20
94.73501063166623
 10
131.1772086045959
 20
94.71438312275293
 10
131.1916134098808
 20
94.69512288609016
 10
131.2077730606527
 20
94.67735911275668
 10
131.2255368339862
 20
94.66119946198484
 10
131.2447970706489
 20
94.64679465669987
 10
131.2654245795622
 20
94.63425235613411
 10
131.2872901696472
 20
94.62370175136635
 10
131.310253883902
 20
94.61528279939861
 10
131.3342080630941
 20
94.60911392538642
 10
131.3590235161448
 20
94.60531355448539
 10
131.3845602860521
 20
94.60402164369751
  0
TEXT
  5
88
330
1F
100
AcDbEntity
  8
ISS138金台
  6
Continuous
 62
   250
420
  2367521
100
AcDbText
 10
119.9192826804655
 20
95.89148937813229
 30
0.0
 40
2.150533301035563
  1
20
 41
0.9460029602050779
  7
MS Gothic
100
AcDbText
  0
TEXT
  5
89
330
1F
100
AcDbEntity
  8
ISS138金台
  6
Continuous
 62
   250
420
  2367521
100
AcDbText
 10
105.0133634598855
 20
105.1287989442298
 30
0.0
 40
2.150533301035563
  1
4.5
 50
90.00000250447816
 41
0.9673334757486979
  7
MS Gothic
100
AcDbText
  0
TEXT
  5
8A
330
1F
100
AcDbEntity
  8
ISS138金台
  6
Continuous
 62
   250
420
  2367521
100
AcDbText
 10
113.8338768711158
 20
116.418735248365
 30
0.0
 40
2.150533301035563
  1
6
 41
0.8919982910156248
  7
MS Gothic
100
AcDbText
  0
LINE
  5
8B
330
1F
100
AcDbEntity
  8
ISS138金台
  6
Continuous
 62
   250
420
  2367521
370
    13
100
AcDbLine
 10
132.4029304964521
 20
106.569537872278
 30
0.0
 11
141.8619567758328
 21
106.569537872278
 31
0.0
  0
LINE
  5
8C
330
1F
100
AcDbEntity
  8
ISS138金台
  6
Continuous
 62
   250
420
  2367521
370
    13
100
AcDbLine
 10
132.4029304964521
 20
109.5681489383545
 30
0.0
 11
141.9501512189527
 21
109.5681489383545
 31
0.0
  0
LINE
  5
8D
330
1F
100
AcDbEntity
  8
ISS138金台
  6
Continuous
 62
   250
420
  2367521
370
    13
100
AcDbLine
 10
141.8500711965842
 20
106.5736719867992
 30
0.0
 11
141.8500711965842
 21
110.3000594633866
 31
0.0
  0
HATCH
  5
8E
330
1F
100
AcDbEntity
  8
ISS138金台
  6
Continuous
 62
   250
420
  2367521
370
    13
100
AcDbHatch
 10
0.0
 20
0.0
 30
0.0
210
0.0
220
0.0
230
1.0
  2
SOLID
 70
     1
 71
     0
 91
        1
 92
        3
 72
     0
 73
     1
 93
       67
 10
141.8617737551378
 20
109.3187347948293
 10
141.8873105250451
 20
109.3200267056171
 10
141.9120829144029
 20
109.3237947787485
 10
141.9360047958253
 20
109.3299313549909
 10
141.9589254463871
 20
109.3383072432658
 10
141.980737206856
 20
109.3488040184174
 10
142.0013108861531
 20
109.3612817234437
 10
142.0205065272765
 20
109.3756219331893
 10
142.0382057050705
 20
109.3917169884217
 10
142.0542899943798
 20
109.4094161662158
 10
142.0686409700486
 20
109.4286225732624
 10
142.0811294409982
 20
109.4491854866364
 10
142.0916154502265
 20
109.470986481182
 10
142.0999913385014
 20
109.493917897667
 10
142.1061279147438
 20
109.5178290131662
 10
142.1098959878752
 20
109.5426121684472
 10
142.111187898663
 20
109.5681489383545
 10
142.111187898663
 20
109.5681489383545
 10
142.1098959878752
 20
109.5938041334173
 10
142.1061171488206
 20
109.6187057138539
 10
142.0999913385014
 20
109.6427137226622
 10
142.0916046843033
 20
109.6657097346866
 10
142.0811186750749
 20
109.687596856618
 10
142.0686409700486
 20
109.7082135996081
 10
142.054300760303
 20
109.7274523044244
 10
142.0382057050705
 20
109.7452053118347
 10
142.0205065272765
 20
109.7613111329904
 10
142.0013108861531
 20
109.7756728745824
 10
141.9807479727792
 20
109.7881828773785
 10
141.9589362123103
 20
109.7986796525301
 10
141.9360047958253
 20
109.8070663067281
 10
141.9120936803261
 20
109.8132028829706
 10
141.8872997591218
 20
109.8169817220251
 10
141.8617737551378
 20
109.8182628668898
 10
141.8617737551378
 20
109.8182628668898
 10
141.8361077941518
 20
109.8169817220251
 10
141.8112277455617
 20
109.8132136488938
 10
141.7871982049069
 20
109.8070663067281
 10
141.7641914269593
 20
109.7986688866068
 10
141.7423258368742
 20
109.7881828773785
 10
141.7217090938842
 20
109.7756836405056
 10
141.7024596231446
 20
109.7613111329904
 10
141.6847281475809
 20
109.7451945459114
 10
141.6686007945787
 20
109.7274523044244
 10
141.6542390529867
 20
109.7082135996081
 10
141.6417398161138
 20
109.687596856618
 10
141.631232275039
 20
109.6657205006098
 10
141.622845620841
 20
109.6427137226622
 10
141.6167090445985
 20
109.6187057138539
 10
141.6129409714671
 20
109.5938041334173
 10
141.6116490606793
 20
109.5681489383545
 10
141.6116490606793
 20
109.5681489383545
 10
141.6129409714671
 20
109.5426229343704
 10
141.6167198105217
 20
109.5178290131662
 10
141.6228563867642
 20
109.493917897667
 10
141.6312215091158
 20
109.470986481182
 10
141.6417398161138
 20
109.4491854866364
 10
141.6542282870634
 20
109.4286118073392
 10
141.6686007945787
 20
109.4094161662158
 10
141.6847173816576
 20
109.3917169884217
 10
141.7024703890679
 20
109.3756219331893
 10
141.7217090938842
 20
109.3612817234437
 10
141.7423258368742
 20
109.3487932524941
 10
141.7642021928825
 20
109.3383072432658
 10
141.7872089708301
 20
109.3299313549909
 10
141.8112169796384
 20
109.3237947787485
 10
141.836118560075
 20
109.3200159396939
 97
        0
 75
     1
 76
     1
 98
        0
  0
LWPOLYLINE
  5
8F
330
1F
100
AcDbEntity
  8
ISS138金台
  6
Continuous
 62
   250
420
  2367521
370
    13
100
AcDbPolyline
 90
       68
 70
     0
 43
0.0
 10
141.8617737551378
 20
109.3187347948293
 10
141.8873105250451
 20
109.3200267056171
 10
141.9120829144029
 20
109.3237947787485
 10
141.9360047958253
 20
109.3299313549909
 10
141.9589254463871
 20
109.3383072432658
 10
141.980737206856
 20
109.3488040184174
 10
142.0013108861531
 20
109.3612817234437
 10
142.0205065272765
 20
109.3756219331893
 10
142.0382057050705
 20
109.3917169884217
 10
142.0542899943798
 20
109.4094161662158
 10
142.0686409700486
 20
109.4286225732624
 10
142.0811294409982
 20
109.4491854866364
 10
142.0916154502265
 20
109.470986481182
 10
142.0999913385014
 20
109.493917897667
 10
142.1061279147438
 20
109.5178290131662
 10
142.1098959878752
 20
109.5426121684472
 10
142.111187898663
 20
109.5681489383545
 10
142.111187898663
 20
109.5681489383545
 10
142.1098959878752
 20
109.5938041334173
 10
142.1061171488206
 20
109.6187057138539
 10
142.0999913385014
 20
109.6427137226622
 10
142.0916046843033
 20
109.6657097346866
 10
142.0811186750749
 20
109.687596856618
 10
142.0686409700486
 20
109.7082135996081
 10
142.054300760303
 20
109.7274523044244
 10
142.0382057050705
 20
109.7452053118347
 10
142.0205065272765
 20
109.7613111329904
 10
142.0013108861531
 20
109.7756728745824
 10
141.9807479727792
 20
109.7881828773785
 10
141.9589362123103
 20
109.7986796525301
 10
141.9360047958253
 20
109.8070663067281
 10
141.9120936803261
 20
109.8132028829706
 10
141.8872997591218
 20
109.8169817220251
 10
141.8617737551378
 20
109.8182628668898
 10
141.8617737551378
 20
109.8182628668898
 10
141.8361077941518
 20
109.8169817220251
 10
141.8112277455617
 20
109.8132136488938
 10
141.7871982049069
 20
109.8070663067281
 10
141.7641914269593
 20
109.7986688866068
 10
141.7423258368742
 20
109.7881828773785
 10
141.7217090938842
 20
109.7756836405056
 10
141.7024596231446
 20
109.7613111329904
 10
141.6847281475809
 20
109.7451945459114
 10
141.6686007945787
 20
109.7274523044244
 10
141.6542390529867
 20
109.7082135996081
 10
141.6417398161138
 20
109.687596856618
 10
141.631232275039
 20
109.6657205006098
 10
141.622845620841
 20
109.6427137226622
 10
141.6167090445985
 20
109.6187057138539
 10
141.6129409714671
 20
109.5938041334173
 10
141.6116490606793
 20
109.5681489383545
 10
141.6116490606793
 20
109.5681489383545
 10
141.6129409714671
 20
109.5426229343704
 10
141.6167198105217
 20
109.5178290131662
 10
141.6228563867642
 20
109.493917897667
 10
141.6312215091158
 20
109.470986481182
 10
141.6417398161138
 20
109.4491854866364
 10
141.6542282870634
 20
109.4286118073392
 10
141.6686007945787
 20
109.4094161662158
 10
141.6847173816576
 20
109.3917169884217
 10
141.7024703890679
 20
109.3756219331893
 10
141.7217090938842
 20
109.3612817234437
 10
141.7423258368742
 20
109.3487932524941
 10
141.7642021928825
 20
109.3383072432658
 10
141.7872089708301
 20
109.3299313549909
 10
141.8112169796384
 20
109.3237947787485
 10
141.836118560075
 20
109.3200159396939
 10
141.8617737551378
 20
109.3187347948293
  0
HATCH
  5
90
330
1F
100
AcDbEntity
  8
ISS138金台
  6
Continuous
 62
   250
420
  2367521
370
    13
100
AcDbHatch
 10
0.0
 20
0.0
 30
0.0
210
0.0
220
0.0
230
1.0
  2
SOLID
 70
     1
 71
     0
 91
        1
 92
        3
 72
     0
 73
     1
 93
       67
 10
141.8176872995011
 20
106.3201237287528
 10
141.8432240694084
 20
106.3214156395406
 10
141.8680072246894
 20
106.325183712672
 10
141.8919183401886
 20
106.3313202889145
 10
141.9148389907504
 20
106.3396961771893
 10
141.9366507512192
 20
106.3501929523409
 10
141.9572244305164
 20
106.3626706573672
 10
141.9764200716398
 20
106.3770108671128
 10
141.9941192494338
 20
106.3931059223453
 10
142.010203538743
 20
106.4108051001393
 10
142.0245545144118
 20
106.430011507186
 10
142.0370322194382
 20
106.4505744205599
 10
142.0475289945898
 20
106.4723754151055
 10
142.0559048828646
 20
106.4953068315905
 10
142.0620414591071
 20
106.5192179470897
 10
142.0658202981617
 20
106.5440011023707
 10
142.0671014430263
 20
106.569537872278
 10
142.0671014430263
 20
106.569537872278
 10
142.0658095322385
 20
106.5951930673408
 10
142.0620414591071
 20
106.6200946477774
 10
142.0559048828646
 20
106.6441026565856
 10
142.0475182286666
 20
106.6670986686101
 10
142.0370429853614
 20
106.6889857905416
 10
142.0245545144118
 20
106.7096025335316
 10
142.010203538743
 20
106.728841238348
 10
141.9941192494338
 20
106.7465942457582
 10
141.9764200716398
 20
106.7627000669139
 10
141.9572136645931
 20
106.7770618085059
 10
141.9366615171425
 20
106.789571811302
 10
141.9148497566736
 20
106.8000685864536
 10
141.8919183401886
 20
106.8084552406516
 10
141.8680072246894
 20
106.8145918168941
 10
141.8432240694084
 20
106.8183706559487
 10
141.8176872995011
 20
106.8196518008133
 10
141.8176872995011
 20
106.8196518008133
 10
141.792021338515
 20
106.8183706559487
 10
141.767141289925
 20
106.8146025828173
 10
141.7431117492702
 20
106.8084552406516
 10
141.7201049713225
 20
106.8000578205303
 10
141.6982501471608
 20
106.789571811302
 10
141.6776226382474
 20
106.7770725744291
 10
141.6583731675079
 20
106.7627000669139
 10
141.6406309260209
 20
106.746583479835
 10
141.624514338942
 20
106.728841238348
 10
141.6101418314267
 20
106.7096025335316
 10
141.5976425945539
 20
106.6889857905416
 10
141.5871458194023
 20
106.6671094345333
 10
141.5787591652042
 20
106.6441026565856
 10
141.5726225889618
 20
106.6200946477774
 10
141.5688437499072
 20
106.5951930673408
 10
141.5675626050426
 20
106.569537872278
 10
141.5675626050426
 20
106.569537872278
 10
141.5688545158304
 20
106.5440118682939
 10
141.5726225889618
 20
106.5192179470897
 10
141.5787699311275
 20
106.4953068315905
 10
141.5871350534791
 20
106.4723754151055
 10
141.5976533604771
 20
106.4505744205599
 10
141.6101418314267
 20
106.4300007412627
 10
141.624514338942
 20
106.4108051001393
 10
141.6406309260209
 20
106.3931059223453
 10
141.6583731675079
 20
106.3770108671128
 10
141.6776118723242
 20
106.3626706573672
 10
141.6982393812375
 20
106.3501821864177
 10
141.7201157372458
 20
106.3396961771893
 10
141.7431225151934
 20
106.3313202889145
 10
141.7671305240017
 20
106.325183712672
 10
141.7920321044383
 20
106.3214048736174
 97
        0
 75
     1
 76
     1
 98
        0
  0
LWPOLYLINE
  5
91
330
1F
100
AcDbEntity
  8
ISS138金台
  6
Continuous
 62
   250
420
  2367521
370
    13
100
AcDbPolyline
 90
       68
 70
     0
 43
0.0
 10
141.8176872995011
 20
106.3201237287528
 10
141.8432240694084
 20
106.3214156395406
 10
141.8680072246894
 20
106.325183712672
 10
141.8919183401886
 20
106.3313202889145
 10
141.9148389907504
 20
106.3396961771893
 10
141.9366507512192
 20
106.3501929523409
 10
141.9572244305164
 20
106.3626706573672
 10
141.9764200716398
 20
106.3770108671128
 10
141.9941192494338
 20
106.3931059223453
 10
142.010203538743
 20
106.4108051001393
 10
142.0245545144118
 20
106.430011507186
 10
142.0370322194382
 20
106.4505744205599
 10
142.0475289945898
 20
106.4723754151055
 10
142.0559048828646
 20
106.4953068315905
 10
142.0620414591071
 20
106.5192179470897
 10
142.0658202981617
 20
106.5440011023707
 10
142.0671014430263
 20
106.569537872278
 10
142.0671014430263
 20
106.569537872278
 10
142.0658095322385
 20
106.5951930673408
 10
142.0620414591071
 20
106.6200946477774
 10
142.0559048828646
 20
106.6441026565856
 10
142.0475182286666
 20
106.6670986686101
 10
142.0370429853614
 20
106.6889857905416
 10
142.0245545144118
 20
106.7096025335316
 10
142.010203538743
 20
106.728841238348
 10
141.9941192494338
 20
106.7465942457582
 10
141.9764200716398
 20
106.7627000669139
 10
141.9572136645931
 20
106.7770618085059
 10
141.9366615171425
 20
106.789571811302
 10
141.9148497566736
 20
106.8000685864536
 10
141.8919183401886
 20
106.8084552406516
 10
141.8680072246894
 20
106.8145918168941
 10
141.8432240694084
 20
106.8183706559487
 10
141.8176872995011
 20
106.8196518008133
 10
141.8176872995011
 20
106.8196518008133
 10
141.792021338515
 20
106.8183706559487
 10
141.767141289925
 20
106.8146025828173
 10
141.7431117492702
 20
106.8084552406516
 10
141.7201049713225
 20
106.8000578205303
 10
141.6982501471608
 20
106.789571811302
 10
141.6776226382474
 20
106.7770725744291
 10
141.6583731675079
 20
106.7627000669139
 10
141.6406309260209
 20
106.746583479835
 10
141.624514338942
 20
106.728841238348
 10
141.6101418314267
 20
106.7096025335316
 10
141.5976425945539
 20
106.6889857905416
 10
141.5871458194023
 20
106.6671094345333
 10
141.5787591652042
 20
106.6441026565856
 10
141.5726225889618
 20
106.6200946477774
 10
141.5688437499072
 20
106.5951930673408
 10
141.5675626050426
 20
106.569537872278
 10
141.5675626050426
 20
106.569537872278
 10
141.5688545158304
 20
106.5440118682939
 10
141.5726225889618
 20
106.5192179470897
 10
141.5787699311275
 20
106.4953068315905
 10
141.5871350534791
 20
106.4723754151055
 10
141.5976533604771
 20
106.4505744205599
 10
141.6101418314267
 20
106.4300007412627
 10
141.624514338942
 20
106.4108051001393
 10
141.6406309260209
 20
106.3931059223453
 10
141.6583731675079
 20
106.3770108671128
 10
141.6776118723242
 20
106.3626706573672
 10
141.6982393812375
 20
106.3501821864177
 10
141.7201157372458
 20
106.3396961771893
 10
141.7431225151934
 20
106.3313202889145
 10
141.7671305240017
 20
106.325183712672
 10
141.7920321044383
 20
106.3214048736174
 10
141.8176872995011
 20
106.3201237287528
  0
TEXT
  5
92
330
1F
100
AcDbEntity
  8
ISS138金台
  6
Continuous
 62
   250
420
  2367521
100
AcDbText
 10
142.0150664632034
 20
110.9131141785387
 30
0.0
 40
2.150533301035563
  1
3.3
 50
90.00000250447816
 41
0.950665791829427
  7
MS Gothic
100
AcDbText
  0
LINE
  5
93
330
1F
100
AcDbEntity
  8
ISS138金台
  6
UserDefined01
 62
   140
420
    44526
370
    13
100
AcDbLine
 10
123.7778003328842
 20
100.4103854887863
 30
0.0
 11
131.3625224411953
 21
100.4103854887863
 31
0.0
  0
TEXT
  5
94
330
1F
100
AcDbEntity
  8
ISS138金台
  6
Continuous
 62
   140
420
    44526
100
AcDbText
 10
125.6773936576267
 20
101.1995493658232
 30
0.0
 40
1.881716638406118
  1
7.5
 41
1.017611821492513
  7
MS Gothic
100
AcDbText
  0
HATCH
  5
95
330
1F
100
AcDbEntity
  8
ISS138金台
  6
Continuous
 62
   140
420
    44526
370
    50
100
AcDbHatch
 10
0.0
 20
0.0
 30
0.0
210
0.0
220
0.0
230
1.0
  2
SOLID
 70
     1
 71
     0
 91
        1
 92
        3
 72
     0
 73
     1
 93
        3
 10
122.9116925747601
 20
109.5819508519384
 10
124.6438327295457
 20
109.5812403010051
 10
123.7784678201246
 20
108.0833558698335
 97
        0
 75
     1
 76
     1
 98
        0
  0
LWPOLYLINE
  5
96
330
1F
100
AcDbEntity
  8
ISS138金台
  6
Continuous
 62
   140
420
    44526
370
    50
100
AcDbPolyline
 90
        4
 70
     0
 43
0.0
 10
122.9116925747601
 20
109.5819508519384
 10
124.6438327295457
 20
109.5812403010051
 10
123.7784678201246
 20
108.0833558698335
 10
122.9116925747601
 20
109.5819508519384
  0
ENDSEC
  0
SECTION
  2
OBJECTS
  0
DICTIONARY
  5
C
330
0
100
AcDbDictionary
281
     1
  3
ACAD_DETAILVIEWSTYLE
350
9E
  3
ACAD_GROUP
350
D
  3
ACAD_LAYOUT
350
1A
  3
ACAD_MATERIAL
350
43
  3
ACAD_MLEADERSTYLE
350
5B
  3
ACAD_MLINESTYLE
350
17
  3
ACAD_PLOTSETTINGS
350
19
  3
ACAD_PLOTSTYLENAME
350
E
  3
ACAD_SCALELIST
350
47
  3
ACAD_SECTIONVIEWSTYLE
350
9F
  3
ACAD_TABLESTYLE
350
59
  3
ACAD_VISUALSTYLE
350
2A
  3
ACDB_RECOMPOSE_DATA
350
9B
  3
AcDbVariableDictionary
350
97
  0
SUN
  5
5D
330
29
100
AcDbSun
 90
        1
290
     0
 63
     7
421
 16777215
 40
1.0
291
     1
 91
  2455826
 92
 54000000
292
     0
 70
     2
 71
   256
280
     1
  0
DICTIONARY
  5
9E
102
{ACAD_REACTORS
330
C
102
}
330
C
100
AcDbDictionary
281
     1
  0
DICTIONARY
  5
D
102
{ACAD_REACTORS
330
C
102
}
330
C
100
AcDbDictionary
281
     1
  0
DICTIONARY
  5
1A
102
{ACAD_REACTORS
330
C
102
}
330
C
100
AcDbDictionary
281
     1
  3
Layout1
350
1E
  3
Layout2
350
26
  3
Model
350
22
  0
DICTIONARY
  5
43
102
{ACAD_REACTORS
330
C
102
}
330
C
100
AcDbDictionary
281
     1
  3
ByBlock
350
45
  3
ByLayer
350
44
  3
Global
350
46
  0
DICTIONARY
  5
5B
102
{ACAD_REACTORS
330
C
102
}
330
C
100
AcDbDictionary
281
     1
  3
Standard
350
5C
  0
DICTIONARY
  5
17
102
{ACAD_REACTORS
330
C
102
}
330
C
100
AcDbDictionary
281
     1
  3
Standard
350
18
  0
DICTIONARY
  5
19
102
{ACAD_REACTORS
330
C
102
}
330
C
100
AcDbDictionary
281
     1
  0
ACDBDICTIONARYWDFLT
  5
E
102
{ACAD_REACTORS
330
C
102
}
330
C
100
AcDbDictionary
281
     1
  3
Normal
350
F
100
AcDbDictionaryWithDefault
340
F
  0
DICTIONARY
  5
47
102
{ACAD_REACTORS
330
C
102
}
330
C
100
AcDbDictionary
281
     1
  3
A0
350
48
  3
A1
350
49
  3
A2
350
4A
  3
A3
350
4B
  3
A4
350
4C
  3
A5
350
4D
  3
A6
350
4E
  3
A7
350
4F
  3
A8
350
50
  3
A9
350
51
  3
B0
350
52
  3
B1
350
53
  3
B2
350
54
  3
B3
350
55
  3
B4
350
56
  3
B5
350
57
  3
B6
350
58
  0
DICTIONARY
  5
9F
102
{ACAD_REACTORS
330
C
102
}
330
C
100
AcDbDictionary
281
     1
  0
DICTIONARY
  5
59
102
{ACAD_REACTORS
330
C
102
}
330
C
100
AcDbDictionary
281
     1
  3
Standard
350
5A
  0
DICTIONARY
  5
2A
102
{ACAD_REACTORS
330
C
102
}
330
C
100
AcDbDictionary
281
     1
  3
2dWireframe
350
2F
  3
Basic
350
32
  3
Brighten
350
36
  3
ColorChange
350
3A
  3
Conceptual
350
34
  3
Dim
350
35
  3
EdgeColorOff
350
3D
  3
Facepattern
350
39
  3
Flat
350
2B
  3
FlatWithEdges
350
2C
  3
Gouraud
350
2D
  3
GouraudWithEdges
350
2E
  3
Hidden
350
31
  3
JitterOff
350
3B
  3
Linepattern
350
38
  3
OverhangOff
350
3C
  3
Realistic
350
33
  3
Shaded
350
42
  3
Shaded with edges
350
41
  3
Shades of Gray
350
3E
  3
Sketchy
350
3F
  3
Thicken
350
37
  3
Wireframe
350
30
  3
X-Ray
350
40
  0
XRECORD
  5
9B
102
{ACAD_REACTORS
330
C
102
}
330
C
100
AcDbXrecord
280
     1
 90
        1
330
5A
  0
DICTIONARY
  5
97
102
{ACAD_REACTORS
330
C
102
}
330
C
100
AcDbDictionary
281
     1
  3
CANNOSCALE
350
98
  3
CENTEREXE
350
A0
  3
CENTERLTYPEFILE
350
A1
  3
CMLEADERSTYLE
350
9D
  3
CTABLESTYLE
350
9C
  0
LAYOUT
  5
1E
102
{ACAD_REACTORS
330
1A
102
}
330
1A
100
AcDbPlotSettings
  1

  2
none_device
  4

  6

 40
0.0
 41
0.0
 42
0.0
 43
0.0
 44
0.0
 45
0.0
 46
0.0
 47
0.0
 48
0.0
 49
0.0
140
0.0
141
0.0
142
1.0
143
1.0
 70
   688
 72
     1
 73
     0
 74
     5
  7

 75
    16
 76
     0
 77
     5
 78
   300
147
1.0
148
0.0
149
0.0
100
AcDbLayout
  1
Layout1
 70
     1
 71
     1
 10
0.0
 20
0.0
 11
420.0
 21
297.0
 12
0.0
 22
0.0
 32
0.0
 14
1.000000000000000E+20
 24
1.000000000000000E+20
 34
1.000000000000000E+20
 15
-1.000000000000000E+20
 25
-1.000000000000000E+20
 35
-1.000000000000000E+20
146
0.0
 13
0.0
 23
0.0
 33
0.0
 16
1.0
 26
0.0
 36
0.0
 17
0.0
 27
1.0
 37
0.0
 76
     0
330
1B
  0
LAYOUT
  5
26
102
{ACAD_REACTORS
330
1A
102
}
330
1A
100
AcDbPlotSettings
  1

  2
none_device
  4

  6

 40
0.0
 41
0.0
 42
0.0
 43
0.0
 44
0.0
 45
0.0
 46
0.0
 47
0.0
 48
0.0
 49
0.0
140
0.0
141
0.0
142
1.0
143
1.0
 70
   688
 72
     1
 73
     0
 74
     5
  7

 75
    16
 76
     0
 77
     5
 78
   300
147
1.0
148
0.0
149
0.0
100
AcDbLayout
  1
Layout2
 70
     1
 71
     2
 10
0.0
 20
0.0
 11
0.0
 21
0.0
 12
0.0
 22
0.0
 32
0.0
 14
0.0
 24
0.0
 34
0.0
 15
0.0
 25
0.0
 35
0.0
146
0.0
 13
0.0
 23
0.0
 33
0.0
 16
1.0
 26
0.0
 36
0.0
 17
0.0
 27
1.0
 37
0.0
 76
     0
330
23
  0
LAYOUT
  5
22
102
{ACAD_REACTORS
330
1A
102
}
330
1A
100
AcDbPlotSettings
  1

  2
none_device
  4
Letter_(8.50_x_11.00_Inches)
  6

 40
6.35
 41
6.35
 42
6.35000508
 43
6.35000508
 44
215.9
 45
279.4
 46
0.0
 47
0.0
 48
0.0
 49
0.0
140
0.0
141
0.0
142
1.0
143
1.0
 70
  1712
 72
     1
 73
     0
 74
     0
  7

 75
     0
 76
     0
 77
     5
 78
   300
147
1.0
148
0.0
149
0.0
100
AcDbLayout
  1
Model
 70
     1
 71
     0
 10
0.0
 20
0.0
 11
302.9997823349792
 21
216.0016055409748
 12
0.0
 22
0.0
 32
0.0
 14
0.0
 24
0.0
 34
0.0
 15
302.9997823349792
 25
216.0016055409748
 35
0.0
146
0.0
 13
0.0
 23
0.0
 33
0.0
 16
1.0
 26
0.0
 36
0.0
 17
0.0
 27
1.0
 37
0.0
 76
     0
330
1F
331
29
  0
MATERIAL
  5
45
102
{ACAD_REACTORS
330
43
102
}
330
43
100
AcDbMaterial
  1
ByBlock
 72
     1
 94
      127
  0
MATERIAL
  5
44
102
{ACAD_REACTORS
330
43
102
}
330
43
100
AcDbMaterial
  1
ByLayer
 72
     1
 94
      127
  0
MATERIAL
  5
46
102
{ACAD_REACTORS
330
43
102
}
330
43
100
AcDbMaterial
  1
Global
 72
     1
 94
      127
  0
MLEADERSTYLE
  5
5C
102
{ACAD_REACTORS
330
5B
102
}
330
5B
100
AcDbMLeaderStyle
179
     2
170
     2
171
     1
172
     0
 90
        2
 40
0.0
 41
0.0
173
     1
 91
-1056964608
340
14
 92
       -2
290
     1
 42
2.0
291
     1
 43
8.0
  3
Standard
341
0
 44
4.0
300

342
11
174
     1
178
     6
175
     1
176
     0
 93
-1056964608
 45
4.0
292
     0
297
     0
 46
4.0
343
0
 94
-1056964608
 47
1.0
 49
1.0
140
1.0
293
     1
141
0.0
294
     1
177
     0
142
1.0
295
     0
296
     0
143
3.75
271
     0
272
     9
273
     9
298
     0
  0
MLINESTYLE
  5
18
102
{ACAD_REACTORS
330
17
102
}
330
17
100
AcDbMlineStyle
  2
Standard
 70
     0
  3

 62
   256
 51
90.0
 52
90.0
 71
     2
 49
0.5
 62
   256
  6
BYLAYER
 49
-0.5
 62
   256
  6
BYLAYER
  0
ACDBPLACEHOLDER
  5
F
102
{ACAD_REACTORS
330
E
102
}
330
E
  0
SCALE
  5
48
102
{ACAD_REACTORS
330
47
102
}
330
47
100
AcDbScale
 70
     0
300
1:1
140
1.0
141
1.0
290
     1
  0
SCALE
  5
49
102
{ACAD_REACTORS
330
47
102
}
330
47
100
AcDbScale
 70
     0
300
1:2
140
1.0
141
2.0
290
     0
  0
SCALE
  5
4A
102
{ACAD_REACTORS
330
47
102
}
330
47
100
AcDbScale
 70
     0
300
1:4
140
1.0
141
4.0
290
     0
  0
SCALE
  5
4B
102
{ACAD_REACTORS
330
47
102
}
330
47
100
AcDbScale
 70
     0
300
1:5
140
1.0
141
5.0
290
     0
  0
SCALE
  5
4C
102
{ACAD_REACTORS
330
47
102
}
330
47
100
AcDbScale
 70
     0
300
1:8
140
1.0
141
8.0
290
     0
  0
SCALE
  5
4D
102
{ACAD_REACTORS
330
47
102
}
330
47
100
AcDbScale
 70
     0
300
1:10
140
1.0
141
10.0
290
     0
  0
SCALE
  5
4E
102
{ACAD_REACTORS
330
47
102
}
330
47
100
AcDbScale
 70
     0
300
1:16
140
1.0
141
16.0
290
     0
  0
SCALE
  5
4F
102
{ACAD_REACTORS
330
47
102
}
330
47
100
AcDbScale
 70
     0
300
1:20
140
1.0
141
20.0
290
     0
  0
SCALE
  5
50
102
{ACAD_REACTORS
330
47
102
}
330
47
100
AcDbScale
 70
     0
300
1:30
140
1.0
141
30.0
290
     0
  0
SCALE
  5
51
102
{ACAD_REACTORS
330
47
102
}
330
47
100
AcDbScale
 70
     0
300
1:40
140
1.0
141
40.0
290
     0
  0
SCALE
  5
52
102
{ACAD_REACTORS
330
47
102
}
330
47
100
AcDbScale
 70
     0
300
1:50
140
1.0
141
50.0
290
     0
  0
SCALE
  5
53
102
{ACAD_REACTORS
330
47
102
}
330
47
100
AcDbScale
 70
     0
300
1:100
140
1.0
141
100.0
290
     0
  0
SCALE
  5
54
102
{ACAD_REACTORS
330
47
102
}
330
47
100
AcDbScale
 70
     0
300
2:1
140
2.0
141
1.0
290
     0
  0
SCALE
  5
55
102
{ACAD_REACTORS
330
47
102
}
330
47
100
AcDbScale
 70
     0
300
4:1
140
4.0
141
1.0
290
     0
  0
SCALE
  5
56
102
{ACAD_REACTORS
330
47
102
}
330
47
100
AcDbScale
 70
     0
300
8:1
140
8.0
141
1.0
290
     0
  0
SCALE
  5
57
102
{ACAD_REACTORS
330
47
102
}
330
47
100
AcDbScale
 70
     0
300
10:1
140
10.0
141
1.0
290
     0
  0
SCALE
  5
58
102
{ACAD_REACTORS
330
47
102
}
330
47
100
AcDbScale
 70
     0
300
100:1
140
100.0
141
1.0
290
     0
  0
TABLESTYLE
  5
5A
102
{ACAD_REACTORS
330
59
102
}
102
{ACAD_XDICTIONARY
360
99
102
}
330
59
100
AcDbTableStyle
  3
Standard
 70
     0
 71
     0
 40
0.06
 41
0.06
280
     0
281
     0
  7
Standard
140
4.5
170
     2
 62
     0
 63
   257
283
     0
 90
        4
 91
        0
  1

274
    -2
284
     1
 64
     0
275
    -2
285
     1
 65
     0
276
    -2
286
     1
 66
     0
277
    -2
287
     1
 67
     0
278
    -2
288
     1
 68
     0
279
    -2
289
     1
 69
     0
  7
Standard
140
6.0
170
     5
 62
     0
 63
   257
283
     0
 90
        4
 91
        0
  1

274
    -2
284
     1
 64
     0
275
    -2
285
     1
 65
     0
276
    -2
286
     1
 66
     0
277
    -2
287
     1
 67
     0
278
    -2
288
     1
 68
     0
279
    -2
289
     1
 69
     0
  7
Standard
140
4.5
170
     5
 62
     0
 63
   257
283
     0
 90
        4
 91
        0
  1

274
    -2
284
     1
 64
     0
275
    -2
285
     1
 65
     0
276
    -2
286
     1
 66
     0
277
    -2
287
     1
 67
     0
278
    -2
288
     1
 68
     0
279
    -2
289
     1
 69
     0
  0
VISUALSTYLE
  5
2F
102
{ACAD_REACTORS
330
2A
102
}
330
2A
100
AcDbVisualStyle
  2
2dWireframe
 70
     4
177
     3
291
     0
 70
    58
 90
        0
176
     1
 90
        2
176
     1
 90
        0
176
     1
 90
        0
176
     1
 40
0.6
176
     1
 40
30.0
176
     1
 62
     7
420
 16777215
176
     1
 90
        1
176
     1
 90
        4
176
     1
 62
     7
176
     1
 62
   257
176
     1
 90
        1
176
     1
 90
        1
176
     1
 40
1.0
176
     1
 90
        0
176
     1
 62
   257
176
     1
 40
1.0
176
     1
 90
        1
176
     1
 90
        6
176
     1
 90
        2
176
     1
 62
     7
176
     1
 90
        5
176
     1
 90
        0
176
     1
 90
        0
176
     1
290
     0
176
     1
 90
        1
176
     1
 40
0.0
176
     1
 90
        0
176
     1
290
     1
176
     1
290
     1
176
     1
290
     0
176
     1
290
     0
176
     1
290
     0
176
     1
290
     0
176
     1
290
     0
176
     1
290
     0
176
     1
290
     0
176
     1
 90
       50
176
     1
 40
0.0
176
     1
 40
1.0
176
     1
 90
        0
176
     1
 62
    18
420
        0
176
     1
 90
       50
176
     1
 90
        3
176
     1
 62
     5
420
      255
176
     1
290
     0
176
     1
 90
       50
176
     1
 90
       50
176
     1
 90
       50
176
     1
290
     0
176
     1
 90
       50
176
     1
 62
   256
176
     0
 40
1.0
176
     0
 90
        2
176
     1
  1
strokes_ogs.tif
176
     1
290
     0
176
     1
 40
1.0
176
     1
 40
1.0
176
     1
  0
VISUALSTYLE
  5
32
102
{ACAD_REACTORS
330
2A
102
}
330
2A
100
AcDbVisualStyle
  2
Basic
 70
     7
177
     3
291
     1
 70
    58
 90
        1
176
     1
 90
        0
176
     1
 90
        1
176
     1
 90
        0
176
     1
 40
0.6
176
     1
 40
30.0
176
     1
 62
     7
420
 16777215
176
     1
 90
        0
176
     1
 90
        4
176
     1
 62
     7
176
     1
 62
   257
176
     1
 90
        1
176
     1
 90
        1
176
     1
 40
1.0
176
     1
 90
        8
176
     1
 62
     7
176
     1
 40
1.0
176
     1
 90
        1
176
     1
 90
        6
176
     1
 90
        2
176
     1
 62
     7
176
     1
 90
        5
176
     1
 90
        0
176
     1
 90
        0
176
     1
290
     0
176
     1
 90
        1
176
     1
 40
0.0
176
     1
 90
        0
176
     1
290
     0
176
     1
290
     1
176
     1
290
     1
176
     1
290
     0
176
     1
290
     0
176
     1
290
     0
176
     1
290
     0
176
     1
290
     0
176
     1
290
     0
176
     1
 90
       50
176
     1
 40
0.0
176
     1
 40
1.0
176
     1
 90
        0
176
     1
 62
    18
420
        0
176
     1
 90
       50
176
     1
 90
        3
176
     1
 62
     5
420
      255
176
     1
290
     0
176
     1
 90
       50
176
     1
 90
       50
176
     1
 90
       50
176
     1
290
     0
176
     1
 90
       50
176
     1
 62
   256
176
     0
 40
1.0
176
     0
 90
        2
176
     1
  1
strokes_ogs.tif
176
     1
290
     0
176
     1
 40
1.0
176
     1
 40
1.0
176
     1
  0
VISUALSTYLE
  5
36
102
{ACAD_REACTORS
330
2A
102
}
330
2A
100
AcDbVisualStyle
  2
Brighten
 70
    12
177
     3
291
     1
 70
    58
 90
        2
176
     1
 90
        2
176
     1
 90
        0
176
     1
 90
        0
176
     1
 40
0.6
176
     1
 40
30.0
176
     1
 62
     7
420
 16777215
176
     1
 90
        1
176
     1
 90
        4
176
     1
 62
     7
176
     1
 62
   257
176
     1
 90
        1
176
     1
 90
        1
176
     1
 40
1.0
176
     1
 90
        8
176
     1
 62
     7
176
     1
 40
1.0
176
     1
 90
        1
176
     1
 90
        6
176
     1
 90
        2
176
     1
 62
     7
176
     1
 90
        5
176
     1
 90
        0
176
     1
 90
        0
176
     1
290
     0
176
     1
 90
        1
176
     1
 40
50.0
176
     1
 90
        0
176
     1
290
     0
176
     1
290
     1
176
     1
290
     1
176
     1
290
     0
176
     1
290
     0
176
     1
290
     0
176
     1
290
     0
176
     1
290
     0
176
     1
290
     0
176
     1
 90
       50
176
     1
 40
0.0
176
     1
 40
1.0
176
     1
 90
        0
176
     1
 62
    18
420
        0
176
     1
 90
       50
176
     1
 90
        3
176
     1
 62
     5
420
      255
176
     1
290
     0
176
     1
 90
       50
176
     1
 90
       50
176
     1
 90
       50
176
     1
290
     0
176
     1
 90
       50
176
     1
 62
   256
176
     0
 40
1.0
176
     0
 90
        2
176
     1
  1
strokes_ogs.tif
176
     1
290
     0
176
     1
 40
1.0
176
     1
 40
1.0
176
     1
  0
VISUALSTYLE
  5
3A
102
{ACAD_REACTORS
330
2A
102
}
330
2A
100
AcDbVisualStyle
  2
ColorChange
 70
    16
177
     3
291
     1
 70
    58
 90
        2
176
     1
 90
        2
176
     1
 90
        3
176
     1
 90
        0
176
     1
 40
0.6
176
     1
 40
30.0
176
     1
 62
     8
420
  8421504
176
     1
 90
        1
176
     1
 90
        4
176
     1
 62
     7
176
     1
 62
   257
176
     1
 90
        1
176
     1
 90
        1
176
     1
 40
1.0
176
     1
 90
        8
176
     1
 62
     8
420
  8421504
176
     1
 40
1.0
176
     1
 90
        1
176
     1
 90
        6
176
     1
 90
        2
176
     1
 62
     7
176
     1
 90
        5
176
     1
 90
        0
176
     1
 90
        0
176
     1
290
     0
176
     1
 90
        1
176
     1
 40
0.0
176
     1
 90
        0
176
     1
290
     0
176
     1
290
     1
176
     1
290
     1
176
     1
290
     0
176
     1
290
     0
176
     1
290
     0
176
     1
290
     0
176
     1
290
     0
176
     1
290
     0
176
     1
 90
       50
176
     1
 40
0.0
176
     1
 40
1.0
176
     1
 90
        0
176
     1
 62
    18
420
        0
176
     1
 90
       50
176
     1
 90
        3
176
     1
 62
     5
420
      255
176
     1
290
     0
176
     1
 90
       50
176
     1
 90
       50
176
     1
 90
       50
176
     1
290
     0
176
     1
 90
       50
176
     1
 62
   256
176
     0
 40
1.0
176
     0
 90
        2
176
     1
  1
strokes_ogs.tif
176
     1
290
     0
176
     1
 40
1.0
176
     1
 40
1.0
176
     1
  0
VISUALSTYLE
  5
34
102
{ACAD_REACTORS
330
2A
102
}
330
2A
100
AcDbVisualStyle
  2
Conceptual
 70
     9
177
     3
291
     0
 70
    58
 90
        3
176
     1
 90
        2
176
     1
 90
        0
176
     1
 90
        0
176
     1
 40
0.6
176
     1
 40
30.0
176
     1
 62
     7
420
 16777215
176
     1
 90
        2
176
     1
 90
        2
176
     1
 62
     7
176
     1
 62
   257
176
     1
 90
        1
176
     1
 90
        1
176
     1
 40
179.0
176
     1
 90
        8
176
     1
 62
     7
176
     1
 40
1.0
176
     1
 90
        1
176
     1
 90
        6
176
     1
 90
        2
176
     1
 62
     7
176
     1
 90
        3
176
     1
 90
        0
176
     1
 90
        0
176
     1
290
     0
176
     1
 90
        1
176
     1
 40
0.0
176
     1
 90
        0
176
     1
290
     0
176
     1
290
     1
176
     1
290
     1
176
     1
290
     0
176
     1
290
     0
176
     1
290
     0
176
     1
290
     0
176
     1
290
     0
176
     1
290
     0
176
     1
 90
       50
176
     1
 40
0.0
176
     1
 40
1.0
176
     1
 90
        0
176
     1
 62
    18
420
        0
176
     1
 90
       50
176
     1
 90
        3
176
     1
 62
     5
420
      255
176
     1
290
     0
176
     1
 90
       50
176
     1
 90
       50
176
     1
 90
       50
176
     1
290
     0
176
     1
 90
       50
176
     1
 62
   256
176
     0
 40
1.0
176
     0
 90
        2
176
     1
  1
strokes_ogs.tif
176
     1
290
     0
176
     1
 40
1.0
176
     1
 40
1.0
176
     1
  0
VISUALSTYLE
  5
35
102
{ACAD_REACTORS
330
2A
102
}
330
2A
100
AcDbVisualStyle
  2
Dim
 70
    11
177
     3
291
     1
 70
    58
 90
        2
176
     1
 90
        2
176
     1
 90
        0
176
     1
 90
        0
176
     1
 40
0.6
176
     1
 40
30.0
176
     1
 62
     7
420
 16777215
176
     1
 90
        1
176
     1
 90
        4
176
     1
 62
     7
176
     1
 62
   257
176
     1
 90
        1
176
     1
 90
        1
176
     1
 40
1.0
176
     1
 90
        8
176
     1
 62
     7
176
     1
 40
1.0
176
     1
 90
        1
176
     1
 90
        6
176
     1
 90
        2
176
     1
 62
     7
176
     1
 90
        5
176
     1
 90
        0
176
     1
 90
        0
176
     1
290
     0
176
     1
 90
        1
176
     1
 40
-50.0
176
     1
 90
        0
176
     1
290
     0
176
     1
290
     1
176
     1
290
     1
176
     1
290
     0
176
     1
290
     0
176
     1
290
     0
176
     1
290
     0
176
     1
290
     0
176
     1
290
     0
176
     1
 90
       50
176
     1
 40
0.0
176
     1
 40
1.0
176
     1
 90
        0
176
     1
 62
    18
420
        0
176
     1
 90
       50
176
     1
 90
        3
176
     1
 62
     5
420
      255
176
     1
290
     0
176
     1
 90
       50
176
     1
 90
       50
176
     1
 90
       50
176
     1
290
     0
176
     1
 90
       50
176
     1
 62
   256
176
     0
 40
1.0
176
     0
 90
        2
176
     1
  1
strokes_ogs.tif
176
     1
290
     0
176
     1
 40
1.0
176
     1
 40
1.0
176
     1
  0
VISUALSTYLE
  5
3D
102
{ACAD_REACTORS
330
2A
102
}
330
2A
100
AcDbVisualStyle
  2
EdgeColorOff
 70
    22
177
     3
291
     1
 70
    58
 90
        2
176
     0
 90
        2
176
     0
 90
        0
176
     0
 90
        0
176
     0
 40
0.6
176
     0
 40
30.0
176
     0
 62
     7
420
 16777215
176
     0
 90
        1
176
     0
 90
        4
176
     0
 62
     7
176
     0
 62
   257
176
     0
 90
        1
176
     0
 90
        1
176
     0
 40
1.0
176
     0
 90
        8
176
     2
 62
     7
176
     0
 40
1.0
176
     0
 90
        1
176
     0
 90
        6
176
     0
 90
        2
176
     0
 62
     7
176
     0
 90
        5
176
     0
 90
        0
176
     0
 90
        0
176
     0
290
     0
176
     0
 90
        1
176
     0
 40
0.0
176
     0
 90
        0
176
     0
290
     0
176
     0
290
     1
176
     0
290
     1
176
     0
290
     0
176
     0
290
     0
176
     0
290
     0
176
     0
290
     0
176
     0
290
     0
176
     0
290
     0
176
     0
 90
       50
176
     0
 40
0.0
176
     0
 40
1.0
176
     0
 90
        0
176
     0
 62
    18
420
        0
176
     0
 90
       50
176
     0
 90
        3
176
     0
 62
     5
420
      255
176
     0
290
     0
176
     0
 90
       50
176
     0
 90
       50
176
     0
 90
       50
176
     0
290
     0
176
     0
 90
       50
176
     0
 62
   256
176
     0
 40
1.0
176
     0
 90
        2
176
     0
  1
strokes_ogs.tif
176
     0
290
     0
176
     0
 40
1.0
176
     0
 40
1.0
176
     0
  0
VISUALSTYLE
  5
39
102
{ACAD_REACTORS
330
2A
102
}
330
2A
100
AcDbVisualStyle
  2
Facepattern
 70
    15
177
     3
291
     1
 70
    58
 90
        2
176
     1
 90
        2
176
     1
 90
        0
176
     1
 90
        0
176
     1
 40
0.6
176
     1
 40
30.0
176
     1
 62
     7
420
 16777215
176
     1
 90
        1
176
     1
 90
        4
176
     1
 62
     7
176
     1
 62
   257
176
     1
 90
        1
176
     1
 90
        1
176
     1
 40
1.0
176
     1
 90
        8
176
     1
 62
     7
176
     1
 40
1.0
176
     1
 90
        1
176
     1
 90
        6
176
     1
 90
        2
176
     1
 62
     7
176
     1
 90
        5
176
     1
 90
        0
176
     1
 90
        0
176
     1
290
     0
176
     1
 90
        1
176
     1
 40
0.0
176
     1
 90
        0
176
     1
290
     0
176
     1
290
     1
176
     1
290
     1
176
     1
290
     0
176
     1
290
     0
176
     1
290
     0
176
     1
290
     0
176
     1
290
     0
176
     1
290
     0
176
     1
 90
       50
176
     1
 40
0.0
176
     1
 40
1.0
176
     1
 90
        0
176
     1
 62
    18
420
        0
176
     1
 90
       50
176
     1
 90
        3
176
     1
 62
     5
420
      255
176
     1
290
     0
176
     1
 90
       50
176
     1
 90
       50
176
     1
 90
       50
176
     1
290
     0
176
     1
 90
       50
176
     1
 62
   256
176
     0
 40
1.0
176
     0
 90
        2
176
     1
  1
strokes_ogs.tif
176
     1
290
     0
176
     1
 40
1.0
176
     1
 40
1.0
176
     1
  0
VISUALSTYLE
  5
2B
102
{ACAD_REACTORS
330
2A
102
}
330
2A
100
AcDbVisualStyle
  2
Flat
 70
     0
177
     3
291
     1
 70
    58
 90
        2
176
     1
 90
        1
176
     1
 90
        1
176
     1
 90
        2
176
     1
 40
0.6
176
     1
 40
30.0
176
     1
 62
     7
420
 16777215
176
     1
 90
        0
176
     1
 90
        0
176
     1
 62
     7
176
     1
 62
   257
176
     1
 90
        1
176
     1
 90
        1
176
     1
 40
1.0
176
     1
 90
        8
176
     1
 62
     7
176
     1
 40
1.0
176
     1
 90
        1
176
     1
 90
        6
176
     1
 90
        2
176
     1
 62
     7
176
     1
 90
        5
176
     1
 90
        0
176
     1
 90
        0
176
     1
290
     0
176
     1
 90
       13
176
     1
 40
0.0
176
     1
 90
        0
176
     1
290
     0
176
     1
290
     1
176
     1
290
     1
176
     1
290
     0
176
     1
290
     0
176
     1
290
     0
176
     1
290
     0
176
     1
290
     0
176
     1
290
     0
176
     1
 90
       50
176
     1
 40
0.0
176
     1
 40
1.0
176
     1
 90
        0
176
     1
 62
    18
420
        0
176
     1
 90
       50
176
     1
 90
        3
176
     1
 62
     5
420
      255
176
     1
290
     0
176
     1
 90
       50
176
     1
 90
       50
176
     1
 90
       50
176
     1
290
     0
176
     1
 90
       50
176
     1
 62
   256
176
     0
 40
1.0
176
     0
 90
        2
176
     1
  1
strokes_ogs.tif
176
     1
290
     0
176
     1
 40
1.0
176
     1
 40
1.0
176
     1
  0
VISUALSTYLE
  5
2C
102
{ACAD_REACTORS
330
2A
102
}
330
2A
100
AcDbVisualStyle
  2
FlatWithEdges
 70
     1
177
     3
291
     1
 70
    58
 90
        2
176
     1
 90
        1
176
     1
 90
        1
176
     1
 90
        2
176
     1
 40
0.6
176
     1
 40
30.0
176
     1
 62
     7
420
 16777215
176
     1
 90
        1
176
     1
 90
        0
176
     1
 62
     7
176
     1
 62
   257
176
     1
 90
        1
176
     1
 90
        1
176
     1
 40
1.0
176
     1
 90
        0
176
     1
 62
   257
176
     1
 40
1.0
176
     1
 90
        1
176
     1
 90
        6
176
     1
 90
        2
176
     1
 62
     7
176
     1
 90
        5
176
     1
 90
        0
176
     1
 90
        0
176
     1
290
     0
176
     1
 90
       13
176
     1
 40
0.0
176
     1
 90
        0
176
     1
290
     0
176
     1
290
     1
176
     1
290
     1
176
     1
290
     0
176
     1
290
     0
176
     1
290
     0
176
     1
290
     0
176
     1
290
     0
176
     1
290
     0
176
     1
 90
       50
176
     1
 40
0.0
176
     1
 40
1.0
176
     1
 90
        0
176
     1
 62
    18
420
        0
176
     1
 90
       50
176
     1
 90
        3
176
     1
 62
     5
420
      255
176
     1
290
     0
176
     1
 90
       50
176
     1
 90
       50
176
     1
 90
       50
176
     1
290
     0
176
     1
 90
       50
176
     1
 62
   256
176
     0
 40
1.0
176
     0
 90
        2
176
     1
  1
strokes_ogs.tif
176
     1
290
     0
176
     1
 40
1.0
176
     1
 40
1.0
176
     1
  0
VISUALSTYLE
  5
2D
102
{ACAD_REACTORS
330
2A
102
}
330
2A
100
AcDbVisualStyle
  2
Gouraud
 70
     2
177
     3
291
     1
 70
    58
 90
        2
176
     1
 90
        2
176
     1
 90
        1
176
     1
 90
        2
176
     1
 40
0.6
176
     1
 40
30.0
176
     1
 62
     7
420
 16777215
176
     1
 90
        0
176
     1
 90
        0
176
     1
 62
     7
176
     1
 62
   257
176
     1
 90
        1
176
     1
 90
        1
176
     1
 40
1.0
176
     1
 90
        0
176
     1
 62
     7
176
     1
 40
1.0
176
     1
 90
        1
176
     1
 90
        6
176
     1
 90
        2
176
     1
 62
     7
176
     1
 90
        5
176
     1
 90
        0
176
     1
 90
        0
176
     1
290
     0
176
     1
 90
       13
176
     1
 40
0.0
176
     1
 90
        0
176
     1
290
     0
176
     1
290
     1
176
     1
290
     1
176
     1
290
     0
176
     1
290
     0
176
     1
290
     0
176
     1
290
     0
176
     1
290
     0
176
     1
290
     0
176
     1
 90
       50
176
     1
 40
0.0
176
     1
 40
1.0
176
     1
 90
        0
176
     1
 62
    18
420
        0
176
     1
 90
       50
176
     1
 90
        3
176
     1
 62
     5
420
      255
176
     1
290
     0
176
     1
 90
       50
176
     1
 90
       50
176
     1
 90
       50
176
     1
290
     0
176
     1
 90
       50
176
     1
 62
   256
176
     0
 40
1.0
176
     0
 90
        2
176
     1
  1
strokes_ogs.tif
176
     1
290
     0
176
     1
 40
1.0
176
     1
 40
1.0
176
     1
  0
VISUALSTYLE
  5
2E
102
{ACAD_REACTORS
330
2A
102
}
330
2A
100
AcDbVisualStyle
  2
GouraudWithEdges
 70
     3
177
     3
291
     1
 70
    58
 90
        2
176
     1
 90
        2
176
     1
 90
        1
176
     1
 90
        2
176
     1
 40
0.6
176
     1
 40
30.0
176
     1
 62
     7
420
 16777215
176
     1
 90
        1
176
     1
 90
        0
176
     1
 62
     7
176
     1
 62
   257
176
     1
 90
        1
176
     1
 90
        1
176
     1
 40
1.0
176
     1
 90
        0
176
     1
 62
   257
176
     1
 40
1.0
176
     1
 90
        1
176
     1
 90
        6
176
     1
 90
        2
176
     1
 62
     7
176
     1
 90
        5
176
     1
 90
        0
176
     1
 90
        0
176
     1
290
     0
176
     1
 90
       13
176
     1
 40
0.0
176
     1
 90
        0
176
     1
290
     0
176
     1
290
     1
176
     1
290
     1
176
     1
290
     0
176
     1
290
     0
176
     1
290
     0
176
     1
290
     0
176
     1
290
     0
176
     1
290
     0
176
     1
 90
       50
176
     1
 40
0.0
176
     1
 40
1.0
176
     1
 90
        0
176
     1
 62
    18
420
        0
176
     1
 90
       50
176
     1
 90
        3
176
     1
 62
     5
420
      255
176
     1
290
     0
176
     1
 90
       50
176
     1
 90
       50
176
     1
 90
       50
176
     1
290
     0
176
     1
 90
       50
176
     1
 62
   256
176
     0
 40
1.0
176
     0
 90
        2
176
     1
  1
strokes_ogs.tif
176
     1
290
     0
176
     1
 40
1.0
176
     1
 40
1.0
176
     1
  0
VISUALSTYLE
  5
31
102
{ACAD_REACTORS
330
2A
102
}
330
2A
100
AcDbVisualStyle
  2
Hidden
 70
     6
177
     3
291
     0
 70
    58
 90
        1
176
     1
 90
        2
176
     1
 90
        2
176
     1
 90
        0
176
     1
 40
0.6
176
     1
 40
30.0
176
     1
 62
     7
420
 16777215
176
     1
 90
        2
176
     1
 90
        2
176
     1
 62
     7
176
     1
 62
   257
176
     1
 90
        2
176
     1
 90
        1
176
     1
 40
40.0
176
     1
 90
        0
176
     1
 62
   257
176
     1
 40
1.0
176
     1
 90
        1
176
     1
 90
        6
176
     1
 90
        2
176
     1
 62
     7
176
     1
 90
        3
176
     1
 90
        0
176
     1
 90
        0
176
     1
290
     0
176
     1
 90
        1
176
     1
 40
0.0
176
     1
 90
        0
176
     1
290
     0
176
     1
290
     1
176
     1
290
     1
176
     1
290
     0
176
     1
290
     0
176
     1
290
     0
176
     1
290
     0
176
     1
290
     0
176
     1
290
     0
176
     1
 90
       50
176
     1
 40
0.0
176
     1
 40
1.0
176
     1
 90
        0
176
     1
 62
    18
420
        0
176
     1
 90
       50
176
     1
 90
        3
176
     1
 62
     5
420
      255
176
     1
290
     0
176
     1
 90
       50
176
     1
 90
       50
176
     1
 90
       50
176
     1
290
     0
176
     1
 90
       50
176
     1
 62
   256
176
     0
 40
1.0
176
     0
 90
        2
176
     1
  1
strokes_ogs.tif
176
     1
290
     0
176
     1
 40
1.0
176
     1
 40
1.0
176
     1
  0
VISUALSTYLE
  5
3B
102
{ACAD_REACTORS
330
2A
102
}
330
2A
100
AcDbVisualStyle
  2
JitterOff
 70
    20
177
     3
291
     1
 70
    58
 90
        2
176
     0
 90
        2
176
     0
 90
        0
176
     0
 90
        0
176
     0
 40
0.6
176
     0
 40
30.0
176
     0
 62
     7
420
 16777215
176
     0
 90
        1
176
     0
 90
        4
176
     0
 62
     7
176
     0
 62
   257
176
     0
 90
        1
176
     0
 90
        1
176
     0
 40
1.0
176
     0
 90
       10
176
     2
 62
     7
176
     0
 40
1.0
176
     0
 90
        1
176
     0
 90
        6
176
     0
 90
        2
176
     0
 62
     7
176
     0
 90
        5
176
     0
 90
        0
176
     0
 90
        0
176
     0
290
     0
176
     0
 90
        1
176
     0
 40
0.0
176
     0
 90
        0
176
     0
290
     0
176
     0
290
     1
176
     0
290
     1
176
     0
290
     0
176
     0
290
     0
176
     0
290
     0
176
     0
290
     0
176
     0
290
     0
176
     0
290
     0
176
     0
 90
       50
176
     0
 40
0.0
176
     0
 40
1.0
176
     0
 90
        0
176
     0
 62
    18
420
        0
176
     0
 90
       50
176
     0
 90
        3
176
     0
 62
     5
420
      255
176
     0
290
     0
176
     0
 90
       50
176
     0
 90
       50
176
     0
 90
       50
176
     0
290
     0
176
     0
 90
       50
176
     0
 62
   256
176
     0
 40
1.0
176
     0
 90
        2
176
     0
  1
strokes_ogs.tif
176
     0
290
     0
176
     0
 40
1.0
176
     0
 40
1.0
176
     0
  0
VISUALSTYLE
  5
38
102
{ACAD_REACTORS
330
2A
102
}
330
2A
100
AcDbVisualStyle
  2
Linepattern
 70
    14
177
     3
291
     1
 70
    58
 90
        2
176
     1
 90
        2
176
     1
 90
        0
176
     1
 90
        0
176
     1
 40
0.6
176
     1
 40
30.0
176
     1
 62
     7
420
 16777215
176
     1
 90
        1
176
     1
 90
        4
176
     1
 62
     7
176
     1
 62
   257
176
     1
 90
        7
176
     1
 90
        7
176
     1
 40
1.0
176
     1
 90
        8
176
     1
 62
     7
176
     1
 40
1.0
176
     1
 90
        1
176
     1
 90
        6
176
     1
 90
        2
176
     1
 62
     7
176
     1
 90
        5
176
     1
 90
        0
176
     1
 90
        0
176
     1
290
     0
176
     1
 90
        1
176
     1
 40
0.0
176
     1
 90
        0
176
     1
290
     0
176
     1
290
     1
176
     1
290
     1
176
     1
290
     0
176
     1
290
     0
176
     1
290
     0
176
     1
290
     0
176
     1
290
     0
176
     1
290
     0
176
     1
 90
       50
176
     1
 40
0.0
176
     1
 40
1.0
176
     1
 90
        0
176
     1
 62
    18
420
        0
176
     1
 90
       50
176
     1
 90
        3
176
     1
 62
     5
420
      255
176
     1
290
     0
176
     1
 90
       50
176
     1
 90
       50
176
     1
 90
       50
176
     1
290
     0
176
     1
 90
       50
176
     1
 62
   256
176
     0
 40
1.0
176
     0
 90
        2
176
     1
  1
strokes_ogs.tif
176
     1
290
     0
176
     1
 40
1.0
176
     1
 40
1.0
176
     1
  0
VISUALSTYLE
  5
3C
102
{ACAD_REACTORS
330
2A
102
}
330
2A
100
AcDbVisualStyle
  2
OverhangOff
 70
    21
177
     3
291
     1
 70
    58
 90
        2
176
     0
 90
        2
176
     0
 90
        0
176
     0
 90
        0
176
     0
 40
0.6
176
     0
 40
30.0
176
     0
 62
     7
420
 16777215
176
     0
 90
        1
176
     0
 90
        4
176
     0
 62
     7
176
     0
 62
   257
176
     0
 90
        1
176
     0
 90
        1
176
     0
 40
1.0
176
     0
 90
        9
176
     2
 62
     7
176
     0
 40
1.0
176
     0
 90
        1
176
     0
 90
        6
176
     0
 90
        2
176
     0
 62
     7
176
     0
 90
        5
176
     0
 90
        0
176
     0
 90
        0
176
     0
290
     0
176
     0
 90
        1
176
     0
 40
0.0
176
     0
 90
        0
176
     0
290
     0
176
     0
290
     1
176
     0
290
     1
176
     0
290
     0
176
     0
290
     0
176
     0
290
     0
176
     0
290
     0
176
     0
290
     0
176
     0
290
     0
176
     0
 90
       50
176
     0
 40
0.0
176
     0
 40
1.0
176
     0
 90
        0
176
     0
 62
    18
420
        0
176
     0
 90
       50
176
     0
 90
        3
176
     0
 62
     5
420
      255
176
     0
290
     0
176
     0
 90
       50
176
     0
 90
       50
176
     0
 90
       50
176
     0
290
     0
176
     0
 90
       50
176
     0
 62
   256
176
     0
 40
1.0
176
     0
 90
        2
176
     0
  1
strokes_ogs.tif
176
     0
290
     0
176
     0
 40
1.0
176
     0
 40
1.0
176
     0
  0
VISUALSTYLE
  5
33
102
{ACAD_REACTORS
330
2A
102
}
330
2A
100
AcDbVisualStyle
  2
Realistic
 70
     8
177
     3
291
     0
 70
    58
 90
        2
176
     1
 90
        3
176
     1
 90
        0
176
     1
 90
        2
176
     1
 40
0.6
176
     1
 40
30.0
176
     1
 62
     7
420
 16777215
176
     1
 90
        0
176
     1
 90
        0
176
     1
 62
     7
176
     1
 62
   257
176
     1
 90
        1
176
     1
 90
        1
176
     1
 40
1.0
176
     1
 90
        8
176
     1
 62
   257
176
     1
 40
1.0
176
     1
 90
        1
176
     1
 90
        6
176
     1
 90
        2
176
     1
 62
     7
176
     1
 90
        3
176
     1
 90
        0
176
     1
 90
        0
176
     1
290
     0
176
     1
 90
       13
176
     1
 40
0.0
176
     1
 90
        0
176
     1
290
     0
176
     1
290
     1
176
     1
290
     1
176
     1
290
     0
176
     1
290
     0
176
     1
290
     0
176
     1
290
     0
176
     1
290
     0
176
     1
290
     0
176
     1
 90
       50
176
     1
 40
0.0
176
     1
 40
1.0
176
     1
 90
        0
176
     1
 62
    18
420
        0
176
     1
 90
       50
176
     1
 90
        3
176
     1
 62
     5
420
      255
176
     1
290
     0
176
     1
 90
       50
176
     1
 90
       50
176
     1
 90
       50
176
     1
290
     0
176
     1
 90
       50
176
     1
 62
   256
176
     0
 40
1.0
176
     0
 90
        2
176
     1
  1
strokes_ogs.tif
176
     1
290
     0
176
     1
 40
1.0
176
     1
 40
1.0
176
     1
  0
VISUALSTYLE
  5
42
102
{ACAD_REACTORS
330
2A
102
}
330
2A
100
AcDbVisualStyle
  2
Shaded
 70
    27
177
     3
291
     0
 70
    58
 90
        2
176
     1
 90
        2
176
     1
 90
        1
176
     1
 90
        2
176
     1
 40
0.6
176
     1
 40
30.0
176
     1
 62
     7
420
 16777215
176
     1
 90
        0
176
     1
 90
        4
176
     1
 62
     7
176
     1
 62
   257
176
     1
 90
        1
176
     1
 90
        1
176
     1
 40
1.0
176
     1
 90
        8
176
     1
 62
   257
176
     1
 40
1.0
176
     1
 90
        1
176
     1
 90
        6
176
     1
 90
        2
176
     1
 62
     8
420
  7895160
176
     1
 90
        3
176
     1
 90
        0
176
     1
 90
        0
176
     1
290
     0
176
     1
 90
        5
176
     1
 40
0.0
176
     1
 90
        0
176
     1
290
     0
176
     1
290
     1
176
     1
290
     1
176
     1
290
     0
176
     1
290
     0
176
     1
290
     0
176
     1
290
     0
176
     1
290
     0
176
     1
290
     0
176
     1
 90
       50
176
     1
 40
0.0
176
     1
 40
1.0
176
     1
 90
        0
176
     1
 62
    18
420
        0
176
     1
 90
       50
176
     1
 90
        3
176
     1
 62
     5
420
      255
176
     1
290
     0
176
     1
 90
       50
176
     1
 90
       50
176
     1
 90
       50
176
     1
290
     0
176
     1
 90
       50
176
     1
 62
   256
176
     0
 40
1.0
176
     0
 90
        2
176
     1
  1
strokes_ogs.tif
176
     1
290
     0
176
     1
 40
1.0
176
     1
 40
1.0
176
     1
  0
VISUALSTYLE
  5
41
102
{ACAD_REACTORS
330
2A
102
}
330
2A
100
AcDbVisualStyle
  2
Shaded with edges
 70
    26
177
     3
291
     0
 70
    58
 90
        2
176
     1
 90
        2
176
     1
 90
        1
176
     1
 90
        2
176
     1
 40
0.6
176
     1
 40
30.0
176
     1
 62
     7
420
 16777215
176
     1
 90
        1
176
     1
 90
       10
176
     1
 62
     7
176
     1
 62
   257
176
     1
 90
        2
176
     1
 90
        1
176
     1
 40
1.0
176
     1
 90
        8
176
     1
 62
   257
176
     1
 40
1.0
176
     1
 90
        1
176
     1
 90
        6
176
     1
 90
        2
176
     1
 62
     7
176
     1
 90
        3
176
     1
 90
        0
176
     1
 90
        0
176
     1
290
     0
176
     1
 90
        5
176
     1
 40
0.0
176
     1
 90
        0
176
     1
290
     0
176
     1
290
     1
176
     1
290
     1
176
     1
290
     0
176
     1
290
     0
176
     1
290
     0
176
     1
290
     0
176
     1
290
     0
176
     1
290
     0
176
     1
 90
       50
176
     1
 40
0.0
176
     1
 40
1.0
176
     1
 90
        0
176
     1
 62
    18
420
        0
176
     1
 90
       50
176
     1
 90
        3
176
     1
 62
     5
420
      255
176
     1
290
     0
176
     1
 90
       50
176
     1
 90
       50
176
     1
 90
       50
176
     1
290
     0
176
     1
 90
       50
176
     1
 62
   256
176
     0
 40
1.0
176
     0
 90
        2
176
     1
  1
strokes_ogs.tif
176
     1
290
     0
176
     1
 40
1.0
176
     1
 40
1.0
176
     1
  0
VISUALSTYLE
  5
3E
102
{ACAD_REACTORS
330
2A
102
}
330
2A
100
AcDbVisualStyle
  2
Shades of Gray
 70
    23
177
     3
291
     0
 70
    58
 90
        2
176
     1
 90
        2
176
     1
 90
        3
176
     1
 90
        0
176
     1
 40
0.6
176
     1
 40
30.0
176
     1
 62
     7
420
 16777215
176
     1
 90
        2
176
     1
 90
        2
176
     1
 62
     7
176
     1
 62
     7
176
     1
 90
        1
176
     1
 90
        1
176
     1
 40
40.0
176
     1
 90
        8
176
     1
 62
     7
176
     1
 40
1.0
176
     1
 90
        1
176
     1
 90
        6
176
     1
 90
        2
176
     1
 62
     7
176
     1
 90
        3
176
     1
 90
        0
176
     1
 90
        0
176
     1
290
     0
176
     1
 90
        1
176
     1
 40
0.0
176
     1
 90
        0
176
     1
290
     0
176
     1
290
     1
176
     1
290
     1
176
     1
290
     0
176
     1
290
     0
176
     1
290
     0
176
     1
290
     0
176
     1
290
     0
176
     1
290
     0
176
     1
 90
       50
176
     1
 40
0.0
176
     1
 40
1.0
176
     1
 90
        0
176
     1
 62
    18
420
        0
176
     1
 90
       50
176
     1
 90
        3
176
     1
 62
     5
420
      255
176
     1
290
     0
176
     1
 90
       50
176
     1
 90
       50
176
     1
 90
       50
176
     1
290
     0
176
     1
 90
       50
176
     1
 62
   256
176
     0
 40
1.0
176
     0
 90
        2
176
     1
  1
strokes_ogs.tif
176
     1
290
     0
176
     1
 40
1.0
176
     1
 40
1.0
176
     1
  0
VISUALSTYLE
  5
3F
102
{ACAD_REACTORS
330
2A
102
}
330
2A
100
AcDbVisualStyle
  2
Sketchy
 70
    24
177
     3
291
     0
 70
    58
 90
        1
176
     1
 90
        2
176
     1
 90
        2
176
     1
 90
        0
176
     1
 40
0.6
176
     1
 40
30.0
176
     1
 62
     7
420
 16777215
176
     1
 90
        2
176
     1
 90
        2
176
     1
 62
     7
176
     1
 62
     7
176
     1
 90
        1
176
     1
 90
        1
176
     1
 40
40.0
176
     1
 90
       11
176
     1
 62
     7
176
     1
 40
1.0
176
     1
 90
        1
176
     1
 90
        6
176
     1
 90
        2
176
     1
 62
     7
176
     1
 90
        6
176
     1
 90
        0
176
     1
 90
        0
176
     1
290
     0
176
     1
 90
        1
176
     1
 40
0.0
176
     1
 90
        0
176
     1
290
     0
176
     1
290
     1
176
     1
290
     1
176
     1
290
     0
176
     1
290
     0
176
     1
290
     0
176
     1
290
     0
176
     1
290
     0
176
     1
290
     0
176
     1
 90
       50
176
     1
 40
0.0
176
     1
 40
1.0
176
     1
 90
        0
176
     1
 62
    18
420
        0
176
     1
 90
       50
176
     1
 90
        3
176
     1
 62
     5
420
      255
176
     1
290
     0
176
     1
 90
       50
176
     1
 90
       50
176
     1
 90
       50
176
     1
290
     0
176
     1
 90
       50
176
     1
 62
   256
176
     0
 40
1.0
176
     0
 90
        2
176
     1
  1
strokes_ogs.tif
176
     1
290
     0
176
     1
 40
1.0
176
     1
 40
1.0
176
     1
  0
VISUALSTYLE
  5
37
102
{ACAD_REACTORS
330
2A
102
}
330
2A
100
AcDbVisualStyle
  2
Thicken
 70
    13
177
     3
291
     1
 70
    58
 90
        2
176
     1
 90
        2
176
     1
 90
        0
176
     1
 90
        0
176
     1
 40
0.6
176
     1
 40
30.0
176
     1
 62
     7
420
 16777215
176
     1
 90
        1
176
     1
 90
        4
176
     1
 62
     7
176
     1
 62
   257
176
     1
 90
        1
176
     1
 90
        1
176
     1
 40
1.0
176
     1
 90
       12
176
     1
 62
     7
176
     1
 40
1.0
176
     1
 90
        1
176
     1
 90
        6
176
     1
 90
        2
176
     1
 62
     7
176
     1
 90
        5
176
     1
 90
        0
176
     1
 90
        0
176
     1
290
     0
176
     1
 90
        1
176
     1
 40
0.0
176
     1
 90
        0
176
     1
290
     0
176
     1
290
     1
176
     1
290
     1
176
     1
290
     0
176
     1
290
     0
176
     1
290
     0
176
     1
290
     0
176
     1
290
     0
176
     1
290
     0
176
     1
 90
       50
176
     1
 40
0.0
176
     1
 40
1.0
176
     1
 90
        0
176
     1
 62
    18
420
        0
176
     1
 90
       50
176
     1
 90
        3
176
     1
 62
     5
420
      255
176
     1
290
     0
176
     1
 90
       50
176
     1
 90
       50
176
     1
 90
       50
176
     1
290
     0
176
     1
 90
       50
176
     1
 62
   256
176
     0
 40
1.0
176
     0
 90
        2
176
     1
  1
strokes_ogs.tif
176
     1
290
     0
176
     1
 40
1.0
176
     1
 40
1.0
176
     1
  0
VISUALSTYLE
  5
30
102
{ACAD_REACTORS
330
2A
102
}
330
2A
100
AcDbVisualStyle
  2
Wireframe
 70
     5
177
     3
291
     0
 70
    58
 90
        0
176
     1
 90
        2
176
     1
 90
        0
176
     1
 90
        0
176
     1
 40
0.6
176
     1
 40
30.0
176
     1
 62
     7
420
 16777215
176
     1
 90
        1
176
     1
 90
        4
176
     1
 62
     7
176
     1
 62
   257
176
     1
 90
        1
176
     1
 90
        1
176
     1
 40
1.0
176
     1
 90
        0
176
     1
 62
   257
176
     1
 40
1.0
176
     1
 90
        1
176
     1
 90
        6
176
     1
 90
        2
176
     1
 62
     7
176
     1
 90
        3
176
     1
 90
        0
176
     1
 90
        0
176
     1
290
     0
176
     1
 90
        1
176
     1
 40
0.0
176
     1
 90
        0
176
     1
290
     0
176
     1
290
     1
176
     1
290
     1
176
     1
290
     0
176
     1
290
     0
176
     1
290
     0
176
     1
290
     0
176
     1
290
     0
176
     1
290
     0
176
     1
 90
       50
176
     1
 40
0.0
176
     1
 40
1.0
176
     1
 90
        0
176
     1
 62
    18
420
        0
176
     1
 90
       50
176
     1
 90
        3
176
     1
 62
     5
420
      255
176
     1
290
     0
176
     1
 90
       50
176
     1
 90
       50
176
     1
 90
       50
176
     1
290
     0
176
     1
 90
       50
176
     1
 62
   256
176
     0
 40
1.0
176
     0
 90
        2
176
     1
  1
strokes_ogs.tif
176
     1
290
     0
176
     1
 40
1.0
176
     1
 40
1.0
176
     1
  0
VISUALSTYLE
  5
40
102
{ACAD_REACTORS
330
2A
102
}
330
2A
100
AcDbVisualStyle
  2
X-Ray
 70
    25
177
     3
291
     0
 70
    58
 90
        2
176
     1
 90
        2
176
     1
 90
        1
176
     1
 90
        1
176
     1
 40
0.5
176
     1
 40
30.0
176
     1
 62
     7
420
 16777215
176
     1
 90
        1
176
     1
 90
        0
176
     1
 62
     7
176
     1
 62
   257
176
     1
 90
        1
176
     1
 90
        1
176
     1
 40
1.0
176
     1
 90
        8
176
     1
 62
     7
176
     1
 40
1.0
176
     1
 90
        1
176
     1
 90
        6
176
     1
 90
        2
176
     1
 62
     7
176
     1
 90
        3
176
     1
 90
        0
176
     1
 90
        0
176
     1
290
     0
176
     1
 90
       13
176
     1
 40
0.0
176
     1
 90
        0
176
     1
290
     0
176
     1
290
     1
176
     1
290
     1
176
     1
290
     0
176
     1
290
     0
176
     1
290
     0
176
     1
290
     0
176
     1
290
     0
176
     1
290
     0
176
     1
 90
       50
176
     1
 40
0.0
176
     1
 40
1.0
176
     1
 90
        0
176
     1
 62
    18
420
        0
176
     1
 90
       50
176
     1
 90
        3
176
     1
 62
     5
420
      255
176
     1
290
     0
176
     1
 90
       50
176
     1
 90
       50
176
     1
 90
       50
176
     1
290
     0
176
     1
 90
       50
176
     1
 62
   256
176
     0
 40
1.0
176
     0
 90
        2
176
     1
  1
strokes_ogs.tif
176
     1
290
     0
176
     1
 40
1.0
176
     1
 40
1.0
176
     1
  0
DICTIONARYVAR
  5
98
102
{ACAD_REACTORS
330
97
102
}
330
97
100
DictionaryVariables
280
     0
  1
1:1
  0
DICTIONARYVAR
  5
A0
102
{ACAD_REACTORS
330
97
102
}
330
97
100
DictionaryVariables
280
     0
  1
3.500000
  0
DICTIONARYVAR
  5
A1
102
{ACAD_REACTORS
330
97
102
}
330
97
100
DictionaryVariables
280
     0
  1
acadiso.lin
  0
DICTIONARYVAR
  5
9D
102
{ACAD_REACTORS
330
97
102
}
330
97
100
DictionaryVariables
280
     0
  1
Standard
  0
DICTIONARYVAR
  5
9C
102
{ACAD_REACTORS
330
97
102
}
330
97
100
DictionaryVariables
280
     0
  1
Standard
  0
DICTIONARY
  5
99
330
5A
100
AcDbDictionary
280
     1
281
     1
  3
ACAD_ROUNDTRIP_2008_TABLESTYLE_CELLSTYLEMAP
360
9A
  0
CELLSTYLEMAP
  5
9A
102
{ACAD_REACTORS
330
99
102
}
330
99
100
AcDbCellStyleMap
 90
        3
300
CELLSTYLE
  1
TABLEFORMAT_BEGIN
 90
        5
170
     1
 91
        0
 92
    32768
 62
   257
 93
        1
300
CONTENTFORMAT
  1
CONTENTFORMAT_BEGIN
 90
        0
 91
        0
 92
        4
 93
        0
300

 40
0.0
140
1.0
 94
        5
 62
     0
340
11
144
6.0
309
CONTENTFORMAT_END
171
     1
301
MARGIN
  1
CELLMARGIN_BEGIN
 40
1.5
 40
1.5
 40
1.5
 40
1.5
 40
1.5
 40
1.5
309
CELLMARGIN_END
 94
        6
 95
        1
302
GRIDFORMAT
  1
GRIDFORMAT_BEGIN
 90
        0
 91
        1
 62
     0
 92
       -2
340
14
 93
        0
 40
0.045
309
GRIDFORMAT_END
 95
        2
302
GRIDFORMAT
  1
GRIDFORMAT_BEGIN
 90
        0
 91
        1
 62
     0
 92
       -2
340
14
 93
        0
 40
0.045
309
GRIDFORMAT_END
 95
        4
302
GRIDFORMAT
  1
GRIDFORMAT_BEGIN
 90
        0
 91
        1
 62
     0
 92
       -2
340
14
 93
        0
 40
0.045
309
GRIDFORMAT_END
 95
        8
302
GRIDFORMAT
  1
GRIDFORMAT_BEGIN
 90
        0
 91
        1
 62
     0
 92
       -2
340
14
 93
        0
 40
0.045
309
GRIDFORMAT_END
 95
       16
302
GRIDFORMAT
  1
GRIDFORMAT_BEGIN
 90
        0
 91
        1
 62
     0
 92
       -2
340
14
 93
        0
 40
0.045
309
GRIDFORMAT_END
 95
       32
302
GRIDFORMAT
  1
GRIDFORMAT_BEGIN
 90
        0
 91
        1
 62
     0
 92
       -2
340
14
 93
        0
 40
0.045
309
GRIDFORMAT_END
309
TABLEFORMAT_END
  1
CELLSTYLE_BEGIN
 90
        1
 91
        1
300
_TITLE
309
CELLSTYLE_END
300
CELLSTYLE
  1
TABLEFORMAT_BEGIN
 90
        5
170
     1
 91
        0
 92
        0
 62
   257
 93
        1
300
CONTENTFORMAT
  1
CONTENTFORMAT_BEGIN
 90
        0
 91
        0
 92
        4
 93
        0
300

 40
0.0
140
1.0
 94
        5
 62
     0
340
11
144
4.5
309
CONTENTFORMAT_END
171
     1
301
MARGIN
  1
CELLMARGIN_BEGIN
 40
1.5
 40
1.5
 40
1.5
 40
1.5
 40
1.5
 40
1.5
309
CELLMARGIN_END
 94
        6
 95
        1
302
GRIDFORMAT
  1
GRIDFORMAT_BEGIN
 90
        0
 91
        1
 62
     0
 92
       -2
340
14
 93
        0
 40
0.045
309
GRIDFORMAT_END
 95
        2
302
GRIDFORMAT
  1
GRIDFORMAT_BEGIN
 90
        0
 91
        1
 62
     0
 92
       -2
340
14
 93
        0
 40
0.045
309
GRIDFORMAT_END
 95
        4
302
GRIDFORMAT
  1
GRIDFORMAT_BEGIN
 90
        0
 91
        1
 62
     0
 92
       -2
340
14
 93
        0
 40
0.045
309
GRIDFORMAT_END
 95
        8
302
GRIDFORMAT
  1
GRIDFORMAT_BEGIN
 90
        0
 91
        1
 62
     0
 92
       -2
340
14
 93
        0
 40
0.045
309
GRIDFORMAT_END
 95
       16
302
GRIDFORMAT
  1
GRIDFORMAT_BEGIN
 90
        0
 91
        1
 62
     0
 92
       -2
340
14
 93
        0
 40
0.045
309
GRIDFORMAT_END
 95
       32
302
GRIDFORMAT
  1
GRIDFORMAT_BEGIN
 90
        0
 91
        1
 62
     0
 92
       -2
340
14
 93
        0
 40
0.045
309
GRIDFORMAT_END
309
TABLEFORMAT_END
  1
CELLSTYLE_BEGIN
 90
        2
 91
        1
300
_HEADER
309
CELLSTYLE_END
300
CELLSTYLE
  1
TABLEFORMAT_BEGIN
 90
        5
170
     1
 91
        0
 92
        0
 62
   257
 93
        1
300
CONTENTFORMAT
  1
CONTENTFORMAT_BEGIN
 90
        0
 91
        0
 92
        4
 93
        0
300

 40
0.0
140
1.0
 94
        2
 62
     0
340
11
144
4.5
309
CONTENTFORMAT_END
171
     1
301
MARGIN
  1
CELLMARGIN_BEGIN
 40
1.5
 40
1.5
 40
1.5
 40
1.5
 40
1.5
 40
1.5
309
CELLMARGIN_END
 94
        6
 95
        1
302
GRIDFORMAT
  1
GRIDFORMAT_BEGIN
 90
        0
 91
        1
 62
     0
 92
       -2
340
14
 93
        0
 40
0.045
309
GRIDFORMAT_END
 95
        2
302
GRIDFORMAT
  1
GRIDFORMAT_BEGIN
 90
        0
 91
        1
 62
     0
 92
       -2
340
14
 93
        0
 40
0.045
309
GRIDFORMAT_END
 95
        4
302
GRIDFORMAT
  1
GRIDFORMAT_BEGIN
 90
        0
 91
        1
 62
     0
 92
       -2
340
14
 93
        0
 40
0.045
309
GRIDFORMAT_END
 95
        8
302
GRIDFORMAT
  1
GRIDFORMAT_BEGIN
 90
        0
 91
        1
 62
     0
 92
       -2
340
14
 93
        0
 40
0.045
309
GRIDFORMAT_END
 95
       16
302
GRIDFORMAT
  1
GRIDFORMAT_BEGIN
 90
        0
 91
        1
 62
     0
 92
       -2
340
14
 93
        0
 40
0.045
309
GRIDFORMAT_END
 95
       32
302
GRIDFORMAT
  1
GRIDFORMAT_BEGIN
 90
        0
 91
        1
 62
     0
 92
       -2
340
14
 93
        0
 40
0.045
309
GRIDFORMAT_END
309
TABLEFORMAT_END
  1
CELLSTYLE_BEGIN
 90
        3
 91
        2
300
_DATA
309
CELLSTYLE_END
  0
ENDSEC
  0
EOF
