  0
SECTION
  2
HEADER
  9
$ACADVER
  1
AC1027
  9
$ACADMAINTVER
 70
   105
  9
$DWGCODEPAGE
  3
ANSI_932
  9
$LASTSAVEDBY
  1
a.yasuda
  9
$REQUIREDVERSIONS
160
                 0
  9
$INSBASE
 10
0.0
 20
0.0
 30
0.0
  9
$EXTMIN
 10
0.0
 20
0.0
 30
0.0
  9
$EXTMAX
 10
302.9997823349792
 20
216.0016055409748
 30
0.0
  9
$LIMMIN
 10
0.0
 20
0.0
  9
$LIMMAX
 10
302.9997823349792
 20
216.0016055409748
  9
$ORTHOMODE
 70
     0
  9
$REGENMODE
 70
     1
  9
$FILLMODE
 70
     1
  9
$QTEXTMODE
 70
     0
  9
$MIRRTEXT
 70
     1
  9
$LTSCALE
 40
1.0
  9
$ATTMODE
 70
     1
  9
$TEXTSIZE
 40
2.5
  9
$TRACEWID
 40
1.0
  9
$TEXTSTYLE
  7
Standard
  9
$CLAYER
  8
0
  9
$CELTYPE
  6
ByLayer
  9
$CECOLOR
 62
   256
  9
$CELTSCALE
 40
1.0
  9
$DISPSILH
 70
     0
  9
$DIMSCALE
 40
1.0
  9
$DIMASZ
 40
2.5
  9
$DIMEXO
 40
0.625
  9
$DIMDLI
 40
3.75
  9
$DIMRND
 40
0.0
  9
$DIMDLE
 40
0.0
  9
$DIMEXE
 40
1.25
  9
$DIMTP
 40
0.0
  9
$DIMTM
 40
0.0
  9
$DIMTXT
 40
2.5
  9
$DIMCEN
 40
2.5
  9
$DIMTSZ
 40
0.0
  9
$DIMTOL
 70
     0
  9
$DIMLIM
 70
     0
  9
$DIMTIH
 70
     0
  9
$DIMTOH
 70
     0
  9
$DIMSE1
 70
     0
  9
$DIMSE2
 70
     0
  9
$DIMTAD
 70
     1
  9
$DIMZIN
 70
     8
  9
$DIMBLK
  1

  9
$DIMASO
 70
     1
  9
$DIMSHO
 70
     1
  9
$DIMPOST
  1

  9
$DIMAPOST
  1

  9
$DIMALT
 70
     0
  9
$DIMALTD
 70
     3
  9
$DIMALTF
 40
0.03937007874016
  9
$DIMLFAC
 40
1.0
  9
$DIMTOFL
 70
     1
  9
$DIMTVP
 40
0.0
  9
$DIMTIX
 70
     0
  9
$DIMSOXD
 70
     0
  9
$DIMSAH
 70
     0
  9
$DIMBLK1
  1

  9
$DIMBLK2
  1

  9
$DIMSTYLE
  2
ISO-25
  9
$DIMCLRD
 70
     0
  9
$DIMCLRE
 70
     0
  9
$DIMCLRT
 70
     0
  9
$DIMTFAC
 40
1.0
  9
$DIMGAP
 40
0.625
  9
$DIMJUST
 70
     0
  9
$DIMSD1
 70
     0
  9
$DIMSD2
 70
     0
  9
$DIMTOLJ
 70
     0
  9
$DIMTZIN
 70
     8
  9
$DIMALTZ
 70
     0
  9
$DIMALTTZ
 70
     0
  9
$DIMUPT
 70
     0
  9
$DIMDEC
 70
     2
  9
$DIMTDEC
 70
     2
  9
$DIMALTU
 70
     2
  9
$DIMALTTD
 70
     3
  9
$DIMTXSTY
  7
Standard
  9
$DIMAUNIT
 70
     0
  9
$DIMADEC
 70
     0
  9
$DIMALTRND
 40
0.0
  9
$DIMAZIN
 70
     0
  9
$DIMDSEP
 70
    44
  9
$DIMATFIT
 70
     3
  9
$DIMFRAC
 70
     0
  9
$DIMLDRBLK
  1

  9
$DIMLUNIT
 70
     2
  9
$DIMLWD
 70
    -2
  9
$DIMLWE
 70
    -2
  9
$DIMTMOVE
 70
     0
  9
$DIMFXL
 40
1.0
  9
$DIMFXLON
 70
     0
  9
$DIMJOGANG
 40
0.7853981633974483
  9
$DIMTFILL
 70
     0
  9
$DIMTFILLCLR
 70
     0
  9
$DIMARCSYM
 70
     0
  9
$DIMLTYPE
  6

  9
$DIMLTEX1
  6

  9
$DIMLTEX2
  6

  9
$DIMTXTDIRECTION
 70
     0
  9
$LUNITS
 70
     2
  9
$LUPREC
 70
     4
  9
$SKETCHINC
 40
1.0
  9
$FILLETRAD
 40
0.0
  9
$AUNITS
 70
     0
  9
$AUPREC
 70
     0
  9
$MENU
  1
.
  9
$ELEVATION
 40
0.0
  9
$PELEVATION
 40
0.0
  9
$THICKNESS
 40
0.0
  9
$LIMCHECK
 70
     0
  9
$CHAMFERA
 40
0.0
  9
$CHAMFERB
 40
0.0
  9
$CHAMFERC
 40
0.0
  9
$CHAMFERD
 40
0.0
  9
$SKPOLY
 70
     0
  9
$TDCREATE
 40
2459873.457579826
  9
$TDUCREATE
 40
2459873.082579826
  9
$TDUPDATE
 40
2459873.457579873
  9
$TDUUPDATE
 40
2459873.082579873
  9
$TDINDWG
 40
0.0000000116
  9
$TDUSRTIMER
 40
0.0000000116
  9
$USRTIMER
 70
     1
  9
$ANGBASE
 50
0.0
  9
$ANGDIR
 70
     0
  9
$PDMODE
 70
     0
  9
$PDSIZE
 40
0.0
  9
$PLINEWID
 40
0.0
  9
$SPLFRAME
 70
     0
  9
$SPLINETYPE
 70
     6
  9
$SPLINESEGS
 70
     8
  9
$HANDSEED
  5
A3
  9
$SURFTAB1
 70
     6
  9
$SURFTAB2
 70
     6
  9
$SURFTYPE
 70
     6
  9
$SURFU
 70
     6
  9
$SURFV
 70
     6
  9
$UCSBASE
  2

  9
$UCSNAME
  2

  9
$UCSORG
 10
0.0
 20
0.0
 30
0.0
  9
$UCSXDIR
 10
1.0
 20
0.0
 30
0.0
  9
$UCSYDIR
 10
0.0
 20
1.0
 30
0.0
  9
$UCSORTHOREF
  2

  9
$UCSORTHOVIEW
 70
     0
  9
$UCSORGTOP
 10
0.0
 20
0.0
 30
0.0
  9
$UCSORGBOTTOM
 10
0.0
 20
0.0
 30
0.0
  9
$UCSORGLEFT
 10
0.0
 20
0.0
 30
0.0
  9
$UCSORGRIGHT
 10
0.0
 20
0.0
 30
0.0
  9
$UCSORGFRONT
 10
0.0
 20
0.0
 30
0.0
  9
$UCSORGBACK
 10
0.0
 20
0.0
 30
0.0
  9
$PUCSBASE
  2

  9
$PUCSNAME
  2

  9
$PUCSORG
 10
0.0
 20
0.0
 30
0.0
  9
$PUCSXDIR
 10
1.0
 20
0.0
 30
0.0
  9
$PUCSYDIR
 10
0.0
 20
1.0
 30
0.0
  9
$PUCSORTHOREF
  2

  9
$PUCSORTHOVIEW
 70
     0
  9
$PUCSORGTOP
 10
0.0
 20
0.0
 30
0.0
  9
$PUCSORGBOTTOM
 10
0.0
 20
0.0
 30
0.0
  9
$PUCSORGLEFT
 10
0.0
 20
0.0
 30
0.0
  9
$PUCSORGRIGHT
 10
0.0
 20
0.0
 30
0.0
  9
$PUCSORGFRONT
 10
0.0
 20
0.0
 30
0.0
  9
$PUCSORGBACK
 10
0.0
 20
0.0
 30
0.0
  9
$USERI1
 70
     0
  9
$USERI2
 70
     0
  9
$USERI3
 70
     0
  9
$USERI4
 70
     0
  9
$USERI5
 70
     0
  9
$USERR1
 40
0.0
  9
$USERR2
 40
0.0
  9
$USERR3
 40
0.0
  9
$USERR4
 40
0.0
  9
$USERR5
 40
0.0
  9
$WORLDVIEW
 70
     1
  9
$SHADEDGE
 70
     3
  9
$SHADEDIF
 70
    70
  9
$TILEMODE
 70
     1
  9
$MAXACTVP
 70
    64
  9
$PINSBASE
 10
0.0
 20
0.0
 30
0.0
  9
$PLIMCHECK
 70
     0
  9
$PEXTMIN
 10
1.000000000000000E+20
 20
1.000000000000000E+20
 30
1.000000000000000E+20
  9
$PEXTMAX
 10
-1.000000000000000E+20
 20
-1.000000000000000E+20
 30
-1.000000000000000E+20
  9
$PLIMMIN
 10
0.0
 20
0.0
  9
$PLIMMAX
 10
420.0
 20
297.0
  9
$UNITMODE
 70
     0
  9
$VISRETAIN
 70
     1
  9
$PLINEGEN
 70
     0
  9
$PSLTSCALE
 70
     1
  9
$TREEDEPTH
 70
  3020
  9
$CMLSTYLE
  2
Standard
  9
$CMLJUST
 70
     0
  9
$CMLSCALE
 40
20.0
  9
$PROXYGRAPHICS
 70
     1
  9
$MEASUREMENT
 70
     1
  9
$CELWEIGHT
370
    -1
  9
$ENDCAPS
280
     0
  9
$JOINSTYLE
280
     0
  9
$LWDISPLAY
290
     0
  9
$INSUNITS
 70
     4
  9
$HYPERLINKBASE
  1

  9
$STYLESHEET
  1

  9
$XEDIT
290
     1
  9
$CEPSNTYPE
380
     0
  9
$PSTYLEMODE
290
     1
  9
$FINGERPRINTGUID
  2
{9d5c973c-b365-48aa-9556-f4bc205ae24c}
  9
$VERSIONGUID
  2
{FAEB1C32-E019-11D5-929B-00C0DF256EC4}
  9
$EXTNAMES
290
     1
  9
$PSVPSCALE
 40
0.0
  9
$OLESTARTUP
290
     0
  9
$SORTENTS
280
   127
  9
$INDEXCTL
280
     0
  9
$HIDETEXT
280
     1
  9
$XCLIPFRAME
280
     2
  9
$HALOGAP
280
     0
  9
$OBSCOLOR
 70
   257
  9
$OBSLTYPE
280
     0
  9
$INTERSECTIONDISPLAY
280
     0
  9
$INTERSECTIONCOLOR
 70
   257
  9
$DIMASSOC
280
     2
  9
$PROJECTNAME
  1

  9
$CAMERADISPLAY
290
     0
  9
$LENSLENGTH
 40
50.0
  9
$CAMERAHEIGHT
 40
0.0
  9
$STEPSPERSEC
 40
2.0
  9
$STEPSIZE
 40
6.0
  9
$3DDWFPREC
 40
2.0
  9
$PSOLWIDTH
 40
5.0
  9
$PSOLHEIGHT
 40
80.0
  9
$LOFTANG1
 40
1.570796326794897
  9
$LOFTANG2
 40
1.570796326794897
  9
$LOFTMAG1
 40
0.0
  9
$LOFTMAG2
 40
0.0
  9
$LOFTPARAM
 70
     7
  9
$LOFTNORMALS
280
     1
  9
$LATITUDE
 40
37.795
  9
$LONGITUDE
 40
-122.394
  9
$NORTHDIRECTION
 40
0.0
  9
$TIMEZONE
 70
 -8000
  9
$LIGHTGLYPHDISPLAY
280
     1
  9
$TILEMODELIGHTSYNCH
280
     1
  9
$CMATERIAL
347
44
  9
$SOLIDHIST
280
     0
  9
$SHOWHIST
280
     1
  9
$DWFFRAME
280
     2
  9
$DGNFRAME
280
     2
  9
$REALWORLDSCALE
290
     1
  9
$INTERFERECOLOR
 62
   256
  9
$CSHADOW
280
     0
  9
$SHADOWPLANELOCATION
 40
0.0
  0
ENDSEC
  0
SECTION
  2
CLASSES
  0
CLASS
  1
ACDBDICTIONARYWDFLT
  2
AcDbDictionaryWithDefault
  3
ObjectDBX Classes
 90
        0
 91
        3
280
     0
281
     0
  0
CLASS
  1
VISUALSTYLE
  2
AcDbVisualStyle
  3
ObjectDBX Classes
 90
     4095
 91
        3
280
     0
281
     0
  0
CLASS
  1
MATERIAL
  2
AcDbMaterial
  3
ObjectDBX Classes
 90
     1153
 91
        3
280
     0
281
     0
  0
CLASS
  1
SCALE
  2
AcDbScale
  3
ObjectDBX Classes
 90
     1153
 91
        3
280
     0
281
     0
  0
CLASS
  1
TABLESTYLE
  2
AcDbTableStyle
  3
ObjectDBX Classes
 90
     4095
 91
        3
280
     0
281
     0
  0
CLASS
  1
MLEADERSTYLE
  2
AcDbMLeaderStyle
  3
ACDB_MLEADERSTYLE_CLASS
 90
     4095
 91
        3
280
     0
281
     0
  0
CLASS
  1
SUN
  2
AcDbSun
  3
SCENEOE
 90
     1153
 91
        3
280
     0
281
     0
  0
CLASS
  1
DICTIONARYVAR
  2
AcDbDictionaryVar
  3
ObjectDBX Classes
 90
        0
 91
        3
280
     0
281
     0
  0
CLASS
  1
CELLSTYLEMAP
  2
AcDbCellStyleMap
  3
ObjectDBX Classes
 90
     1152
 91
        3
280
     0
281
     0
  0
ENDSEC
  0
SECTION
  2
TABLES
  0
TABLE
  2
VPORT
  5
8
330
0
100
AcDbSymbolTable
 70
     1
  0
VPORT
  5
29
330
8
100
AcDbSymbolTableRecord
100
AcDbViewportTableRecord
  2
*Active
 70
     0
 10
0.0
 20
0.0
 11
1.0
 21
1.0
 12
151.4998911674896
 22
108.0008027704874
 13
0.0
 23
0.0
 14
10.0
 24
10.0
 15
10.0
 25
10.0
 16
0.0
 26
0.0
 36
1.0
 17
0.0
 27
0.0
 37
0.0
 40
237.6017660950723
 41
1.402766343222857
 42
50.0
 43
0.0
 44
0.0
 50
0.0
 51
0.0
 71
     0
 72
 10000
 73
     1
 74
     3
 75
     0
 76
     0
 77
     0
 78
     0
281
     0
 65
     1
110
0.0
120
0.0
130
0.0
111
1.0
121
0.0
131
0.0
112
0.0
122
1.0
132
0.0
 79
     0
146
0.0
348
2F
 60
     3
 61
     5
292
     1
282
     1
141
0.0
142
0.0
 63
   250
361
5D
  0
ENDTAB
  0
TABLE
  2
LTYPE
  5
5
330
0
100
AcDbSymbolTable
 70
     2
  0
LTYPE
  5
14
330
5
100
AcDbSymbolTableRecord
100
AcDbLinetypeTableRecord
  2
ByBlock
 70
     0
  3

 72
    65
 73
     0
 40
0.0
  0
LTYPE
  5
15
330
5
100
AcDbSymbolTableRecord
100
AcDbLinetypeTableRecord
  2
ByLayer
 70
     0
  3

 72
    65
 73
     0
 40
0.0
  0
LTYPE
  5
16
330
5
100
AcDbSymbolTableRecord
100
AcDbLinetypeTableRecord
  2
Continuous
 70
     0
  3
Solid line
 72
    65
 73
     0
 40
0.0
  0
LTYPE
  5
5F
330
5
100
AcDbSymbolTableRecord
100
AcDbLinetypeTableRecord
  2
UserDefined01
 70
     0
  3
----------------                
 72
    65
 73
     2
 40
0.7055555449591743
 49
0.3527777724795871
 74
     0
 49
-0.3527777724795871
 74
     0
  0
ENDTAB
  0
TABLE
  2
LAYER
  5
2
330
0
100
AcDbSymbolTable
 70
     3
  0
LAYER
  5
10
330
2
100
AcDbSymbolTableRecord
100
AcDbLayerTableRecord
  2
0
 70
     0
 62
     7
  6
Continuous
370
    -3
390
F
347
46
348
0
  0
LAYER
  5
60
330
2
100
AcDbSymbolTableRecord
100
AcDbLayerTableRecord
  2
外枠
 70
     0
 62
     7
  6
Continuous
370
    -3
390
F
347
46
348
0
  0
LAYER
  5
61
330
2
100
AcDbSymbolTableRecord
100
AcDbLayerTableRecord
  2
ISS138金台
 70
     0
 62
     7
  6
Continuous
370
    -3
390
F
347
46
348
0
  0
ENDTAB
  0
TABLE
  2
STYLE
  5
3
330
0
100
AcDbSymbolTable
 70
     2
  0
STYLE
  5
11
330
3
100
AcDbSymbolTableRecord
100
AcDbTextStyleTableRecord
  2
Standard
 70
     0
 40
0.0
 41
1.0
 50
0.0
 71
     0
 42
2.5
  3

  4

  0
STYLE
  5
5E
330
3
100
AcDbSymbolTableRecord
100
AcDbTextStyleTableRecord
  2
MS Gothic
 70
     0
 40
1.0
 41
1.0
 50
0.0
 71
     0
 42
2.5
  3
msgothic.ttc
  4

1001
ACAD
1000
MS Gothic
1071
    32817
  0
ENDTAB
  0
TABLE
  2
VIEW
  5
6
330
0
100
AcDbSymbolTable
 70
     0
  0
ENDTAB
  0
TABLE
  2
UCS
  5
7
330
0
100
AcDbSymbolTable
 70
     0
  0
ENDTAB
  0
TABLE
  2
APPID
  5
9
330
0
100
AcDbSymbolTable
 70
     1
  0
APPID
  5
12
330
9
100
AcDbSymbolTableRecord
100
AcDbRegAppTableRecord
  2
ACAD
 70
     0
  0
ENDTAB
  0
TABLE
  2
DIMSTYLE
  5
A
330
0
100
AcDbSymbolTable
 70
     1
100
AcDbDimStyleTable
  0
DIMSTYLE
105
27
330
A
100
AcDbSymbolTableRecord
100
AcDbDimStyleTableRecord
  2
ISO-25
 70
     0
 41
2.5
 42
0.625
 43
3.75
 44
1.25
 73
     0
 74
     0
 77
     1
 78
     8
140
2.5
141
2.5
143
0.03937007874016
147
0.625
171
     3
172
     1
178
     0
271
     2
272
     2
274
     3
278
    44
283
     0
284
     8
340
11
  0
ENDTAB
  0
TABLE
  2
BLOCK_RECORD
  5
1
330
0
100
AcDbSymbolTable
 70
     1
  0
BLOCK_RECORD
  5
1F
330
1
100
AcDbSymbolTableRecord
100
AcDbBlockTableRecord
  2
*Model_Space
340
22
 70
     0
280
     1
281
     0
  0
BLOCK_RECORD
  5
1B
330
1
100
AcDbSymbolTableRecord
100
AcDbBlockTableRecord
  2
*Paper_Space
340
1E
 70
     0
280
     1
281
     0
  0
BLOCK_RECORD
  5
23
330
1
100
AcDbSymbolTableRecord
100
AcDbBlockTableRecord
  2
*Paper_Space0
340
26
 70
     0
280
     1
281
     0
  0
ENDTAB
  0
ENDSEC
  0
SECTION
  2
BLOCKS
  0
BLOCK
  5
20
330
1F
100
AcDbEntity
  8
0
100
AcDbBlockBegin
  2
*Model_Space
 70
     0
 10
0.0
 20
0.0
 30
0.0
  3
*Model_Space
  1

  0
ENDBLK
  5
21
330
1F
100
AcDbEntity
  8
0
100
AcDbBlockEnd
  0
BLOCK
  5
1C
330
1B
100
AcDbEntity
 67
     1
  8
0
100
AcDbBlockBegin
  2
*Paper_Space
 70
     0
 10
0.0
 20
0.0
 30
0.0
  3
*Paper_Space
  1

  0
ENDBLK
  5
1D
330
1B
100
AcDbEntity
 67
     1
  8
0
100
AcDbBlockEnd
  0
BLOCK
  5
24
330
23
100
AcDbEntity
  8
0
100
AcDbBlockBegin
  2
*Paper_Space0
 70
     0
 10
0.0
 20
0.0
 30
0.0
  3
*Paper_Space0
  1

  0
ENDBLK
  5
25
330
23
100
AcDbEntity
  8
0
100
AcDbBlockEnd
  0
ENDSEC
  0
SECTION
  2
ENTITIES
  0
LWPOLYLINE
  5
62
330
1F
100
AcDbEntity
  8
外枠
  6
Continuous
 62
   250
420
  2367521
370
   100
100
AcDbPolyline
 90
        5
 70
     0
 43
0.0
 10
281.9999662644599
 20
13.29407825637392
 10
20.99981607051935
 20
13.29407825637392
 10
20.99981607051935
 20
193.0018900389566
 10
281.9999662644599
 20
193.0018900389566
 10
281.9999662644599
 20
13.29407825637392
  0
LINE
  5
63
330
1F
100
AcDbEntity
  8
外枠
  6
Continuous
 62
   250
420
  2367521
370
    25
100
AcDbLine
 10
223.3097080177524
 20
174.0786160074276
 30
0.0
 11
281.9999232007669
 21
174.0786160074276
 31
0.0
  0
LINE
  5
64
330
1F
100
AcDbEntity
  8
外枠
  6
Continuous
 62
   250
420
  2367521
370
    25
100
AcDbLine
 10
223.3097080177524
 20
50.37109023844297
 30
0.0
 11
281.9999232007669
 21
50.37109023844297
 31
0.0
  0
LINE
  5
65
330
1F
100
AcDbEntity
  8
外枠
  6
Continuous
 62
   250
420
  2367521
370
    25
100
AcDbLine
 10
223.3097080177524
 20
36.25997933925949
 30
0.0
 11
281.9999232007669
 21
36.25997933925949
 31
0.0
  0
LINE
  5
66
330
1F
100
AcDbEntity
  8
外枠
  6
Continuous
 62
   250
420
  2367521
370
    50
100
AcDbLine
 10
223.0158413772006
 20
193.3637327187979
 30
0.0
 11
223.0158413772006
 21
13.29396655992039
 31
0.0
  0
TEXT
  5
67
330
1F
100
AcDbEntity
  8
外枠
  6
Continuous
 62
   250
420
  2367521
100
AcDbText
 10
224.7190965599536
 20
186.6888051931772
 30
0.0
 40
2.688166626294454
  1
品名：
 41
0.974166170756022
  7
MS Gothic
100
AcDbText
  0
TEXT
  5
68
330
1F
100
AcDbEntity
  8
外枠
  6
Continuous
 62
   250
420
  2367521
100
AcDbText
 10
224.7190965599536
 20
168.1080059455944
 30
0.0
 40
2.688166626294454
  1
仕様：
 41
0.9978878657023111
  7
MS Gothic
100
AcDbText
  0
TEXT
  5
69
330
1F
100
AcDbEntity
  8
外枠
  6
Continuous
 62
   250
420
  2367521
100
AcDbText
 10
224.7190965599536
 20
44.16660664327048
 30
0.0
 40
2.688166626294454
  1
縮尺：
 41
0.9939999262491861
  7
MS Gothic
100
AcDbText
  0
TEXT
  5
6A
330
1F
100
AcDbEntity
  8
外枠
  6
Continuous
 62
   250
420
  2367521
100
AcDbText
 10
250.2379519709696
 20
40.59738467878129
 30
0.0
 40
2.150533301035563
  1
1/1
 41
1.000003814697266
  7
MS Gothic
100
AcDbText
  0
TEXT
  5
6B
330
1F
100
AcDbEntity
  8
外枠
  6
Continuous
 62
   250
420
  2367521
100
AcDbText
 10
232.7757967427735
 20
181.9845273775436
 30
0.0
 40
2.688166626294454
  1
フレックス
 41
0.999647979736328
  7
MS Gothic
100
AcDbText
  0
TEXT
  5
6C
330
1F
100
AcDbEntity
  8
外枠
  6
Continuous
 62
   250
420
  2367521
100
AcDbText
 10
232.7757967427735
 20
176.6928607903498
 30
0.0
 40
2.688166626294454
  1
フロアーエッジFEA-3-F(S)
 41
1.003047879536947
  7
MS Gothic
100
AcDbText
  0
TEXT
  5
6D
330
1F
100
AcDbEntity
  8
外枠
  6
Continuous
 62
   250
420
  2367521
100
AcDbText
 10
226.1633020978884
 20
24.25683874973963
 30
0.0
 40
2.553758294979732
  1
ヤスダインテリアサプライ株式会社
 41
1.0194908945184
  7
MS Gothic
100
AcDbText
  0
TEXT
  5
6E
330
1F
100
AcDbEntity
  8
外枠
  6
Continuous
 62
   250
420
  2367521
100
AcDbText
 10
227.7635273953072
 20
161.7763665048245
 30
0.0
 40
2.150533301035563
  1
材質
 41
1.028502464294433
  7
MS Gothic
100
AcDbText
  0
TEXT
  5
6F
330
1F
100
AcDbEntity
  8
外枠
  6
Continuous
 62
   250
420
  2367521
100
AcDbText
 10
233.5984640006548
 20
156.9052368606422
 30
0.0
 40
2.016124969720841
  1
アルミ押出形材（A6063S-T5）
 41
1.033106825086805
  7
MS Gothic
100
AcDbText
  0
TEXT
  5
70
330
1F
100
AcDbEntity
  8
外枠
  6
Continuous
 62
   250
420
  2367521
100
AcDbText
 10
233.5984640006548
 20
152.6719035908871
 30
0.0
 40
2.016124969720841
  1
シルバー仕上（アルマイト）
 41
1.002858636318109
  7
MS Gothic
100
AcDbText
  0
HATCH
  5
71
330
1F
100
AcDbEntity
  8
ISS138金台
  6
Continuous
 62
     7
420
 16777215
370
    50
100
AcDbHatch
 10
0.0
 20
0.0
 30
0.0
210
0.0
220
0.0
230
1.0
  2
SOLID
 70
     1
 71
     0
 91
        1
 92
        3
 72
     0
 73
     1
 93
      109
 10
114.8816918815565
 20
110.4945566325033
 10
114.5507904650852
 20
110.4942013570366
 10
114.397451420486
 20
110.4864606582325
 10
114.248569468105
 20
110.4637337942889
 10
114.1048766907221
 20
110.4267743798321
 10
113.9671159370401
 20
110.3763575613347
 10
113.8360838853785
 20
110.3132046556534
 10
113.7125018525937
 20
110.2380908092608
 10
113.5971126873887
 20
110.1517481049369
 10
113.4906915362363
 20
110.0549516891543
 10
113.3939704819164
 20
109.9484336446929
 10
113.3077031390551
 20
109.8329691180253
 10
113.2326538882019
 20
109.7092901919314
 10
113.1695548121368
 20
109.5781720128838
 10
113.1191810573324
 20
109.4403466636625
 10
113.0822647065684
 20
109.2965677588937
 10
113.0595593744713
 20
109.1475996791269
 10
113.0518294415904
 20
108.9941960389883
 10
113.0588918872309
 20
105.0035697425847
 10
113.0563941930409
 20
104.9524100753843
 10
113.0490518333964
 20
104.9026284463576
 10
113.0371231904549
 20
104.8545370672784
 10
113.0207912849114
 20
104.8083727884578
 10
113.0003037330001
 20
104.7644155238999
 10
112.9758973850322
 20
104.7229021239157
 10
112.9477983253956
 20
104.6841017365862
 10
112.9162326384782
 20
104.6482835099919
 10
112.8814371745911
 20
104.6156950603674
 10
112.8436272521988
 20
104.5866055357935
 10
112.8030397216126
 20
104.5612733184276
 10
112.7599006672204
 20
104.5399675563506
 10
112.7144361734099
 20
104.5229466317202
 10
112.6668830904924
 20
104.5104581607706
 10
112.6174675028556
 20
104.5027712915827
 10
112.5664154948875
 20
104.5001551722372
 10
111.8608599499284
 20
104.4962794398735
 10
111.8608599499284
 20
111.7063474196968
 10
117.8584265916248
 20
111.7063474196968
 10
117.3447843942065
 20
106.4369016980547
 10
117.3471851950874
 20
106.3686888084542
 10
117.3542476407278
 20
106.3041686305223
 10
117.3658317741259
 20
106.2431258457946
 10
117.3817761064331
 20
106.1853989654224
 10
117.4019191488009
 20
106.1307942027876
 10
117.4260994123809
 20
106.079117771272
 10
117.4541554083246
 20
106.0301758842575
 10
117.4859364137067
 20
105.9838070528955
 10
117.5212809396786
 20
105.9397959587214
 10
117.5600167314688
 20
105.8979703469635
 10
117.601993066152
 20
105.8581364310036
 10
117.6470592208029
 20
105.8201111901467
 10
117.6950321747265
 20
105.783711603698
 10
117.7457719709208
 20
105.7487331191159
 10
117.7991171205374
 20
105.7149927157055
 10
117.8549061347278
 20
105.6823181386951
 10
127.1407194752222
 20
105.4875841192673
 10
127.3612055830219
 20
105.2459322063927
 10
127.5816916908217
 20
105.4727702088995
 10
136.0705790958835
 20
105.2967258322032
 10
136.152227857678
 20
105.2926024836052
 10
136.231529648208
 20
105.280458522199
 10
136.3080968942369
 20
105.2607353508372
 10
136.3815204906819
 20
105.233809776833
 10
136.4513913324602
 20
105.2001124371155
 10
136.517300314489
 20
105.1600093730748
 10
136.5788490976087
 20
105.1139312216401
 10
136.6356501085829
 20
105.0622655560477
 10
136.6872619445591
 20
105.0054214813806
 10
136.7333185641473
 20
104.9437973367983
 10
136.7733893304184
 20
104.8778022273837
 10
136.8070866701358
 20
104.8078344922962
 10
136.8340014782168
 20
104.7342924706956
 10
136.8537138836554
 20
104.6575852676647
 10
136.8658470791383
 20
104.5781112223631
 10
136.8699811936596
 20
104.4962794398735
 10
136.8643290839625
 20
104.4962794398735
 10
117.8584265916248
 20
104.5015655081806
 10
117.6794754156557
 20
104.5355750596718
 10
117.5065639226199
 20
104.5850983065409
 10
117.3404134293742
 20
104.6493816341616
 10
117.1818206142376
 20
104.7276498960612
 10
117.0315283259131
 20
104.8191494776135
 10
116.8903117108736
 20
104.9231267641921
 10
116.758913617822
 20
105.0387958434011
 10
116.6381199591544
 20
105.1654031006142
 10
116.5286951154202
 20
105.3021949212052
 10
116.4313711693992
 20
105.4484069246246
 10
116.3469340334874
 20
105.6032639643996
 10
116.2761373223111
 20
105.7660124259039
 10
116.2197454164198
 20
105.9358879285881
 10
116.1785226963629
 20
106.1121260919026
 10
116.1532335426899
 20
106.2939733012212
 10
116.1446315700272
 20
106.4806544100712
 10
116.3929906530757
 20
108.9941960389883
 10
116.3851207631928
 20
109.1476104450501
 10
116.3620386237825
 20
109.2965892907402
 10
116.3244978494711
 20
109.4403789614322
 10
116.2733381822707
 20
109.5782258425
 10
116.2093024708843
 20
109.7093763193172
 10
116.1332089254777
 20
109.8330875431808
 10
116.0458434584467
 20
109.9485843676181
 10
115.9479596844176
 20
110.055123943926
 10
115.8403758135561
 20
110.1519634234016
 10
115.7238885241814
 20
110.238327659572
 10
115.5992514309198
 20
110.3134845696574
 10
115.467282743937
 20
110.3766590071852
 10
115.3287468437823
 20
110.4271081234522
 10
115.1844511746983
 20
110.4640783038324
 10
115.0351708831578
 20
110.486805167776
 97
        0
 75
     1
 76
     1
 98
        0
  0
LWPOLYLINE
  5
72
330
1F
100
AcDbEntity
  8
ISS138金台
  6
Continuous
 62
     7
420
 16777215
370
    50
100
AcDbPolyline
 90
      110
 70
     0
 43
0.0
 10
114.8816918815565
 20
110.4945566325033
 10
114.5507904650852
 20
110.4942013570366
 10
114.397451420486
 20
110.4864606582325
 10
114.248569468105
 20
110.4637337942889
 10
114.1048766907221
 20
110.4267743798321
 10
113.9671159370401
 20
110.3763575613347
 10
113.8360838853785
 20
110.3132046556534
 10
113.7125018525937
 20
110.2380908092608
 10
113.5971126873887
 20
110.1517481049369
 10
113.4906915362363
 20
110.0549516891543
 10
113.3939704819164
 20
109.9484336446929
 10
113.3077031390551
 20
109.8329691180253
 10
113.2326538882019
 20
109.7092901919314
 10
113.1695548121368
 20
109.5781720128838
 10
113.1191810573324
 20
109.4403466636625
 10
113.0822647065684
 20
109.2965677588937
 10
113.0595593744713
 20
109.1475996791269
 10
113.0518294415904
 20
108.9941960389883
 10
113.0588918872309
 20
105.0035697425847
 10
113.0563941930409
 20
104.9524100753843
 10
113.0490518333964
 20
104.9026284463576
 10
113.0371231904549
 20
104.8545370672784
 10
113.0207912849114
 20
104.8083727884578
 10
113.0003037330001
 20
104.7644155238999
 10
112.9758973850322
 20
104.7229021239157
 10
112.9477983253956
 20
104.6841017365862
 10
112.9162326384782
 20
104.6482835099919
 10
112.8814371745911
 20
104.6156950603674
 10
112.8436272521988
 20
104.5866055357935
 10
112.8030397216126
 20
104.5612733184276
 10
112.7599006672204
 20
104.5399675563506
 10
112.7144361734099
 20
104.5229466317202
 10
112.6668830904924
 20
104.5104581607706
 10
112.6174675028556
 20
104.5027712915827
 10
112.5664154948875
 20
104.5001551722372
 10
111.8608599499284
 20
104.4962794398735
 10
111.8608599499284
 20
111.7063474196968
 10
117.8584265916248
 20
111.7063474196968
 10
117.3447843942065
 20
106.4369016980547
 10
117.3471851950874
 20
106.3686888084542
 10
117.3542476407278
 20
106.3041686305223
 10
117.3658317741259
 20
106.2431258457946
 10
117.3817761064331
 20
106.1853989654224
 10
117.4019191488009
 20
106.1307942027876
 10
117.4260994123809
 20
106.079117771272
 10
117.4541554083246
 20
106.0301758842575
 10
117.4859364137067
 20
105.9838070528955
 10
117.5212809396786
 20
105.9397959587214
 10
117.5600167314688
 20
105.8979703469635
 10
117.601993066152
 20
105.8581364310036
 10
117.6470592208029
 20
105.8201111901467
 10
117.6950321747265
 20
105.783711603698
 10
117.7457719709208
 20
105.7487331191159
 10
117.7991171205374
 20
105.7149927157055
 10
117.8549061347278
 20
105.6823181386951
 10
127.1407194752222
 20
105.4875841192673
 10
127.3612055830219
 20
105.2459322063927
 10
127.5816916908217
 20
105.4727702088995
 10
136.0705790958835
 20
105.2967258322032
 10
136.152227857678
 20
105.2926024836052
 10
136.231529648208
 20
105.280458522199
 10
136.3080968942369
 20
105.2607353508372
 10
136.3815204906819
 20
105.233809776833
 10
136.4513913324602
 20
105.2001124371155
 10
136.517300314489
 20
105.1600093730748
 10
136.5788490976087
 20
105.1139312216401
 10
136.6356501085829
 20
105.0622655560477
 10
136.6872619445591
 20
105.0054214813806
 10
136.7333185641473
 20
104.9437973367983
 10
136.7733893304184
 20
104.8778022273837
 10
136.8070866701358
 20
104.8078344922962
 10
136.8340014782168
 20
104.7342924706956
 10
136.8537138836554
 20
104.6575852676647
 10
136.8658470791383
 20
104.5781112223631
 10
136.8699811936596
 20
104.4962794398735
 10
136.8643290839625
 20
104.4962794398735
 10
117.8584265916248
 20
104.5015655081806
 10
117.6794754156557
 20
104.5355750596718
 10
117.5065639226199
 20
104.5850983065409
 10
117.3404134293742
 20
104.6493816341616
 10
117.1818206142376
 20
104.7276498960612
 10
117.0315283259131
 20
104.8191494776135
 10
116.8903117108736
 20
104.9231267641921
 10
116.758913617822
 20
105.0387958434011
 10
116.6381199591544
 20
105.1654031006142
 10
116.5286951154202
 20
105.3021949212052
 10
116.4313711693992
 20
105.4484069246246
 10
116.3469340334874
 20
105.6032639643996
 10
116.2761373223111
 20
105.7660124259039
 10
116.2197454164198
 20
105.9358879285881
 10
116.1785226963629
 20
106.1121260919026
 10
116.1532335426899
 20
106.2939733012212
 10
116.1446315700272
 20
106.4806544100712
 10
116.3929906530757
 20
108.9941960389883
 10
116.3851207631928
 20
109.1476104450501
 10
116.3620386237825
 20
109.2965892907402
 10
116.3244978494711
 20
109.4403789614322
 10
116.2733381822707
 20
109.5782258425
 10
116.2093024708843
 20
109.7093763193172
 10
116.1332089254777
 20
109.8330875431808
 10
116.0458434584467
 20
109.9485843676181
 10
115.9479596844176
 20
110.055123943926
 10
115.8403758135561
 20
110.1519634234016
 10
115.7238885241814
 20
110.238327659572
 10
115.5992514309198
 20
110.3134845696574
 10
115.467282743937
 20
110.3766590071852
 10
115.3287468437823
 20
110.4271081234522
 10
115.1844511746983
 20
110.4640783038324
 10
115.0351708831578
 20
110.486805167776
 10
114.8816918815565
 20
110.4945566325033
  0
LWPOLYLINE
  5
73
330
1F
100
AcDbEntity
  8
ISS138金台
  6
Continuous
 62
   250
420
  2367521
370
    25
100
AcDbPolyline
 90
      110
 70
     0
 43
0.0
 10
114.8816918815565
 20
110.4945566325033
 10
114.5507904650852
 20
110.4942013570366
 10
114.397451420486
 20
110.4864606582325
 10
114.248569468105
 20
110.4637337942889
 10
114.1048766907221
 20
110.4267743798321
 10
113.9671159370401
 20
110.3763575613347
 10
113.8360838853785
 20
110.3132046556534
 10
113.7125018525937
 20
110.2380908092608
 10
113.5971126873887
 20
110.1517481049369
 10
113.4906915362363
 20
110.0549516891543
 10
113.3939704819164
 20
109.9484336446929
 10
113.3077031390551
 20
109.8329691180253
 10
113.2326538882019
 20
109.7092901919314
 10
113.1695548121368
 20
109.5781720128838
 10
113.1191810573324
 20
109.4403466636625
 10
113.0822647065684
 20
109.2965677588937
 10
113.0595593744713
 20
109.1475996791269
 10
113.0518294415904
 20
108.9941960389883
 10
113.0588918872309
 20
105.0035697425847
 10
113.0563941930409
 20
104.9524100753843
 10
113.0490518333964
 20
104.9026284463576
 10
113.0371231904549
 20
104.8545370672784
 10
113.0207912849114
 20
104.8083727884578
 10
113.0003037330001
 20
104.7644155238999
 10
112.9758973850322
 20
104.7229021239157
 10
112.9477983253956
 20
104.6841017365862
 10
112.9162326384782
 20
104.6482835099919
 10
112.8814371745911
 20
104.6156950603674
 10
112.8436272521988
 20
104.5866055357935
 10
112.8030397216126
 20
104.5612733184276
 10
112.7599006672204
 20
104.5399675563506
 10
112.7144361734099
 20
104.5229466317202
 10
112.6668830904924
 20
104.5104581607706
 10
112.6174675028556
 20
104.5027712915827
 10
112.5664154948875
 20
104.5001551722372
 10
111.8608599499284
 20
104.4962794398735
 10
111.8608599499284
 20
111.7063474196968
 10
117.8584265916248
 20
111.7063474196968
 10
117.3447843942065
 20
106.4369016980547
 10
117.3471851950874
 20
106.3686888084542
 10
117.3542476407278
 20
106.3041686305223
 10
117.3658317741259
 20
106.2431258457946
 10
117.3817761064331
 20
106.1853989654224
 10
117.4019191488009
 20
106.1307942027876
 10
117.4260994123809
 20
106.079117771272
 10
117.4541554083246
 20
106.0301758842575
 10
117.4859364137067
 20
105.9838070528955
 10
117.5212809396786
 20
105.9397959587214
 10
117.5600167314688
 20
105.8979703469635
 10
117.601993066152
 20
105.8581364310036
 10
117.6470592208029
 20
105.8201111901467
 10
117.6950321747265
 20
105.783711603698
 10
117.7457719709208
 20
105.7487331191159
 10
117.7991171205374
 20
105.7149927157055
 10
117.8549061347278
 20
105.6823181386951
 10
127.1407194752222
 20
105.4875841192673
 10
127.3612055830219
 20
105.2459322063927
 10
127.5816916908217
 20
105.4727702088995
 10
136.0705790958835
 20
105.2967258322032
 10
136.152227857678
 20
105.2926024836052
 10
136.231529648208
 20
105.280458522199
 10
136.3080968942369
 20
105.2607353508372
 10
136.3815204906819
 20
105.233809776833
 10
136.4513913324602
 20
105.2001124371155
 10
136.517300314489
 20
105.1600093730748
 10
136.5788490976087
 20
105.1139312216401
 10
136.6356501085829
 20
105.0622655560477
 10
136.6872619445591
 20
105.0054214813806
 10
136.7333185641473
 20
104.9437973367983
 10
136.7733893304184
 20
104.8778022273837
 10
136.8070866701358
 20
104.8078344922962
 10
136.8340014782168
 20
104.7342924706956
 10
136.8537138836554
 20
104.6575852676647
 10
136.8658470791383
 20
104.5781112223631
 10
136.8699811936596
 20
104.4962794398735
 10
136.8643290839625
 20
104.4962794398735
 10
117.8584265916248
 20
104.5015655081806
 10
117.6794754156557
 20
104.5355750596718
 10
117.5065639226199
 20
104.5850983065409
 10
117.3404134293742
 20
104.6493816341616
 10
117.1818206142376
 20
104.7276498960612
 10
117.0315283259131
 20
104.8191494776135
 10
116.8903117108736
 20
104.9231267641921
 10
116.758913617822
 20
105.0387958434011
 10
116.6381199591544
 20
105.1654031006142
 10
116.5286951154202
 20
105.3021949212052
 10
116.4313711693992
 20
105.4484069246246
 10
116.3469340334874
 20
105.6032639643996
 10
116.2761373223111
 20
105.7660124259039
 10
116.2197454164198
 20
105.9358879285881
 10
116.1785226963629
 20
106.1121260919026
 10
116.1532335426899
 20
106.2939733012212
 10
116.1446315700272
 20
106.4806544100712
 10
116.3929906530757
 20
108.9941960389883
 10
116.3851207631928
 20
109.1476104450501
 10
116.3620386237825
 20
109.2965892907402
 10
116.3244978494711
 20
109.4403789614322
 10
116.2733381822707
 20
109.5782258425
 10
116.2093024708843
 20
109.7093763193172
 10
116.1332089254777
 20
109.8330875431808
 10
116.0458434584467
 20
109.9485843676181
 10
115.9479596844176
 20
110.055123943926
 10
115.8403758135561
 20
110.1519634234016
 10
115.7238885241814
 20
110.238327659572
 10
115.5992514309198
 20
110.3134845696574
 10
115.467282743937
 20
110.3766590071852
 10
115.3287468437823
 20
110.4271081234522
 10
115.1844511746983
 20
110.4640783038324
 10
115.0351708831578
 20
110.486805167776
 10
114.8816918815565
 20
110.4945566325033
  0
LINE
  5
74
330
1F
100
AcDbEntity
  8
ISS138金台
  6
Continuous
 62
   250
420
  2367521
370
    13
100
AcDbLine
 10
136.834518242532
 20
103.4455253323904
 30
0.0
 11
136.834518242532
 21
93.5014296158503
 31
0.0
  0
LINE
  5
75
330
1F
100
AcDbEntity
  8
ISS138金台
  6
Continuous
 62
   250
420
  2367521
370
    13
100
AcDbLine
 10
111.7872963964813
 20
93.98666054185823
 30
0.0
 11
136.834518242532
 21
93.98666054185823
 31
0.0
  0
LINE
  5
76
330
1F
100
AcDbEntity
  8
ISS138金台
  6
Continuous
 62
   250
420
  2367521
370
    13
100
AcDbLine
 10
111.7872963964813
 20
93.5015911046988
 30
0.0
 11
111.7872963964813
 21
103.4456868212389
 31
0.0
  0
LINE
  5
77
330
1F
100
AcDbEntity
  8
ISS138金台
  6
Continuous
 62
   250
420
  2367521
370
    13
100
AcDbLine
 10
110.7730710665257
 20
104.4597614282692
 30
0.0
 11
105.7900850302515
 21
104.4597614282692
 31
0.0
  0
LINE
  5
78
330
1F
100
AcDbEntity
  8
ISS138金台
  6
Continuous
 62
   250
420
  2367521
370
    13
100
AcDbLine
 10
106.275154467411
 20
111.8019380520774
 30
0.0
 11
106.275154467411
 21
104.4595784075743
 31
0.0
  0
LINE
  5
79
330
1F
100
AcDbEntity
  8
ISS138金台
  6
Continuous
 62
   250
420
  2367521
370
    13
100
AcDbLine
 10
105.7900742643283
 20
111.8019380520774
 30
0.0
 11
110.7730603006025
 21
111.8019380520774
 31
0.0
  0
LINE
  5
7A
330
1F
100
AcDbEntity
  8
ISS138金台
  6
Continuous
 62
   250
420
  2367521
370
    13
100
AcDbLine
 10
111.7872963964813
 20
112.7941363030994
 30
0.0
 11
111.7872963964813
 21
117.7993432049253
 31
0.0
  0
LINE
  5
7B
330
1F
100
AcDbEntity
  8
ISS138金台
  6
Continuous
 62
   250
420
  2367521
370
    13
100
AcDbLine
 10
117.9168209592374
 20
117.7991601842304
 30
0.0
 11
117.9168209592374
 21
112.7939532824045
 31
0.0
  0
LINE
  5
7C
330
1F
100
AcDbEntity
  8
ISS138金台
  6
Continuous
 62
   250
420
  2367521
370
    13
100
AcDbLine
 10
117.9168209592374
 20
117.2920421362909
 30
0.0
 11
111.7873071624045
 21
117.2920421362909
 31
0.0
  0
HATCH
  5
7D
330
1F
100
AcDbEntity
  8
ISS138金台
  6
Continuous
 62
   250
420
  2367521
370
    13
100
AcDbHatch
 10
0.0
 20
0.0
 30
0.0
210
0.0
220
0.0
230
1.0
  2
SOLID
 70
     1
 71
     0
 91
        1
 92
        3
 72
     0
 73
     1
 93
       67
 10
111.7872963964813
 20
117.0419712714486
 10
111.8128331663886
 20
117.0432631822364
 10
111.8376486194393
 20
117.047042021291
 10
111.8616135645546
 20
117.0532001293799
 10
111.8845665128861
 20
117.0616083154245
 10
111.9064213370479
 20
117.0721373883458
 10
111.9270488459612
 20
117.0846473911418
 10
111.946309082624
 20
117.0990306645803
 10
111.9640836218807
 20
117.1151687835057
 10
111.9802432726525
 20
117.1329217909159
 10
111.9946480779375
 20
117.1521820275787
 10
112.0071903785033
 20
117.1727987705688
 10
112.0177302173478
 20
117.1946643606538
 10
112.0261599352388
 20
117.2176603726782
 10
112.0323288092509
 20
117.2416360837168
 10
112.036129180152
 20
117.2664946004604
 10
112.0374210909399
 20
117.2920959659071
 10
112.0374210909399
 20
117.2920959659071
 10
112.0361399460752
 20
117.3176435017376
 10
112.0323288092509
 20
117.3424374229419
 10
112.026170701162
 20
117.366391602134
 10
112.017740983271
 20
117.3893768482352
 10
112.0071903785033
 20
117.411231672397
 10
111.9946480779375
 20
117.431848415387
 10
111.9802432726525
 20
117.4511086520498
 10
111.9640836218807
 20
117.4688724253833
 10
111.9463198485472
 20
117.4850320761551
 10
111.9270596118844
 20
117.4994476473633
 10
111.9064321029712
 20
117.5119791820058
 10
111.8845665128861
 20
117.5225297867736
 10
111.8616027986314
 20
117.5309487387413
 10
111.8376486194393
 20
117.5371176127535
 10
111.8128331663886
 20
117.5409179836546
 10
111.7872963964813
 20
117.5422098944425
 10
111.7872963964813
 20
117.5422098944425
 10
111.761759626574
 20
117.5409179836546
 10
111.7369441735233
 20
117.5371283786768
 10
111.7129899943312
 20
117.5309487387413
 10
111.6900262800765
 20
117.5225405526968
 10
111.6681606899915
 20
117.5119899479291
 10
111.6475439470014
 20
117.4994476473633
 10
111.6282729444154
 20
117.4850213102319
 10
111.6105091710819
 20
117.4688724253833
 10
111.5943602862333
 20
117.4511086520498
 10
111.5799447150251
 20
117.431848415387
 10
111.5674024144594
 20
117.4112209064737
 10
111.5568518096916
 20
117.3893660823119
 10
111.5484328577238
 20
117.366391602134
 10
111.5422639837117
 20
117.3424481888651
 10
111.5384636128106
 20
117.3176327358144
 10
111.5371717020227
 20
117.2920959659071
 10
111.5371717020227
 20
117.2920959659071
 10
111.5384636128106
 20
117.2664838345372
 10
111.5422639837117
 20
117.2416360837168
 10
111.5484436236471
 20
117.2176603726782
 10
111.5568518096916
 20
117.1946751265771
 10
111.5674024144594
 20
117.172809536492
 10
111.5799447150251
 20
117.1521820275787
 10
111.5943602862333
 20
117.1329325568392
 10
111.6105091710819
 20
117.1151687835057
 10
111.6282837103386
 20
117.0990306645803
 10
111.6475439470014
 20
117.0846473911418
 10
111.6681606899915
 20
117.0721266224225
 10
111.6900262800765
 20
117.0616083154245
 10
111.7129899943312
 20
117.0532001293799
 10
111.7369441735233
 20
117.047042021291
 10
111.761759626574
 20
117.0432631822364
 97
        0
 75
     1
 76
     1
 98
        0
  0
LWPOLYLINE
  5
7E
330
1F
100
AcDbEntity
  8
ISS138金台
  6
Continuous
 62
   250
420
  2367521
370
    13
100
AcDbPolyline
 90
       68
 70
     0
 43
0.0
 10
111.7872963964813
 20
117.0419712714486
 10
111.8128331663886
 20
117.0432631822364
 10
111.8376486194393
 20
117.047042021291
 10
111.8616135645546
 20
117.0532001293799
 10
111.8845665128861
 20
117.0616083154245
 10
111.9064213370479
 20
117.0721373883458
 10
111.9270488459612
 20
117.0846473911418
 10
111.946309082624
 20
117.0990306645803
 10
111.9640836218807
 20
117.1151687835057
 10
111.9802432726525
 20
117.1329217909159
 10
111.9946480779375
 20
117.1521820275787
 10
112.0071903785033
 20
117.1727987705688
 10
112.0177302173478
 20
117.1946643606538
 10
112.0261599352388
 20
117.2176603726782
 10
112.0323288092509
 20
117.2416360837168
 10
112.036129180152
 20
117.2664946004604
 10
112.0374210909399
 20
117.2920959659071
 10
112.0374210909399
 20
117.2920959659071
 10
112.0361399460752
 20
117.3176435017376
 10
112.0323288092509
 20
117.3424374229419
 10
112.026170701162
 20
117.366391602134
 10
112.017740983271
 20
117.3893768482352
 10
112.0071903785033
 20
117.411231672397
 10
111.9946480779375
 20
117.431848415387
 10
111.9802432726525
 20
117.4511086520498
 10
111.9640836218807
 20
117.4688724253833
 10
111.9463198485472
 20
117.4850320761551
 10
111.9270596118844
 20
117.4994476473633
 10
111.9064321029712
 20
117.5119791820058
 10
111.8845665128861
 20
117.5225297867736
 10
111.8616027986314
 20
117.5309487387413
 10
111.8376486194393
 20
117.5371176127535
 10
111.8128331663886
 20
117.5409179836546
 10
111.7872963964813
 20
117.5422098944425
 10
111.7872963964813
 20
117.5422098944425
 10
111.761759626574
 20
117.5409179836546
 10
111.7369441735233
 20
117.5371283786768
 10
111.7129899943312
 20
117.5309487387413
 10
111.6900262800765
 20
117.5225405526968
 10
111.6681606899915
 20
117.5119899479291
 10
111.6475439470014
 20
117.4994476473633
 10
111.6282729444154
 20
117.4850213102319
 10
111.6105091710819
 20
117.4688724253833
 10
111.5943602862333
 20
117.4511086520498
 10
111.5799447150251
 20
117.431848415387
 10
111.5674024144594
 20
117.4112209064737
 10
111.5568518096916
 20
117.3893660823119
 10
111.5484328577238
 20
117.366391602134
 10
111.5422639837117
 20
117.3424481888651
 10
111.5384636128106
 20
117.3176327358144
 10
111.5371717020227
 20
117.2920959659071
 10
111.5371717020227
 20
117.2920959659071
 10
111.5384636128106
 20
117.2664838345372
 10
111.5422639837117
 20
117.2416360837168
 10
111.5484436236471
 20
117.2176603726782
 10
111.5568518096916
 20
117.1946751265771
 10
111.5674024144594
 20
117.172809536492
 10
111.5799447150251
 20
117.1521820275787
 10
111.5943602862333
 20
117.1329325568392
 10
111.6105091710819
 20
117.1151687835057
 10
111.6282837103386
 20
117.0990306645803
 10
111.6475439470014
 20
117.0846473911418
 10
111.6681606899915
 20
117.0721266224225
 10
111.6900262800765
 20
117.0616083154245
 10
111.7129899943312
 20
117.0532001293799
 10
111.7369441735233
 20
117.047042021291
 10
111.761759626574
 20
117.0432631822364
 10
111.7872963964813
 20
117.0419712714486
  0
HATCH
  5
7F
330
1F
100
AcDbEntity
  8
ISS138金台
  6
Continuous
 62
   250
420
  2367521
370
    13
100
AcDbHatch
 10
0.0
 20
0.0
 30
0.0
210
0.0
220
0.0
230
1.0
  2
SOLID
 70
     1
 71
     0
 91
        1
 92
        3
 72
     0
 73
     1
 93
       67
 10
117.9168209592374
 20
117.0419712714486
 10
117.9423577291446
 20
117.0432631822364
 10
117.9671731821953
 20
117.047042021291
 10
117.9911273613874
 20
117.0532001293799
 10
118.0140910756422
 20
117.0616083154245
 10
118.035945899804
 20
117.0721373883458
 10
118.0565734087173
 20
117.0846473911418
 10
118.07583364538
 20
117.0990306645803
 10
118.0936081846368
 20
117.1151687835057
 10
118.1097678354086
 20
117.1329217909159
 10
118.1241726406936
 20
117.1521820275787
 10
118.1367149412593
 20
117.1727987705688
 10
118.1472655460271
 20
117.1946643606538
 10
118.1556844979948
 20
117.2176603726782
 10
118.161853372007
 20
117.2416360837168
 10
118.165653742908
 20
117.2664946004604
 10
118.1669456536959
 20
117.2920959659071
 10
118.1669456536959
 20
117.2920959659071
 10
118.165653742908
 20
117.3176435017376
 10
118.161853372007
 20
117.3424374229419
 10
118.1556952639181
 20
117.366391602134
 10
118.1472655460271
 20
117.3893768482352
 10
118.1367041753361
 20
117.411231672397
 10
118.1241726406936
 20
117.431848415387
 10
118.1097678354086
 20
117.4511086520498
 10
118.0936081846368
 20
117.4688724253833
 10
118.07583364538
 20
117.4850320761551
 10
118.0565734087173
 20
117.4994476473633
 10
118.0359566657272
 20
117.5119791820058
 10
118.0140910756422
 20
117.5225297867736
 10
117.9911273613874
 20
117.5309487387413
 10
117.9671731821953
 20
117.5371176127535
 10
117.9423577291446
 20
117.5409179836546
 10
117.9168209592374
 20
117.5422098944425
 10
117.9168209592374
 20
117.5422098944425
 10
117.8912841893301
 20
117.5409179836546
 10
117.8664687362794
 20
117.5371283786768
 10
117.8425145570873
 20
117.5309487387413
 10
117.8195508428325
 20
117.5225405526968
 10
117.7976852527475
 20
117.5119899479291
 10
117.7770577438342
 20
117.4994476473633
 10
117.7577975071714
 20
117.4850213102319
 10
117.740033733838
 20
117.4688724253833
 10
117.7238848489894
 20
117.4511086520498
 10
117.7094692777812
 20
117.431848415387
 10
117.6969269772154
 20
117.4112209064737
 10
117.6863763724476
 20
117.3893660823119
 10
117.6779574204799
 20
117.366391602134
 10
117.6717885464677
 20
117.3424481888651
 10
117.6679881755667
 20
117.3176327358144
 10
117.6666962647788
 20
117.2920959659071
 10
117.6666962647788
 20
117.2920959659071
 10
117.6679881755667
 20
117.2664838345372
 10
117.6717885464677
 20
117.2416360837168
 10
117.6779681864031
 20
117.2176603726782
 10
117.6863763724476
 20
117.1946751265771
 10
117.6969162112922
 20
117.172809536492
 10
117.7094692777812
 20
117.1521820275787
 10
117.7238848489894
 20
117.1329325568392
 10
117.740033733838
 20
117.1151687835057
 10
117.7578082730947
 20
117.0990306645803
 10
117.7770685097575
 20
117.0846473911418
 10
117.7976852527475
 20
117.0721266224225
 10
117.8195508428325
 20
117.0616083154245
 10
117.8425145570873
 20
117.0532001293799
 10
117.8664687362794
 20
117.047042021291
 10
117.8912841893301
 20
117.0432631822364
 97
        0
 75
     1
 76
     1
 98
        0
  0
LWPOLYLINE
  5
80
330
1F
100
AcDbEntity
  8
ISS138金台
  6
Continuous
 62
   250
420
  2367521
370
    13
100
AcDbPolyline
 90
       68
 70
     0
 43
0.0
 10
117.9168209592374
 20
117.0419712714486
 10
117.9423577291446
 20
117.0432631822364
 10
117.9671731821953
 20
117.047042021291
 10
117.9911273613874
 20
117.0532001293799
 10
118.0140910756422
 20
117.0616083154245
 10
118.035945899804
 20
117.0721373883458
 10
118.0565734087173
 20
117.0846473911418
 10
118.07583364538
 20
117.0990306645803
 10
118.0936081846368
 20
117.1151687835057
 10
118.1097678354086
 20
117.1329217909159
 10
118.1241726406936
 20
117.1521820275787
 10
118.1367149412593
 20
117.1727987705688
 10
118.1472655460271
 20
117.1946643606538
 10
118.1556844979948
 20
117.2176603726782
 10
118.161853372007
 20
117.2416360837168
 10
118.165653742908
 20
117.2664946004604
 10
118.1669456536959
 20
117.2920959659071
 10
118.1669456536959
 20
117.2920959659071
 10
118.165653742908
 20
117.3176435017376
 10
118.161853372007
 20
117.3424374229419
 10
118.1556952639181
 20
117.366391602134
 10
118.1472655460271
 20
117.3893768482352
 10
118.1367041753361
 20
117.411231672397
 10
118.1241726406936
 20
117.431848415387
 10
118.1097678354086
 20
117.4511086520498
 10
118.0936081846368
 20
117.4688724253833
 10
118.07583364538
 20
117.4850320761551
 10
118.0565734087173
 20
117.4994476473633
 10
118.0359566657272
 20
117.5119791820058
 10
118.0140910756422
 20
117.5225297867736
 10
117.9911273613874
 20
117.5309487387413
 10
117.9671731821953
 20
117.5371176127535
 10
117.9423577291446
 20
117.5409179836546
 10
117.9168209592374
 20
117.5422098944425
 10
117.9168209592374
 20
117.5422098944425
 10
117.8912841893301
 20
117.5409179836546
 10
117.8664687362794
 20
117.5371283786768
 10
117.8425145570873
 20
117.5309487387413
 10
117.8195508428325
 20
117.5225405526968
 10
117.7976852527475
 20
117.5119899479291
 10
117.7770577438342
 20
117.4994476473633
 10
117.7577975071714
 20
117.4850213102319
 10
117.740033733838
 20
117.4688724253833
 10
117.7238848489894
 20
117.4511086520498
 10
117.7094692777812
 20
117.431848415387
 10
117.6969269772154
 20
117.4112209064737
 10
117.6863763724476
 20
117.3893660823119
 10
117.6779574204799
 20
117.366391602134
 10
117.6717885464677
 20
117.3424481888651
 10
117.6679881755667
 20
117.3176327358144
 10
117.6666962647788
 20
117.2920959659071
 10
117.6666962647788
 20
117.2920959659071
 10
117.6679881755667
 20
117.2664838345372
 10
117.6717885464677
 20
117.2416360837168
 10
117.6779681864031
 20
117.2176603726782
 10
117.6863763724476
 20
117.1946751265771
 10
117.6969162112922
 20
117.172809536492
 10
117.7094692777812
 20
117.1521820275787
 10
117.7238848489894
 20
117.1329325568392
 10
117.740033733838
 20
117.1151687835057
 10
117.7578082730947
 20
117.0990306645803
 10
117.7770685097575
 20
117.0846473911418
 10
117.7976852527475
 20
117.0721266224225
 10
117.8195508428325
 20
117.0616083154245
 10
117.8425145570873
 20
117.0532001293799
 10
117.8664687362794
 20
117.047042021291
 10
117.8912841893301
 20
117.0432631822364
 10
117.9168209592374
 20
117.0419712714486
  0
HATCH
  5
81
330
1F
100
AcDbEntity
  8
ISS138金台
  6
Continuous
 62
   250
420
  2367521
370
    13
100
AcDbHatch
 10
0.0
 20
0.0
 30
0.0
210
0.0
220
0.0
230
1.0
  2
SOLID
 70
     1
 71
     0
 91
        1
 92
        3
 72
     0
 73
     1
 93
       67
 10
106.275154467411
 20
111.551867187235
 10
106.3006912373182
 20
111.5531590980229
 10
106.325506690369
 20
111.5569379370774
 10
106.3494608695611
 20
111.5631068110896
 10
106.3724245838158
 20
111.5715042312109
 10
106.3942794079776
 20
111.5820225382089
 10
106.4149069168909
 20
111.5945433069282
 10
106.4341671535537
 20
111.60893734629
 10
106.4519416928104
 20
111.6250646992921
 10
106.4681013435822
 20
111.6428284726256
 10
106.4825061488672
 20
111.6620779433651
 10
106.4950484494329
 20
111.6826946863552
 10
106.5055990542007
 20
111.7045602764402
 10
106.5140180061684
 20
111.7275562884647
 10
106.5201868801806
 20
111.7515319995032
 10
106.5239872510817
 20
111.7763905162469
 10
106.5252791618695
 20
111.8019918816935
 10
106.5252791618695
 20
111.8019918816935
 10
106.5239872510817
 20
111.8275286516008
 10
106.5201868801806
 20
111.8523333387283
 10
106.5140287720917
 20
111.8762875179204
 10
106.5055882882775
 20
111.8992727640216
 10
106.4950376835097
 20
111.9211168222601
 10
106.4825061488672
 20
111.9417443311734
 10
106.4681013435822
 20
111.960993801913
 10
106.4519416928104
 20
111.9787683411697
 10
106.4341671535537
 20
111.9949279919416
 10
106.4149069168909
 20
112.0093435631497
 10
106.3942901739008
 20
112.0218750977923
 10
106.3724245838158
 20
112.03242570256
 10
106.3494608695611
 20
112.0408446545278
 10
106.325506690369
 20
112.0470135285399
 10
106.3006912373182
 20
112.050813899441
 10
106.275154467411
 20
112.0521058102289
 10
106.275154467411
 20
112.0521058102289
 10
106.2496176975037
 20
112.050813899441
 10
106.224802244453
 20
112.0470242944632
 10
106.2008480652609
 20
112.040855420451
 10
106.1778735850829
 20
112.0324364684833
 10
106.1560187609211
 20
112.0218750977923
 10
106.1353912520078
 20
112.0093435631497
 10
106.1161310153451
 20
111.9949279919416
 10
106.0983672420116
 20
111.9787683411697
 10
106.082218357163
 20
111.9610045678362
 10
106.0678027859548
 20
111.9417443311734
 10
106.055260485389
 20
111.9211168222601
 10
106.0447098806213
 20
111.8992619980984
 10
106.0362909286535
 20
111.8762875179204
 10
106.0301220546414
 20
111.8523441046515
 10
106.0263216837403
 20
111.8275286516008
 10
106.0250297729524
 20
111.8019918816935
 10
106.0250297729524
 20
111.8019918816935
 10
106.0263216837403
 20
111.7764012821701
 10
106.0301220546414
 20
111.7515319995032
 10
106.0363016945767
 20
111.7275562884647
 10
106.0447098806213
 20
111.7045710423635
 10
106.0552497194658
 20
111.6826946863552
 10
106.0678027859548
 20
111.6620779433651
 10
106.082218357163
 20
111.6428177067024
 10
106.0983672420116
 20
111.6250646992921
 10
106.1161417812683
 20
111.6089265803667
 10
106.1354020179311
 20
111.5945433069282
 10
106.1560187609211
 20
111.5820225382089
 10
106.1778843510062
 20
111.5715042312109
 10
106.2008480652609
 20
111.5630960451664
 10
106.224802244453
 20
111.5569379370774
 10
106.2496176975037
 20
111.5531590980229
 97
        0
 75
     1
 76
     1
 98
        0
  0
LWPOLYLINE
  5
82
330
1F
100
AcDbEntity
  8
ISS138金台
  6
Continuous
 62
   250
420
  2367521
370
    13
100
AcDbPolyline
 90
       68
 70
     0
 43
0.0
 10
106.275154467411
 20
111.551867187235
 10
106.3006912373182
 20
111.5531590980229
 10
106.325506690369
 20
111.5569379370774
 10
106.3494608695611
 20
111.5631068110896
 10
106.3724245838158
 20
111.5715042312109
 10
106.3942794079776
 20
111.5820225382089
 10
106.4149069168909
 20
111.5945433069282
 10
106.4341671535537
 20
111.60893734629
 10
106.4519416928104
 20
111.6250646992921
 10
106.4681013435822
 20
111.6428284726256
 10
106.4825061488672
 20
111.6620779433651
 10
106.4950484494329
 20
111.6826946863552
 10
106.5055990542007
 20
111.7045602764402
 10
106.5140180061684
 20
111.7275562884647
 10
106.5201868801806
 20
111.7515319995032
 10
106.5239872510817
 20
111.7763905162469
 10
106.5252791618695
 20
111.8019918816935
 10
106.5252791618695
 20
111.8019918816935
 10
106.5239872510817
 20
111.8275286516008
 10
106.5201868801806
 20
111.8523333387283
 10
106.5140287720917
 20
111.8762875179204
 10
106.5055882882775
 20
111.8992727640216
 10
106.4950376835097
 20
111.9211168222601
 10
106.4825061488672
 20
111.9417443311734
 10
106.4681013435822
 20
111.960993801913
 10
106.4519416928104
 20
111.9787683411697
 10
106.4341671535537
 20
111.9949279919416
 10
106.4149069168909
 20
112.0093435631497
 10
106.3942901739008
 20
112.0218750977923
 10
106.3724245838158
 20
112.03242570256
 10
106.3494608695611
 20
112.0408446545278
 10
106.325506690369
 20
112.0470135285399
 10
106.3006912373182
 20
112.050813899441
 10
106.275154467411
 20
112.0521058102289
 10
106.275154467411
 20
112.0521058102289
 10
106.2496176975037
 20
112.050813899441
 10
106.224802244453
 20
112.0470242944632
 10
106.2008480652609
 20
112.040855420451
 10
106.1778735850829
 20
112.0324364684833
 10
106.1560187609211
 20
112.0218750977923
 10
106.1353912520078
 20
112.0093435631497
 10
106.1161310153451
 20
111.9949279919416
 10
106.0983672420116
 20
111.9787683411697
 10
106.082218357163
 20
111.9610045678362
 10
106.0678027859548
 20
111.9417443311734
 10
106.055260485389
 20
111.9211168222601
 10
106.0447098806213
 20
111.8992619980984
 10
106.0362909286535
 20
111.8762875179204
 10
106.0301220546414
 20
111.8523441046515
 10
106.0263216837403
 20
111.8275286516008
 10
106.0250297729524
 20
111.8019918816935
 10
106.0250297729524
 20
111.8019918816935
 10
106.0263216837403
 20
111.7764012821701
 10
106.0301220546414
 20
111.7515319995032
 10
106.0363016945767
 20
111.7275562884647
 10
106.0447098806213
 20
111.7045710423635
 10
106.0552497194658
 20
111.6826946863552
 10
106.0678027859548
 20
111.6620779433651
 10
106.082218357163
 20
111.6428177067024
 10
106.0983672420116
 20
111.6250646992921
 10
106.1161417812683
 20
111.6089265803667
 10
106.1354020179311
 20
111.5945433069282
 10
106.1560187609211
 20
111.5820225382089
 10
106.1778843510062
 20
111.5715042312109
 10
106.2008480652609
 20
111.5630960451664
 10
106.224802244453
 20
111.5569379370774
 10
106.2496176975037
 20
111.5531590980229
 10
106.275154467411
 20
111.551867187235
  0
HATCH
  5
83
330
1F
100
AcDbEntity
  8
ISS138金台
  6
Continuous
 62
   250
420
  2367521
370
    13
100
AcDbHatch
 10
0.0
 20
0.0
 30
0.0
210
0.0
220
0.0
230
1.0
  2
SOLID
 70
     1
 71
     0
 91
        1
 92
        3
 72
     0
 73
     1
 93
       67
 10
106.275154467411
 20
104.2096582656571
 10
106.3006912373182
 20
104.210950176445
 10
106.325506690369
 20
104.2147290154996
 10
106.3494608695611
 20
104.2208871235885
 10
106.3724245838158
 20
104.229295309633
 10
106.3942794079776
 20
104.2398136166311
 10
106.4149069168909
 20
104.2523343853504
 10
106.4341671535537
 20
104.2667176587889
 10
106.4519416928104
 20
104.2828557777142
 10
106.4681013435822
 20
104.3006087851245
 10
106.4825061488672
 20
104.3198690217873
 10
106.4950484494329
 20
104.3404857647773
 10
106.5055990542007
 20
104.3623513548624
 10
106.5140180061684
 20
104.3853473668868
 10
106.5201868801806
 20
104.4093338438486
 10
106.5239872510817
 20
104.434181594669
 10
106.5252791618695
 20
104.4597829601157
 10
106.5252791618695
 20
104.4597829601157
 10
106.5239872510817
 20
104.4853304959462
 10
106.5201868801806
 20
104.5101351830736
 10
106.5140287720917
 20
104.5340893622658
 10
106.5055882882775
 20
104.5570638424437
 10
106.4950376835097
 20
104.5789079006823
 10
106.4825061488672
 20
104.5995354095956
 10
106.4681013435822
 20
104.6187956462584
 10
106.4519416928104
 20
104.6365594195918
 10
106.4341671535537
 20
104.6527190703637
 10
106.4149069168909
 20
104.6671238756486
 10
106.3942901739008
 20
104.6796661762144
 10
106.3724245838158
 20
104.6902167809822
 10
106.3494608695611
 20
104.6986357329499
 10
106.325506690369
 20
104.7048046069621
 10
106.3006912373182
 20
104.7086049778631
 10
106.275154467411
 20
104.709896888651
 10
106.275154467411
 20
104.709896888651
 10
106.2496176975037
 20
104.7086049778631
 10
106.224802244453
 20
104.7048153728853
 10
106.2008480652609
 20
104.6986357329499
 10
106.1778735850829
 20
104.6902167809822
 10
106.1560187609211
 20
104.6796661762144
 10
106.1353912520078
 20
104.6671346415719
 10
106.1161310153451
 20
104.6527190703637
 10
106.0983672420116
 20
104.6365594195918
 10
106.082218357163
 20
104.6187956462584
 10
106.0678027859548
 20
104.5995354095956
 10
106.055260485389
 20
104.5789079006823
 10
106.0447098806213
 20
104.5570530765205
 10
106.0362909286535
 20
104.5340785963425
 10
106.0301220546414
 20
104.5101351830736
 10
106.0263216837403
 20
104.4853197300229
 10
106.0250297729524
 20
104.4597829601157
 10
106.0250297729524
 20
104.4597829601157
 10
106.0263216837403
 20
104.434181594669
 10
106.0301220546414
 20
104.4093230779254
 10
106.0363016945767
 20
104.3853473668868
 10
106.0447098806213
 20
104.3623621207856
 10
106.0552497194658
 20
104.3404857647773
 10
106.0678027859548
 20
104.3198690217873
 10
106.082218357163
 20
104.3006195510477
 10
106.0983672420116
 20
104.2828557777142
 10
106.1161417812683
 20
104.2667176587889
 10
106.1354020179311
 20
104.2523343853504
 10
106.1560187609211
 20
104.2398136166311
 10
106.1778843510062
 20
104.229295309633
 10
106.2008480652609
 20
104.2208871235885
 10
106.224802244453
 20
104.2147290154996
 10
106.2496176975037
 20
104.210950176445
 97
        0
 75
     1
 76
     1
 98
        0
  0
LWPOLYLINE
  5
84
330
1F
100
AcDbEntity
  8
ISS138金台
  6
Continuous
 62
   250
420
  2367521
370
    13
100
AcDbPolyline
 90
       68
 70
     0
 43
0.0
 10
106.275154467411
 20
104.2096582656571
 10
106.3006912373182
 20
104.210950176445
 10
106.325506690369
 20
104.2147290154996
 10
106.3494608695611
 20
104.2208871235885
 10
106.3724245838158
 20
104.229295309633
 10
106.3942794079776
 20
104.2398136166311
 10
106.4149069168909
 20
104.2523343853504
 10
106.4341671535537
 20
104.2667176587889
 10
106.4519416928104
 20
104.2828557777142
 10
106.4681013435822
 20
104.3006087851245
 10
106.4825061488672
 20
104.3198690217873
 10
106.4950484494329
 20
104.3404857647773
 10
106.5055990542007
 20
104.3623513548624
 10
106.5140180061684
 20
104.3853473668868
 10
106.5201868801806
 20
104.4093338438486
 10
106.5239872510817
 20
104.434181594669
 10
106.5252791618695
 20
104.4597829601157
 10
106.5252791618695
 20
104.4597829601157
 10
106.5239872510817
 20
104.4853304959462
 10
106.5201868801806
 20
104.5101351830736
 10
106.5140287720917
 20
104.5340893622658
 10
106.5055882882775
 20
104.5570638424437
 10
106.4950376835097
 20
104.5789079006823
 10
106.4825061488672
 20
104.5995354095956
 10
106.4681013435822
 20
104.6187956462584
 10
106.4519416928104
 20
104.6365594195918
 10
106.4341671535537
 20
104.6527190703637
 10
106.4149069168909
 20
104.6671238756486
 10
106.3942901739008
 20
104.6796661762144
 10
106.3724245838158
 20
104.6902167809822
 10
106.3494608695611
 20
104.6986357329499
 10
106.325506690369
 20
104.7048046069621
 10
106.3006912373182
 20
104.7086049778631
 10
106.275154467411
 20
104.709896888651
 10
106.275154467411
 20
104.709896888651
 10
106.2496176975037
 20
104.7086049778631
 10
106.224802244453
 20
104.7048153728853
 10
106.2008480652609
 20
104.6986357329499
 10
106.1778735850829
 20
104.6902167809822
 10
106.1560187609211
 20
104.6796661762144
 10
106.1353912520078
 20
104.6671346415719
 10
106.1161310153451
 20
104.6527190703637
 10
106.0983672420116
 20
104.6365594195918
 10
106.082218357163
 20
104.6187956462584
 10
106.0678027859548
 20
104.5995354095956
 10
106.055260485389
 20
104.5789079006823
 10
106.0447098806213
 20
104.5570530765205
 10
106.0362909286535
 20
104.5340785963425
 10
106.0301220546414
 20
104.5101351830736
 10
106.0263216837403
 20
104.4853197300229
 10
106.0250297729524
 20
104.4597829601157
 10
106.0250297729524
 20
104.4597829601157
 10
106.0263216837403
 20
104.434181594669
 10
106.0301220546414
 20
104.4093230779254
 10
106.0363016945767
 20
104.3853473668868
 10
106.0447098806213
 20
104.3623621207856
 10
106.0552497194658
 20
104.3404857647773
 10
106.0678027859548
 20
104.3198690217873
 10
106.082218357163
 20
104.3006195510477
 10
106.0983672420116
 20
104.2828557777142
 10
106.1161417812683
 20
104.2667176587889
 10
106.1354020179311
 20
104.2523343853504
 10
106.1560187609211
 20
104.2398136166311
 10
106.1778843510062
 20
104.229295309633
 10
106.2008480652609
 20
104.2208871235885
 10
106.224802244453
 20
104.2147290154996
 10
106.2496176975037
 20
104.210950176445
 10
106.275154467411
 20
104.2096582656571
  0
HATCH
  5
85
330
1F
100
AcDbEntity
  8
ISS138金台
  6
Continuous
 62
   250
420
  2367521
370
    13
100
AcDbHatch
 10
0.0
 20
0.0
 30
0.0
210
0.0
220
0.0
230
1.0
  2
SOLID
 70
     1
 71
     0
 91
        1
 92
        3
 72
     0
 73
     1
 93
       67
 10
111.7872963964813
 20
93.73658967701581
 10
111.8128331663886
 20
93.73788158780371
 10
111.8376486194393
 20
93.74167119278152
 10
111.8616135645546
 20
93.74782930087045
 10
111.8845665128861
 20
93.75622672099175
 10
111.9064213370479
 20
93.7667450279898
 10
111.9270488459612
 20
93.7792657967091
 10
111.946309082624
 20
93.79365983607082
 10
111.9640836218807
 20
93.80978718907298
 10
111.9802432726525
 20
93.82755096240645
 10
111.9946480779375
 20
93.846800433146
 10
112.0071903785033
 20
93.86741717613606
 10
112.0177302173478
 20
93.88928276622109
 10
112.0261599352388
 20
93.91227877824551
 10
112.0323288092509
 20
93.9362544892841
 10
112.036129180152
 20
93.96111300602772
 10
112.0374210909399
 20
93.98671437147439
 10
112.0374210909399
 20
93.98671437147439
 10
112.0361399460752
 20
94.01225114138165
 10
112.0323288092509
 20
94.03705582850912
 10
112.026170701162
 20
94.06102077362448
 10
112.017740983271
 20
94.0839844878792
 10
112.0071903785033
 20
94.105839312041
 10
111.9946480779375
 20
94.12646682095429
 10
111.9802432726525
 20
94.14572705761708
 10
111.9640836218807
 20
94.16349083095055
 10
111.9463198485472
 20
94.1796504817224
 10
111.9270596118844
 20
94.1940660529306
 10
111.9064321029712
 20
94.20659758757311
 10
111.8845665128861
 20
94.21714819234089
 10
111.8616027986314
 20
94.22556714430863
 10
111.8376486194393
 20
94.23173601832079
 10
111.8128331663886
 20
94.23553638922183
 10
111.7872963964813
 20
94.23682830000972
 10
111.7872963964813
 20
94.23682830000972
 10
111.761759626574
 20
94.23553638922183
 10
111.7369441735233
 20
94.23174678424402
 10
111.7129899943312
 20
94.22557791023186
 10
111.6900262800765
 20
94.21714819234089
 10
111.6681606899915
 20
94.20659758757311
 10
111.6475439470014
 20
94.1940660529306
 10
111.6282729444154
 20
94.1796504817224
 10
111.6105091710819
 20
94.16349083095055
 10
111.5943602862333
 20
94.14572705761708
 10
111.5799447150251
 20
94.12646682095429
 10
111.5674024144594
 20
94.105839312041
 10
111.5568518096916
 20
94.0839844878792
 10
111.5484328577238
 20
94.06101000770124
 10
111.5422639837117
 20
94.03706659443236
 10
111.5384636128106
 20
94.01225114138165
 10
111.5371717020227
 20
93.98671437147439
 10
111.5371717020227
 20
93.98671437147439
 10
111.5384636128106
 20
93.96112377195095
 10
111.5422639837117
 20
93.9362544892841
 10
111.5484436236471
 20
93.91226801232227
 10
111.5568518096916
 20
93.88929353214431
 10
111.5674024144594
 20
93.86741717613606
 10
111.5799447150251
 20
93.84678966722277
 10
111.5943602862333
 20
93.82755096240645
 10
111.6105091710819
 20
93.80978718907298
 10
111.6282837103386
 20
93.7936490701476
 10
111.6475439470014
 20
93.7792657967091
 10
111.6681606899915
 20
93.7667450279898
 10
111.6900262800765
 20
93.75622672099175
 10
111.7129899943312
 20
93.74781853494723
 10
111.7369441735233
 20
93.74166042685829
 10
111.761759626574
 20
93.73788158780371
 97
        0
 75
     1
 76
     1
 98
        0
  0
LWPOLYLINE
  5
86
330
1F
100
AcDbEntity
  8
ISS138金台
  6
Continuous
 62
   250
420
  2367521
370
    13
100
AcDbPolyline
 90
       68
 70
     0
 43
0.0
 10
111.7872963964813
 20
93.73658967701581
 10
111.8128331663886
 20
93.73788158780371
 10
111.8376486194393
 20
93.74167119278152
 10
111.8616135645546
 20
93.74782930087045
 10
111.8845665128861
 20
93.75622672099175
 10
111.9064213370479
 20
93.7667450279898
 10
111.9270488459612
 20
93.7792657967091
 10
111.946309082624
 20
93.79365983607082
 10
111.9640836218807
 20
93.80978718907298
 10
111.9802432726525
 20
93.82755096240645
 10
111.9946480779375
 20
93.846800433146
 10
112.0071903785033
 20
93.86741717613606
 10
112.0177302173478
 20
93.88928276622109
 10
112.0261599352388
 20
93.91227877824551
 10
112.0323288092509
 20
93.9362544892841
 10
112.036129180152
 20
93.96111300602772
 10
112.0374210909399
 20
93.98671437147439
 10
112.0374210909399
 20
93.98671437147439
 10
112.0361399460752
 20
94.01225114138165
 10
112.0323288092509
 20
94.03705582850912
 10
112.026170701162
 20
94.06102077362448
 10
112.017740983271
 20
94.0839844878792
 10
112.0071903785033
 20
94.105839312041
 10
111.9946480779375
 20
94.12646682095429
 10
111.9802432726525
 20
94.14572705761708
 10
111.9640836218807
 20
94.16349083095055
 10
111.9463198485472
 20
94.1796504817224
 10
111.9270596118844
 20
94.1940660529306
 10
111.9064321029712
 20
94.20659758757311
 10
111.8845665128861
 20
94.21714819234089
 10
111.8616027986314
 20
94.22556714430863
 10
111.8376486194393
 20
94.23173601832079
 10
111.8128331663886
 20
94.23553638922183
 10
111.7872963964813
 20
94.23682830000972
 10
111.7872963964813
 20
94.23682830000972
 10
111.761759626574
 20
94.23553638922183
 10
111.7369441735233
 20
94.23174678424402
 10
111.7129899943312
 20
94.22557791023186
 10
111.6900262800765
 20
94.21714819234089
 10
111.6681606899915
 20
94.20659758757311
 10
111.6475439470014
 20
94.1940660529306
 10
111.6282729444154
 20
94.1796504817224
 10
111.6105091710819
 20
94.16349083095055
 10
111.5943602862333
 20
94.14572705761708
 10
111.5799447150251
 20
94.12646682095429
 10
111.5674024144594
 20
94.105839312041
 10
111.5568518096916
 20
94.0839844878792
 10
111.5484328577238
 20
94.06101000770124
 10
111.5422639837117
 20
94.03706659443236
 10
111.5384636128106
 20
94.01225114138165
 10
111.5371717020227
 20
93.98671437147439
 10
111.5371717020227
 20
93.98671437147439
 10
111.5384636128106
 20
93.96112377195095
 10
111.5422639837117
 20
93.9362544892841
 10
111.5484436236471
 20
93.91226801232227
 10
111.5568518096916
 20
93.88929353214431
 10
111.5674024144594
 20
93.86741717613606
 10
111.5799447150251
 20
93.84678966722277
 10
111.5943602862333
 20
93.82755096240645
 10
111.6105091710819
 20
93.80978718907298
 10
111.6282837103386
 20
93.7936490701476
 10
111.6475439470014
 20
93.7792657967091
 10
111.6681606899915
 20
93.7667450279898
 10
111.6900262800765
 20
93.75622672099175
 10
111.7129899943312
 20
93.74781853494723
 10
111.7369441735233
 20
93.74166042685829
 10
111.761759626574
 20
93.73788158780371
 10
111.7872963964813
 20
93.73658967701581
  0
HATCH
  5
87
330
1F
100
AcDbEntity
  8
ISS138金台
  6
Continuous
 62
   250
420
  2367521
370
    13
100
AcDbHatch
 10
0.0
 20
0.0
 30
0.0
210
0.0
220
0.0
230
1.0
  2
SOLID
 70
     1
 71
     0
 91
        1
 92
        3
 72
     0
 73
     1
 93
       67
 10
136.834518242532
 20
93.73658967701581
 10
136.8600550124393
 20
93.73788158780371
 10
136.88487046549
 20
93.74167119278152
 10
136.9088354106053
 20
93.74782930087045
 10
136.9317883589368
 20
93.75622672099175
 10
136.9536431830986
 20
93.7667450279898
 10
136.9742706920119
 20
93.7792657967091
 10
136.9935309286747
 20
93.79365983607082
 10
137.0113054679314
 20
93.80978718907298
 10
137.0274651187032
 20
93.82755096240645
 10
137.0418699239882
 20
93.846800433146
 10
137.0544122245539
 20
93.86741717613606
 10
137.0649520633985
 20
93.88928276622109
 10
137.0733817812895
 20
93.91227877824551
 10
137.0795506553016
 20
93.9362544892841
 10
137.0833510262026
 20
93.96111300602772
 10
137.0846429369905
 20
93.98671437147439
 10
137.0846429369905
 20
93.98671437147439
 10
137.0833617921259
 20
94.01225114138165
 10
137.0795614212249
 20
94.03705582850912
 10
137.0733925472127
 20
94.06102077362448
 10
137.0649628293217
 20
94.0839844878792
 10
137.0544014586307
 20
94.105839312041
 10
137.0418699239882
 20
94.12646682095429
 10
137.0274651187032
 20
94.14572705761708
 10
137.0113054679314
 20
94.16349083095055
 10
136.9935416945979
 20
94.1796504817224
 10
136.9742706920119
 20
94.1940660529306
 10
136.9536431830986
 20
94.20659758757311
 10
136.9317883589368
 20
94.21714819234089
 10
136.9088246446821
 20
94.22556714430863
 10
136.88487046549
 20
94.23173601832079
 10
136.8600550124393
 20
94.23553638922183
 10
136.834518242532
 20
94.23682830000972
 10
136.834518242532
 20
94.23682830000972
 10
136.8089814726247
 20
94.23553638922183
 10
136.784166019574
 20
94.23174678424402
 10
136.7602118403819
 20
94.22557791023186
 10
136.7372481261272
 20
94.21714819234089
 10
136.7153825360421
 20
94.20659758757311
 10
136.6947657930521
 20
94.1940660529306
 10
136.6755055563893
 20
94.1796504817224
 10
136.6577310171326
 20
94.16349083095055
 10
136.641582132284
 20
94.14572705761708
 10
136.6271665610758
 20
94.12646682095429
 10
136.61462426051
 20
94.105839312041
 10
136.6040736557423
 20
94.0839844878792
 10
136.5956547037745
 20
94.06101000770124
 10
136.5894858297623
 20
94.03706659443236
 10
136.5856854588613
 20
94.01225114138165
 10
136.5843935480734
 20
93.98671437147439
 10
136.5843935480734
 20
93.98671437147439
 10
136.5856854588613
 20
93.96112377195095
 10
136.5894858297623
 20
93.9362544892841
 10
136.5956654696977
 20
93.91226801232227
 10
136.6040736557423
 20
93.88929353214431
 10
136.6146134945868
 20
93.86741717613606
 10
136.6271557951525
 20
93.84678966722277
 10
136.641582132284
 20
93.82755096240645
 10
136.6577310171326
 20
93.80978718907298
 10
136.6755055563893
 20
93.7936490701476
 10
136.6947657930521
 20
93.7792657967091
 10
136.7153825360421
 20
93.7667450279898
 10
136.7372481261272
 20
93.75622672099175
 10
136.7602118403819
 20
93.74781853494723
 10
136.784166019574
 20
93.74166042685829
 10
136.8089814726247
 20
93.73788158780371
 97
        0
 75
     1
 76
     1
 98
        0
  0
LWPOLYLINE
  5
88
330
1F
100
AcDbEntity
  8
ISS138金台
  6
Continuous
 62
   250
420
  2367521
370
    13
100
AcDbPolyline
 90
       68
 70
     0
 43
0.0
 10
136.834518242532
 20
93.73658967701581
 10
136.8600550124393
 20
93.73788158780371
 10
136.88487046549
 20
93.74167119278152
 10
136.9088354106053
 20
93.74782930087045
 10
136.9317883589368
 20
93.75622672099175
 10
136.9536431830986
 20
93.7667450279898
 10
136.9742706920119
 20
93.7792657967091
 10
136.9935309286747
 20
93.79365983607082
 10
137.0113054679314
 20
93.80978718907298
 10
137.0274651187032
 20
93.82755096240645
 10
137.0418699239882
 20
93.846800433146
 10
137.0544122245539
 20
93.86741717613606
 10
137.0649520633985
 20
93.88928276622109
 10
137.0733817812895
 20
93.91227877824551
 10
137.0795506553016
 20
93.9362544892841
 10
137.0833510262026
 20
93.96111300602772
 10
137.0846429369905
 20
93.98671437147439
 10
137.0846429369905
 20
93.98671437147439
 10
137.0833617921259
 20
94.01225114138165
 10
137.0795614212249
 20
94.03705582850912
 10
137.0733925472127
 20
94.06102077362448
 10
137.0649628293217
 20
94.0839844878792
 10
137.0544014586307
 20
94.105839312041
 10
137.0418699239882
 20
94.12646682095429
 10
137.0274651187032
 20
94.14572705761708
 10
137.0113054679314
 20
94.16349083095055
 10
136.9935416945979
 20
94.1796504817224
 10
136.9742706920119
 20
94.1940660529306
 10
136.9536431830986
 20
94.20659758757311
 10
136.9317883589368
 20
94.21714819234089
 10
136.9088246446821
 20
94.22556714430863
 10
136.88487046549
 20
94.23173601832079
 10
136.8600550124393
 20
94.23553638922183
 10
136.834518242532
 20
94.23682830000972
 10
136.834518242532
 20
94.23682830000972
 10
136.8089814726247
 20
94.23553638922183
 10
136.784166019574
 20
94.23174678424402
 10
136.7602118403819
 20
94.22557791023186
 10
136.7372481261272
 20
94.21714819234089
 10
136.7153825360421
 20
94.20659758757311
 10
136.6947657930521
 20
94.1940660529306
 10
136.6755055563893
 20
94.1796504817224
 10
136.6577310171326
 20
94.16349083095055
 10
136.641582132284
 20
94.14572705761708
 10
136.6271665610758
 20
94.12646682095429
 10
136.61462426051
 20
94.105839312041
 10
136.6040736557423
 20
94.0839844878792
 10
136.5956547037745
 20
94.06101000770124
 10
136.5894858297623
 20
94.03706659443236
 10
136.5856854588613
 20
94.01225114138165
 10
136.5843935480734
 20
93.98671437147439
 10
136.5843935480734
 20
93.98671437147439
 10
136.5856854588613
 20
93.96112377195095
 10
136.5894858297623
 20
93.9362544892841
 10
136.5956654696977
 20
93.91226801232227
 10
136.6040736557423
 20
93.88929353214431
 10
136.6146134945868
 20
93.86741717613606
 10
136.6271557951525
 20
93.84678966722277
 10
136.641582132284
 20
93.82755096240645
 10
136.6577310171326
 20
93.80978718907298
 10
136.6755055563893
 20
93.7936490701476
 10
136.6947657930521
 20
93.7792657967091
 10
136.7153825360421
 20
93.7667450279898
 10
136.7372481261272
 20
93.75622672099175
 10
136.7602118403819
 20
93.74781853494723
 10
136.784166019574
 20
93.74166042685829
 10
136.8089814726247
 20
93.73788158780371
 10
136.834518242532
 20
93.73658967701581
  0
TEXT
  5
89
330
1F
100
AcDbEntity
  8
ISS138金台
  6
Continuous
 62
   250
420
  2367521
100
AcDbText
 10
113.948071018842
 20
118.3514337870472
 30
0.0
 40
2.150533301035563
  1
6
 41
0.8919982910156248
  7
MS Gothic
100
AcDbText
  0
TEXT
  5
8A
330
1F
100
AcDbEntity
  8
ISS138金台
  6
Continuous
 62
   250
420
  2367521
100
AcDbText
 10
105.2157520507315
 20
106.1795422857897
 30
0.0
 40
2.150533301035563
  1
7.2
 50
90.00000250447816
 41
0.9486668904622396
  7
MS Gothic
100
AcDbText
  0
TEXT
  5
8B
330
1F
100
AcDbEntity
  8
ISS138金台
  6
Continuous
 62
   250
420
  2367521
100
AcDbText
 10
122.7234073433485
 20
95.00195497105449
 30
0.0
 40
2.150533301035563
  1
25
 41
0.9140014648437499
  7
MS Gothic
100
AcDbText
  0
LINE
  5
8C
330
1F
100
AcDbEntity
  8
ISS138金台
  6
Continuous
 62
   250
420
  2367521
370
    13
100
AcDbLine
 10
137.8198370686085
 20
105.7210108667924
 30
0.0
 11
142.869496467461
 21
105.7210108667924
 31
0.0
  0
LINE
  5
8D
330
1F
100
AcDbEntity
  8
ISS138金台
  6
Continuous
 62
   250
420
  2367521
370
    13
100
AcDbLine
 10
137.8198370686085
 20
111.6007552446333
 30
0.0
 11
142.869496467461
 21
111.6007552446333
 31
0.0
  0
LINE
  5
8E
330
1F
100
AcDbEntity
  8
ISS138金台
  6
Continuous
 62
   250
420
  2367521
370
    13
100
AcDbLine
 10
142.3687195483055
 20
105.7441145380492
 30
0.0
 11
142.3687195483055
 21
111.744157342089
 31
0.0
  0
HATCH
  5
8F
330
1F
100
AcDbEntity
  8
ISS138金台
  6
Continuous
 62
   250
420
  2367521
370
    13
100
AcDbHatch
 10
0.0
 20
0.0
 30
0.0
210
0.0
220
0.0
230
1.0
  2
SOLID
 70
     1
 71
     0
 91
        1
 92
        3
 72
     0
 73
     1
 93
       67
 10
142.3687195483055
 20
111.3509965915647
 10
142.3942563182128
 20
111.3522777364293
 10
142.419050239417
 20
111.3560565754839
 10
142.4429936526859
 20
111.3621931517264
 10
142.4659358350942
 20
111.3705690400012
 10
142.4877691274095
 20
111.381076581076
 10
142.5083751044763
 20
111.3935542861024
 10
142.5275922774462
 20
111.4079267936177
 10
142.5453345189332
 20
111.4240218488501
 10
142.5614403400889
 20
111.4417425584907
 10
142.5758236135273
 20
111.4609704973837
 10
142.5883443822466
 20
111.4815549426041
 10
142.5988626892447
 20
111.5033990008427
 10
142.607260109366
 20
111.5263627150974
 10
142.6134074515317
 20
111.5503276602127
 10
142.6171970565095
 20
111.5751754110331
 10
142.6184889672974
 20
111.6007660105566
 10
142.6184889672974
 20
111.6007660105566
 10
142.6172078224328
 20
111.6263458441568
 10
142.6134074515317
 20
111.6512043609004
 10
142.607260109366
 20
111.6751585400925
 10
142.5988626892447
 20
111.6981330202705
 10
142.5883443822466
 20
111.719977078509
 10
142.5758343794506
 20
111.7405615237294
 10
142.5614511060121
 20
111.7597786966993
 10
142.5453345189332
 20
111.777510172263
 10
142.5275922774462
 20
111.7936052274955
 10
142.5083643385531
 20
111.8079562031643
 10
142.4877691274095
 20
111.8204446741139
 10
142.4659358350942
 20
111.8309522151887
 10
142.4429936526859
 20
111.8393281034635
 10
142.419050239417
 20
111.845464679706
 10
142.3942563182128
 20
111.8492435187606
 10
142.3687195483055
 20
111.8505246636253
 10
142.3687195483055
 20
111.8505246636253
 10
142.3431289487821
 20
111.8492435187606
 10
142.3182596661152
 20
111.8454539137828
 10
142.2942839550767
 20
111.8393281034635
 10
142.2712987089755
 20
111.8309414492655
 10
142.2494331188904
 20
111.8204554400371
 10
142.2288163759004
 20
111.8079562031643
 10
142.2095453733143
 20
111.7936052274955
 10
142.1918031318273
 20
111.7774994063398
 10
142.175665012902
 20
111.7597786966993
 10
142.1612709735402
 20
111.7405615237294
 10
142.1487502048209
 20
111.7199663125858
 10
142.1382318978229
 20
111.6981330202705
 10
142.1298237117783
 20
111.6751693060157
 10
142.1236656036894
 20
111.6512043609004
 10
142.1198867646348
 20
111.62635661008
 10
142.118594853847
 20
111.6007660105566
 10
142.118594853847
 20
111.6007660105566
 10
142.1198867646348
 20
111.5751754110331
 10
142.1236656036894
 20
111.5503276602127
 10
142.1298237117783
 20
111.5263627150974
 10
142.1382318978229
 20
111.5033990008427
 10
142.1487609707441
 20
111.4815657085273
 10
142.1612709735402
 20
111.4609704973837
 10
142.175665012902
 20
111.4417425584907
 10
142.1918031318273
 20
111.4240218488501
 10
142.2095561392376
 20
111.4079160276944
 10
142.2288056099771
 20
111.3935650520256
 10
142.2494331188904
 20
111.381076581076
 10
142.2712987089755
 20
111.3705690400012
 10
142.2942839550767
 20
111.3621931517264
 10
142.3182704320384
 20
111.3560565754839
 10
142.3431181828589
 20
111.3522777364293
 97
        0
 75
     1
 76
     1
 98
        0
  0
LWPOLYLINE
  5
90
330
1F
100
AcDbEntity
  8
ISS138金台
  6
Continuous
 62
   250
420
  2367521
370
    13
100
AcDbPolyline
 90
       68
 70
     0
 43
0.0
 10
142.3687195483055
 20
111.3509965915647
 10
142.3942563182128
 20
111.3522777364293
 10
142.419050239417
 20
111.3560565754839
 10
142.4429936526859
 20
111.3621931517264
 10
142.4659358350942
 20
111.3705690400012
 10
142.4877691274095
 20
111.381076581076
 10
142.5083751044763
 20
111.3935542861024
 10
142.5275922774462
 20
111.4079267936177
 10
142.5453345189332
 20
111.4240218488501
 10
142.5614403400889
 20
111.4417425584907
 10
142.5758236135273
 20
111.4609704973837
 10
142.5883443822466
 20
111.4815549426041
 10
142.5988626892447
 20
111.5033990008427
 10
142.607260109366
 20
111.5263627150974
 10
142.6134074515317
 20
111.5503276602127
 10
142.6171970565095
 20
111.5751754110331
 10
142.6184889672974
 20
111.6007660105566
 10
142.6184889672974
 20
111.6007660105566
 10
142.6172078224328
 20
111.6263458441568
 10
142.6134074515317
 20
111.6512043609004
 10
142.607260109366
 20
111.6751585400925
 10
142.5988626892447
 20
111.6981330202705
 10
142.5883443822466
 20
111.719977078509
 10
142.5758343794506
 20
111.7405615237294
 10
142.5614511060121
 20
111.7597786966993
 10
142.5453345189332
 20
111.777510172263
 10
142.5275922774462
 20
111.7936052274955
 10
142.5083643385531
 20
111.8079562031643
 10
142.4877691274095
 20
111.8204446741139
 10
142.4659358350942
 20
111.8309522151887
 10
142.4429936526859
 20
111.8393281034635
 10
142.419050239417
 20
111.845464679706
 10
142.3942563182128
 20
111.8492435187606
 10
142.3687195483055
 20
111.8505246636253
 10
142.3687195483055
 20
111.8505246636253
 10
142.3431289487821
 20
111.8492435187606
 10
142.3182596661152
 20
111.8454539137828
 10
142.2942839550767
 20
111.8393281034635
 10
142.2712987089755
 20
111.8309414492655
 10
142.2494331188904
 20
111.8204554400371
 10
142.2288163759004
 20
111.8079562031643
 10
142.2095453733143
 20
111.7936052274955
 10
142.1918031318273
 20
111.7774994063398
 10
142.175665012902
 20
111.7597786966993
 10
142.1612709735402
 20
111.7405615237294
 10
142.1487502048209
 20
111.7199663125858
 10
142.1382318978229
 20
111.6981330202705
 10
142.1298237117783
 20
111.6751693060157
 10
142.1236656036894
 20
111.6512043609004
 10
142.1198867646348
 20
111.62635661008
 10
142.118594853847
 20
111.6007660105566
 10
142.118594853847
 20
111.6007660105566
 10
142.1198867646348
 20
111.5751754110331
 10
142.1236656036894
 20
111.5503276602127
 10
142.1298237117783
 20
111.5263627150974
 10
142.1382318978229
 20
111.5033990008427
 10
142.1487609707441
 20
111.4815657085273
 10
142.1612709735402
 20
111.4609704973837
 10
142.175665012902
 20
111.4417425584907
 10
142.1918031318273
 20
111.4240218488501
 10
142.2095561392376
 20
111.4079160276944
 10
142.2288056099771
 20
111.3935650520256
 10
142.2494331188904
 20
111.381076581076
 10
142.2712987089755
 20
111.3705690400012
 10
142.2942839550767
 20
111.3621931517264
 10
142.3182704320384
 20
111.3560565754839
 10
142.3431181828589
 20
111.3522777364293
 10
142.3687195483055
 20
111.3509965915647
  0
HATCH
  5
91
330
1F
100
AcDbEntity
  8
ISS138金台
  6
Continuous
 62
   250
420
  2367521
370
    13
100
AcDbHatch
 10
0.0
 20
0.0
 30
0.0
210
0.0
220
0.0
230
1.0
  2
SOLID
 70
     1
 71
     0
 91
        1
 92
        3
 72
     0
 73
     1
 93
       67
 10
142.3690748237722
 20
105.4712414478005
 10
142.3946115936795
 20
105.4725225926652
 10
142.4194055148837
 20
105.4763014317198
 10
142.4433381622293
 20
105.4824380079622
 10
142.4662911105608
 20
105.4908246621603
 10
142.4881244028762
 20
105.5013214373119
 10
142.5087088480965
 20
105.5138099082615
 10
142.5279475529128
 20
105.5281608839303
 10
142.5456897943998
 20
105.5442667050859
 10
142.5618063814788
 20
105.5619981806497
 10
142.576178888994
 20
105.5812045876963
 10
142.5886888917901
 20
105.6017997988399
 10
142.5992179647114
 20
105.6236438570785
 10
142.6076153848327
 20
105.6466075713332
 10
142.6137734929216
 20
105.6705725164486
 10
142.6175523319762
 20
105.695420267269
 10
142.6188442427641
 20
105.7210108667924
 10
142.6188442427641
 20
105.7210108667924
 10
142.6175523319762
 20
105.7466014663159
 10
142.6137734929216
 20
105.7714492171363
 10
142.6076153848327
 20
105.7954141622516
 10
142.5992179647114
 20
105.8183671105831
 10
142.5886888917901
 20
105.8402219347449
 10
142.576178888994
 20
105.8608063799653
 10
142.5618063814788
 20
105.8800235529351
 10
142.5456897943998
 20
105.8977550284989
 10
142.5279475529128
 20
105.9138500837313
 10
142.5087196140198
 20
105.9282118253234
 10
142.4881244028762
 20
105.940700296273
 10
142.4662911105608
 20
105.9511970714245
 10
142.4433489281526
 20
105.9595729596994
 10
142.4194055148837
 20
105.9657095359419
 10
142.3946115936795
 20
105.9694883749964
 10
142.3690748237722
 20
105.9707695198611
 10
142.3690748237722
 20
105.9707695198611
 10
142.3434734583255
 20
105.9694776090732
 10
142.3186257075051
 20
105.9657095359419
 10
142.2946392305433
 20
105.9595729596994
 10
142.2716539844421
 20
105.9511970714245
 10
142.2497776284338
 20
105.940700296273
 10
142.2291608854438
 20
105.9282118253234
 10
142.2099114147042
 20
105.9138500837313
 10
142.192158407294
 20
105.8977550284989
 10
142.1760095224454
 20
105.8800235529351
 10
142.1616262490069
 20
105.8608063799653
 10
142.1491054802876
 20
105.8402111688217
 10
142.1385871732895
 20
105.8183778765063
 10
142.130178987245
 20
105.7954141622516
 10
142.1240316450793
 20
105.7714492171363
 10
142.1202420401015
 20
105.7466014663159
 10
142.1189501293136
 20
105.7210108667924
 10
142.1189501293136
 20
105.7210108667924
 10
142.1202528060247
 20
105.6954095013458
 10
142.1240208791561
 20
105.6705725164486
 10
142.130178987245
 20
105.6466075713332
 10
142.1385871732895
 20
105.6236330911553
 10
142.1491162462108
 20
105.6018105647632
 10
142.1616262490069
 20
105.5812045876963
 10
142.1760202883686
 20
105.5619981806497
 10
142.192158407294
 20
105.5442667050859
 10
142.2099114147042
 20
105.5281716498535
 10
142.2291608854438
 20
105.5138099082615
 10
142.2497883943571
 20
105.5013106713886
 10
142.2716539844421
 20
105.4908246621603
 10
142.2946392305433
 20
105.4824380079622
 10
142.3186257075051
 20
105.4763014317198
 10
142.3434734583255
 20
105.4725225926652
 97
        0
 75
     1
 76
     1
 98
        0
  0
LWPOLYLINE
  5
92
330
1F
100
AcDbEntity
  8
ISS138金台
  6
Continuous
 62
   250
420
  2367521
370
    13
100
AcDbPolyline
 90
       68
 70
     0
 43
0.0
 10
142.3690748237722
 20
105.4712414478005
 10
142.3946115936795
 20
105.4725225926652
 10
142.4194055148837
 20
105.4763014317198
 10
142.4433381622293
 20
105.4824380079622
 10
142.4662911105608
 20
105.4908246621603
 10
142.4881244028762
 20
105.5013214373119
 10
142.5087088480965
 20
105.5138099082615
 10
142.5279475529128
 20
105.5281608839303
 10
142.5456897943998
 20
105.5442667050859
 10
142.5618063814788
 20
105.5619981806497
 10
142.576178888994
 20
105.5812045876963
 10
142.5886888917901
 20
105.6017997988399
 10
142.5992179647114
 20
105.6236438570785
 10
142.6076153848327
 20
105.6466075713332
 10
142.6137734929216
 20
105.6705725164486
 10
142.6175523319762
 20
105.695420267269
 10
142.6188442427641
 20
105.7210108667924
 10
142.6188442427641
 20
105.7210108667924
 10
142.6175523319762
 20
105.7466014663159
 10
142.6137734929216
 20
105.7714492171363
 10
142.6076153848327
 20
105.7954141622516
 10
142.5992179647114
 20
105.8183671105831
 10
142.5886888917901
 20
105.8402219347449
 10
142.576178888994
 20
105.8608063799653
 10
142.5618063814788
 20
105.8800235529351
 10
142.5456897943998
 20
105.8977550284989
 10
142.5279475529128
 20
105.9138500837313
 10
142.5087196140198
 20
105.9282118253234
 10
142.4881244028762
 20
105.940700296273
 10
142.4662911105608
 20
105.9511970714245
 10
142.4433489281526
 20
105.9595729596994
 10
142.4194055148837
 20
105.9657095359419
 10
142.3946115936795
 20
105.9694883749964
 10
142.3690748237722
 20
105.9707695198611
 10
142.3690748237722
 20
105.9707695198611
 10
142.3434734583255
 20
105.9694776090732
 10
142.3186257075051
 20
105.9657095359419
 10
142.2946392305433
 20
105.9595729596994
 10
142.2716539844421
 20
105.9511970714245
 10
142.2497776284338
 20
105.940700296273
 10
142.2291608854438
 20
105.9282118253234
 10
142.2099114147042
 20
105.9138500837313
 10
142.192158407294
 20
105.8977550284989
 10
142.1760095224454
 20
105.8800235529351
 10
142.1616262490069
 20
105.8608063799653
 10
142.1491054802876
 20
105.8402111688217
 10
142.1385871732895
 20
105.8183778765063
 10
142.130178987245
 20
105.7954141622516
 10
142.1240316450793
 20
105.7714492171363
 10
142.1202420401015
 20
105.7466014663159
 10
142.1189501293136
 20
105.7210108667924
 10
142.1189501293136
 20
105.7210108667924
 10
142.1202528060247
 20
105.6954095013458
 10
142.1240208791561
 20
105.6705725164486
 10
142.130178987245
 20
105.6466075713332
 10
142.1385871732895
 20
105.6236330911553
 10
142.1491162462108
 20
105.6018105647632
 10
142.1616262490069
 20
105.5812045876963
 10
142.1760202883686
 20
105.5619981806497
 10
142.192158407294
 20
105.5442667050859
 10
142.2099114147042
 20
105.5281716498535
 10
142.2291608854438
 20
105.5138099082615
 10
142.2497883943571
 20
105.5013106713886
 10
142.2716539844421
 20
105.4908246621603
 10
142.2946392305433
 20
105.4824380079622
 10
142.3186257075051
 20
105.4763014317198
 10
142.3434734583255
 20
105.4725225926652
 10
142.3690748237722
 20
105.4712414478005
  0
TEXT
  5
93
330
1F
100
AcDbEntity
  8
ISS138金台
  6
Continuous
 62
   250
420
  2367521
100
AcDbText
 10
141.2246000817102
 20
107.8814517281387
 30
0.0
 40
2.150533301035563
  1
6
 50
90.00000250447816
 41
0.8919982910156248
  7
MS Gothic
100
AcDbText
  0
LINE
  5
94
330
1F
100
AcDbEntity
  8
ISS138金台
  6
UserDefined01
 62
   140
420
    44526
370
    13
100
AcDbLine
 10
127.3315669963631
 20
99.45888242758278
 30
0.0
 11
136.856566853312
 21
99.45888242758278
 31
0.0
  0
TEXT
  5
95
330
1F
100
AcDbEntity
  8
ISS138金台
  6
Continuous
 62
   140
420
    44526
100
AcDbText
 10
130.3777096135107
 20
100.2480463046196
 30
0.0
 40
1.881716638406118
  1
9.5
 41
1.029167266119094
  7
MS Gothic
100
AcDbText
  0
HATCH
  5
96
330
1F
100
AcDbEntity
  8
ISS138金台
  6
Continuous
 62
   140
420
    44526
370
    50
100
AcDbHatch
 10
0.0
 20
0.0
 30
0.0
210
0.0
220
0.0
230
1.0
  2
SOLID
 70
     1
 71
     0
 91
        1
 92
        3
 72
     0
 73
     1
 93
        3
 10
126.4654915360087
 20
108.6307492365854
 10
128.1976316907943
 20
108.6303939611187
 10
127.3322667813732
 20
107.1317989790138
 97
        0
 75
     1
 76
     1
 98
        0
  0
LWPOLYLINE
  5
97
330
1F
100
AcDbEntity
  8
ISS138金台
  6
Continuous
 62
   140
420
    44526
370
    50
100
AcDbPolyline
 90
        4
 70
     0
 43
0.0
 10
126.4654915360087
 20
108.6307492365854
 10
128.1976316907943
 20
108.6303939611187
 10
127.3322667813732
 20
107.1317989790138
 10
126.4654915360087
 20
108.6307492365854
  0
ENDSEC
  0
SECTION
  2
OBJECTS
  0
DICTIONARY
  5
C
330
0
100
AcDbDictionary
281
     1
  3
ACAD_DETAILVIEWSTYLE
350
9F
  3
ACAD_GROUP
350
D
  3
ACAD_LAYOUT
350
1A
  3
ACAD_MATERIAL
350
43
  3
ACAD_MLEADERSTYLE
350
5B
  3
ACAD_MLINESTYLE
350
17
  3
ACAD_PLOTSETTINGS
350
19
  3
ACAD_PLOTSTYLENAME
350
E
  3
ACAD_SCALELIST
350
47
  3
ACAD_SECTIONVIEWSTYLE
350
A0
  3
ACAD_TABLESTYLE
350
59
  3
ACAD_VISUALSTYLE
350
2A
  3
ACDB_RECOMPOSE_DATA
350
9C
  3
AcDbVariableDictionary
350
98
  0
SUN
  5
5D
330
29
100
AcDbSun
 90
        1
290
     0
 63
     7
421
 16777215
 40
1.0
291
     1
 91
  2455826
 92
 54000000
292
     0
 70
     2
 71
   256
280
     1
  0
DICTIONARY
  5
9F
102
{ACAD_REACTORS
330
C
102
}
330
C
100
AcDbDictionary
281
     1
  0
DICTIONARY
  5
D
102
{ACAD_REACTORS
330
C
102
}
330
C
100
AcDbDictionary
281
     1
  0
DICTIONARY
  5
1A
102
{ACAD_REACTORS
330
C
102
}
330
C
100
AcDbDictionary
281
     1
  3
Layout1
350
1E
  3
Layout2
350
26
  3
Model
350
22
  0
DICTIONARY
  5
43
102
{ACAD_REACTORS
330
C
102
}
330
C
100
AcDbDictionary
281
     1
  3
ByBlock
350
45
  3
ByLayer
350
44
  3
Global
350
46
  0
DICTIONARY
  5
5B
102
{ACAD_REACTORS
330
C
102
}
330
C
100
AcDbDictionary
281
     1
  3
Standard
350
5C
  0
DICTIONARY
  5
17
102
{ACAD_REACTORS
330
C
102
}
330
C
100
AcDbDictionary
281
     1
  3
Standard
350
18
  0
DICTIONARY
  5
19
102
{ACAD_REACTORS
330
C
102
}
330
C
100
AcDbDictionary
281
     1
  0
ACDBDICTIONARYWDFLT
  5
E
102
{ACAD_REACTORS
330
C
102
}
330
C
100
AcDbDictionary
281
     1
  3
Normal
350
F
100
AcDbDictionaryWithDefault
340
F
  0
DICTIONARY
  5
47
102
{ACAD_REACTORS
330
C
102
}
330
C
100
AcDbDictionary
281
     1
  3
A0
350
48
  3
A1
350
49
  3
A2
350
4A
  3
A3
350
4B
  3
A4
350
4C
  3
A5
350
4D
  3
A6
350
4E
  3
A7
350
4F
  3
A8
350
50
  3
A9
350
51
  3
B0
350
52
  3
B1
350
53
  3
B2
350
54
  3
B3
350
55
  3
B4
350
56
  3
B5
350
57
  3
B6
350
58
  0
DICTIONARY
  5
A0
102
{ACAD_REACTORS
330
C
102
}
330
C
100
AcDbDictionary
281
     1
  0
DICTIONARY
  5
59
102
{ACAD_REACTORS
330
C
102
}
330
C
100
AcDbDictionary
281
     1
  3
Standard
350
5A
  0
DICTIONARY
  5
2A
102
{ACAD_REACTORS
330
C
102
}
330
C
100
AcDbDictionary
281
     1
  3
2dWireframe
350
2F
  3
Basic
350
32
  3
Brighten
350
36
  3
ColorChange
350
3A
  3
Conceptual
350
34
  3
Dim
350
35
  3
EdgeColorOff
350
3D
  3
Facepattern
350
39
  3
Flat
350
2B
  3
FlatWithEdges
350
2C
  3
Gouraud
350
2D
  3
GouraudWithEdges
350
2E
  3
Hidden
350
31
  3
JitterOff
350
3B
  3
Linepattern
350
38
  3
OverhangOff
350
3C
  3
Realistic
350
33
  3
Shaded
350
42
  3
Shaded with edges
350
41
  3
Shades of Gray
350
3E
  3
Sketchy
350
3F
  3
Thicken
350
37
  3
Wireframe
350
30
  3
X-Ray
350
40
  0
XRECORD
  5
9C
102
{ACAD_REACTORS
330
C
102
}
330
C
100
AcDbXrecord
280
     1
 90
        1
330
5A
  0
DICTIONARY
  5
98
102
{ACAD_REACTORS
330
C
102
}
330
C
100
AcDbDictionary
281
     1
  3
CANNOSCALE
350
99
  3
CENTEREXE
350
A1
  3
CENTERLTYPEFILE
350
A2
  3
CMLEADERSTYLE
350
9E
  3
CTABLESTYLE
350
9D
  0
LAYOUT
  5
1E
102
{ACAD_REACTORS
330
1A
102
}
330
1A
100
AcDbPlotSettings
  1

  2
none_device
  4

  6

 40
0.0
 41
0.0
 42
0.0
 43
0.0
 44
0.0
 45
0.0
 46
0.0
 47
0.0
 48
0.0
 49
0.0
140
0.0
141
0.0
142
1.0
143
1.0
 70
   688
 72
     1
 73
     0
 74
     5
  7

 75
    16
 76
     0
 77
     5
 78
   300
147
1.0
148
0.0
149
0.0
100
AcDbLayout
  1
Layout1
 70
     1
 71
     1
 10
0.0
 20
0.0
 11
420.0
 21
297.0
 12
0.0
 22
0.0
 32
0.0
 14
1.000000000000000E+20
 24
1.000000000000000E+20
 34
1.000000000000000E+20
 15
-1.000000000000000E+20
 25
-1.000000000000000E+20
 35
-1.000000000000000E+20
146
0.0
 13
0.0
 23
0.0
 33
0.0
 16
1.0
 26
0.0
 36
0.0
 17
0.0
 27
1.0
 37
0.0
 76
     0
330
1B
  0
LAYOUT
  5
26
102
{ACAD_REACTORS
330
1A
102
}
330
1A
100
AcDbPlotSettings
  1

  2
none_device
  4

  6

 40
0.0
 41
0.0
 42
0.0
 43
0.0
 44
0.0
 45
0.0
 46
0.0
 47
0.0
 48
0.0
 49
0.0
140
0.0
141
0.0
142
1.0
143
1.0
 70
   688
 72
     1
 73
     0
 74
     5
  7

 75
    16
 76
     0
 77
     5
 78
   300
147
1.0
148
0.0
149
0.0
100
AcDbLayout
  1
Layout2
 70
     1
 71
     2
 10
0.0
 20
0.0
 11
0.0
 21
0.0
 12
0.0
 22
0.0
 32
0.0
 14
0.0
 24
0.0
 34
0.0
 15
0.0
 25
0.0
 35
0.0
146
0.0
 13
0.0
 23
0.0
 33
0.0
 16
1.0
 26
0.0
 36
0.0
 17
0.0
 27
1.0
 37
0.0
 76
     0
330
23
  0
LAYOUT
  5
22
102
{ACAD_REACTORS
330
1A
102
}
330
1A
100
AcDbPlotSettings
  1

  2
none_device
  4
Letter_(8.50_x_11.00_Inches)
  6

 40
6.35
 41
6.35
 42
6.35000508
 43
6.35000508
 44
215.9
 45
279.4
 46
0.0
 47
0.0
 48
0.0
 49
0.0
140
0.0
141
0.0
142
1.0
143
1.0
 70
  1712
 72
     1
 73
     0
 74
     0
  7

 75
     0
 76
     0
 77
     5
 78
   300
147
1.0
148
0.0
149
0.0
100
AcDbLayout
  1
Model
 70
     1
 71
     0
 10
0.0
 20
0.0
 11
302.9997823349792
 21
216.0016055409748
 12
0.0
 22
0.0
 32
0.0
 14
0.0
 24
0.0
 34
0.0
 15
302.9997823349792
 25
216.0016055409748
 35
0.0
146
0.0
 13
0.0
 23
0.0
 33
0.0
 16
1.0
 26
0.0
 36
0.0
 17
0.0
 27
1.0
 37
0.0
 76
     0
330
1F
331
29
  0
MATERIAL
  5
45
102
{ACAD_REACTORS
330
43
102
}
330
43
100
AcDbMaterial
  1
ByBlock
 72
     1
 94
      127
  0
MATERIAL
  5
44
102
{ACAD_REACTORS
330
43
102
}
330
43
100
AcDbMaterial
  1
ByLayer
 72
     1
 94
      127
  0
MATERIAL
  5
46
102
{ACAD_REACTORS
330
43
102
}
330
43
100
AcDbMaterial
  1
Global
 72
     1
 94
      127
  0
MLEADERSTYLE
  5
5C
102
{ACAD_REACTORS
330
5B
102
}
330
5B
100
AcDbMLeaderStyle
179
     2
170
     2
171
     1
172
     0
 90
        2
 40
0.0
 41
0.0
173
     1
 91
-1056964608
340
14
 92
       -2
290
     1
 42
2.0
291
     1
 43
8.0
  3
Standard
341
0
 44
4.0
300

342
11
174
     1
178
     6
175
     1
176
     0
 93
-1056964608
 45
4.0
292
     0
297
     0
 46
4.0
343
0
 94
-1056964608
 47
1.0
 49
1.0
140
1.0
293
     1
141
0.0
294
     1
177
     0
142
1.0
295
     0
296
     0
143
3.75
271
     0
272
     9
273
     9
298
     0
  0
MLINESTYLE
  5
18
102
{ACAD_REACTORS
330
17
102
}
330
17
100
AcDbMlineStyle
  2
Standard
 70
     0
  3

 62
   256
 51
90.0
 52
90.0
 71
     2
 49
0.5
 62
   256
  6
BYLAYER
 49
-0.5
 62
   256
  6
BYLAYER
  0
ACDBPLACEHOLDER
  5
F
102
{ACAD_REACTORS
330
E
102
}
330
E
  0
SCALE
  5
48
102
{ACAD_REACTORS
330
47
102
}
330
47
100
AcDbScale
 70
     0
300
1:1
140
1.0
141
1.0
290
     1
  0
SCALE
  5
49
102
{ACAD_REACTORS
330
47
102
}
330
47
100
AcDbScale
 70
     0
300
1:2
140
1.0
141
2.0
290
     0
  0
SCALE
  5
4A
102
{ACAD_REACTORS
330
47
102
}
330
47
100
AcDbScale
 70
     0
300
1:4
140
1.0
141
4.0
290
     0
  0
SCALE
  5
4B
102
{ACAD_REACTORS
330
47
102
}
330
47
100
AcDbScale
 70
     0
300
1:5
140
1.0
141
5.0
290
     0
  0
SCALE
  5
4C
102
{ACAD_REACTORS
330
47
102
}
330
47
100
AcDbScale
 70
     0
300
1:8
140
1.0
141
8.0
290
     0
  0
SCALE
  5
4D
102
{ACAD_REACTORS
330
47
102
}
330
47
100
AcDbScale
 70
     0
300
1:10
140
1.0
141
10.0
290
     0
  0
SCALE
  5
4E
102
{ACAD_REACTORS
330
47
102
}
330
47
100
AcDbScale
 70
     0
300
1:16
140
1.0
141
16.0
290
     0
  0
SCALE
  5
4F
102
{ACAD_REACTORS
330
47
102
}
330
47
100
AcDbScale
 70
     0
300
1:20
140
1.0
141
20.0
290
     0
  0
SCALE
  5
50
102
{ACAD_REACTORS
330
47
102
}
330
47
100
AcDbScale
 70
     0
300
1:30
140
1.0
141
30.0
290
     0
  0
SCALE
  5
51
102
{ACAD_REACTORS
330
47
102
}
330
47
100
AcDbScale
 70
     0
300
1:40
140
1.0
141
40.0
290
     0
  0
SCALE
  5
52
102
{ACAD_REACTORS
330
47
102
}
330
47
100
AcDbScale
 70
     0
300
1:50
140
1.0
141
50.0
290
     0
  0
SCALE
  5
53
102
{ACAD_REACTORS
330
47
102
}
330
47
100
AcDbScale
 70
     0
300
1:100
140
1.0
141
100.0
290
     0
  0
SCALE
  5
54
102
{ACAD_REACTORS
330
47
102
}
330
47
100
AcDbScale
 70
     0
300
2:1
140
2.0
141
1.0
290
     0
  0
SCALE
  5
55
102
{ACAD_REACTORS
330
47
102
}
330
47
100
AcDbScale
 70
     0
300
4:1
140
4.0
141
1.0
290
     0
  0
SCALE
  5
56
102
{ACAD_REACTORS
330
47
102
}
330
47
100
AcDbScale
 70
     0
300
8:1
140
8.0
141
1.0
290
     0
  0
SCALE
  5
57
102
{ACAD_REACTORS
330
47
102
}
330
47
100
AcDbScale
 70
     0
300
10:1
140
10.0
141
1.0
290
     0
  0
SCALE
  5
58
102
{ACAD_REACTORS
330
47
102
}
330
47
100
AcDbScale
 70
     0
300
100:1
140
100.0
141
1.0
290
     0
  0
TABLESTYLE
  5
5A
102
{ACAD_REACTORS
330
59
102
}
102
{ACAD_XDICTIONARY
360
9A
102
}
330
59
100
AcDbTableStyle
  3
Standard
 70
     0
 71
     0
 40
0.06
 41
0.06
280
     0
281
     0
  7
Standard
140
4.5
170
     2
 62
     0
 63
   257
283
     0
 90
        4
 91
        0
  1

274
    -2
284
     1
 64
     0
275
    -2
285
     1
 65
     0
276
    -2
286
     1
 66
     0
277
    -2
287
     1
 67
     0
278
    -2
288
     1
 68
     0
279
    -2
289
     1
 69
     0
  7
Standard
140
6.0
170
     5
 62
     0
 63
   257
283
     0
 90
        4
 91
        0
  1

274
    -2
284
     1
 64
     0
275
    -2
285
     1
 65
     0
276
    -2
286
     1
 66
     0
277
    -2
287
     1
 67
     0
278
    -2
288
     1
 68
     0
279
    -2
289
     1
 69
     0
  7
Standard
140
4.5
170
     5
 62
     0
 63
   257
283
     0
 90
        4
 91
        0
  1

274
    -2
284
     1
 64
     0
275
    -2
285
     1
 65
     0
276
    -2
286
     1
 66
     0
277
    -2
287
     1
 67
     0
278
    -2
288
     1
 68
     0
279
    -2
289
     1
 69
     0
  0
VISUALSTYLE
  5
2F
102
{ACAD_REACTORS
330
2A
102
}
330
2A
100
AcDbVisualStyle
  2
2dWireframe
 70
     4
177
     3
291
     0
 70
    58
 90
        0
176
     1
 90
        2
176
     1
 90
        0
176
     1
 90
        0
176
     1
 40
0.6
176
     1
 40
30.0
176
     1
 62
     7
420
 16777215
176
     1
 90
        1
176
     1
 90
        4
176
     1
 62
     7
176
     1
 62
   257
176
     1
 90
        1
176
     1
 90
        1
176
     1
 40
1.0
176
     1
 90
        0
176
     1
 62
   257
176
     1
 40
1.0
176
     1
 90
        1
176
     1
 90
        6
176
     1
 90
        2
176
     1
 62
     7
176
     1
 90
        5
176
     1
 90
        0
176
     1
 90
        0
176
     1
290
     0
176
     1
 90
        1
176
     1
 40
0.0
176
     1
 90
        0
176
     1
290
     1
176
     1
290
     1
176
     1
290
     0
176
     1
290
     0
176
     1
290
     0
176
     1
290
     0
176
     1
290
     0
176
     1
290
     0
176
     1
290
     0
176
     1
 90
       50
176
     1
 40
0.0
176
     1
 40
1.0
176
     1
 90
        0
176
     1
 62
    18
420
        0
176
     1
 90
       50
176
     1
 90
        3
176
     1
 62
     5
420
      255
176
     1
290
     0
176
     1
 90
       50
176
     1
 90
       50
176
     1
 90
       50
176
     1
290
     0
176
     1
 90
       50
176
     1
 62
   256
176
     0
 40
1.0
176
     0
 90
        2
176
     1
  1
strokes_ogs.tif
176
     1
290
     0
176
     1
 40
1.0
176
     1
 40
1.0
176
     1
  0
VISUALSTYLE
  5
32
102
{ACAD_REACTORS
330
2A
102
}
330
2A
100
AcDbVisualStyle
  2
Basic
 70
     7
177
     3
291
     1
 70
    58
 90
        1
176
     1
 90
        0
176
     1
 90
        1
176
     1
 90
        0
176
     1
 40
0.6
176
     1
 40
30.0
176
     1
 62
     7
420
 16777215
176
     1
 90
        0
176
     1
 90
        4
176
     1
 62
     7
176
     1
 62
   257
176
     1
 90
        1
176
     1
 90
        1
176
     1
 40
1.0
176
     1
 90
        8
176
     1
 62
     7
176
     1
 40
1.0
176
     1
 90
        1
176
     1
 90
        6
176
     1
 90
        2
176
     1
 62
     7
176
     1
 90
        5
176
     1
 90
        0
176
     1
 90
        0
176
     1
290
     0
176
     1
 90
        1
176
     1
 40
0.0
176
     1
 90
        0
176
     1
290
     0
176
     1
290
     1
176
     1
290
     1
176
     1
290
     0
176
     1
290
     0
176
     1
290
     0
176
     1
290
     0
176
     1
290
     0
176
     1
290
     0
176
     1
 90
       50
176
     1
 40
0.0
176
     1
 40
1.0
176
     1
 90
        0
176
     1
 62
    18
420
        0
176
     1
 90
       50
176
     1
 90
        3
176
     1
 62
     5
420
      255
176
     1
290
     0
176
     1
 90
       50
176
     1
 90
       50
176
     1
 90
       50
176
     1
290
     0
176
     1
 90
       50
176
     1
 62
   256
176
     0
 40
1.0
176
     0
 90
        2
176
     1
  1
strokes_ogs.tif
176
     1
290
     0
176
     1
 40
1.0
176
     1
 40
1.0
176
     1
  0
VISUALSTYLE
  5
36
102
{ACAD_REACTORS
330
2A
102
}
330
2A
100
AcDbVisualStyle
  2
Brighten
 70
    12
177
     3
291
     1
 70
    58
 90
        2
176
     1
 90
        2
176
     1
 90
        0
176
     1
 90
        0
176
     1
 40
0.6
176
     1
 40
30.0
176
     1
 62
     7
420
 16777215
176
     1
 90
        1
176
     1
 90
        4
176
     1
 62
     7
176
     1
 62
   257
176
     1
 90
        1
176
     1
 90
        1
176
     1
 40
1.0
176
     1
 90
        8
176
     1
 62
     7
176
     1
 40
1.0
176
     1
 90
        1
176
     1
 90
        6
176
     1
 90
        2
176
     1
 62
     7
176
     1
 90
        5
176
     1
 90
        0
176
     1
 90
        0
176
     1
290
     0
176
     1
 90
        1
176
     1
 40
50.0
176
     1
 90
        0
176
     1
290
     0
176
     1
290
     1
176
     1
290
     1
176
     1
290
     0
176
     1
290
     0
176
     1
290
     0
176
     1
290
     0
176
     1
290
     0
176
     1
290
     0
176
     1
 90
       50
176
     1
 40
0.0
176
     1
 40
1.0
176
     1
 90
        0
176
     1
 62
    18
420
        0
176
     1
 90
       50
176
     1
 90
        3
176
     1
 62
     5
420
      255
176
     1
290
     0
176
     1
 90
       50
176
     1
 90
       50
176
     1
 90
       50
176
     1
290
     0
176
     1
 90
       50
176
     1
 62
   256
176
     0
 40
1.0
176
     0
 90
        2
176
     1
  1
strokes_ogs.tif
176
     1
290
     0
176
     1
 40
1.0
176
     1
 40
1.0
176
     1
  0
VISUALSTYLE
  5
3A
102
{ACAD_REACTORS
330
2A
102
}
330
2A
100
AcDbVisualStyle
  2
ColorChange
 70
    16
177
     3
291
     1
 70
    58
 90
        2
176
     1
 90
        2
176
     1
 90
        3
176
     1
 90
        0
176
     1
 40
0.6
176
     1
 40
30.0
176
     1
 62
     8
420
  8421504
176
     1
 90
        1
176
     1
 90
        4
176
     1
 62
     7
176
     1
 62
   257
176
     1
 90
        1
176
     1
 90
        1
176
     1
 40
1.0
176
     1
 90
        8
176
     1
 62
     8
420
  8421504
176
     1
 40
1.0
176
     1
 90
        1
176
     1
 90
        6
176
     1
 90
        2
176
     1
 62
     7
176
     1
 90
        5
176
     1
 90
        0
176
     1
 90
        0
176
     1
290
     0
176
     1
 90
        1
176
     1
 40
0.0
176
     1
 90
        0
176
     1
290
     0
176
     1
290
     1
176
     1
290
     1
176
     1
290
     0
176
     1
290
     0
176
     1
290
     0
176
     1
290
     0
176
     1
290
     0
176
     1
290
     0
176
     1
 90
       50
176
     1
 40
0.0
176
     1
 40
1.0
176
     1
 90
        0
176
     1
 62
    18
420
        0
176
     1
 90
       50
176
     1
 90
        3
176
     1
 62
     5
420
      255
176
     1
290
     0
176
     1
 90
       50
176
     1
 90
       50
176
     1
 90
       50
176
     1
290
     0
176
     1
 90
       50
176
     1
 62
   256
176
     0
 40
1.0
176
     0
 90
        2
176
     1
  1
strokes_ogs.tif
176
     1
290
     0
176
     1
 40
1.0
176
     1
 40
1.0
176
     1
  0
VISUALSTYLE
  5
34
102
{ACAD_REACTORS
330
2A
102
}
330
2A
100
AcDbVisualStyle
  2
Conceptual
 70
     9
177
     3
291
     0
 70
    58
 90
        3
176
     1
 90
        2
176
     1
 90
        0
176
     1
 90
        0
176
     1
 40
0.6
176
     1
 40
30.0
176
     1
 62
     7
420
 16777215
176
     1
 90
        2
176
     1
 90
        2
176
     1
 62
     7
176
     1
 62
   257
176
     1
 90
        1
176
     1
 90
        1
176
     1
 40
179.0
176
     1
 90
        8
176
     1
 62
     7
176
     1
 40
1.0
176
     1
 90
        1
176
     1
 90
        6
176
     1
 90
        2
176
     1
 62
     7
176
     1
 90
        3
176
     1
 90
        0
176
     1
 90
        0
176
     1
290
     0
176
     1
 90
        1
176
     1
 40
0.0
176
     1
 90
        0
176
     1
290
     0
176
     1
290
     1
176
     1
290
     1
176
     1
290
     0
176
     1
290
     0
176
     1
290
     0
176
     1
290
     0
176
     1
290
     0
176
     1
290
     0
176
     1
 90
       50
176
     1
 40
0.0
176
     1
 40
1.0
176
     1
 90
        0
176
     1
 62
    18
420
        0
176
     1
 90
       50
176
     1
 90
        3
176
     1
 62
     5
420
      255
176
     1
290
     0
176
     1
 90
       50
176
     1
 90
       50
176
     1
 90
       50
176
     1
290
     0
176
     1
 90
       50
176
     1
 62
   256
176
     0
 40
1.0
176
     0
 90
        2
176
     1
  1
strokes_ogs.tif
176
     1
290
     0
176
     1
 40
1.0
176
     1
 40
1.0
176
     1
  0
VISUALSTYLE
  5
35
102
{ACAD_REACTORS
330
2A
102
}
330
2A
100
AcDbVisualStyle
  2
Dim
 70
    11
177
     3
291
     1
 70
    58
 90
        2
176
     1
 90
        2
176
     1
 90
        0
176
     1
 90
        0
176
     1
 40
0.6
176
     1
 40
30.0
176
     1
 62
     7
420
 16777215
176
     1
 90
        1
176
     1
 90
        4
176
     1
 62
     7
176
     1
 62
   257
176
     1
 90
        1
176
     1
 90
        1
176
     1
 40
1.0
176
     1
 90
        8
176
     1
 62
     7
176
     1
 40
1.0
176
     1
 90
        1
176
     1
 90
        6
176
     1
 90
        2
176
     1
 62
     7
176
     1
 90
        5
176
     1
 90
        0
176
     1
 90
        0
176
     1
290
     0
176
     1
 90
        1
176
     1
 40
-50.0
176
     1
 90
        0
176
     1
290
     0
176
     1
290
     1
176
     1
290
     1
176
     1
290
     0
176
     1
290
     0
176
     1
290
     0
176
     1
290
     0
176
     1
290
     0
176
     1
290
     0
176
     1
 90
       50
176
     1
 40
0.0
176
     1
 40
1.0
176
     1
 90
        0
176
     1
 62
    18
420
        0
176
     1
 90
       50
176
     1
 90
        3
176
     1
 62
     5
420
      255
176
     1
290
     0
176
     1
 90
       50
176
     1
 90
       50
176
     1
 90
       50
176
     1
290
     0
176
     1
 90
       50
176
     1
 62
   256
176
     0
 40
1.0
176
     0
 90
        2
176
     1
  1
strokes_ogs.tif
176
     1
290
     0
176
     1
 40
1.0
176
     1
 40
1.0
176
     1
  0
VISUALSTYLE
  5
3D
102
{ACAD_REACTORS
330
2A
102
}
330
2A
100
AcDbVisualStyle
  2
EdgeColorOff
 70
    22
177
     3
291
     1
 70
    58
 90
        2
176
     0
 90
        2
176
     0
 90
        0
176
     0
 90
        0
176
     0
 40
0.6
176
     0
 40
30.0
176
     0
 62
     7
420
 16777215
176
     0
 90
        1
176
     0
 90
        4
176
     0
 62
     7
176
     0
 62
   257
176
     0
 90
        1
176
     0
 90
        1
176
     0
 40
1.0
176
     0
 90
        8
176
     2
 62
     7
176
     0
 40
1.0
176
     0
 90
        1
176
     0
 90
        6
176
     0
 90
        2
176
     0
 62
     7
176
     0
 90
        5
176
     0
 90
        0
176
     0
 90
        0
176
     0
290
     0
176
     0
 90
        1
176
     0
 40
0.0
176
     0
 90
        0
176
     0
290
     0
176
     0
290
     1
176
     0
290
     1
176
     0
290
     0
176
     0
290
     0
176
     0
290
     0
176
     0
290
     0
176
     0
290
     0
176
     0
290
     0
176
     0
 90
       50
176
     0
 40
0.0
176
     0
 40
1.0
176
     0
 90
        0
176
     0
 62
    18
420
        0
176
     0
 90
       50
176
     0
 90
        3
176
     0
 62
     5
420
      255
176
     0
290
     0
176
     0
 90
       50
176
     0
 90
       50
176
     0
 90
       50
176
     0
290
     0
176
     0
 90
       50
176
     0
 62
   256
176
     0
 40
1.0
176
     0
 90
        2
176
     0
  1
strokes_ogs.tif
176
     0
290
     0
176
     0
 40
1.0
176
     0
 40
1.0
176
     0
  0
VISUALSTYLE
  5
39
102
{ACAD_REACTORS
330
2A
102
}
330
2A
100
AcDbVisualStyle
  2
Facepattern
 70
    15
177
     3
291
     1
 70
    58
 90
        2
176
     1
 90
        2
176
     1
 90
        0
176
     1
 90
        0
176
     1
 40
0.6
176
     1
 40
30.0
176
     1
 62
     7
420
 16777215
176
     1
 90
        1
176
     1
 90
        4
176
     1
 62
     7
176
     1
 62
   257
176
     1
 90
        1
176
     1
 90
        1
176
     1
 40
1.0
176
     1
 90
        8
176
     1
 62
     7
176
     1
 40
1.0
176
     1
 90
        1
176
     1
 90
        6
176
     1
 90
        2
176
     1
 62
     7
176
     1
 90
        5
176
     1
 90
        0
176
     1
 90
        0
176
     1
290
     0
176
     1
 90
        1
176
     1
 40
0.0
176
     1
 90
        0
176
     1
290
     0
176
     1
290
     1
176
     1
290
     1
176
     1
290
     0
176
     1
290
     0
176
     1
290
     0
176
     1
290
     0
176
     1
290
     0
176
     1
290
     0
176
     1
 90
       50
176
     1
 40
0.0
176
     1
 40
1.0
176
     1
 90
        0
176
     1
 62
    18
420
        0
176
     1
 90
       50
176
     1
 90
        3
176
     1
 62
     5
420
      255
176
     1
290
     0
176
     1
 90
       50
176
     1
 90
       50
176
     1
 90
       50
176
     1
290
     0
176
     1
 90
       50
176
     1
 62
   256
176
     0
 40
1.0
176
     0
 90
        2
176
     1
  1
strokes_ogs.tif
176
     1
290
     0
176
     1
 40
1.0
176
     1
 40
1.0
176
     1
  0
VISUALSTYLE
  5
2B
102
{ACAD_REACTORS
330
2A
102
}
330
2A
100
AcDbVisualStyle
  2
Flat
 70
     0
177
     3
291
     1
 70
    58
 90
        2
176
     1
 90
        1
176
     1
 90
        1
176
     1
 90
        2
176
     1
 40
0.6
176
     1
 40
30.0
176
     1
 62
     7
420
 16777215
176
     1
 90
        0
176
     1
 90
        0
176
     1
 62
     7
176
     1
 62
   257
176
     1
 90
        1
176
     1
 90
        1
176
     1
 40
1.0
176
     1
 90
        8
176
     1
 62
     7
176
     1
 40
1.0
176
     1
 90
        1
176
     1
 90
        6
176
     1
 90
        2
176
     1
 62
     7
176
     1
 90
        5
176
     1
 90
        0
176
     1
 90
        0
176
     1
290
     0
176
     1
 90
       13
176
     1
 40
0.0
176
     1
 90
        0
176
     1
290
     0
176
     1
290
     1
176
     1
290
     1
176
     1
290
     0
176
     1
290
     0
176
     1
290
     0
176
     1
290
     0
176
     1
290
     0
176
     1
290
     0
176
     1
 90
       50
176
     1
 40
0.0
176
     1
 40
1.0
176
     1
 90
        0
176
     1
 62
    18
420
        0
176
     1
 90
       50
176
     1
 90
        3
176
     1
 62
     5
420
      255
176
     1
290
     0
176
     1
 90
       50
176
     1
 90
       50
176
     1
 90
       50
176
     1
290
     0
176
     1
 90
       50
176
     1
 62
   256
176
     0
 40
1.0
176
     0
 90
        2
176
     1
  1
strokes_ogs.tif
176
     1
290
     0
176
     1
 40
1.0
176
     1
 40
1.0
176
     1
  0
VISUALSTYLE
  5
2C
102
{ACAD_REACTORS
330
2A
102
}
330
2A
100
AcDbVisualStyle
  2
FlatWithEdges
 70
     1
177
     3
291
     1
 70
    58
 90
        2
176
     1
 90
        1
176
     1
 90
        1
176
     1
 90
        2
176
     1
 40
0.6
176
     1
 40
30.0
176
     1
 62
     7
420
 16777215
176
     1
 90
        1
176
     1
 90
        0
176
     1
 62
     7
176
     1
 62
   257
176
     1
 90
        1
176
     1
 90
        1
176
     1
 40
1.0
176
     1
 90
        0
176
     1
 62
   257
176
     1
 40
1.0
176
     1
 90
        1
176
     1
 90
        6
176
     1
 90
        2
176
     1
 62
     7
176
     1
 90
        5
176
     1
 90
        0
176
     1
 90
        0
176
     1
290
     0
176
     1
 90
       13
176
     1
 40
0.0
176
     1
 90
        0
176
     1
290
     0
176
     1
290
     1
176
     1
290
     1
176
     1
290
     0
176
     1
290
     0
176
     1
290
     0
176
     1
290
     0
176
     1
290
     0
176
     1
290
     0
176
     1
 90
       50
176
     1
 40
0.0
176
     1
 40
1.0
176
     1
 90
        0
176
     1
 62
    18
420
        0
176
     1
 90
       50
176
     1
 90
        3
176
     1
 62
     5
420
      255
176
     1
290
     0
176
     1
 90
       50
176
     1
 90
       50
176
     1
 90
       50
176
     1
290
     0
176
     1
 90
       50
176
     1
 62
   256
176
     0
 40
1.0
176
     0
 90
        2
176
     1
  1
strokes_ogs.tif
176
     1
290
     0
176
     1
 40
1.0
176
     1
 40
1.0
176
     1
  0
VISUALSTYLE
  5
2D
102
{ACAD_REACTORS
330
2A
102
}
330
2A
100
AcDbVisualStyle
  2
Gouraud
 70
     2
177
     3
291
     1
 70
    58
 90
        2
176
     1
 90
        2
176
     1
 90
        1
176
     1
 90
        2
176
     1
 40
0.6
176
     1
 40
30.0
176
     1
 62
     7
420
 16777215
176
     1
 90
        0
176
     1
 90
        0
176
     1
 62
     7
176
     1
 62
   257
176
     1
 90
        1
176
     1
 90
        1
176
     1
 40
1.0
176
     1
 90
        0
176
     1
 62
     7
176
     1
 40
1.0
176
     1
 90
        1
176
     1
 90
        6
176
     1
 90
        2
176
     1
 62
     7
176
     1
 90
        5
176
     1
 90
        0
176
     1
 90
        0
176
     1
290
     0
176
     1
 90
       13
176
     1
 40
0.0
176
     1
 90
        0
176
     1
290
     0
176
     1
290
     1
176
     1
290
     1
176
     1
290
     0
176
     1
290
     0
176
     1
290
     0
176
     1
290
     0
176
     1
290
     0
176
     1
290
     0
176
     1
 90
       50
176
     1
 40
0.0
176
     1
 40
1.0
176
     1
 90
        0
176
     1
 62
    18
420
        0
176
     1
 90
       50
176
     1
 90
        3
176
     1
 62
     5
420
      255
176
     1
290
     0
176
     1
 90
       50
176
     1
 90
       50
176
     1
 90
       50
176
     1
290
     0
176
     1
 90
       50
176
     1
 62
   256
176
     0
 40
1.0
176
     0
 90
        2
176
     1
  1
strokes_ogs.tif
176
     1
290
     0
176
     1
 40
1.0
176
     1
 40
1.0
176
     1
  0
VISUALSTYLE
  5
2E
102
{ACAD_REACTORS
330
2A
102
}
330
2A
100
AcDbVisualStyle
  2
GouraudWithEdges
 70
     3
177
     3
291
     1
 70
    58
 90
        2
176
     1
 90
        2
176
     1
 90
        1
176
     1
 90
        2
176
     1
 40
0.6
176
     1
 40
30.0
176
     1
 62
     7
420
 16777215
176
     1
 90
        1
176
     1
 90
        0
176
     1
 62
     7
176
     1
 62
   257
176
     1
 90
        1
176
     1
 90
        1
176
     1
 40
1.0
176
     1
 90
        0
176
     1
 62
   257
176
     1
 40
1.0
176
     1
 90
        1
176
     1
 90
        6
176
     1
 90
        2
176
     1
 62
     7
176
     1
 90
        5
176
     1
 90
        0
176
     1
 90
        0
176
     1
290
     0
176
     1
 90
       13
176
     1
 40
0.0
176
     1
 90
        0
176
     1
290
     0
176
     1
290
     1
176
     1
290
     1
176
     1
290
     0
176
     1
290
     0
176
     1
290
     0
176
     1
290
     0
176
     1
290
     0
176
     1
290
     0
176
     1
 90
       50
176
     1
 40
0.0
176
     1
 40
1.0
176
     1
 90
        0
176
     1
 62
    18
420
        0
176
     1
 90
       50
176
     1
 90
        3
176
     1
 62
     5
420
      255
176
     1
290
     0
176
     1
 90
       50
176
     1
 90
       50
176
     1
 90
       50
176
     1
290
     0
176
     1
 90
       50
176
     1
 62
   256
176
     0
 40
1.0
176
     0
 90
        2
176
     1
  1
strokes_ogs.tif
176
     1
290
     0
176
     1
 40
1.0
176
     1
 40
1.0
176
     1
  0
VISUALSTYLE
  5
31
102
{ACAD_REACTORS
330
2A
102
}
330
2A
100
AcDbVisualStyle
  2
Hidden
 70
     6
177
     3
291
     0
 70
    58
 90
        1
176
     1
 90
        2
176
     1
 90
        2
176
     1
 90
        0
176
     1
 40
0.6
176
     1
 40
30.0
176
     1
 62
     7
420
 16777215
176
     1
 90
        2
176
     1
 90
        2
176
     1
 62
     7
176
     1
 62
   257
176
     1
 90
        2
176
     1
 90
        1
176
     1
 40
40.0
176
     1
 90
        0
176
     1
 62
   257
176
     1
 40
1.0
176
     1
 90
        1
176
     1
 90
        6
176
     1
 90
        2
176
     1
 62
     7
176
     1
 90
        3
176
     1
 90
        0
176
     1
 90
        0
176
     1
290
     0
176
     1
 90
        1
176
     1
 40
0.0
176
     1
 90
        0
176
     1
290
     0
176
     1
290
     1
176
     1
290
     1
176
     1
290
     0
176
     1
290
     0
176
     1
290
     0
176
     1
290
     0
176
     1
290
     0
176
     1
290
     0
176
     1
 90
       50
176
     1
 40
0.0
176
     1
 40
1.0
176
     1
 90
        0
176
     1
 62
    18
420
        0
176
     1
 90
       50
176
     1
 90
        3
176
     1
 62
     5
420
      255
176
     1
290
     0
176
     1
 90
       50
176
     1
 90
       50
176
     1
 90
       50
176
     1
290
     0
176
     1
 90
       50
176
     1
 62
   256
176
     0
 40
1.0
176
     0
 90
        2
176
     1
  1
strokes_ogs.tif
176
     1
290
     0
176
     1
 40
1.0
176
     1
 40
1.0
176
     1
  0
VISUALSTYLE
  5
3B
102
{ACAD_REACTORS
330
2A
102
}
330
2A
100
AcDbVisualStyle
  2
JitterOff
 70
    20
177
     3
291
     1
 70
    58
 90
        2
176
     0
 90
        2
176
     0
 90
        0
176
     0
 90
        0
176
     0
 40
0.6
176
     0
 40
30.0
176
     0
 62
     7
420
 16777215
176
     0
 90
        1
176
     0
 90
        4
176
     0
 62
     7
176
     0
 62
   257
176
     0
 90
        1
176
     0
 90
        1
176
     0
 40
1.0
176
     0
 90
       10
176
     2
 62
     7
176
     0
 40
1.0
176
     0
 90
        1
176
     0
 90
        6
176
     0
 90
        2
176
     0
 62
     7
176
     0
 90
        5
176
     0
 90
        0
176
     0
 90
        0
176
     0
290
     0
176
     0
 90
        1
176
     0
 40
0.0
176
     0
 90
        0
176
     0
290
     0
176
     0
290
     1
176
     0
290
     1
176
     0
290
     0
176
     0
290
     0
176
     0
290
     0
176
     0
290
     0
176
     0
290
     0
176
     0
290
     0
176
     0
 90
       50
176
     0
 40
0.0
176
     0
 40
1.0
176
     0
 90
        0
176
     0
 62
    18
420
        0
176
     0
 90
       50
176
     0
 90
        3
176
     0
 62
     5
420
      255
176
     0
290
     0
176
     0
 90
       50
176
     0
 90
       50
176
     0
 90
       50
176
     0
290
     0
176
     0
 90
       50
176
     0
 62
   256
176
     0
 40
1.0
176
     0
 90
        2
176
     0
  1
strokes_ogs.tif
176
     0
290
     0
176
     0
 40
1.0
176
     0
 40
1.0
176
     0
  0
VISUALSTYLE
  5
38
102
{ACAD_REACTORS
330
2A
102
}
330
2A
100
AcDbVisualStyle
  2
Linepattern
 70
    14
177
     3
291
     1
 70
    58
 90
        2
176
     1
 90
        2
176
     1
 90
        0
176
     1
 90
        0
176
     1
 40
0.6
176
     1
 40
30.0
176
     1
 62
     7
420
 16777215
176
     1
 90
        1
176
     1
 90
        4
176
     1
 62
     7
176
     1
 62
   257
176
     1
 90
        7
176
     1
 90
        7
176
     1
 40
1.0
176
     1
 90
        8
176
     1
 62
     7
176
     1
 40
1.0
176
     1
 90
        1
176
     1
 90
        6
176
     1
 90
        2
176
     1
 62
     7
176
     1
 90
        5
176
     1
 90
        0
176
     1
 90
        0
176
     1
290
     0
176
     1
 90
        1
176
     1
 40
0.0
176
     1
 90
        0
176
     1
290
     0
176
     1
290
     1
176
     1
290
     1
176
     1
290
     0
176
     1
290
     0
176
     1
290
     0
176
     1
290
     0
176
     1
290
     0
176
     1
290
     0
176
     1
 90
       50
176
     1
 40
0.0
176
     1
 40
1.0
176
     1
 90
        0
176
     1
 62
    18
420
        0
176
     1
 90
       50
176
     1
 90
        3
176
     1
 62
     5
420
      255
176
     1
290
     0
176
     1
 90
       50
176
     1
 90
       50
176
     1
 90
       50
176
     1
290
     0
176
     1
 90
       50
176
     1
 62
   256
176
     0
 40
1.0
176
     0
 90
        2
176
     1
  1
strokes_ogs.tif
176
     1
290
     0
176
     1
 40
1.0
176
     1
 40
1.0
176
     1
  0
VISUALSTYLE
  5
3C
102
{ACAD_REACTORS
330
2A
102
}
330
2A
100
AcDbVisualStyle
  2
OverhangOff
 70
    21
177
     3
291
     1
 70
    58
 90
        2
176
     0
 90
        2
176
     0
 90
        0
176
     0
 90
        0
176
     0
 40
0.6
176
     0
 40
30.0
176
     0
 62
     7
420
 16777215
176
     0
 90
        1
176
     0
 90
        4
176
     0
 62
     7
176
     0
 62
   257
176
     0
 90
        1
176
     0
 90
        1
176
     0
 40
1.0
176
     0
 90
        9
176
     2
 62
     7
176
     0
 40
1.0
176
     0
 90
        1
176
     0
 90
        6
176
     0
 90
        2
176
     0
 62
     7
176
     0
 90
        5
176
     0
 90
        0
176
     0
 90
        0
176
     0
290
     0
176
     0
 90
        1
176
     0
 40
0.0
176
     0
 90
        0
176
     0
290
     0
176
     0
290
     1
176
     0
290
     1
176
     0
290
     0
176
     0
290
     0
176
     0
290
     0
176
     0
290
     0
176
     0
290
     0
176
     0
290
     0
176
     0
 90
       50
176
     0
 40
0.0
176
     0
 40
1.0
176
     0
 90
        0
176
     0
 62
    18
420
        0
176
     0
 90
       50
176
     0
 90
        3
176
     0
 62
     5
420
      255
176
     0
290
     0
176
     0
 90
       50
176
     0
 90
       50
176
     0
 90
       50
176
     0
290
     0
176
     0
 90
       50
176
     0
 62
   256
176
     0
 40
1.0
176
     0
 90
        2
176
     0
  1
strokes_ogs.tif
176
     0
290
     0
176
     0
 40
1.0
176
     0
 40
1.0
176
     0
  0
VISUALSTYLE
  5
33
102
{ACAD_REACTORS
330
2A
102
}
330
2A
100
AcDbVisualStyle
  2
Realistic
 70
     8
177
     3
291
     0
 70
    58
 90
        2
176
     1
 90
        3
176
     1
 90
        0
176
     1
 90
        2
176
     1
 40
0.6
176
     1
 40
30.0
176
     1
 62
     7
420
 16777215
176
     1
 90
        0
176
     1
 90
        0
176
     1
 62
     7
176
     1
 62
   257
176
     1
 90
        1
176
     1
 90
        1
176
     1
 40
1.0
176
     1
 90
        8
176
     1
 62
   257
176
     1
 40
1.0
176
     1
 90
        1
176
     1
 90
        6
176
     1
 90
        2
176
     1
 62
     7
176
     1
 90
        3
176
     1
 90
        0
176
     1
 90
        0
176
     1
290
     0
176
     1
 90
       13
176
     1
 40
0.0
176
     1
 90
        0
176
     1
290
     0
176
     1
290
     1
176
     1
290
     1
176
     1
290
     0
176
     1
290
     0
176
     1
290
     0
176
     1
290
     0
176
     1
290
     0
176
     1
290
     0
176
     1
 90
       50
176
     1
 40
0.0
176
     1
 40
1.0
176
     1
 90
        0
176
     1
 62
    18
420
        0
176
     1
 90
       50
176
     1
 90
        3
176
     1
 62
     5
420
      255
176
     1
290
     0
176
     1
 90
       50
176
     1
 90
       50
176
     1
 90
       50
176
     1
290
     0
176
     1
 90
       50
176
     1
 62
   256
176
     0
 40
1.0
176
     0
 90
        2
176
     1
  1
strokes_ogs.tif
176
     1
290
     0
176
     1
 40
1.0
176
     1
 40
1.0
176
     1
  0
VISUALSTYLE
  5
42
102
{ACAD_REACTORS
330
2A
102
}
330
2A
100
AcDbVisualStyle
  2
Shaded
 70
    27
177
     3
291
     0
 70
    58
 90
        2
176
     1
 90
        2
176
     1
 90
        1
176
     1
 90
        2
176
     1
 40
0.6
176
     1
 40
30.0
176
     1
 62
     7
420
 16777215
176
     1
 90
        0
176
     1
 90
        4
176
     1
 62
     7
176
     1
 62
   257
176
     1
 90
        1
176
     1
 90
        1
176
     1
 40
1.0
176
     1
 90
        8
176
     1
 62
   257
176
     1
 40
1.0
176
     1
 90
        1
176
     1
 90
        6
176
     1
 90
        2
176
     1
 62
     8
420
  7895160
176
     1
 90
        3
176
     1
 90
        0
176
     1
 90
        0
176
     1
290
     0
176
     1
 90
        5
176
     1
 40
0.0
176
     1
 90
        0
176
     1
290
     0
176
     1
290
     1
176
     1
290
     1
176
     1
290
     0
176
     1
290
     0
176
     1
290
     0
176
     1
290
     0
176
     1
290
     0
176
     1
290
     0
176
     1
 90
       50
176
     1
 40
0.0
176
     1
 40
1.0
176
     1
 90
        0
176
     1
 62
    18
420
        0
176
     1
 90
       50
176
     1
 90
        3
176
     1
 62
     5
420
      255
176
     1
290
     0
176
     1
 90
       50
176
     1
 90
       50
176
     1
 90
       50
176
     1
290
     0
176
     1
 90
       50
176
     1
 62
   256
176
     0
 40
1.0
176
     0
 90
        2
176
     1
  1
strokes_ogs.tif
176
     1
290
     0
176
     1
 40
1.0
176
     1
 40
1.0
176
     1
  0
VISUALSTYLE
  5
41
102
{ACAD_REACTORS
330
2A
102
}
330
2A
100
AcDbVisualStyle
  2
Shaded with edges
 70
    26
177
     3
291
     0
 70
    58
 90
        2
176
     1
 90
        2
176
     1
 90
        1
176
     1
 90
        2
176
     1
 40
0.6
176
     1
 40
30.0
176
     1
 62
     7
420
 16777215
176
     1
 90
        1
176
     1
 90
       10
176
     1
 62
     7
176
     1
 62
   257
176
     1
 90
        2
176
     1
 90
        1
176
     1
 40
1.0
176
     1
 90
        8
176
     1
 62
   257
176
     1
 40
1.0
176
     1
 90
        1
176
     1
 90
        6
176
     1
 90
        2
176
     1
 62
     7
176
     1
 90
        3
176
     1
 90
        0
176
     1
 90
        0
176
     1
290
     0
176
     1
 90
        5
176
     1
 40
0.0
176
     1
 90
        0
176
     1
290
     0
176
     1
290
     1
176
     1
290
     1
176
     1
290
     0
176
     1
290
     0
176
     1
290
     0
176
     1
290
     0
176
     1
290
     0
176
     1
290
     0
176
     1
 90
       50
176
     1
 40
0.0
176
     1
 40
1.0
176
     1
 90
        0
176
     1
 62
    18
420
        0
176
     1
 90
       50
176
     1
 90
        3
176
     1
 62
     5
420
      255
176
     1
290
     0
176
     1
 90
       50
176
     1
 90
       50
176
     1
 90
       50
176
     1
290
     0
176
     1
 90
       50
176
     1
 62
   256
176
     0
 40
1.0
176
     0
 90
        2
176
     1
  1
strokes_ogs.tif
176
     1
290
     0
176
     1
 40
1.0
176
     1
 40
1.0
176
     1
  0
VISUALSTYLE
  5
3E
102
{ACAD_REACTORS
330
2A
102
}
330
2A
100
AcDbVisualStyle
  2
Shades of Gray
 70
    23
177
     3
291
     0
 70
    58
 90
        2
176
     1
 90
        2
176
     1
 90
        3
176
     1
 90
        0
176
     1
 40
0.6
176
     1
 40
30.0
176
     1
 62
     7
420
 16777215
176
     1
 90
        2
176
     1
 90
        2
176
     1
 62
     7
176
     1
 62
     7
176
     1
 90
        1
176
     1
 90
        1
176
     1
 40
40.0
176
     1
 90
        8
176
     1
 62
     7
176
     1
 40
1.0
176
     1
 90
        1
176
     1
 90
        6
176
     1
 90
        2
176
     1
 62
     7
176
     1
 90
        3
176
     1
 90
        0
176
     1
 90
        0
176
     1
290
     0
176
     1
 90
        1
176
     1
 40
0.0
176
     1
 90
        0
176
     1
290
     0
176
     1
290
     1
176
     1
290
     1
176
     1
290
     0
176
     1
290
     0
176
     1
290
     0
176
     1
290
     0
176
     1
290
     0
176
     1
290
     0
176
     1
 90
       50
176
     1
 40
0.0
176
     1
 40
1.0
176
     1
 90
        0
176
     1
 62
    18
420
        0
176
     1
 90
       50
176
     1
 90
        3
176
     1
 62
     5
420
      255
176
     1
290
     0
176
     1
 90
       50
176
     1
 90
       50
176
     1
 90
       50
176
     1
290
     0
176
     1
 90
       50
176
     1
 62
   256
176
     0
 40
1.0
176
     0
 90
        2
176
     1
  1
strokes_ogs.tif
176
     1
290
     0
176
     1
 40
1.0
176
     1
 40
1.0
176
     1
  0
VISUALSTYLE
  5
3F
102
{ACAD_REACTORS
330
2A
102
}
330
2A
100
AcDbVisualStyle
  2
Sketchy
 70
    24
177
     3
291
     0
 70
    58
 90
        1
176
     1
 90
        2
176
     1
 90
        2
176
     1
 90
        0
176
     1
 40
0.6
176
     1
 40
30.0
176
     1
 62
     7
420
 16777215
176
     1
 90
        2
176
     1
 90
        2
176
     1
 62
     7
176
     1
 62
     7
176
     1
 90
        1
176
     1
 90
        1
176
     1
 40
40.0
176
     1
 90
       11
176
     1
 62
     7
176
     1
 40
1.0
176
     1
 90
        1
176
     1
 90
        6
176
     1
 90
        2
176
     1
 62
     7
176
     1
 90
        6
176
     1
 90
        0
176
     1
 90
        0
176
     1
290
     0
176
     1
 90
        1
176
     1
 40
0.0
176
     1
 90
        0
176
     1
290
     0
176
     1
290
     1
176
     1
290
     1
176
     1
290
     0
176
     1
290
     0
176
     1
290
     0
176
     1
290
     0
176
     1
290
     0
176
     1
290
     0
176
     1
 90
       50
176
     1
 40
0.0
176
     1
 40
1.0
176
     1
 90
        0
176
     1
 62
    18
420
        0
176
     1
 90
       50
176
     1
 90
        3
176
     1
 62
     5
420
      255
176
     1
290
     0
176
     1
 90
       50
176
     1
 90
       50
176
     1
 90
       50
176
     1
290
     0
176
     1
 90
       50
176
     1
 62
   256
176
     0
 40
1.0
176
     0
 90
        2
176
     1
  1
strokes_ogs.tif
176
     1
290
     0
176
     1
 40
1.0
176
     1
 40
1.0
176
     1
  0
VISUALSTYLE
  5
37
102
{ACAD_REACTORS
330
2A
102
}
330
2A
100
AcDbVisualStyle
  2
Thicken
 70
    13
177
     3
291
     1
 70
    58
 90
        2
176
     1
 90
        2
176
     1
 90
        0
176
     1
 90
        0
176
     1
 40
0.6
176
     1
 40
30.0
176
     1
 62
     7
420
 16777215
176
     1
 90
        1
176
     1
 90
        4
176
     1
 62
     7
176
     1
 62
   257
176
     1
 90
        1
176
     1
 90
        1
176
     1
 40
1.0
176
     1
 90
       12
176
     1
 62
     7
176
     1
 40
1.0
176
     1
 90
        1
176
     1
 90
        6
176
     1
 90
        2
176
     1
 62
     7
176
     1
 90
        5
176
     1
 90
        0
176
     1
 90
        0
176
     1
290
     0
176
     1
 90
        1
176
     1
 40
0.0
176
     1
 90
        0
176
     1
290
     0
176
     1
290
     1
176
     1
290
     1
176
     1
290
     0
176
     1
290
     0
176
     1
290
     0
176
     1
290
     0
176
     1
290
     0
176
     1
290
     0
176
     1
 90
       50
176
     1
 40
0.0
176
     1
 40
1.0
176
     1
 90
        0
176
     1
 62
    18
420
        0
176
     1
 90
       50
176
     1
 90
        3
176
     1
 62
     5
420
      255
176
     1
290
     0
176
     1
 90
       50
176
     1
 90
       50
176
     1
 90
       50
176
     1
290
     0
176
     1
 90
       50
176
     1
 62
   256
176
     0
 40
1.0
176
     0
 90
        2
176
     1
  1
strokes_ogs.tif
176
     1
290
     0
176
     1
 40
1.0
176
     1
 40
1.0
176
     1
  0
VISUALSTYLE
  5
30
102
{ACAD_REACTORS
330
2A
102
}
330
2A
100
AcDbVisualStyle
  2
Wireframe
 70
     5
177
     3
291
     0
 70
    58
 90
        0
176
     1
 90
        2
176
     1
 90
        0
176
     1
 90
        0
176
     1
 40
0.6
176
     1
 40
30.0
176
     1
 62
     7
420
 16777215
176
     1
 90
        1
176
     1
 90
        4
176
     1
 62
     7
176
     1
 62
   257
176
     1
 90
        1
176
     1
 90
        1
176
     1
 40
1.0
176
     1
 90
        0
176
     1
 62
   257
176
     1
 40
1.0
176
     1
 90
        1
176
     1
 90
        6
176
     1
 90
        2
176
     1
 62
     7
176
     1
 90
        3
176
     1
 90
        0
176
     1
 90
        0
176
     1
290
     0
176
     1
 90
        1
176
     1
 40
0.0
176
     1
 90
        0
176
     1
290
     0
176
     1
290
     1
176
     1
290
     1
176
     1
290
     0
176
     1
290
     0
176
     1
290
     0
176
     1
290
     0
176
     1
290
     0
176
     1
290
     0
176
     1
 90
       50
176
     1
 40
0.0
176
     1
 40
1.0
176
     1
 90
        0
176
     1
 62
    18
420
        0
176
     1
 90
       50
176
     1
 90
        3
176
     1
 62
     5
420
      255
176
     1
290
     0
176
     1
 90
       50
176
     1
 90
       50
176
     1
 90
       50
176
     1
290
     0
176
     1
 90
       50
176
     1
 62
   256
176
     0
 40
1.0
176
     0
 90
        2
176
     1
  1
strokes_ogs.tif
176
     1
290
     0
176
     1
 40
1.0
176
     1
 40
1.0
176
     1
  0
VISUALSTYLE
  5
40
102
{ACAD_REACTORS
330
2A
102
}
330
2A
100
AcDbVisualStyle
  2
X-Ray
 70
    25
177
     3
291
     0
 70
    58
 90
        2
176
     1
 90
        2
176
     1
 90
        1
176
     1
 90
        1
176
     1
 40
0.5
176
     1
 40
30.0
176
     1
 62
     7
420
 16777215
176
     1
 90
        1
176
     1
 90
        0
176
     1
 62
     7
176
     1
 62
   257
176
     1
 90
        1
176
     1
 90
        1
176
     1
 40
1.0
176
     1
 90
        8
176
     1
 62
     7
176
     1
 40
1.0
176
     1
 90
        1
176
     1
 90
        6
176
     1
 90
        2
176
     1
 62
     7
176
     1
 90
        3
176
     1
 90
        0
176
     1
 90
        0
176
     1
290
     0
176
     1
 90
       13
176
     1
 40
0.0
176
     1
 90
        0
176
     1
290
     0
176
     1
290
     1
176
     1
290
     1
176
     1
290
     0
176
     1
290
     0
176
     1
290
     0
176
     1
290
     0
176
     1
290
     0
176
     1
290
     0
176
     1
 90
       50
176
     1
 40
0.0
176
     1
 40
1.0
176
     1
 90
        0
176
     1
 62
    18
420
        0
176
     1
 90
       50
176
     1
 90
        3
176
     1
 62
     5
420
      255
176
     1
290
     0
176
     1
 90
       50
176
     1
 90
       50
176
     1
 90
       50
176
     1
290
     0
176
     1
 90
       50
176
     1
 62
   256
176
     0
 40
1.0
176
     0
 90
        2
176
     1
  1
strokes_ogs.tif
176
     1
290
     0
176
     1
 40
1.0
176
     1
 40
1.0
176
     1
  0
DICTIONARYVAR
  5
99
102
{ACAD_REACTORS
330
98
102
}
330
98
100
DictionaryVariables
280
     0
  1
1:1
  0
DICTIONARYVAR
  5
A1
102
{ACAD_REACTORS
330
98
102
}
330
98
100
DictionaryVariables
280
     0
  1
3.500000
  0
DICTIONARYVAR
  5
A2
102
{ACAD_REACTORS
330
98
102
}
330
98
100
DictionaryVariables
280
     0
  1
acadiso.lin
  0
DICTIONARYVAR
  5
9E
102
{ACAD_REACTORS
330
98
102
}
330
98
100
DictionaryVariables
280
     0
  1
Standard
  0
DICTIONARYVAR
  5
9D
102
{ACAD_REACTORS
330
98
102
}
330
98
100
DictionaryVariables
280
     0
  1
Standard
  0
DICTIONARY
  5
9A
330
5A
100
AcDbDictionary
280
     1
281
     1
  3
ACAD_ROUNDTRIP_2008_TABLESTYLE_CELLSTYLEMAP
360
9B
  0
CELLSTYLEMAP
  5
9B
102
{ACAD_REACTORS
330
9A
102
}
330
9A
100
AcDbCellStyleMap
 90
        3
300
CELLSTYLE
  1
TABLEFORMAT_BEGIN
 90
        5
170
     1
 91
        0
 92
    32768
 62
   257
 93
        1
300
CONTENTFORMAT
  1
CONTENTFORMAT_BEGIN
 90
        0
 91
        0
 92
        4
 93
        0
300

 40
0.0
140
1.0
 94
        5
 62
     0
340
11
144
6.0
309
CONTENTFORMAT_END
171
     1
301
MARGIN
  1
CELLMARGIN_BEGIN
 40
1.5
 40
1.5
 40
1.5
 40
1.5
 40
1.5
 40
1.5
309
CELLMARGIN_END
 94
        6
 95
        1
302
GRIDFORMAT
  1
GRIDFORMAT_BEGIN
 90
        0
 91
        1
 62
     0
 92
       -2
340
14
 93
        0
 40
0.045
309
GRIDFORMAT_END
 95
        2
302
GRIDFORMAT
  1
GRIDFORMAT_BEGIN
 90
        0
 91
        1
 62
     0
 92
       -2
340
14
 93
        0
 40
0.045
309
GRIDFORMAT_END
 95
        4
302
GRIDFORMAT
  1
GRIDFORMAT_BEGIN
 90
        0
 91
        1
 62
     0
 92
       -2
340
14
 93
        0
 40
0.045
309
GRIDFORMAT_END
 95
        8
302
GRIDFORMAT
  1
GRIDFORMAT_BEGIN
 90
        0
 91
        1
 62
     0
 92
       -2
340
14
 93
        0
 40
0.045
309
GRIDFORMAT_END
 95
       16
302
GRIDFORMAT
  1
GRIDFORMAT_BEGIN
 90
        0
 91
        1
 62
     0
 92
       -2
340
14
 93
        0
 40
0.045
309
GRIDFORMAT_END
 95
       32
302
GRIDFORMAT
  1
GRIDFORMAT_BEGIN
 90
        0
 91
        1
 62
     0
 92
       -2
340
14
 93
        0
 40
0.045
309
GRIDFORMAT_END
309
TABLEFORMAT_END
  1
CELLSTYLE_BEGIN
 90
        1
 91
        1
300
_TITLE
309
CELLSTYLE_END
300
CELLSTYLE
  1
TABLEFORMAT_BEGIN
 90
        5
170
     1
 91
        0
 92
        0
 62
   257
 93
        1
300
CONTENTFORMAT
  1
CONTENTFORMAT_BEGIN
 90
        0
 91
        0
 92
        4
 93
        0
300

 40
0.0
140
1.0
 94
        5
 62
     0
340
11
144
4.5
309
CONTENTFORMAT_END
171
     1
301
MARGIN
  1
CELLMARGIN_BEGIN
 40
1.5
 40
1.5
 40
1.5
 40
1.5
 40
1.5
 40
1.5
309
CELLMARGIN_END
 94
        6
 95
        1
302
GRIDFORMAT
  1
GRIDFORMAT_BEGIN
 90
        0
 91
        1
 62
     0
 92
       -2
340
14
 93
        0
 40
0.045
309
GRIDFORMAT_END
 95
        2
302
GRIDFORMAT
  1
GRIDFORMAT_BEGIN
 90
        0
 91
        1
 62
     0
 92
       -2
340
14
 93
        0
 40
0.045
309
GRIDFORMAT_END
 95
        4
302
GRIDFORMAT
  1
GRIDFORMAT_BEGIN
 90
        0
 91
        1
 62
     0
 92
       -2
340
14
 93
        0
 40
0.045
309
GRIDFORMAT_END
 95
        8
302
GRIDFORMAT
  1
GRIDFORMAT_BEGIN
 90
        0
 91
        1
 62
     0
 92
       -2
340
14
 93
        0
 40
0.045
309
GRIDFORMAT_END
 95
       16
302
GRIDFORMAT
  1
GRIDFORMAT_BEGIN
 90
        0
 91
        1
 62
     0
 92
       -2
340
14
 93
        0
 40
0.045
309
GRIDFORMAT_END
 95
       32
302
GRIDFORMAT
  1
GRIDFORMAT_BEGIN
 90
        0
 91
        1
 62
     0
 92
       -2
340
14
 93
        0
 40
0.045
309
GRIDFORMAT_END
309
TABLEFORMAT_END
  1
CELLSTYLE_BEGIN
 90
        2
 91
        1
300
_HEADER
309
CELLSTYLE_END
300
CELLSTYLE
  1
TABLEFORMAT_BEGIN
 90
        5
170
     1
 91
        0
 92
        0
 62
   257
 93
        1
300
CONTENTFORMAT
  1
CONTENTFORMAT_BEGIN
 90
        0
 91
        0
 92
        4
 93
        0
300

 40
0.0
140
1.0
 94
        2
 62
     0
340
11
144
4.5
309
CONTENTFORMAT_END
171
     1
301
MARGIN
  1
CELLMARGIN_BEGIN
 40
1.5
 40
1.5
 40
1.5
 40
1.5
 40
1.5
 40
1.5
309
CELLMARGIN_END
 94
        6
 95
        1
302
GRIDFORMAT
  1
GRIDFORMAT_BEGIN
 90
        0
 91
        1
 62
     0
 92
       -2
340
14
 93
        0
 40
0.045
309
GRIDFORMAT_END
 95
        2
302
GRIDFORMAT
  1
GRIDFORMAT_BEGIN
 90
        0
 91
        1
 62
     0
 92
       -2
340
14
 93
        0
 40
0.045
309
GRIDFORMAT_END
 95
        4
302
GRIDFORMAT
  1
GRIDFORMAT_BEGIN
 90
        0
 91
        1
 62
     0
 92
       -2
340
14
 93
        0
 40
0.045
309
GRIDFORMAT_END
 95
        8
302
GRIDFORMAT
  1
GRIDFORMAT_BEGIN
 90
        0
 91
        1
 62
     0
 92
       -2
340
14
 93
        0
 40
0.045
309
GRIDFORMAT_END
 95
       16
302
GRIDFORMAT
  1
GRIDFORMAT_BEGIN
 90
        0
 91
        1
 62
     0
 92
       -2
340
14
 93
        0
 40
0.045
309
GRIDFORMAT_END
 95
       32
302
GRIDFORMAT
  1
GRIDFORMAT_BEGIN
 90
        0
 91
        1
 62
     0
 92
       -2
340
14
 93
        0
 40
0.045
309
GRIDFORMAT_END
309
TABLEFORMAT_END
  1
CELLSTYLE_BEGIN
 90
        3
 91
        2
300
_DATA
309
CELLSTYLE_END
  0
ENDSEC
  0
EOF
