  0
SECTION
  2
HEADER
  9
$ACADVER
  1
AC1027
  9
$ACADMAINTVER
 70
   105
  9
$DWGCODEPAGE
  3
ANSI_932
  9
$LASTSAVEDBY
  1
a.yasuda
  9
$REQUIREDVERSIONS
160
                 0
  9
$INSBASE
 10
0.0
 20
0.0
 30
0.0
  9
$EXTMIN
 10
0.0
 20
0.0
 30
0.0
  9
$EXTMAX
 10
302.9997823349792
 20
216.0016055409748
 30
0.0
  9
$LIMMIN
 10
0.0
 20
0.0
  9
$LIMMAX
 10
302.9997823349792
 20
216.0016055409748
  9
$ORTHOMODE
 70
     0
  9
$REGENMODE
 70
     1
  9
$FILLMODE
 70
     1
  9
$QTEXTMODE
 70
     0
  9
$MIRRTEXT
 70
     1
  9
$LTSCALE
 40
1.0
  9
$ATTMODE
 70
     1
  9
$TEXTSIZE
 40
2.5
  9
$TRACEWID
 40
1.0
  9
$TEXTSTYLE
  7
Standard
  9
$CLAYER
  8
0
  9
$CELTYPE
  6
ByLayer
  9
$CECOLOR
 62
   256
  9
$CELTSCALE
 40
1.0
  9
$DISPSILH
 70
     0
  9
$DIMSCALE
 40
1.0
  9
$DIMASZ
 40
2.5
  9
$DIMEXO
 40
0.625
  9
$DIMDLI
 40
3.75
  9
$DIMRND
 40
0.0
  9
$DIMDLE
 40
0.0
  9
$DIMEXE
 40
1.25
  9
$DIMTP
 40
0.0
  9
$DIMTM
 40
0.0
  9
$DIMTXT
 40
2.5
  9
$DIMCEN
 40
2.5
  9
$DIMTSZ
 40
0.0
  9
$DIMTOL
 70
     0
  9
$DIMLIM
 70
     0
  9
$DIMTIH
 70
     0
  9
$DIMTOH
 70
     0
  9
$DIMSE1
 70
     0
  9
$DIMSE2
 70
     0
  9
$DIMTAD
 70
     1
  9
$DIMZIN
 70
     8
  9
$DIMBLK
  1

  9
$DIMASO
 70
     1
  9
$DIMSHO
 70
     1
  9
$DIMPOST
  1

  9
$DIMAPOST
  1

  9
$DIMALT
 70
     0
  9
$DIMALTD
 70
     3
  9
$DIMALTF
 40
0.03937007874016
  9
$DIMLFAC
 40
1.0
  9
$DIMTOFL
 70
     1
  9
$DIMTVP
 40
0.0
  9
$DIMTIX
 70
     0
  9
$DIMSOXD
 70
     0
  9
$DIMSAH
 70
     0
  9
$DIMBLK1
  1

  9
$DIMBLK2
  1

  9
$DIMSTYLE
  2
ISO-25
  9
$DIMCLRD
 70
     0
  9
$DIMCLRE
 70
     0
  9
$DIMCLRT
 70
     0
  9
$DIMTFAC
 40
1.0
  9
$DIMGAP
 40
0.625
  9
$DIMJUST
 70
     0
  9
$DIMSD1
 70
     0
  9
$DIMSD2
 70
     0
  9
$DIMTOLJ
 70
     0
  9
$DIMTZIN
 70
     8
  9
$DIMALTZ
 70
     0
  9
$DIMALTTZ
 70
     0
  9
$DIMUPT
 70
     0
  9
$DIMDEC
 70
     2
  9
$DIMTDEC
 70
     2
  9
$DIMALTU
 70
     2
  9
$DIMALTTD
 70
     3
  9
$DIMTXSTY
  7
Standard
  9
$DIMAUNIT
 70
     0
  9
$DIMADEC
 70
     0
  9
$DIMALTRND
 40
0.0
  9
$DIMAZIN
 70
     0
  9
$DIMDSEP
 70
    44
  9
$DIMATFIT
 70
     3
  9
$DIMFRAC
 70
     0
  9
$DIMLDRBLK
  1

  9
$DIMLUNIT
 70
     2
  9
$DIMLWD
 70
    -2
  9
$DIMLWE
 70
    -2
  9
$DIMTMOVE
 70
     0
  9
$DIMFXL
 40
1.0
  9
$DIMFXLON
 70
     0
  9
$DIMJOGANG
 40
0.7853981633974483
  9
$DIMTFILL
 70
     0
  9
$DIMTFILLCLR
 70
     0
  9
$DIMARCSYM
 70
     0
  9
$DIMLTYPE
  6

  9
$DIMLTEX1
  6

  9
$DIMLTEX2
  6

  9
$DIMTXTDIRECTION
 70
     0
  9
$LUNITS
 70
     2
  9
$LUPREC
 70
     4
  9
$SKETCHINC
 40
1.0
  9
$FILLETRAD
 40
0.0
  9
$AUNITS
 70
     0
  9
$AUPREC
 70
     0
  9
$MENU
  1
.
  9
$ELEVATION
 40
0.0
  9
$PELEVATION
 40
0.0
  9
$THICKNESS
 40
0.0
  9
$LIMCHECK
 70
     0
  9
$CHAMFERA
 40
0.0
  9
$CHAMFERB
 40
0.0
  9
$CHAMFERC
 40
0.0
  9
$CHAMFERD
 40
0.0
  9
$SKPOLY
 70
     0
  9
$TDCREATE
 40
2459866.620506088
  9
$TDUCREATE
 40
2459866.245506088
  9
$TDUPDATE
 40
2459866.620506134
  9
$TDUUPDATE
 40
2459866.245506134
  9
$TDINDWG
 40
0.0000000116
  9
$TDUSRTIMER
 40
0.0000000116
  9
$USRTIMER
 70
     1
  9
$ANGBASE
 50
0.0
  9
$ANGDIR
 70
     0
  9
$PDMODE
 70
     0
  9
$PDSIZE
 40
0.0
  9
$PLINEWID
 40
0.0
  9
$SPLFRAME
 70
     0
  9
$SPLINETYPE
 70
     6
  9
$SPLINESEGS
 70
     8
  9
$HANDSEED
  5
C9
  9
$SURFTAB1
 70
     6
  9
$SURFTAB2
 70
     6
  9
$SURFTYPE
 70
     6
  9
$SURFU
 70
     6
  9
$SURFV
 70
     6
  9
$UCSBASE
  2

  9
$UCSNAME
  2

  9
$UCSORG
 10
0.0
 20
0.0
 30
0.0
  9
$UCSXDIR
 10
1.0
 20
0.0
 30
0.0
  9
$UCSYDIR
 10
0.0
 20
1.0
 30
0.0
  9
$UCSORTHOREF
  2

  9
$UCSORTHOVIEW
 70
     0
  9
$UCSORGTOP
 10
0.0
 20
0.0
 30
0.0
  9
$UCSORGBOTTOM
 10
0.0
 20
0.0
 30
0.0
  9
$UCSORGLEFT
 10
0.0
 20
0.0
 30
0.0
  9
$UCSORGRIGHT
 10
0.0
 20
0.0
 30
0.0
  9
$UCSORGFRONT
 10
0.0
 20
0.0
 30
0.0
  9
$UCSORGBACK
 10
0.0
 20
0.0
 30
0.0
  9
$PUCSBASE
  2

  9
$PUCSNAME
  2

  9
$PUCSORG
 10
0.0
 20
0.0
 30
0.0
  9
$PUCSXDIR
 10
1.0
 20
0.0
 30
0.0
  9
$PUCSYDIR
 10
0.0
 20
1.0
 30
0.0
  9
$PUCSORTHOREF
  2

  9
$PUCSORTHOVIEW
 70
     0
  9
$PUCSORGTOP
 10
0.0
 20
0.0
 30
0.0
  9
$PUCSORGBOTTOM
 10
0.0
 20
0.0
 30
0.0
  9
$PUCSORGLEFT
 10
0.0
 20
0.0
 30
0.0
  9
$PUCSORGRIGHT
 10
0.0
 20
0.0
 30
0.0
  9
$PUCSORGFRONT
 10
0.0
 20
0.0
 30
0.0
  9
$PUCSORGBACK
 10
0.0
 20
0.0
 30
0.0
  9
$USERI1
 70
     0
  9
$USERI2
 70
     0
  9
$USERI3
 70
     0
  9
$USERI4
 70
     0
  9
$USERI5
 70
     0
  9
$USERR1
 40
0.0
  9
$USERR2
 40
0.0
  9
$USERR3
 40
0.0
  9
$USERR4
 40
0.0
  9
$USERR5
 40
0.0
  9
$WORLDVIEW
 70
     1
  9
$SHADEDGE
 70
     3
  9
$SHADEDIF
 70
    70
  9
$TILEMODE
 70
     1
  9
$MAXACTVP
 70
    64
  9
$PINSBASE
 10
0.0
 20
0.0
 30
0.0
  9
$PLIMCHECK
 70
     0
  9
$PEXTMIN
 10
1.000000000000000E+20
 20
1.000000000000000E+20
 30
1.000000000000000E+20
  9
$PEXTMAX
 10
-1.000000000000000E+20
 20
-1.000000000000000E+20
 30
-1.000000000000000E+20
  9
$PLIMMIN
 10
0.0
 20
0.0
  9
$PLIMMAX
 10
420.0
 20
297.0
  9
$UNITMODE
 70
     0
  9
$VISRETAIN
 70
     1
  9
$PLINEGEN
 70
     0
  9
$PSLTSCALE
 70
     1
  9
$TREEDEPTH
 70
  3020
  9
$CMLSTYLE
  2
Standard
  9
$CMLJUST
 70
     0
  9
$CMLSCALE
 40
20.0
  9
$PROXYGRAPHICS
 70
     1
  9
$MEASUREMENT
 70
     1
  9
$CELWEIGHT
370
    -1
  9
$ENDCAPS
280
     0
  9
$JOINSTYLE
280
     0
  9
$LWDISPLAY
290
     0
  9
$INSUNITS
 70
     4
  9
$HYPERLINKBASE
  1

  9
$STYLESHEET
  1

  9
$XEDIT
290
     1
  9
$CEPSNTYPE
380
     0
  9
$PSTYLEMODE
290
     1
  9
$FINGERPRINTGUID
  2
{17e0d941-de7c-45ad-8ab6-e541971ad439}
  9
$VERSIONGUID
  2
{FAEB1C32-E019-11D5-929B-00C0DF256EC4}
  9
$EXTNAMES
290
     1
  9
$PSVPSCALE
 40
0.0
  9
$OLESTARTUP
290
     0
  9
$SORTENTS
280
   127
  9
$INDEXCTL
280
     0
  9
$HIDETEXT
280
     1
  9
$XCLIPFRAME
280
     2
  9
$HALOGAP
280
     0
  9
$OBSCOLOR
 70
   257
  9
$OBSLTYPE
280
     0
  9
$INTERSECTIONDISPLAY
280
     0
  9
$INTERSECTIONCOLOR
 70
   257
  9
$DIMASSOC
280
     2
  9
$PROJECTNAME
  1

  9
$CAMERADISPLAY
290
     0
  9
$LENSLENGTH
 40
50.0
  9
$CAMERAHEIGHT
 40
0.0
  9
$STEPSPERSEC
 40
2.0
  9
$STEPSIZE
 40
6.0
  9
$3DDWFPREC
 40
2.0
  9
$PSOLWIDTH
 40
5.0
  9
$PSOLHEIGHT
 40
80.0
  9
$LOFTANG1
 40
1.570796326794897
  9
$LOFTANG2
 40
1.570796326794897
  9
$LOFTMAG1
 40
0.0
  9
$LOFTMAG2
 40
0.0
  9
$LOFTPARAM
 70
     7
  9
$LOFTNORMALS
280
     1
  9
$LATITUDE
 40
37.795
  9
$LONGITUDE
 40
-122.394
  9
$NORTHDIRECTION
 40
0.0
  9
$TIMEZONE
 70
 -8000
  9
$LIGHTGLYPHDISPLAY
280
     1
  9
$TILEMODELIGHTSYNCH
280
     1
  9
$CMATERIAL
347
44
  9
$SOLIDHIST
280
     0
  9
$SHOWHIST
280
     1
  9
$DWFFRAME
280
     2
  9
$DGNFRAME
280
     2
  9
$REALWORLDSCALE
290
     1
  9
$INTERFERECOLOR
 62
   256
  9
$CSHADOW
280
     0
  9
$SHADOWPLANELOCATION
 40
0.0
  0
ENDSEC
  0
SECTION
  2
CLASSES
  0
CLASS
  1
ACDBDICTIONARYWDFLT
  2
AcDbDictionaryWithDefault
  3
ObjectDBX Classes
 90
        0
 91
        3
280
     0
281
     0
  0
CLASS
  1
VISUALSTYLE
  2
AcDbVisualStyle
  3
ObjectDBX Classes
 90
     4095
 91
        3
280
     0
281
     0
  0
CLASS
  1
MATERIAL
  2
AcDbMaterial
  3
ObjectDBX Classes
 90
     1153
 91
        3
280
     0
281
     0
  0
CLASS
  1
SCALE
  2
AcDbScale
  3
ObjectDBX Classes
 90
     1153
 91
        3
280
     0
281
     0
  0
CLASS
  1
TABLESTYLE
  2
AcDbTableStyle
  3
ObjectDBX Classes
 90
     4095
 91
        3
280
     0
281
     0
  0
CLASS
  1
MLEADERSTYLE
  2
AcDbMLeaderStyle
  3
ACDB_MLEADERSTYLE_CLASS
 90
     4095
 91
        3
280
     0
281
     0
  0
CLASS
  1
SUN
  2
AcDbSun
  3
SCENEOE
 90
     1153
 91
        3
280
     0
281
     0
  0
CLASS
  1
DICTIONARYVAR
  2
AcDbDictionaryVar
  3
ObjectDBX Classes
 90
        0
 91
        3
280
     0
281
     0
  0
CLASS
  1
CELLSTYLEMAP
  2
AcDbCellStyleMap
  3
ObjectDBX Classes
 90
     1152
 91
        3
280
     0
281
     0
  0
ENDSEC
  0
SECTION
  2
TABLES
  0
TABLE
  2
VPORT
  5
8
330
0
100
AcDbSymbolTable
 70
     1
  0
VPORT
  5
29
330
8
100
AcDbSymbolTableRecord
100
AcDbViewportTableRecord
  2
*Active
 70
     0
 10
0.0
 20
0.0
 11
1.0
 21
1.0
 12
151.4998911674896
 22
108.0008027704874
 13
0.0
 23
0.0
 14
10.0
 24
10.0
 15
10.0
 25
10.0
 16
0.0
 26
0.0
 36
1.0
 17
0.0
 27
0.0
 37
0.0
 40
237.6017660950723
 41
1.402766343222857
 42
50.0
 43
0.0
 44
0.0
 50
0.0
 51
0.0
 71
     0
 72
 10000
 73
     1
 74
     3
 75
     0
 76
     0
 77
     0
 78
     0
281
     0
 65
     1
110
0.0
120
0.0
130
0.0
111
1.0
121
0.0
131
0.0
112
0.0
122
1.0
132
0.0
 79
     0
146
0.0
348
2F
 60
     3
 61
     5
292
     1
282
     1
141
0.0
142
0.0
 63
   250
361
5D
  0
ENDTAB
  0
TABLE
  2
LTYPE
  5
5
330
0
100
AcDbSymbolTable
 70
     2
  0
LTYPE
  5
14
330
5
100
AcDbSymbolTableRecord
100
AcDbLinetypeTableRecord
  2
ByBlock
 70
     0
  3

 72
    65
 73
     0
 40
0.0
  0
LTYPE
  5
15
330
5
100
AcDbSymbolTableRecord
100
AcDbLinetypeTableRecord
  2
ByLayer
 70
     0
  3

 72
    65
 73
     0
 40
0.0
  0
LTYPE
  5
16
330
5
100
AcDbSymbolTableRecord
100
AcDbLinetypeTableRecord
  2
Continuous
 70
     0
  3
Solid line
 72
    65
 73
     0
 40
0.0
  0
LTYPE
  5
5F
330
5
100
AcDbSymbolTableRecord
100
AcDbLinetypeTableRecord
  2
UserDefined01
 70
     0
  3
----------------                
 72
    65
 73
     2
 40
0.7055555449591743
 49
0.3527777724795871
 74
     0
 49
-0.3527777724795871
 74
     0
  0
ENDTAB
  0
TABLE
  2
LAYER
  5
2
330
0
100
AcDbSymbolTable
 70
     4
  0
LAYER
  5
10
330
2
100
AcDbSymbolTableRecord
100
AcDbLayerTableRecord
  2
0
 70
     0
 62
     7
  6
Continuous
370
    -3
390
F
347
46
348
0
  0
LAYER
  5
60
330
2
100
AcDbSymbolTableRecord
100
AcDbLayerTableRecord
  2
外枠
 70
     0
 62
     7
  6
Continuous
370
    -3
390
F
347
46
348
0
  0
LAYER
  5
61
330
2
100
AcDbSymbolTableRecord
100
AcDbLayerTableRecord
  2
レイヤー_2
 70
     0
 62
     7
  6
Continuous
370
    -3
390
F
347
46
348
0
  0
LAYER
  5
62
330
2
100
AcDbSymbolTableRecord
100
AcDbLayerTableRecord
  2
ISS138金台
 70
     0
 62
     7
  6
Continuous
370
    -3
390
F
347
46
348
0
  0
ENDTAB
  0
TABLE
  2
STYLE
  5
3
330
0
100
AcDbSymbolTable
 70
     2
  0
STYLE
  5
11
330
3
100
AcDbSymbolTableRecord
100
AcDbTextStyleTableRecord
  2
Standard
 70
     0
 40
0.0
 41
1.0
 50
0.0
 71
     0
 42
2.5
  3

  4

  0
STYLE
  5
5E
330
3
100
AcDbSymbolTableRecord
100
AcDbTextStyleTableRecord
  2
MS Gothic
 70
     0
 40
1.0
 41
1.0
 50
0.0
 71
     0
 42
2.5
  3
msgothic.ttc
  4

1001
ACAD
1000
MS Gothic
1071
    32817
  0
ENDTAB
  0
TABLE
  2
VIEW
  5
6
330
0
100
AcDbSymbolTable
 70
     0
  0
ENDTAB
  0
TABLE
  2
UCS
  5
7
330
0
100
AcDbSymbolTable
 70
     0
  0
ENDTAB
  0
TABLE
  2
APPID
  5
9
330
0
100
AcDbSymbolTable
 70
     1
  0
APPID
  5
12
330
9
100
AcDbSymbolTableRecord
100
AcDbRegAppTableRecord
  2
ACAD
 70
     0
  0
ENDTAB
  0
TABLE
  2
DIMSTYLE
  5
A
330
0
100
AcDbSymbolTable
 70
     1
100
AcDbDimStyleTable
  0
DIMSTYLE
105
27
330
A
100
AcDbSymbolTableRecord
100
AcDbDimStyleTableRecord
  2
ISO-25
 70
     0
 41
2.5
 42
0.625
 43
3.75
 44
1.25
 73
     0
 74
     0
 77
     1
 78
     8
140
2.5
141
2.5
143
0.03937007874016
147
0.625
171
     3
172
     1
178
     0
271
     2
272
     2
274
     3
278
    44
283
     0
284
     8
340
11
  0
ENDTAB
  0
TABLE
  2
BLOCK_RECORD
  5
1
330
0
100
AcDbSymbolTable
 70
     1
  0
BLOCK_RECORD
  5
1F
330
1
100
AcDbSymbolTableRecord
100
AcDbBlockTableRecord
  2
*Model_Space
340
22
 70
     0
280
     1
281
     0
  0
BLOCK_RECORD
  5
1B
330
1
100
AcDbSymbolTableRecord
100
AcDbBlockTableRecord
  2
*Paper_Space
340
1E
 70
     0
280
     1
281
     0
  0
BLOCK_RECORD
  5
23
330
1
100
AcDbSymbolTableRecord
100
AcDbBlockTableRecord
  2
*Paper_Space0
340
26
 70
     0
280
     1
281
     0
  0
ENDTAB
  0
ENDSEC
  0
SECTION
  2
BLOCKS
  0
BLOCK
  5
20
330
1F
100
AcDbEntity
  8
0
100
AcDbBlockBegin
  2
*Model_Space
 70
     0
 10
0.0
 20
0.0
 30
0.0
  3
*Model_Space
  1

  0
ENDBLK
  5
21
330
1F
100
AcDbEntity
  8
0
100
AcDbBlockEnd
  0
BLOCK
  5
1C
330
1B
100
AcDbEntity
 67
     1
  8
0
100
AcDbBlockBegin
  2
*Paper_Space
 70
     0
 10
0.0
 20
0.0
 30
0.0
  3
*Paper_Space
  1

  0
ENDBLK
  5
1D
330
1B
100
AcDbEntity
 67
     1
  8
0
100
AcDbBlockEnd
  0
BLOCK
  5
24
330
23
100
AcDbEntity
  8
0
100
AcDbBlockBegin
  2
*Paper_Space0
 70
     0
 10
0.0
 20
0.0
 30
0.0
  3
*Paper_Space0
  1

  0
ENDBLK
  5
25
330
23
100
AcDbEntity
  8
0
100
AcDbBlockEnd
  0
ENDSEC
  0
SECTION
  2
ENTITIES
  0
LWPOLYLINE
  5
63
330
1F
100
AcDbEntity
  8
外枠
  6
Continuous
 62
   250
420
  2367521
370
   100
100
AcDbPolyline
 90
        5
 70
     0
 43
0.0
 10
281.9999662644599
 20
13.29407825637392
 10
20.99981607051935
 20
13.29407825637392
 10
20.99981607051935
 20
193.0018900389566
 10
281.9999662644599
 20
193.0018900389566
 10
281.9999662644599
 20
13.29407825637392
  0
LINE
  5
64
330
1F
100
AcDbEntity
  8
外枠
  6
Continuous
 62
   250
420
  2367521
370
    25
100
AcDbLine
 10
223.3097080177524
 20
174.0786160074276
 30
0.0
 11
281.9999232007669
 21
174.0786160074276
 31
0.0
  0
LINE
  5
65
330
1F
100
AcDbEntity
  8
外枠
  6
Continuous
 62
   250
420
  2367521
370
    25
100
AcDbLine
 10
223.3097080177524
 20
50.37109023844297
 30
0.0
 11
281.9999232007669
 21
50.37109023844297
 31
0.0
  0
LINE
  5
66
330
1F
100
AcDbEntity
  8
外枠
  6
Continuous
 62
   250
420
  2367521
370
    25
100
AcDbLine
 10
223.3097080177524
 20
36.25997933925949
 30
0.0
 11
281.9999232007669
 21
36.25997933925949
 31
0.0
  0
LINE
  5
67
330
1F
100
AcDbEntity
  8
外枠
  6
Continuous
 62
   250
420
  2367521
370
    50
100
AcDbLine
 10
223.0158413772006
 20
193.3637327187979
 30
0.0
 11
223.0158413772006
 21
13.29396655992039
 31
0.0
  0
TEXT
  5
68
330
1F
100
AcDbEntity
  8
外枠
  6
Continuous
 62
   250
420
  2367521
100
AcDbText
 10
224.7190965599536
 20
186.6888051931772
 30
0.0
 40
2.688166626294454
  1
品名：
 41
0.974166170756022
  7
MS Gothic
100
AcDbText
  0
TEXT
  5
69
330
1F
100
AcDbEntity
  8
外枠
  6
Continuous
 62
   250
420
  2367521
100
AcDbText
 10
224.7190965599536
 20
168.1080059455944
 30
0.0
 40
2.688166626294454
  1
仕様：
 41
0.9978878657023111
  7
MS Gothic
100
AcDbText
  0
TEXT
  5
6A
330
1F
100
AcDbEntity
  8
外枠
  6
Continuous
 62
   250
420
  2367521
100
AcDbText
 10
224.7190965599536
 20
44.16660664327048
 30
0.0
 40
2.688166626294454
  1
縮尺：
 41
0.9939999262491861
  7
MS Gothic
100
AcDbText
  0
TEXT
  5
6B
330
1F
100
AcDbEntity
  8
外枠
  6
Continuous
 62
   250
420
  2367521
100
AcDbText
 10
250.2379519709696
 20
40.59738467878129
 30
0.0
 40
2.150533301035563
  1
1/1
 41
1.000003814697266
  7
MS Gothic
100
AcDbText
  0
TEXT
  5
6C
330
1F
100
AcDbEntity
  8
外枠
  6
Continuous
 62
   250
420
  2367521
100
AcDbText
 10
232.657974478918
 20
156.9052368606422
 30
0.0
 40
2.016124969720841
  1
金台：
 41
1.494500562879774
  7
MS Gothic
100
AcDbText
  0
TEXT
  5
6D
330
1F
100
AcDbEntity
  8
外枠
  6
Continuous
 62
   250
420
  2367521
100
AcDbText
 10
243.4900220118208
 20
156.9052368606422
 30
0.0
 40
2.016124969720841
  1
アルミ押出形材（A6063S-T5）
 41
1.033106825086805
  7
MS Gothic
100
AcDbText
  0
TEXT
  5
6E
330
1F
100
AcDbEntity
  8
外枠
  6
Continuous
 62
   250
420
  2367521
100
AcDbText
 10
243.3259708736053
 20
152.6719035908871
 30
0.0
 40
2.016124969720841
  1
シルバー
 41
1.046993255615234
  7
MS Gothic
100
AcDbText
  0
TEXT
  5
6F
330
1F
100
AcDbEntity
  8
外枠
  6
Continuous
 62
   250
420
  2367521
100
AcDbText
 10
253.9093040479929
 20
152.6719035908871
 30
0.0
 40
2.016124969720841
  1
仕上（アルマイト）
 41
1.021342750831886
  7
MS Gothic
100
AcDbText
  0
TEXT
  5
70
330
1F
100
AcDbEntity
  8
外枠
  6
Continuous
 62
   250
420
  2367521
100
AcDbText
 10
232.7757967427735
 20
181.9845273775436
 30
0.0
 40
2.688166626294454
  1
ハガタ　ISAN-40(S)LA
 41
1.014797897338867
  7
MS Gothic
100
AcDbText
  0
TEXT
  5
71
330
1F
100
AcDbEntity
  8
外枠
  6
Continuous
 62
   250
420
  2367521
100
AcDbText
 10
232.657974478918
 20
129.9762931224148
 30
0.0
 40
2.016124969720841
  1
IS-13  グレー
 41
0.90473398061899
  7
MS Gothic
100
AcDbText
  0
TEXT
  5
72
330
1F
100
AcDbEntity
  8
外枠
  6
Continuous
 62
   250
420
  2367521
100
AcDbText
 10
232.657974478918
 20
124.684626535221
 30
0.0
 40
2.016124969720841
  1
IS-14  ダークグレー
 41
0.9366206654331138
  7
MS Gothic
100
AcDbText
  0
TEXT
  5
73
330
1F
100
AcDbEntity
  8
外枠
  6
Continuous
 62
   250
420
  2367521
100
AcDbText
 10
232.657974478918
 20
119.3929599480272
 30
0.0
 40
2.016124969720841
  1
IS-20  ブラック
 41
0.911960788302951
  7
MS Gothic
100
AcDbText
  0
TEXT
  5
74
330
1F
100
AcDbEntity
  8
外枠
  6
Continuous
 62
   250
420
  2367521
100
AcDbText
 10
232.657974478918
 20
114.1012933608334
 30
0.0
 40
2.016124969720841
  1
IS-16  ベージュ
 41
0.9228807915581594
  7
MS Gothic
100
AcDbText
  0
TEXT
  5
75
330
1F
100
AcDbEntity
  8
外枠
  6
Continuous
 62
   250
420
  2367521
100
AcDbText
 10
232.657974478918
 20
108.8096267736396
 30
0.0
 40
2.016124969720841
  1
IS-18  ブラウン
 41
0.9214809841579858
  7
MS Gothic
100
AcDbText
  0
TEXT
  5
76
330
1F
100
AcDbEntity
  8
外枠
  6
Continuous
 62
   250
420
  2367521
100
AcDbText
 10
232.657974478918
 20
103.5179601864457
 30
0.0
 40
2.016124969720841
  1
IS-21  チョコレート
 41
0.9285238701000545
  7
MS Gothic
100
AcDbText
  0
TEXT
  5
77
330
1F
100
AcDbEntity
  8
外枠
  6
Continuous
 62
   250
420
  2367521
100
AcDbText
 10
232.657974478918
 20
98.22629359925195
 30
0.0
 40
2.016124969720841
  1
IS-12  ワインレッド
 41
0.9415448105126094
  7
MS Gothic
100
AcDbText
  0
TEXT
  5
78
330
1F
100
AcDbEntity
  8
外枠
  6
Continuous
 62
   250
420
  2367521
100
AcDbText
 10
232.657974478918
 20
92.93462701205813
 30
0.0
 40
2.016124969720841
  1
IS-6   グリーン
 41
0.8741602918836803
  7
MS Gothic
100
AcDbText
  0
TEXT
  5
79
330
1F
100
AcDbEntity
  8
外枠
  6
Continuous
 62
   250
420
  2367521
100
AcDbText
 10
232.657974478918
 20
87.64296580782595
 30
0.0
 40
2.016124969720841
  1
IS-15  シャドーブルー
 41
0.9429933578249006
  7
MS Gothic
100
AcDbText
  0
TEXT
  5
7A
330
1F
100
AcDbEntity
  8
外枠
  6
Continuous
 62
   250
420
  2367521
100
AcDbText
 10
232.657974478918
 20
82.35129922063214
 30
0.0
 40
2.016124969720841
  1
IS-9   マスタードイエロー
 41
0.924693196614583
  7
MS Gothic
100
AcDbText
  0
TEXT
  5
7B
330
1F
100
AcDbEntity
  8
外枠
  6
Continuous
 62
   250
420
  2367521
100
AcDbText
 10
226.1633020978884
 20
24.25683874973963
 30
0.0
 40
2.553758294979732
  1
ヤスダインテリアサプライ株式会社
 41
1.0194908945184
  7
MS Gothic
100
AcDbText
  0
TEXT
  5
7C
330
1F
100
AcDbEntity
  8
外枠
  6
Continuous
 62
   250
420
  2367521
100
AcDbText
 10
227.7635273953072
 20
135.3178613140838
 30
0.0
 40
2.150533301035563
  1
タイヤカラー
 41
1.008334398269653
  7
MS Gothic
100
AcDbText
  0
TEXT
  5
7D
330
1F
100
AcDbEntity
  8
外枠
  6
Continuous
 62
   250
420
  2367521
100
AcDbText
 10
227.7635273953072
 20
161.7761942500528
 30
0.0
 40
2.150533301035563
  1
材質
 41
1.028502464294433
  7
MS Gothic
100
AcDbText
  0
TEXT
  5
7E
330
1F
100
AcDbEntity
  8
レイヤー_2
  6
Continuous
 62
   250
420
  2367521
100
AcDbText
 10
232.657974478918
 20
148.2620091801205
 30
0.0
 40
2.016124969720841
  1
タイヤ：  （非塩ビ）オレフィン系
 41
0.9251073837280269
  7
MS Gothic
100
AcDbText
  0
TEXT
  5
7F
330
1F
100
AcDbEntity
  8
レイヤー_2
  6
Continuous
 62
   250
420
  2367521
100
AcDbText
 10
232.657974478918
 20
144.0286759103655
 30
0.0
 40
2.016124969720841
  1
                   熱可塑性エラストマー/
 41
0.7486498514811195
  7
MS Gothic
100
AcDbText
  0
TEXT
  5
80
330
1F
100
AcDbEntity
  8
レイヤー_2
  6
Continuous
 62
   250
420
  2367521
100
AcDbText
 10
232.657974478918
 20
139.7953426406104
 30
0.0
 40
2.016124969720841
  1
　　　　 アクリル系両面テープ
 41
0.9977381914511492
  7
MS Gothic
100
AcDbText
  0
HATCH
  5
81
330
1F
100
AcDbEntity
  8
ISS138金台
  6
Continuous
 62
   254
420
 13816532
370
    50
100
AcDbHatch
 10
0.0
 20
0.0
 30
0.0
210
0.0
220
0.0
230
1.0
  2
SOLID
 70
     1
 71
     0
 91
        1
 92
        3
 72
     0
 73
     1
 93
       25
 10
105.554462034387
 20
101.491133458395
 10
105.554462034387
 20
101.491133458395
 10
105.598559255947
 20
103.4977292941443
 10
107.4841568804873
 20
103.4755084285926
 10
107.4841568804873
 20
104.4897445244715
 10
112.0702679227219
 20
104.4897445244715
 10
112.0702679227219
 20
103.4755084285926
 10
114.0105456713597
 20
103.4977292941443
 10
114.0105456713597
 20
104.4897445244715
 10
118.5084622704744
 20
104.4897445244715
 10
118.5084622704744
 20
103.4755084285926
 10
120.6251289053519
 20
103.4755084285926
 10
120.6251289053519
 20
104.4897445244715
 10
125.0348510613468
 20
104.4897445244715
 10
125.0348510613468
 20
103.4755084285926
 10
127.2520606532918
 20
103.4755084285926
 10
127.1515176962243
 20
104.4897445244715
 10
131.5608845767525
 20
104.4897445244715
 10
131.5608845767525
 20
103.470566869829
 10
133.5011623253902
 20
103.470566869829
 10
133.5011623253902
 20
104.4848029657078
 10
138.0872733676248
 20
104.4848029657078
 10
138.0872733676248
 20
103.470566869829
 10
140.4900444124036
 20
103.470566869829
 10
140.4900444124036
 20
101.491133458395
 97
        0
 75
     1
 76
     1
 98
        0
  0
LWPOLYLINE
  5
82
330
1F
100
AcDbEntity
  8
ISS138金台
  6
Continuous
 62
   254
420
 13816532
370
    50
100
AcDbPolyline
 90
       26
 70
     0
 43
0.0
 10
105.554462034387
 20
101.491133458395
 10
105.554462034387
 20
101.491133458395
 10
105.598559255947
 20
103.4977292941443
 10
107.4841568804873
 20
103.4755084285926
 10
107.4841568804873
 20
104.4897445244715
 10
112.0702679227219
 20
104.4897445244715
 10
112.0702679227219
 20
103.4755084285926
 10
114.0105456713597
 20
103.4977292941443
 10
114.0105456713597
 20
104.4897445244715
 10
118.5084622704744
 20
104.4897445244715
 10
118.5084622704744
 20
103.4755084285926
 10
120.6251289053519
 20
103.4755084285926
 10
120.6251289053519
 20
104.4897445244715
 10
125.0348510613468
 20
104.4897445244715
 10
125.0348510613468
 20
103.4755084285926
 10
127.2520606532918
 20
103.4755084285926
 10
127.1515176962243
 20
104.4897445244715
 10
131.5608845767525
 20
104.4897445244715
 10
131.5608845767525
 20
103.470566869829
 10
133.5011623253902
 20
103.470566869829
 10
133.5011623253902
 20
104.4848029657078
 10
138.0872733676248
 20
104.4848029657078
 10
138.0872733676248
 20
103.470566869829
 10
140.4900444124036
 20
103.470566869829
 10
140.4900444124036
 20
101.491133458395
 10
105.554462034387
 20
101.491133458395
  0
LWPOLYLINE
  5
83
330
1F
100
AcDbEntity
  8
ISS138金台
  6
Continuous
 62
   250
420
  2367521
370
    25
100
AcDbPolyline
 90
       26
 70
     0
 43
0.0
 10
105.554462034387
 20
101.491133458395
 10
105.554462034387
 20
101.491133458395
 10
105.598559255947
 20
103.4977292941443
 10
107.4841568804873
 20
103.4755084285926
 10
107.4841568804873
 20
104.4897445244715
 10
112.0702679227219
 20
104.4897445244715
 10
112.0702679227219
 20
103.4755084285926
 10
114.0105456713597
 20
103.4977292941443
 10
114.0105456713597
 20
104.4897445244715
 10
118.5084622704744
 20
104.4897445244715
 10
118.5084622704744
 20
103.4755084285926
 10
120.6251289053519
 20
103.4755084285926
 10
120.6251289053519
 20
104.4897445244715
 10
125.0348510613468
 20
104.4897445244715
 10
125.0348510613468
 20
103.4755084285926
 10
127.2520606532918
 20
103.4755084285926
 10
127.1515176962243
 20
104.4897445244715
 10
131.5608845767525
 20
104.4897445244715
 10
131.5608845767525
 20
103.470566869829
 10
133.5011623253902
 20
103.470566869829
 10
133.5011623253902
 20
104.4848029657078
 10
138.0872733676248
 20
104.4848029657078
 10
138.0872733676248
 20
103.470566869829
 10
140.4900444124036
 20
103.470566869829
 10
140.4900444124036
 20
101.491133458395
 10
105.554462034387
 20
101.491133458395
  0
LINE
  5
84
330
1F
100
AcDbEntity
  8
ISS138金台
  6
Continuous
 62
   250
420
  2367521
370
    25
100
AcDbLine
 10
105.1630884271193
 20
113.7680863142426
 30
0.0
 11
105.1630884271193
 21
126.7679493833
 31
0.0
  0
LINE
  5
85
330
1F
100
AcDbEntity
  8
ISS138金台
  6
Continuous
 62
   250
420
  2367521
370
    25
100
AcDbLine
 10
104.7000676007398
 20
126.7677986603748
 30
0.0
 11
104.7000676007398
 21
113.7679355913173
 31
0.0
  0
LWPOLYLINE
  5
86
330
1F
100
AcDbEntity
  8
ISS138金台
  6
Continuous
 62
   250
420
  2367521
370
    25
100
AcDbPolyline
 90
        2
 70
     0
 43
0.0
 10
105.1630884271193
 20
126.7677986603748
 10
105.1630884271193
 20
113.7679355913173
  0
LWPOLYLINE
  5
87
330
1F
100
AcDbEntity
  8
ISS138金台
  6
Continuous
 62
   250
420
  2367521
370
    25
100
AcDbPolyline
 90
        2
 70
     0
 43
0.0
 10
140.2644767888382
 20
113.7679355913173
 10
140.2644767888382
 20
126.7677986603748
  0
LINE
  5
88
330
1F
100
AcDbEntity
  8
ISS138金台
  6
Continuous
 62
   250
420
  2367521
370
    25
100
AcDbLine
 10
140.700787359678
 20
113.7680863142426
 30
0.0
 11
140.687028509787
 21
126.7679493833
 31
0.0
  0
LINE
  5
89
330
1F
100
AcDbEntity
  8
ISS138金台
  6
Continuous
 62
   250
420
  2367521
370
    25
100
AcDbLine
 10
140.2646598095332
 20
126.7677986603748
 30
0.0
 11
140.2646598095332
 21
113.7679355913173
 31
0.0
  0
LWPOLYLINE
  5
8A
330
1F
100
AcDbEntity
  8
ISS138金台
  6
Continuous
 62
   250
420
  2367521
370
    25
100
AcDbPolyline
 90
        5
 70
     0
 43
0.0
 10
111.8538405679808
 20
118.0179237443129
 10
107.3538030819893
 20
118.0179237443129
 10
107.3538030819893
 20
122.5176059548378
 10
111.8538405679808
 20
122.5176059548378
 10
111.8538405679808
 20
118.0179237443129
  0
LWPOLYLINE
  5
8B
330
1F
100
AcDbEntity
  8
ISS138金台
  6
Continuous
 62
   250
420
  2367521
370
    25
100
AcDbPolyline
 90
        5
 70
     0
 43
0.0
 10
118.3537667195479
 20
118.0179237443129
 10
113.8537292335564
 20
118.0179237443129
 10
113.8537292335564
 20
122.5176059548378
 10
118.3537667195479
 20
122.5176059548378
 10
118.3537667195479
 20
118.0179237443129
  0
LWPOLYLINE
  5
8C
330
1F
100
AcDbEntity
  8
ISS138金台
  6
Continuous
 62
   250
420
  2367521
370
    25
100
AcDbPolyline
 90
        5
 70
     0
 43
0.0
 10
124.8537036370383
 20
118.0179237443129
 10
120.3536661510467
 20
118.0179237443129
 10
120.3536661510467
 20
122.5176059548378
 10
124.8537036370383
 20
122.5176059548378
 10
124.8537036370383
 20
118.0179237443129
  0
LWPOLYLINE
  5
8D
330
1F
100
AcDbEntity
  8
ISS138金台
  6
Continuous
 62
   250
420
  2367521
370
    25
100
AcDbPolyline
 90
        5
 70
     0
 43
0.0
 10
131.3536297886054
 20
118.0179237443129
 10
126.8539475780805
 20
118.0179237443129
 10
126.8539475780805
 20
122.5176059548378
 10
131.3536297886054
 20
122.5176059548378
 10
131.3536297886054
 20
118.0179237443129
  0
LWPOLYLINE
  5
8E
330
1F
100
AcDbEntity
  8
ISS138金台
  6
Continuous
 62
   250
420
  2367521
370
    25
100
AcDbPolyline
 90
        5
 70
     0
 43
0.0
 10
137.8539112156391
 20
118.0179237443129
 10
133.3538737296476
 20
118.0179237443129
 10
133.3538737296476
 20
122.5176059548378
 10
137.8539112156391
 20
122.5176059548378
 10
137.8539112156391
 20
118.0179237443129
  0
LWPOLYLINE
  5
8F
330
1F
100
AcDbEntity
  8
ISS138金台
  6
Continuous
 62
   250
420
  2367521
370
    25
100
AcDbPolyline
 90
        4
 70
     0
 43
0.0
 10
111.8539805249828
 20
126.7688214230818
 10
111.8539805249828
 20
124.5188080630477
 10
107.3539430389913
 20
124.5188080630477
 10
107.3539430389913
 20
126.7688214230818
  0
LWPOLYLINE
  5
90
330
1F
100
AcDbEntity
  8
ISS138金台
  6
Continuous
 62
   250
420
  2367521
370
    25
100
AcDbPolyline
 90
        4
 70
     0
 43
0.0
 10
118.3538420810106
 20
126.7688214230818
 10
118.3538420810106
 20
124.5188080630477
 10
113.853804595019
 20
124.5188080630477
 10
113.853804595019
 20
126.7688214230818
  0
LWPOLYLINE
  5
91
330
1F
100
AcDbEntity
  8
ISS138金台
  6
Continuous
 62
   250
420
  2367521
370
    25
100
AcDbPolyline
 90
        4
 70
     0
 43
0.0
 10
124.8537036370383
 20
126.7688214230818
 10
124.8537036370383
 20
124.5188080630477
 10
120.3536661510467
 20
124.5188080630477
 10
120.3536661510467
 20
126.7688214230818
  0
LWPOLYLINE
  5
92
330
1F
100
AcDbEntity
  8
ISS138金台
  6
Continuous
 62
   250
420
  2367521
370
    25
100
AcDbPolyline
 90
        4
 70
     0
 43
0.0
 10
131.3535544271427
 20
126.7688214230818
 10
131.3535544271427
 20
124.5188080630477
 10
126.8538722166179
 20
124.5188080630477
 10
126.8538722166179
 20
126.7688214230818
  0
LWPOLYLINE
  5
93
330
1F
100
AcDbEntity
  8
ISS138金台
  6
Continuous
 62
   250
420
  2367521
370
    25
100
AcDbPolyline
 90
        4
 70
     0
 43
0.0
 10
137.8537820245603
 20
126.7688214230818
 10
137.8537820245603
 20
124.5188080630477
 10
133.3537445385688
 20
124.5188080630477
 10
133.3537445385688
 20
126.7688214230818
  0
LWPOLYLINE
  5
94
330
1F
100
AcDbEntity
  8
ISS138金台
  6
Continuous
 62
   250
420
  2367521
370
    25
100
AcDbPolyline
 90
        4
 70
     0
 43
0.0
 10
111.8539805249828
 20
113.7677310387759
 10
111.8539805249828
 20
116.0177443988101
 10
107.3539430389913
 20
116.0177443988101
 10
107.3539430389913
 20
113.7677310387759
  0
LWPOLYLINE
  5
95
330
1F
100
AcDbEntity
  8
ISS138金台
  6
Continuous
 62
   250
420
  2367521
370
    25
100
AcDbPolyline
 90
        4
 70
     0
 43
0.0
 10
118.3538420810106
 20
113.7677310387759
 10
118.3538420810106
 20
116.0177443988101
 10
113.853804595019
 20
116.0177443988101
 10
113.853804595019
 20
113.7677310387759
  0
LWPOLYLINE
  5
96
330
1F
100
AcDbEntity
  8
ISS138金台
  6
Continuous
 62
   250
420
  2367521
370
    25
100
AcDbPolyline
 90
        4
 70
     0
 43
0.0
 10
124.8537036370383
 20
113.7677310387759
 10
124.8537036370383
 20
116.0177443988101
 10
120.3536661510467
 20
116.0177443988101
 10
120.3536661510467
 20
113.7677310387759
  0
LWPOLYLINE
  5
97
330
1F
100
AcDbEntity
  8
ISS138金台
  6
Continuous
 62
   250
420
  2367521
370
    25
100
AcDbPolyline
 90
        4
 70
     0
 43
0.0
 10
131.3535544271427
 20
113.7677310387759
 10
131.3535544271427
 20
116.0177443988101
 10
126.8538722166179
 20
116.0177443988101
 10
126.8538722166179
 20
113.7677310387759
  0
LWPOLYLINE
  5
98
330
1F
100
AcDbEntity
  8
ISS138金台
  6
Continuous
 62
   250
420
  2367521
370
    25
100
AcDbPolyline
 90
        4
 70
     0
 43
0.0
 10
137.8537820245603
 20
113.7677310387759
 10
137.8537820245603
 20
116.0177443988101
 10
133.3537445385688
 20
116.0177443988101
 10
133.3537445385688
 20
113.7677310387759
  0
LWPOLYLINE
  5
99
330
1F
100
AcDbEntity
  8
ISS138金台
  6
Continuous
 62
   250
420
  2367521
370
    25
100
AcDbPolyline
 90
        9
 70
     0
 43
0.0
 10
142.4244009032635
 20
100.1768187842592
 10
103.4244671865478
 20
100.1768187842592
 10
102.9242285635539
 20
103.1768401862792
 10
105.4243558521234
 20
103.1768401862792
 10
104.9244725045962
 20
101.3766163329718
 10
140.924384819292
 20
101.3766163329718
 10
140.4241461962981
 20
103.1768401862792
 10
142.9242842507908
 20
103.1768401862792
 10
142.4244009032635
 20
100.1768187842592
  0
LINE
  5
9A
330
1F
100
AcDbEntity
  8
ISS138金台
  6
Continuous
 62
   250
420
  2367521
370
    13
100
AcDbLine
 10
102.9241101383983
 20
104.1765745835639
 30
0.0
 11
102.9241101383983
 21
109.1817814853898
 31
0.0
  0
LINE
  5
9B
330
1F
100
AcDbEntity
  8
ISS138金台
  6
Continuous
 62
   250
420
  2367521
370
    13
100
AcDbLine
 10
105.4242158951213
 20
108.6746742033736
 30
0.0
 11
103.1742025350872
 21
108.6746742033736
 31
0.0
  0
LINE
  5
9C
330
1F
100
AcDbEntity
  8
ISS138金台
  6
Continuous
 62
   250
420
  2367521
370
    13
100
AcDbLine
 10
105.4242158951213
 20
109.181792251313
 30
0.0
 11
105.4242158951213
 21
104.1765853494871
 31
0.0
  0
LINE
  5
9D
330
1F
100
AcDbEntity
  8
ISS138金台
  6
Continuous
 62
   250
420
  2367521
370
    13
100
AcDbLine
 10
102.9241101383983
 20
99.1767291115078
 30
0.0
 11
102.9241101383983
 21
89.23262801200609
 31
0.0
  0
LINE
  5
9E
330
1F
100
AcDbEntity
  8
ISS138金台
  6
Continuous
 62
   250
420
  2367521
370
    13
100
AcDbLine
 10
142.924251953021
 20
89.73992908064045
 30
0.0
 11
103.1739549188529
 21
89.73992908064045
 31
0.0
  0
LINE
  5
9F
330
1F
100
AcDbEntity
  8
ISS138金台
  6
Continuous
 62
   250
420
  2367521
370
    13
100
AcDbLine
 10
142.924251953021
 20
99.1767291115078
 30
0.0
 11
142.924251953021
 21
89.23262801200609
 31
0.0
  0
HATCH
  5
A0
330
1F
100
AcDbEntity
  8
ISS138金台
  6
Continuous
 62
   250
420
  2367521
370
    13
100
AcDbHatch
 10
0.0
 20
0.0
 30
0.0
210
0.0
220
0.0
230
1.0
  2
SOLID
 70
     1
 71
     0
 91
        1
 92
        3
 72
     0
 73
     1
 93
       67
 10
102.9241101383983
 20
108.42473252961
 10
102.9496469083056
 20
108.4260244403979
 10
102.9744515954331
 20
108.4298032794525
 10
102.9983842427787
 20
108.4359721534646
 10
103.021326425187
 20
108.4443695735859
 10
103.0431597175023
 20
108.4548771146607
 10
103.0637441627227
 20
108.4673871174568
 10
103.082982867539
 20
108.481759624972
 10
103.1007143431028
 20
108.4978869779742
 10
103.1168416961049
 20
108.5156292194612
 10
103.1312249695434
 20
108.5348571583543
 10
103.1437242064163
 20
108.5554416035747
 10
103.1542532793376
 20
108.5772856618132
 10
103.1626506994588
 20
108.6002278442215
 10
103.1688088075478
 20
108.6241604915671
 10
103.1725876466023
 20
108.6489651786946
 10
103.1738795573902
 20
108.6745019486019
 10
103.1738795573902
 20
108.6745019486019
 10
103.1725876466023
 20
108.7001033140485
 10
103.1687980416245
 20
108.7249510648689
 10
103.1626506994588
 20
108.7489375418308
 10
103.1542532793376
 20
108.7719120220087
 10
103.1437242064163
 20
108.793788378017
 10
103.1312249695434
 20
108.8144158869303
 10
103.1168416961049
 20
108.8336653576698
 10
103.1007143431028
 20
108.8514183650801
 10
103.082982867539
 20
108.8675564840054
 10
103.0637549286459
 20
108.8819397574439
 10
103.0431597175023
 20
108.8944605261632
 10
103.021326425187
 20
108.9049788331613
 10
102.9983842427787
 20
108.9133870192058
 10
102.9744408295098
 20
108.9195451272947
 10
102.9496469083056
 20
108.9233239663493
 10
102.9241101383983
 20
108.9246158771372
 10
102.9241101383983
 20
108.9246158771372
 10
102.8985087729517
 20
108.9233239663493
 10
102.8736717880545
 20
108.9195343613715
 10
102.8497068429392
 20
108.9133870192058
 10
102.8267431286844
 20
108.9049788331613
 10
102.8048990704459
 20
108.8944605261632
 10
102.7843038593023
 20
108.8819397574439
 10
102.7650974522557
 20
108.8675457180822
 10
102.7473659766919
 20
108.8514183650801
 10
102.7312709214594
 20
108.8336653576698
 10
102.7169091798674
 20
108.814405121007
 10
102.7044207089178
 20
108.793788378017
 10
102.6939239337662
 20
108.7719227879319
 10
102.6855372795682
 20
108.7489375418308
 10
102.6794007033257
 20
108.7249510648689
 10
102.6756218642711
 20
108.7001033140485
 10
102.6743407194065
 20
108.6745019486019
 10
102.6743407194065
 20
108.6745019486019
 10
102.6756326301943
 20
108.6489651786946
 10
102.6794007033257
 20
108.6241712574904
 10
102.6855480454914
 20
108.6002386101447
 10
102.6939239337662
 20
108.5772856618132
 10
102.7044099429946
 20
108.5554523694979
 10
102.7169091798674
 20
108.5348463924311
 10
102.7312601555362
 20
108.5156292194612
 10
102.7473659766919
 20
108.4978869779742
 10
102.7650866863324
 20
108.4817703908953
 10
102.7843146252255
 20
108.4673871174568
 10
102.8049098363691
 20
108.4548771146607
 10
102.8267431286844
 20
108.4443588076627
 10
102.8497068429392
 20
108.4359613875414
 10
102.8736717880545
 20
108.4298032794525
 10
102.8985195388749
 20
108.4260244403979
 97
        0
 75
     1
 76
     1
 98
        0
  0
LWPOLYLINE
  5
A1
330
1F
100
AcDbEntity
  8
ISS138金台
  6
Continuous
 62
   250
420
  2367521
370
    13
100
AcDbPolyline
 90
       68
 70
     0
 43
0.0
 10
102.9241101383983
 20
108.42473252961
 10
102.9496469083056
 20
108.4260244403979
 10
102.9744515954331
 20
108.4298032794525
 10
102.9983842427787
 20
108.4359721534646
 10
103.021326425187
 20
108.4443695735859
 10
103.0431597175023
 20
108.4548771146607
 10
103.0637441627227
 20
108.4673871174568
 10
103.082982867539
 20
108.481759624972
 10
103.1007143431028
 20
108.4978869779742
 10
103.1168416961049
 20
108.5156292194612
 10
103.1312249695434
 20
108.5348571583543
 10
103.1437242064163
 20
108.5554416035747
 10
103.1542532793376
 20
108.5772856618132
 10
103.1626506994588
 20
108.6002278442215
 10
103.1688088075478
 20
108.6241604915671
 10
103.1725876466023
 20
108.6489651786946
 10
103.1738795573902
 20
108.6745019486019
 10
103.1738795573902
 20
108.6745019486019
 10
103.1725876466023
 20
108.7001033140485
 10
103.1687980416245
 20
108.7249510648689
 10
103.1626506994588
 20
108.7489375418308
 10
103.1542532793376
 20
108.7719120220087
 10
103.1437242064163
 20
108.793788378017
 10
103.1312249695434
 20
108.8144158869303
 10
103.1168416961049
 20
108.8336653576698
 10
103.1007143431028
 20
108.8514183650801
 10
103.082982867539
 20
108.8675564840054
 10
103.0637549286459
 20
108.8819397574439
 10
103.0431597175023
 20
108.8944605261632
 10
103.021326425187
 20
108.9049788331613
 10
102.9983842427787
 20
108.9133870192058
 10
102.9744408295098
 20
108.9195451272947
 10
102.9496469083056
 20
108.9233239663493
 10
102.9241101383983
 20
108.9246158771372
 10
102.9241101383983
 20
108.9246158771372
 10
102.8985087729517
 20
108.9233239663493
 10
102.8736717880545
 20
108.9195343613715
 10
102.8497068429392
 20
108.9133870192058
 10
102.8267431286844
 20
108.9049788331613
 10
102.8048990704459
 20
108.8944605261632
 10
102.7843038593023
 20
108.8819397574439
 10
102.7650974522557
 20
108.8675457180822
 10
102.7473659766919
 20
108.8514183650801
 10
102.7312709214594
 20
108.8336653576698
 10
102.7169091798674
 20
108.814405121007
 10
102.7044207089178
 20
108.793788378017
 10
102.6939239337662
 20
108.7719227879319
 10
102.6855372795682
 20
108.7489375418308
 10
102.6794007033257
 20
108.7249510648689
 10
102.6756218642711
 20
108.7001033140485
 10
102.6743407194065
 20
108.6745019486019
 10
102.6743407194065
 20
108.6745019486019
 10
102.6756326301943
 20
108.6489651786946
 10
102.6794007033257
 20
108.6241712574904
 10
102.6855480454914
 20
108.6002386101447
 10
102.6939239337662
 20
108.5772856618132
 10
102.7044099429946
 20
108.5554523694979
 10
102.7169091798674
 20
108.5348463924311
 10
102.7312601555362
 20
108.5156292194612
 10
102.7473659766919
 20
108.4978869779742
 10
102.7650866863324
 20
108.4817703908953
 10
102.7843146252255
 20
108.4673871174568
 10
102.8049098363691
 20
108.4548771146607
 10
102.8267431286844
 20
108.4443588076627
 10
102.8497068429392
 20
108.4359613875414
 10
102.8736717880545
 20
108.4298032794525
 10
102.8985195388749
 20
108.4260244403979
 10
102.9241101383983
 20
108.42473252961
  0
HATCH
  5
A2
330
1F
100
AcDbEntity
  8
ISS138金台
  6
Continuous
 62
   250
420
  2367521
370
    13
100
AcDbHatch
 10
0.0
 20
0.0
 30
0.0
210
0.0
220
0.0
230
1.0
  2
SOLID
 70
     1
 71
     0
 91
        1
 92
        3
 72
     0
 73
     1
 93
       67
 10
102.9241101383983
 20
89.49016504461017
 10
102.9496469083056
 20
89.49145157243643
 10
102.9744515954331
 20
89.49524656037588
 10
102.9983842427787
 20
89.50139390254157
 10
103.021326425187
 20
89.50979132266285
 10
103.0431597175023
 20
89.52031501262253
 10
103.0637441627227
 20
89.53281963245698
 10
103.082982867539
 20
89.54719752293386
 10
103.1007143431028
 20
89.56331949297439
 10
103.1168416961049
 20
89.58105635149978
 10
103.1312249695434
 20
89.60028429039286
 10
103.1437242064163
 20
89.62087950153646
 10
103.1542532793376
 20
89.64271279385179
 10
103.1626506994588
 20
89.66566035922168
 10
103.1688088075478
 20
89.68959300656732
 10
103.1725876466023
 20
89.71439231073317
 10
103.1738795573902
 20
89.73992908064045
 10
103.1738795573902
 20
89.73992908064045
 10
103.1725876466023
 20
89.76553044608713
 10
103.1687980416245
 20
89.79038357986914
 10
103.1626506994588
 20
89.81437005683094
 10
103.1542532793376
 20
89.83735530293214
 10
103.1437242064163
 20
89.85922627597878
 10
103.1312249695434
 20
89.87984840193045
 10
103.1168416961049
 20
89.89909248970838
 10
103.1007143431028
 20
89.91685088008025
 10
103.082982867539
 20
89.93298899900563
 10
103.0637549286459
 20
89.94737765540575
 10
103.0431597175023
 20
89.95989842412504
 10
103.021326425187
 20
89.9704167311231
 10
102.9983842427787
 20
89.978819534206
 10
102.9744408295098
 20
89.98497764229492
 10
102.9496469083056
 20
89.98876186431113
 10
102.9241101383983
 20
89.99005377509901
 10
102.9241101383983
 20
89.99005377509901
 10
102.8985087729517
 20
89.98876724727273
 10
102.8736717880545
 20
89.98498302525655
 10
102.8497068429392
 20
89.9788249171676
 10
102.8267431286844
 20
89.9704167311231
 10
102.8048990704459
 20
89.95989842412504
 10
102.7843038593023
 20
89.94737227244413
 10
102.7650974522557
 20
89.93298361604401
 10
102.7473659766919
 20
89.91685088008025
 10
102.7312709214594
 20
89.89909787267001
 10
102.7169091798674
 20
89.87984301896884
 10
102.7044207089178
 20
89.85922089301715
 10
102.6939239337662
 20
89.83734991997052
 10
102.6855372795682
 20
89.81436467386933
 10
102.6794007033257
 20
89.79038357986914
 10
102.6756218642711
 20
89.76553044608713
 10
102.6743407194065
 20
89.73992908064045
 10
102.6743407194065
 20
89.73992908064045
 10
102.6756326301943
 20
89.71439231073317
 10
102.6794007033257
 20
89.68959300656732
 10
102.6855480454914
 20
89.66566574218328
 10
102.6939239337662
 20
89.64271817681342
 10
102.7044099429946
 20
89.62087950153646
 10
102.7169091798674
 20
89.60028967335448
 10
102.7312601555362
 20
89.58105635149978
 10
102.7473659766919
 20
89.56331949297439
 10
102.7650866863324
 20
89.54720290589547
 10
102.7843146252255
 20
89.53282501541858
 10
102.8049098363691
 20
89.52030962966091
 10
102.8267431286844
 20
89.50979670562447
 10
102.8497068429392
 20
89.50139390254157
 10
102.8736717880545
 20
89.49524117741424
 10
102.8985195388749
 20
89.49145695539806
 97
        0
 75
     1
 76
     1
 98
        0
  0
LWPOLYLINE
  5
A3
330
1F
100
AcDbEntity
  8
ISS138金台
  6
Continuous
 62
   250
420
  2367521
370
    13
100
AcDbPolyline
 90
       68
 70
     0
 43
0.0
 10
102.9241101383983
 20
89.49016504461017
 10
102.9496469083056
 20
89.49145157243643
 10
102.9744515954331
 20
89.49524656037588
 10
102.9983842427787
 20
89.50139390254157
 10
103.021326425187
 20
89.50979132266285
 10
103.0431597175023
 20
89.52031501262253
 10
103.0637441627227
 20
89.53281963245698
 10
103.082982867539
 20
89.54719752293386
 10
103.1007143431028
 20
89.56331949297439
 10
103.1168416961049
 20
89.58105635149978
 10
103.1312249695434
 20
89.60028429039286
 10
103.1437242064163
 20
89.62087950153646
 10
103.1542532793376
 20
89.64271279385179
 10
103.1626506994588
 20
89.66566035922168
 10
103.1688088075478
 20
89.68959300656732
 10
103.1725876466023
 20
89.71439231073317
 10
103.1738795573902
 20
89.73992908064045
 10
103.1738795573902
 20
89.73992908064045
 10
103.1725876466023
 20
89.76553044608713
 10
103.1687980416245
 20
89.79038357986914
 10
103.1626506994588
 20
89.81437005683094
 10
103.1542532793376
 20
89.83735530293214
 10
103.1437242064163
 20
89.85922627597878
 10
103.1312249695434
 20
89.87984840193045
 10
103.1168416961049
 20
89.89909248970838
 10
103.1007143431028
 20
89.91685088008025
 10
103.082982867539
 20
89.93298899900563
 10
103.0637549286459
 20
89.94737765540575
 10
103.0431597175023
 20
89.95989842412504
 10
103.021326425187
 20
89.9704167311231
 10
102.9983842427787
 20
89.978819534206
 10
102.9744408295098
 20
89.98497764229492
 10
102.9496469083056
 20
89.98876186431113
 10
102.9241101383983
 20
89.99005377509901
 10
102.9241101383983
 20
89.99005377509901
 10
102.8985087729517
 20
89.98876724727273
 10
102.8736717880545
 20
89.98498302525655
 10
102.8497068429392
 20
89.9788249171676
 10
102.8267431286844
 20
89.9704167311231
 10
102.8048990704459
 20
89.95989842412504
 10
102.7843038593023
 20
89.94737227244413
 10
102.7650974522557
 20
89.93298361604401
 10
102.7473659766919
 20
89.91685088008025
 10
102.7312709214594
 20
89.89909787267001
 10
102.7169091798674
 20
89.87984301896884
 10
102.7044207089178
 20
89.85922089301715
 10
102.6939239337662
 20
89.83734991997052
 10
102.6855372795682
 20
89.81436467386933
 10
102.6794007033257
 20
89.79038357986914
 10
102.6756218642711
 20
89.76553044608713
 10
102.6743407194065
 20
89.73992908064045
 10
102.6743407194065
 20
89.73992908064045
 10
102.6756326301943
 20
89.71439231073317
 10
102.6794007033257
 20
89.68959300656732
 10
102.6855480454914
 20
89.66566574218328
 10
102.6939239337662
 20
89.64271817681342
 10
102.7044099429946
 20
89.62087950153646
 10
102.7169091798674
 20
89.60028967335448
 10
102.7312601555362
 20
89.58105635149978
 10
102.7473659766919
 20
89.56331949297439
 10
102.7650866863324
 20
89.54720290589547
 10
102.7843146252255
 20
89.53282501541858
 10
102.8049098363691
 20
89.52030962966091
 10
102.8267431286844
 20
89.50979670562447
 10
102.8497068429392
 20
89.50139390254157
 10
102.8736717880545
 20
89.49524117741424
 10
102.8985195388749
 20
89.49145695539806
 10
102.9241101383983
 20
89.49016504461017
  0
HATCH
  5
A4
330
1F
100
AcDbEntity
  8
ISS138金台
  6
Continuous
 62
   250
420
  2367521
370
    13
100
AcDbHatch
 10
0.0
 20
0.0
 30
0.0
210
0.0
220
0.0
230
1.0
  2
SOLID
 70
     1
 71
     0
 91
        1
 92
        3
 72
     0
 73
     1
 93
       67
 10
105.4242158951213
 20
108.42473252961
 10
105.4497418991054
 20
108.4260244403979
 10
105.4745573521561
 20
108.4298032794525
 10
105.4984792335785
 20
108.4359721534646
 10
105.52143218191
 20
108.4443695735859
 10
105.5432654742253
 20
108.4548771146607
 10
105.5638499194457
 20
108.4673871174568
 10
105.583088624262
 20
108.481759624972
 10
105.600830865749
 20
108.4978869779742
 10
105.6169474528279
 20
108.5156292194612
 10
105.6313199603432
 20
108.5348571583543
 10
105.6438299631393
 20
108.5554416035747
 10
105.6543590360606
 20
108.5772856618132
 10
105.6627564561819
 20
108.6002278442215
 10
105.6689037983476
 20
108.6241604915671
 10
105.6726934033254
 20
108.6489651786946
 10
105.6739853141132
 20
108.6745019486019
 10
105.6739853141132
 20
108.6745019486019
 10
105.6726934033254
 20
108.7001033140485
 10
105.6689145642708
 20
108.7249510648689
 10
105.6627564561819
 20
108.7489375418308
 10
105.6543482701373
 20
108.7719120220087
 10
105.6438407290625
 20
108.793788378017
 10
105.6313199603432
 20
108.8144158869303
 10
105.6169474528279
 20
108.8336653576698
 10
105.600830865749
 20
108.8514183650801
 10
105.583088624262
 20
108.8675564840054
 10
105.5638606853689
 20
108.8819397574439
 10
105.5432654742253
 20
108.8944605261632
 10
105.52143218191
 20
108.9049788331613
 10
105.4984899995018
 20
108.9133870192058
 10
105.4745465862329
 20
108.9195451272947
 10
105.4497526650286
 20
108.9233239663493
 10
105.4242158951213
 20
108.9246158771372
 10
105.4242158951213
 20
108.9246158771372
 10
105.3986252955979
 20
108.9233239663493
 10
105.3737775447775
 20
108.9195343613715
 10
105.3498125996622
 20
108.9133870192058
 10
105.3268488854074
 20
108.9049788331613
 10
105.3050048271689
 20
108.8944605261632
 10
105.2844203819485
 20
108.8819397574439
 10
105.2651924430554
 20
108.8675457180822
 10
105.2474717334149
 20
108.8514183650801
 10
105.2313766781824
 20
108.8336653576698
 10
105.2170149365904
 20
108.814405121007
 10
105.2045264656408
 20
108.793788378017
 10
105.1940296904892
 20
108.7719227879319
 10
105.1856430362912
 20
108.7489375418308
 10
105.1795064600487
 20
108.7249510648689
 10
105.1757276209941
 20
108.7001033140485
 10
105.1744464761295
 20
108.6745019486019
 10
105.1744464761295
 20
108.6745019486019
 10
105.1757276209941
 20
108.6489651786946
 10
105.1795172259719
 20
108.6241712574904
 10
105.1856538022144
 20
108.6002386101447
 10
105.194018924566
 20
108.5772856618132
 10
105.2045156997176
 20
108.5554523694979
 10
105.2170149365904
 20
108.5348463924311
 10
105.2313766781824
 20
108.5156292194612
 10
105.2474717334149
 20
108.4978869779742
 10
105.2652032089787
 20
108.4817703908953
 10
105.2844096160253
 20
108.4673871174568
 10
105.3050155930921
 20
108.4548771146607
 10
105.3268488854074
 20
108.4443588076627
 10
105.3498125996622
 20
108.4359613875414
 10
105.3737775447775
 20
108.4298032794525
 10
105.3986252955979
 20
108.4260244403979
 97
        0
 75
     1
 76
     1
 98
        0
  0
LWPOLYLINE
  5
A5
330
1F
100
AcDbEntity
  8
ISS138金台
  6
Continuous
 62
   250
420
  2367521
370
    13
100
AcDbPolyline
 90
       68
 70
     0
 43
0.0
 10
105.4242158951213
 20
108.42473252961
 10
105.4497418991054
 20
108.4260244403979
 10
105.4745573521561
 20
108.4298032794525
 10
105.4984792335785
 20
108.4359721534646
 10
105.52143218191
 20
108.4443695735859
 10
105.5432654742253
 20
108.4548771146607
 10
105.5638499194457
 20
108.4673871174568
 10
105.583088624262
 20
108.481759624972
 10
105.600830865749
 20
108.4978869779742
 10
105.6169474528279
 20
108.5156292194612
 10
105.6313199603432
 20
108.5348571583543
 10
105.6438299631393
 20
108.5554416035747
 10
105.6543590360606
 20
108.5772856618132
 10
105.6627564561819
 20
108.6002278442215
 10
105.6689037983476
 20
108.6241604915671
 10
105.6726934033254
 20
108.6489651786946
 10
105.6739853141132
 20
108.6745019486019
 10
105.6739853141132
 20
108.6745019486019
 10
105.6726934033254
 20
108.7001033140485
 10
105.6689145642708
 20
108.7249510648689
 10
105.6627564561819
 20
108.7489375418308
 10
105.6543482701373
 20
108.7719120220087
 10
105.6438407290625
 20
108.793788378017
 10
105.6313199603432
 20
108.8144158869303
 10
105.6169474528279
 20
108.8336653576698
 10
105.600830865749
 20
108.8514183650801
 10
105.583088624262
 20
108.8675564840054
 10
105.5638606853689
 20
108.8819397574439
 10
105.5432654742253
 20
108.8944605261632
 10
105.52143218191
 20
108.9049788331613
 10
105.4984899995018
 20
108.9133870192058
 10
105.4745465862329
 20
108.9195451272947
 10
105.4497526650286
 20
108.9233239663493
 10
105.4242158951213
 20
108.9246158771372
 10
105.4242158951213
 20
108.9246158771372
 10
105.3986252955979
 20
108.9233239663493
 10
105.3737775447775
 20
108.9195343613715
 10
105.3498125996622
 20
108.9133870192058
 10
105.3268488854074
 20
108.9049788331613
 10
105.3050048271689
 20
108.8944605261632
 10
105.2844203819485
 20
108.8819397574439
 10
105.2651924430554
 20
108.8675457180822
 10
105.2474717334149
 20
108.8514183650801
 10
105.2313766781824
 20
108.8336653576698
 10
105.2170149365904
 20
108.814405121007
 10
105.2045264656408
 20
108.793788378017
 10
105.1940296904892
 20
108.7719227879319
 10
105.1856430362912
 20
108.7489375418308
 10
105.1795064600487
 20
108.7249510648689
 10
105.1757276209941
 20
108.7001033140485
 10
105.1744464761295
 20
108.6745019486019
 10
105.1744464761295
 20
108.6745019486019
 10
105.1757276209941
 20
108.6489651786946
 10
105.1795172259719
 20
108.6241712574904
 10
105.1856538022144
 20
108.6002386101447
 10
105.194018924566
 20
108.5772856618132
 10
105.2045156997176
 20
108.5554523694979
 10
105.2170149365904
 20
108.5348463924311
 10
105.2313766781824
 20
108.5156292194612
 10
105.2474717334149
 20
108.4978869779742
 10
105.2652032089787
 20
108.4817703908953
 10
105.2844096160253
 20
108.4673871174568
 10
105.3050155930921
 20
108.4548771146607
 10
105.3268488854074
 20
108.4443588076627
 10
105.3498125996622
 20
108.4359613875414
 10
105.3737775447775
 20
108.4298032794525
 10
105.3986252955979
 20
108.4260244403979
 10
105.4242158951213
 20
108.42473252961
  0
HATCH
  5
A6
330
1F
100
AcDbEntity
  8
ISS138金台
  6
Continuous
 62
   250
420
  2367521
370
    13
100
AcDbHatch
 10
0.0
 20
0.0
 30
0.0
210
0.0
220
0.0
230
1.0
  2
SOLID
 70
     1
 71
     0
 91
        1
 92
        3
 72
     0
 73
     1
 93
       67
 10
142.924251953021
 20
89.48981515210511
 10
142.9497994888516
 20
89.49110706289301
 10
142.974604175979
 20
89.49489128490919
 10
142.9985475892479
 20
89.50104939299814
 10
143.0215220694259
 20
89.50945219608103
 10
143.0433876595109
 20
89.51997588604071
 10
143.064004402501
 20
89.53249127179839
 10
143.083275405087
 20
89.5468799281985
 10
143.1010391784205
 20
89.56301804712388
 10
143.1171880632691
 20
89.58077105453413
 10
143.1316036344772
 20
89.6000259082353
 10
143.144145935043
 20
89.62064803418697
 10
143.1546965398108
 20
89.642513624272
 10
143.1631154917785
 20
89.66549887037318
 10
143.1692843657907
 20
89.68947996437338
 10
143.1730847366917
 20
89.71433848111701
 10
143.1743766474796
 20
89.73993446360205
 10
143.1743766474796
 20
89.73993446360205
 10
143.1730847366917
 20
89.76547123350934
 10
143.1692843657907
 20
89.79027053767518
 10
143.1631154917785
 20
89.81420318502083
 10
143.1546857738875
 20
89.83715613335234
 10
143.144145935043
 20
89.85898942566766
 10
143.131592868554
 20
89.87957925384964
 10
143.1171880632691
 20
89.89880719274274
 10
143.1010391784205
 20
89.91654943422974
 10
143.0832646391638
 20
89.93266602130865
 10
143.064004402501
 20
89.94704929474716
 10
143.0433876595109
 20
89.95955929754322
 10
143.0215220694259
 20
89.97007760454127
 10
142.9985475892479
 20
89.97847502466256
 10
142.974604175979
 20
89.98462774978988
 10
142.9497887229283
 20
89.98841197180607
 10
142.924251953021
 20
89.98970388259396
 10
142.924251953021
 20
89.98970388259396
 10
142.8987151831138
 20
89.98841197180607
 10
142.8739104959863
 20
89.98462774978988
 10
142.849945550871
 20
89.97847502466256
 10
142.826971070693
 20
89.97007222157967
 10
142.8051270124544
 20
89.95955391458159
 10
142.7844887376179
 20
89.94704391178553
 10
142.7652392668784
 20
89.93266602130865
 10
142.7474647276217
 20
89.91654943422974
 10
142.7313050768498
 20
89.89880719274274
 10
142.7169002715648
 20
89.87957925384964
 10
142.7043579709991
 20
89.85898942566766
 10
142.6938181321546
 20
89.83715613335234
 10
142.6853884142636
 20
89.81420856798246
 10
142.6792195402514
 20
89.79027053767518
 10
142.6754191693504
 20
89.76547123350934
 10
142.6741272585625
 20
89.73993446360205
 10
142.6741272585625
 20
89.73993446360205
 10
142.6754191693504
 20
89.71433848111701
 10
142.6792195402514
 20
89.689485347335
 10
142.6853884142636
 20
89.66549887037318
 10
142.6938073662313
 20
89.64250824131037
 10
142.7043579709991
 20
89.62064265122535
 10
142.7168895056416
 20
89.6000259082353
 10
142.7313050768498
 20
89.58077643749574
 10
142.7474647276217
 20
89.56301266416227
 10
142.7652285009551
 20
89.5468799281985
 10
142.7844995035412
 20
89.53249127179839
 10
142.8051270124544
 20
89.5199705030791
 10
142.8269818366163
 20
89.50944681311941
 10
142.849945550871
 20
89.50104401003651
 10
142.8738997300631
 20
89.49489128490919
 10
142.8987151831138
 20
89.49110167993139
 97
        0
 75
     1
 76
     1
 98
        0
  0
LWPOLYLINE
  5
A7
330
1F
100
AcDbEntity
  8
ISS138金台
  6
Continuous
 62
   250
420
  2367521
370
    13
100
AcDbPolyline
 90
       68
 70
     0
 43
0.0
 10
142.924251953021
 20
89.48981515210511
 10
142.9497994888516
 20
89.49110706289301
 10
142.974604175979
 20
89.49489128490919
 10
142.9985475892479
 20
89.50104939299814
 10
143.0215220694259
 20
89.50945219608103
 10
143.0433876595109
 20
89.51997588604071
 10
143.064004402501
 20
89.53249127179839
 10
143.083275405087
 20
89.5468799281985
 10
143.1010391784205
 20
89.56301804712388
 10
143.1171880632691
 20
89.58077105453413
 10
143.1316036344772
 20
89.6000259082353
 10
143.144145935043
 20
89.62064803418697
 10
143.1546965398108
 20
89.642513624272
 10
143.1631154917785
 20
89.66549887037318
 10
143.1692843657907
 20
89.68947996437338
 10
143.1730847366917
 20
89.71433848111701
 10
143.1743766474796
 20
89.73993446360205
 10
143.1743766474796
 20
89.73993446360205
 10
143.1730847366917
 20
89.76547123350934
 10
143.1692843657907
 20
89.79027053767518
 10
143.1631154917785
 20
89.81420318502083
 10
143.1546857738875
 20
89.83715613335234
 10
143.144145935043
 20
89.85898942566766
 10
143.131592868554
 20
89.87957925384964
 10
143.1171880632691
 20
89.89880719274274
 10
143.1010391784205
 20
89.91654943422974
 10
143.0832646391638
 20
89.93266602130865
 10
143.064004402501
 20
89.94704929474716
 10
143.0433876595109
 20
89.95955929754322
 10
143.0215220694259
 20
89.97007760454127
 10
142.9985475892479
 20
89.97847502466256
 10
142.974604175979
 20
89.98462774978988
 10
142.9497887229283
 20
89.98841197180607
 10
142.924251953021
 20
89.98970388259396
 10
142.924251953021
 20
89.98970388259396
 10
142.8987151831138
 20
89.98841197180607
 10
142.8739104959863
 20
89.98462774978988
 10
142.849945550871
 20
89.97847502466256
 10
142.826971070693
 20
89.97007222157967
 10
142.8051270124544
 20
89.95955391458159
 10
142.7844887376179
 20
89.94704391178553
 10
142.7652392668784
 20
89.93266602130865
 10
142.7474647276217
 20
89.91654943422974
 10
142.7313050768498
 20
89.89880719274274
 10
142.7169002715648
 20
89.87957925384964
 10
142.7043579709991
 20
89.85898942566766
 10
142.6938181321546
 20
89.83715613335234
 10
142.6853884142636
 20
89.81420856798246
 10
142.6792195402514
 20
89.79027053767518
 10
142.6754191693504
 20
89.76547123350934
 10
142.6741272585625
 20
89.73993446360205
 10
142.6741272585625
 20
89.73993446360205
 10
142.6754191693504
 20
89.71433848111701
 10
142.6792195402514
 20
89.689485347335
 10
142.6853884142636
 20
89.66549887037318
 10
142.6938073662313
 20
89.64250824131037
 10
142.7043579709991
 20
89.62064265122535
 10
142.7168895056416
 20
89.6000259082353
 10
142.7313050768498
 20
89.58077643749574
 10
142.7474647276217
 20
89.56301266416227
 10
142.7652285009551
 20
89.5468799281985
 10
142.7844995035412
 20
89.53249127179839
 10
142.8051270124544
 20
89.5199705030791
 10
142.8269818366163
 20
89.50944681311941
 10
142.849945550871
 20
89.50104401003651
 10
142.8738997300631
 20
89.49489128490919
 10
142.8987151831138
 20
89.49110167993139
 10
142.924251953021
 20
89.48981515210511
  0
TEXT
  5
A8
330
1F
100
AcDbEntity
  8
ISS138金台
  6
Continuous
 62
   250
420
  2367521
100
AcDbText
 10
96.55788271461387
 20
100.830019627145
 30
0.0
 40
2.150533301035563
  1
3
 50
90.00000250447816
 41
0.8120040893554685
  7
MS Gothic
100
AcDbText
  0
TEXT
  5
A9
330
1F
100
AcDbEntity
  8
ISS138金台
  6
Continuous
 62
   250
420
  2367521
100
AcDbText
 10
102.3403387170442
 20
109.7781630756898
 30
0.0
 40
2.150533301035563
  1
2.5
 41
0.7473347981770833
  7
MS Gothic
100
AcDbText
  0
LINE
  5
AA
330
1F
100
AcDbEntity
  8
ISS138金台
  6
Continuous
 62
   250
420
  2367521
370
    13
100
AcDbLine
 10
140.4244907058415
 20
104.1765745835639
 30
0.0
 11
140.4244907058415
 21
109.1817814853898
 31
0.0
  0
LINE
  5
AB
330
1F
100
AcDbEntity
  8
ISS138金台
  6
Continuous
 62
   250
420
  2367521
370
    13
100
AcDbLine
 10
142.9246072284877
 20
108.6746742033736
 30
0.0
 11
140.6742385929869
 21
108.6746742033736
 31
0.0
  0
LINE
  5
AC
330
1F
100
AcDbEntity
  8
ISS138金台
  6
Continuous
 62
   250
420
  2367521
370
    13
100
AcDbLine
 10
142.9246072284877
 20
109.181792251313
 30
0.0
 11
142.9246072284877
 21
104.1765853494871
 31
0.0
  0
HATCH
  5
AD
330
1F
100
AcDbEntity
  8
ISS138金台
  6
Continuous
 62
   250
420
  2367521
370
    13
100
AcDbHatch
 10
0.0
 20
0.0
 30
0.0
210
0.0
220
0.0
230
1.0
  2
SOLID
 70
     1
 71
     0
 91
        1
 92
        3
 72
     0
 73
     1
 93
       67
 10
140.4244907058415
 20
108.42473252961
 10
140.4500167098255
 20
108.4260244403979
 10
140.474821396953
 20
108.4298032794525
 10
140.4987648102219
 20
108.4359721534646
 10
140.5217069926301
 20
108.4443695735859
 10
140.5435402849455
 20
108.4548771146607
 10
140.5641354960891
 20
108.4673871174568
 10
140.5833634349821
 20
108.481759624972
 10
140.6011056764692
 20
108.4978869779742
 10
140.6172222635481
 20
108.5156292194612
 10
140.6316055369866
 20
108.5348571583543
 10
140.6441047738594
 20
108.5554416035747
 10
140.6546338467807
 20
108.5772856618132
 10
140.663031266902
 20
108.6002278442215
 10
140.6691893749909
 20
108.6241604915671
 10
140.6729682140455
 20
108.6489651786946
 10
140.6742601248334
 20
108.6745019486019
 10
140.6742601248334
 20
108.6745019486019
 10
140.6729682140455
 20
108.7001033140485
 10
140.6691893749909
 20
108.7249510648689
 10
140.6630420328252
 20
108.7489375418308
 10
140.6546230808574
 20
108.7719120220087
 10
140.6441155397826
 20
108.793788378017
 10
140.6316055369866
 20
108.8144158869303
 10
140.6172222635481
 20
108.8336653576698
 10
140.6011056764692
 20
108.8514183650801
 10
140.5833634349821
 20
108.8675564840054
 10
140.5641354960891
 20
108.8819397574439
 10
140.5435402849455
 20
108.8944605261632
 10
140.5217069926301
 20
108.9049788331613
 10
140.4987540442987
 20
108.9133870192058
 10
140.474821396953
 20
108.9195451272947
 10
140.4500274757488
 20
108.9233239663493
 10
140.4244907058415
 20
108.9246158771372
 10
140.4244907058415
 20
108.9246158771372
 10
140.3988893403948
 20
108.9233239663493
 10
140.3740308236512
 20
108.9195343613715
 10
140.3500551126126
 20
108.9133870192058
 10
140.3270591005882
 20
108.9049788331613
 10
140.3052042764264
 20
108.8944605261632
 10
140.2845875334363
 20
108.8819397574439
 10
140.2653272967735
 20
108.8675457180822
 10
140.2475742893633
 20
108.8514183650801
 10
140.2314361704379
 20
108.8336653576698
 10
140.2170421310762
 20
108.814405121007
 10
140.2045213623569
 20
108.793788378017
 10
140.1940030553588
 20
108.7719227879319
 10
140.1855948693143
 20
108.7489375418308
 10
140.1794475271486
 20
108.7249510648689
 10
140.1756579221708
 20
108.7001033140485
 10
140.1743660113829
 20
108.6745019486019
 10
140.1743660113829
 20
108.6745019486019
 10
140.1756471562476
 20
108.6489651786946
 10
140.1794367612254
 20
108.6241712574904
 10
140.1856056352376
 20
108.6002386101447
 10
140.1939922894356
 20
108.5772856618132
 10
140.2045321282801
 20
108.5554523694979
 10
140.2170421310762
 20
108.5348463924311
 10
140.2314254045147
 20
108.5156292194612
 10
140.2475742893633
 20
108.4978869779742
 10
140.2653272967735
 20
108.4817703908953
 10
140.2845767675131
 20
108.4673871174568
 10
140.3052042764264
 20
108.4548771146607
 10
140.3270698665114
 20
108.4443588076627
 10
140.3500551126126
 20
108.4359613875414
 10
140.3740415895744
 20
108.4298032794525
 10
140.3988893403948
 20
108.4260244403979
 97
        0
 75
     1
 76
     1
 98
        0
  0
LWPOLYLINE
  5
AE
330
1F
100
AcDbEntity
  8
ISS138金台
  6
Continuous
 62
   250
420
  2367521
370
    13
100
AcDbPolyline
 90
       68
 70
     0
 43
0.0
 10
140.4244907058415
 20
108.42473252961
 10
140.4500167098255
 20
108.4260244403979
 10
140.474821396953
 20
108.4298032794525
 10
140.4987648102219
 20
108.4359721534646
 10
140.5217069926301
 20
108.4443695735859
 10
140.5435402849455
 20
108.4548771146607
 10
140.5641354960891
 20
108.4673871174568
 10
140.5833634349821
 20
108.481759624972
 10
140.6011056764692
 20
108.4978869779742
 10
140.6172222635481
 20
108.5156292194612
 10
140.6316055369866
 20
108.5348571583543
 10
140.6441047738594
 20
108.5554416035747
 10
140.6546338467807
 20
108.5772856618132
 10
140.663031266902
 20
108.6002278442215
 10
140.6691893749909
 20
108.6241604915671
 10
140.6729682140455
 20
108.6489651786946
 10
140.6742601248334
 20
108.6745019486019
 10
140.6742601248334
 20
108.6745019486019
 10
140.6729682140455
 20
108.7001033140485
 10
140.6691893749909
 20
108.7249510648689
 10
140.6630420328252
 20
108.7489375418308
 10
140.6546230808574
 20
108.7719120220087
 10
140.6441155397826
 20
108.793788378017
 10
140.6316055369866
 20
108.8144158869303
 10
140.6172222635481
 20
108.8336653576698
 10
140.6011056764692
 20
108.8514183650801
 10
140.5833634349821
 20
108.8675564840054
 10
140.5641354960891
 20
108.8819397574439
 10
140.5435402849455
 20
108.8944605261632
 10
140.5217069926301
 20
108.9049788331613
 10
140.4987540442987
 20
108.9133870192058
 10
140.474821396953
 20
108.9195451272947
 10
140.4500274757488
 20
108.9233239663493
 10
140.4244907058415
 20
108.9246158771372
 10
140.4244907058415
 20
108.9246158771372
 10
140.3988893403948
 20
108.9233239663493
 10
140.3740308236512
 20
108.9195343613715
 10
140.3500551126126
 20
108.9133870192058
 10
140.3270591005882
 20
108.9049788331613
 10
140.3052042764264
 20
108.8944605261632
 10
140.2845875334363
 20
108.8819397574439
 10
140.2653272967735
 20
108.8675457180822
 10
140.2475742893633
 20
108.8514183650801
 10
140.2314361704379
 20
108.8336653576698
 10
140.2170421310762
 20
108.814405121007
 10
140.2045213623569
 20
108.793788378017
 10
140.1940030553588
 20
108.7719227879319
 10
140.1855948693143
 20
108.7489375418308
 10
140.1794475271486
 20
108.7249510648689
 10
140.1756579221708
 20
108.7001033140485
 10
140.1743660113829
 20
108.6745019486019
 10
140.1743660113829
 20
108.6745019486019
 10
140.1756471562476
 20
108.6489651786946
 10
140.1794367612254
 20
108.6241712574904
 10
140.1856056352376
 20
108.6002386101447
 10
140.1939922894356
 20
108.5772856618132
 10
140.2045321282801
 20
108.5554523694979
 10
140.2170421310762
 20
108.5348463924311
 10
140.2314254045147
 20
108.5156292194612
 10
140.2475742893633
 20
108.4978869779742
 10
140.2653272967735
 20
108.4817703908953
 10
140.2845767675131
 20
108.4673871174568
 10
140.3052042764264
 20
108.4548771146607
 10
140.3270698665114
 20
108.4443588076627
 10
140.3500551126126
 20
108.4359613875414
 10
140.3740415895744
 20
108.4298032794525
 10
140.3988893403948
 20
108.4260244403979
 10
140.4244907058415
 20
108.42473252961
  0
HATCH
  5
AF
330
1F
100
AcDbEntity
  8
ISS138金台
  6
Continuous
 62
   250
420
  2367521
370
    13
100
AcDbHatch
 10
0.0
 20
0.0
 30
0.0
210
0.0
220
0.0
230
1.0
  2
SOLID
 70
     1
 71
     0
 91
        1
 92
        3
 72
     0
 73
     1
 93
       67
 10
142.9246072284877
 20
108.42473252961
 10
142.9501547643183
 20
108.4260244403979
 10
142.9749379195993
 20
108.4298032794525
 10
142.9988705669449
 20
108.4359721534646
 10
143.0218235152764
 20
108.4443695735859
 10
143.0436675735149
 20
108.4548771146607
 10
143.0642412528121
 20
108.4673871174568
 10
143.0834799576284
 20
108.481759624972
 10
143.1012114331922
 20
108.4978869779742
 10
143.1173387861943
 20
108.5156292194612
 10
143.1317112937096
 20
108.5348571583543
 10
143.1442212965056
 20
108.5554416035747
 10
143.1547396035037
 20
108.5772856618132
 10
143.1631477895482
 20
108.6002278442215
 10
143.1693058976372
 20
108.6241604915671
 10
143.1730847366917
 20
108.6489651786946
 10
143.1743766474796
 20
108.6745019486019
 10
143.1743766474796
 20
108.6745019486019
 10
143.1730847366917
 20
108.7001033140485
 10
143.1692951317139
 20
108.7249510648689
 10
143.1631477895482
 20
108.7489375418308
 10
143.1547503694269
 20
108.7719120220087
 10
143.1442320624289
 20
108.793788378017
 10
143.1317112937096
 20
108.8144158869303
 10
143.1173387861943
 20
108.8336653576698
 10
143.1012114331922
 20
108.8514183650801
 10
143.0834799576284
 20
108.8675564840054
 10
143.0642520187353
 20
108.8819397574439
 10
143.0436568075917
 20
108.8944605261632
 10
143.0218235152764
 20
108.9049788331613
 10
142.9988813328681
 20
108.9133870192058
 10
142.9749486855225
 20
108.9195451272947
 10
142.950143998395
 20
108.9233239663493
 10
142.9246072284877
 20
108.9246158771372
 10
142.9246072284877
 20
108.9246158771372
 10
142.8990058630411
 20
108.9233239663493
 10
142.8741581122206
 20
108.9195343613715
 10
142.8501716352588
 20
108.9133870192058
 10
142.8271863891576
 20
108.9049788331613
 10
142.8053315649959
 20
108.8944605261632
 10
142.7846932901593
 20
108.8819397574439
 10
142.7654438194198
 20
108.8675457180822
 10
142.7476908120096
 20
108.8514183650801
 10
142.7315526930842
 20
108.8336653576698
 10
142.7171586537224
 20
108.814405121007
 10
142.7046378850031
 20
108.793788378017
 10
142.6941195780051
 20
108.7719227879319
 10
142.6857113919606
 20
108.7489375418308
 10
142.6795532838716
 20
108.7249510648689
 10
142.6757744448171
 20
108.7001033140485
 10
142.6744825340292
 20
108.6745019486019
 10
142.6744825340292
 20
108.6745019486019
 10
142.6757744448171
 20
108.6489651786946
 10
142.6795640497949
 20
108.6241712574904
 10
142.6857113919606
 20
108.6002386101447
 10
142.6941195780051
 20
108.5772856618132
 10
142.7046486509264
 20
108.5554523694979
 10
142.7171586537224
 20
108.5348463924311
 10
142.7315526930842
 20
108.5156292194612
 10
142.7476908120096
 20
108.4978869779742
 10
142.7654438194198
 20
108.4817703908953
 10
142.7846932901593
 20
108.4673871174568
 10
142.8053100331494
 20
108.4548771146607
 10
142.8271863891576
 20
108.4443588076627
 10
142.8501716352588
 20
108.4359613875414
 10
142.8741581122206
 20
108.4298032794525
 10
142.8990058630411
 20
108.4260244403979
 97
        0
 75
     1
 76
     1
 98
        0
  0
LWPOLYLINE
  5
B0
330
1F
100
AcDbEntity
  8
ISS138金台
  6
Continuous
 62
   250
420
  2367521
370
    13
100
AcDbPolyline
 90
       68
 70
     0
 43
0.0
 10
142.9246072284877
 20
108.42473252961
 10
142.9501547643183
 20
108.4260244403979
 10
142.9749379195993
 20
108.4298032794525
 10
142.9988705669449
 20
108.4359721534646
 10
143.0218235152764
 20
108.4443695735859
 10
143.0436675735149
 20
108.4548771146607
 10
143.0642412528121
 20
108.4673871174568
 10
143.0834799576284
 20
108.481759624972
 10
143.1012114331922
 20
108.4978869779742
 10
143.1173387861943
 20
108.5156292194612
 10
143.1317112937096
 20
108.5348571583543
 10
143.1442212965056
 20
108.5554416035747
 10
143.1547396035037
 20
108.5772856618132
 10
143.1631477895482
 20
108.6002278442215
 10
143.1693058976372
 20
108.6241604915671
 10
143.1730847366917
 20
108.6489651786946
 10
143.1743766474796
 20
108.6745019486019
 10
143.1743766474796
 20
108.6745019486019
 10
143.1730847366917
 20
108.7001033140485
 10
143.1692951317139
 20
108.7249510648689
 10
143.1631477895482
 20
108.7489375418308
 10
143.1547503694269
 20
108.7719120220087
 10
143.1442320624289
 20
108.793788378017
 10
143.1317112937096
 20
108.8144158869303
 10
143.1173387861943
 20
108.8336653576698
 10
143.1012114331922
 20
108.8514183650801
 10
143.0834799576284
 20
108.8675564840054
 10
143.0642520187353
 20
108.8819397574439
 10
143.0436568075917
 20
108.8944605261632
 10
143.0218235152764
 20
108.9049788331613
 10
142.9988813328681
 20
108.9133870192058
 10
142.9749486855225
 20
108.9195451272947
 10
142.950143998395
 20
108.9233239663493
 10
142.9246072284877
 20
108.9246158771372
 10
142.9246072284877
 20
108.9246158771372
 10
142.8990058630411
 20
108.9233239663493
 10
142.8741581122206
 20
108.9195343613715
 10
142.8501716352588
 20
108.9133870192058
 10
142.8271863891576
 20
108.9049788331613
 10
142.8053315649959
 20
108.8944605261632
 10
142.7846932901593
 20
108.8819397574439
 10
142.7654438194198
 20
108.8675457180822
 10
142.7476908120096
 20
108.8514183650801
 10
142.7315526930842
 20
108.8336653576698
 10
142.7171586537224
 20
108.814405121007
 10
142.7046378850031
 20
108.793788378017
 10
142.6941195780051
 20
108.7719227879319
 10
142.6857113919606
 20
108.7489375418308
 10
142.6795532838716
 20
108.7249510648689
 10
142.6757744448171
 20
108.7001033140485
 10
142.6744825340292
 20
108.6745019486019
 10
142.6744825340292
 20
108.6745019486019
 10
142.6757744448171
 20
108.6489651786946
 10
142.6795640497949
 20
108.6241712574904
 10
142.6857113919606
 20
108.6002386101447
 10
142.6941195780051
 20
108.5772856618132
 10
142.7046486509264
 20
108.5554523694979
 10
142.7171586537224
 20
108.5348463924311
 10
142.7315526930842
 20
108.5156292194612
 10
142.7476908120096
 20
108.4978869779742
 10
142.7654438194198
 20
108.4817703908953
 10
142.7846932901593
 20
108.4673871174568
 10
142.8053100331494
 20
108.4548771146607
 10
142.8271863891576
 20
108.4443588076627
 10
142.8501716352588
 20
108.4359613875414
 10
142.8741581122206
 20
108.4298032794525
 10
142.8990058630411
 20
108.4260244403979
 10
142.9246072284877
 20
108.42473252961
  0
TEXT
  5
B1
330
1F
100
AcDbEntity
  8
ISS138金台
  6
Continuous
 62
   250
420
  2367521
100
AcDbText
 10
139.8402132860954
 20
109.7781630756898
 30
0.0
 40
2.150533301035563
  1
2.5
 41
0.7473347981770833
  7
MS Gothic
100
AcDbText
  0
TEXT
  5
B2
330
1F
100
AcDbEntity
  8
ISS138金台
  6
Continuous
 62
   250
420
  2367521
100
AcDbText
 10
121.2304752368639
 20
90.79872322265726
 30
0.0
 40
2.150533301035563
  1
40
 41
0.976001739501953
  7
MS Gothic
100
AcDbText
  0
LINE
  5
B3
330
1F
100
AcDbEntity
  8
ISS138金台
  6
Continuous
 62
   250
420
  2367521
370
    13
100
AcDbLine
 10
101.9241604226489
 20
103.1768078885095
 30
0.0
 11
96.91895352082307
 21
103.1768078885095
 31
0.0
  0
LINE
  5
B4
330
1F
100
AcDbEntity
  8
ISS138金台
  6
Continuous
 62
   250
420
  2367521
370
    13
100
AcDbLine
 10
101.9241604226489
 20
100.1768187842592
 30
0.0
 11
96.91895352082307
 21
100.1768187842592
 31
0.0
  0
HATCH
  5
B5
330
1F
100
AcDbEntity
  8
ISS138金台
  6
Continuous
 62
   250
420
  2367521
370
    13
100
AcDbHatch
 10
0.0
 20
0.0
 30
0.0
210
0.0
220
0.0
230
1.0
  2
SOLID
 70
     1
 71
     0
 91
        1
 92
        3
 72
     0
 73
     1
 93
       67
 10
97.42624382353421
 20
99.92670485572388
 10
97.40071781955015
 20
99.92799676651177
 10
97.37589160057622
 20
99.93178637148958
 10
97.35193742138412
 20
99.93793371365528
 10
97.32897370712939
 20
99.94633113377657
 10
97.30711888296759
 20
99.95687097262109
 10
97.2864913740543
 20
99.96938097541715
 10
97.26723113739152
 20
99.98377501477889
 10
97.2494565981348
 20
99.99990236778103
 10
97.23329694736296
 20
100.0176661411145
 10
97.218892142078
 20
100.0369156118541
 10
97.20634984151224
 20
100.0575323548441
 10
97.19579923674448
 20
100.0793979449291
 10
97.18738028477674
 20
100.1023939569536
 10
97.18121141076458
 20
100.1263696679922
 10
97.17741103986353
 20
100.1512281847358
 10
97.17611912907563
 20
100.1768295501824
 10
97.17611912907563
 20
100.1768295501824
 10
97.17741103986353
 20
100.2023663200897
 10
97.18120064484134
 20
100.227160241294
 10
97.1873695188535
 20
100.2511036545628
 10
97.19579923674448
 20
100.2740458369711
 10
97.20634984151224
 20
100.2958791292864
 10
97.218892142078
 20
100.3164635745068
 10
97.23329694736296
 20
100.3356915133999
 10
97.2494565981348
 20
100.3534337548869
 10
97.26723113739152
 20
100.369561107889
 10
97.2864913740543
 20
100.3839336154043
 10
97.30710811704435
 20
100.3964436182004
 10
97.32897370712939
 20
100.4069619251984
 10
97.35193742138412
 20
100.4153593453197
 10
97.37589160057622
 20
100.4215174534087
 10
97.40070705362692
 20
100.4252962924632
 10
97.42624382353421
 20
100.4265882032511
 10
97.42624382353421
 20
100.4265882032511
 10
97.45178059344147
 20
100.4252962924632
 10
97.47659604649218
 20
100.4215174534087
 10
97.5005502256843
 20
100.4153593453197
 10
97.52351393993902
 20
100.4069619251984
 10
97.54537953002404
 20
100.3964436182004
 10
97.56599627301411
 20
100.3839336154043
 10
97.5852565096769
 20
100.3695503419658
 10
97.60303104893359
 20
100.3534337548869
 10
97.6191799337822
 20
100.3356915133999
 10
97.63359550499041
 20
100.31647434043
 10
97.64613780555615
 20
100.2958791292864
 10
97.65668841032392
 20
100.2740458369711
 10
97.66510736229166
 20
100.2510928886396
 10
97.67127623630384
 20
100.227160241294
 10
97.67507660720489
 20
100.2023663200897
 10
97.67636851799276
 20
100.1768295501824
 10
97.67636851799276
 20
100.1768295501824
 10
97.67507660720489
 20
100.1512174188125
 10
97.67127623630384
 20
100.1263696679922
 10
97.66510736229166
 20
100.1023831910303
 10
97.65667764440069
 20
100.0793979449291
 10
97.64613780555615
 20
100.0575323548441
 10
97.63359550499041
 20
100.0369156118541
 10
97.6191799337822
 20
100.0176661411145
 10
97.60303104893359
 20
99.99990236778103
 10
97.5852565096769
 20
99.98377501477889
 10
97.56599627301411
 20
99.96938097541715
 10
97.54537953002404
 20
99.95686020669785
 10
97.52351393993902
 20
99.9463418996998
 10
97.5005502256843
 20
99.93793371365528
 10
97.47659604649218
 20
99.93177560556634
 10
97.45178059344147
 20
99.92799676651177
 97
        0
 75
     1
 76
     1
 98
        0
  0
LWPOLYLINE
  5
B6
330
1F
100
AcDbEntity
  8
ISS138金台
  6
Continuous
 62
   250
420
  2367521
370
    13
100
AcDbPolyline
 90
       68
 70
     0
 43
0.0
 10
97.42624382353421
 20
99.92670485572388
 10
97.40071781955015
 20
99.92799676651177
 10
97.37589160057622
 20
99.93178637148958
 10
97.35193742138412
 20
99.93793371365528
 10
97.32897370712939
 20
99.94633113377657
 10
97.30711888296759
 20
99.95687097262109
 10
97.2864913740543
 20
99.96938097541715
 10
97.26723113739152
 20
99.98377501477889
 10
97.2494565981348
 20
99.99990236778103
 10
97.23329694736296
 20
100.0176661411145
 10
97.218892142078
 20
100.0369156118541
 10
97.20634984151224
 20
100.0575323548441
 10
97.19579923674448
 20
100.0793979449291
 10
97.18738028477674
 20
100.1023939569536
 10
97.18121141076458
 20
100.1263696679922
 10
97.17741103986353
 20
100.1512281847358
 10
97.17611912907563
 20
100.1768295501824
 10
97.17611912907563
 20
100.1768295501824
 10
97.17741103986353
 20
100.2023663200897
 10
97.18120064484134
 20
100.227160241294
 10
97.1873695188535
 20
100.2511036545628
 10
97.19579923674448
 20
100.2740458369711
 10
97.20634984151224
 20
100.2958791292864
 10
97.218892142078
 20
100.3164635745068
 10
97.23329694736296
 20
100.3356915133999
 10
97.2494565981348
 20
100.3534337548869
 10
97.26723113739152
 20
100.369561107889
 10
97.2864913740543
 20
100.3839336154043
 10
97.30710811704435
 20
100.3964436182004
 10
97.32897370712939
 20
100.4069619251984
 10
97.35193742138412
 20
100.4153593453197
 10
97.37589160057622
 20
100.4215174534087
 10
97.40070705362692
 20
100.4252962924632
 10
97.42624382353421
 20
100.4265882032511
 10
97.42624382353421
 20
100.4265882032511
 10
97.45178059344147
 20
100.4252962924632
 10
97.47659604649218
 20
100.4215174534087
 10
97.5005502256843
 20
100.4153593453197
 10
97.52351393993902
 20
100.4069619251984
 10
97.54537953002404
 20
100.3964436182004
 10
97.56599627301411
 20
100.3839336154043
 10
97.5852565096769
 20
100.3695503419658
 10
97.60303104893359
 20
100.3534337548869
 10
97.6191799337822
 20
100.3356915133999
 10
97.63359550499041
 20
100.31647434043
 10
97.64613780555615
 20
100.2958791292864
 10
97.65668841032392
 20
100.2740458369711
 10
97.66510736229166
 20
100.2510928886396
 10
97.67127623630384
 20
100.227160241294
 10
97.67507660720489
 20
100.2023663200897
 10
97.67636851799276
 20
100.1768295501824
 10
97.67636851799276
 20
100.1768295501824
 10
97.67507660720489
 20
100.1512174188125
 10
97.67127623630384
 20
100.1263696679922
 10
97.66510736229166
 20
100.1023831910303
 10
97.65667764440069
 20
100.0793979449291
 10
97.64613780555615
 20
100.0575323548441
 10
97.63359550499041
 20
100.0369156118541
 10
97.6191799337822
 20
100.0176661411145
 10
97.60303104893359
 20
99.99990236778103
 10
97.5852565096769
 20
99.98377501477889
 10
97.56599627301411
 20
99.96938097541715
 10
97.54537953002404
 20
99.95686020669785
 10
97.52351393993902
 20
99.9463418996998
 10
97.5005502256843
 20
99.93793371365528
 10
97.47659604649218
 20
99.93177560556634
 10
97.45178059344147
 20
99.92799676651177
 10
97.42624382353421
 20
99.92670485572388
  0
HATCH
  5
B7
330
1F
100
AcDbEntity
  8
ISS138金台
  6
Continuous
 62
   250
420
  2367521
370
    13
100
AcDbHatch
 10
0.0
 20
0.0
 30
0.0
210
0.0
220
0.0
230
1.0
  2
SOLID
 70
     1
 71
     0
 91
        1
 92
        3
 72
     0
 73
     1
 93
       67
 10
97.42624382353421
 20
102.9270492354408
 10
97.40071781955015
 20
102.9283411462287
 10
97.37593466426915
 20
102.9321199852833
 10
97.35201278284674
 20
102.9382888592954
 10
97.3290813663617
 20
102.9466862794167
 10
97.30728037181608
 20
102.9572045864148
 10
97.28670669251895
 20
102.9697253551341
 10
97.26751105139556
 20
102.9841193944958
 10
97.24981187360149
 20
103.0002467474979
 10
97.23372758429227
 20
103.0180105208314
 10
97.21937660862346
 20
103.037259991571
 10
97.2068989035971
 20
103.057876734561
 10
97.1964021284455
 20
103.0797423246461
 10
97.18802624017067
 20
103.1027383366705
 10
97.18188966392822
 20
103.1267248136323
 10
97.17811082487364
 20
103.1515725644527
 10
97.17682968000898
 20
103.1771739298994
 10
97.17682968000898
 20
103.1771739298994
 10
97.17811082487364
 20
103.2026999338834
 10
97.18188966392822
 20
103.2275046210109
 10
97.18801547424745
 20
103.2514480342797
 10
97.1964021284455
 20
103.2744009826113
 10
97.2068989035971
 20
103.2962235090033
 10
97.21937660862346
 20
103.3168187201469
 10
97.23371681836903
 20
103.3360358931168
 10
97.24981187360149
 20
103.3537781346038
 10
97.26751105139556
 20
103.3698947216827
 10
97.28671745844218
 20
103.3842779951212
 10
97.30728037181608
 20
103.3967879979173
 10
97.3290813663617
 20
103.4073063049153
 10
97.35201278284674
 20
103.4157037250366
 10
97.37592389834592
 20
103.4218618331255
 10
97.40071781955015
 20
103.4256406721801
 10
97.42624382353421
 20
103.426932582968
 10
97.42624382353421
 20
103.426932582968
 10
97.45189901859703
 20
103.4256406721801
 10
97.4768005990336
 20
103.4218510672023
 10
97.5008193737651
 20
103.4157144909598
 10
97.52381538578953
 20
103.4073063049153
 10
97.54569174179778
 20
103.3967879979173
 10
97.56630848478784
 20
103.384267229198
 10
97.58554718960417
 20
103.3698947216827
 10
97.60328943109117
 20
103.3537781346038
 10
97.61941678409332
 20
103.3360358931168
 10
97.63377852568536
 20
103.3168187201469
 10
97.64627776255819
 20
103.2962235090033
 10
97.65678530363301
 20
103.274390216688
 10
97.66516119190783
 20
103.2514480342797
 10
97.67130853407353
 20
103.2275046210109
 10
97.67508737312811
 20
103.2027106998066
 10
97.67636851799276
 20
103.1771739298994
 10
97.67636851799276
 20
103.1771739298994
 10
97.67507660720489
 20
103.1515725644527
 10
97.67130853407353
 20
103.1267248136323
 10
97.66516119190783
 20
103.1027383366705
 10
97.65677453770978
 20
103.0797530905693
 10
97.64627776255819
 20
103.057876734561
 10
97.6337892916086
 20
103.0372492256477
 10
97.61941678409332
 20
103.0180105208314
 10
97.6033001970144
 20
103.0002467474979
 10
97.58554718960417
 20
102.9841086285726
 10
97.56630848478784
 20
102.9697253551341
 10
97.54569174179778
 20
102.9572045864148
 10
97.52381538578953
 20
102.9466862794167
 10
97.50080860784186
 20
102.9382780933722
 10
97.4768005990336
 20
102.9321307512065
 10
97.45189901859703
 20
102.9283411462287
 97
        0
 75
     1
 76
     1
 98
        0
  0
LWPOLYLINE
  5
B8
330
1F
100
AcDbEntity
  8
ISS138金台
  6
Continuous
 62
   250
420
  2367521
370
    13
100
AcDbPolyline
 90
       68
 70
     0
 43
0.0
 10
97.42624382353421
 20
102.9270492354408
 10
97.40071781955015
 20
102.9283411462287
 10
97.37593466426915
 20
102.9321199852833
 10
97.35201278284674
 20
102.9382888592954
 10
97.3290813663617
 20
102.9466862794167
 10
97.30728037181608
 20
102.9572045864148
 10
97.28670669251895
 20
102.9697253551341
 10
97.26751105139556
 20
102.9841193944958
 10
97.24981187360149
 20
103.0002467474979
 10
97.23372758429227
 20
103.0180105208314
 10
97.21937660862346
 20
103.037259991571
 10
97.2068989035971
 20
103.057876734561
 10
97.1964021284455
 20
103.0797423246461
 10
97.18802624017067
 20
103.1027383366705
 10
97.18188966392822
 20
103.1267248136323
 10
97.17811082487364
 20
103.1515725644527
 10
97.17682968000898
 20
103.1771739298994
 10
97.17682968000898
 20
103.1771739298994
 10
97.17811082487364
 20
103.2026999338834
 10
97.18188966392822
 20
103.2275046210109
 10
97.18801547424745
 20
103.2514480342797
 10
97.1964021284455
 20
103.2744009826113
 10
97.2068989035971
 20
103.2962235090033
 10
97.21937660862346
 20
103.3168187201469
 10
97.23371681836903
 20
103.3360358931168
 10
97.24981187360149
 20
103.3537781346038
 10
97.26751105139556
 20
103.3698947216827
 10
97.28671745844218
 20
103.3842779951212
 10
97.30728037181608
 20
103.3967879979173
 10
97.3290813663617
 20
103.4073063049153
 10
97.35201278284674
 20
103.4157037250366
 10
97.37592389834592
 20
103.4218618331255
 10
97.40071781955015
 20
103.4256406721801
 10
97.42624382353421
 20
103.426932582968
 10
97.42624382353421
 20
103.426932582968
 10
97.45189901859703
 20
103.4256406721801
 10
97.4768005990336
 20
103.4218510672023
 10
97.5008193737651
 20
103.4157144909598
 10
97.52381538578953
 20
103.4073063049153
 10
97.54569174179778
 20
103.3967879979173
 10
97.56630848478784
 20
103.384267229198
 10
97.58554718960417
 20
103.3698947216827
 10
97.60328943109117
 20
103.3537781346038
 10
97.61941678409332
 20
103.3360358931168
 10
97.63377852568536
 20
103.3168187201469
 10
97.64627776255819
 20
103.2962235090033
 10
97.65678530363301
 20
103.274390216688
 10
97.66516119190783
 20
103.2514480342797
 10
97.67130853407353
 20
103.2275046210109
 10
97.67508737312811
 20
103.2027106998066
 10
97.67636851799276
 20
103.1771739298994
 10
97.67636851799276
 20
103.1771739298994
 10
97.67507660720489
 20
103.1515725644527
 10
97.67130853407353
 20
103.1267248136323
 10
97.66516119190783
 20
103.1027383366705
 10
97.65677453770978
 20
103.0797530905693
 10
97.64627776255819
 20
103.057876734561
 10
97.6337892916086
 20
103.0372492256477
 10
97.61941678409332
 20
103.0180105208314
 10
97.6033001970144
 20
103.0002467474979
 10
97.58554718960417
 20
102.9841086285726
 10
97.56630848478784
 20
102.9697253551341
 10
97.54569174179778
 20
102.9572045864148
 10
97.52381538578953
 20
102.9466862794167
 10
97.50080860784186
 20
102.9382780933722
 10
97.4768005990336
 20
102.9321307512065
 10
97.45189901859703
 20
102.9283411462287
 10
97.42624382353421
 20
102.9270492354408
  0
LINE
  5
B9
330
1F
100
AcDbEntity
  8
ISS138金台
  6
Continuous
 62
   250
420
  2367521
370
    13
100
AcDbLine
 10
97.42624382353421
 20
100.1768187842592
 30
0.0
 11
97.42624382353421
 21
103.1768401862792
 31
0.0
  0
LINE
  5
BA
330
1F
100
AcDbEntity
  8
ISS138金台
  6
UserDefined01
 62
   140
420
    44526
370
    13
100
AcDbLine
 10
122.9244609597138
 20
95.22279308148023
 30
0.0
 11
142.9241335278655
 21
95.22279308148023
 31
0.0
  0
TEXT
  5
BB
330
1F
100
AcDbEntity
  8
ISS138金台
  6
Continuous
 62
   140
420
    44526
100
AcDbText
 10
131.657724056228
 20
96.0119677244403
 30
0.0
 40
1.881716638406118
  1
20
 41
1.064251491001674
  7
MS Gothic
100
AcDbText
  0
HATCH
  5
BC
330
1F
100
AcDbEntity
  8
ISS138金台
  6
Continuous
 62
   140
420
    44526
370
    13
100
AcDbHatch
 10
0.0
 20
0.0
 30
0.0
210
0.0
220
0.0
230
1.0
  2
SOLID
 70
     1
 71
     0
 91
        1
 92
        3
 72
     0
 73
     1
 93
        3
 10
122.0583639675129
 20
103.1478690868607
 10
123.7905041222984
 20
103.1471585359274
 10
122.9251392128774
 20
101.6492741047558
 97
        0
 75
     1
 76
     1
 98
        0
  0
LWPOLYLINE
  5
BD
330
1F
100
AcDbEntity
  8
ISS138金台
  6
Continuous
 62
   140
420
    44526
370
    13
100
AcDbPolyline
 90
        4
 70
     0
 43
0.0
 10
122.0583639675129
 20
103.1478690868607
 10
123.7905041222984
 20
103.1471585359274
 10
122.9251392128774
 20
101.6492741047558
 10
122.0583639675129
 20
103.1478690868607
  0
ENDSEC
  0
SECTION
  2
OBJECTS
  0
DICTIONARY
  5
C
330
0
100
AcDbDictionary
281
     1
  3
ACAD_DETAILVIEWSTYLE
350
C5
  3
ACAD_GROUP
350
D
  3
ACAD_LAYOUT
350
1A
  3
ACAD_MATERIAL
350
43
  3
ACAD_MLEADERSTYLE
350
5B
  3
ACAD_MLINESTYLE
350
17
  3
ACAD_PLOTSETTINGS
350
19
  3
ACAD_PLOTSTYLENAME
350
E
  3
ACAD_SCALELIST
350
47
  3
ACAD_SECTIONVIEWSTYLE
350
C6
  3
ACAD_TABLESTYLE
350
59
  3
ACAD_VISUALSTYLE
350
2A
  3
ACDB_RECOMPOSE_DATA
350
C2
  3
AcDbVariableDictionary
350
BE
  0
SUN
  5
5D
330
29
100
AcDbSun
 90
        1
290
     0
 63
     7
421
 16777215
 40
1.0
291
     1
 91
  2455826
 92
 54000000
292
     0
 70
     2
 71
   256
280
     1
  0
DICTIONARY
  5
C5
102
{ACAD_REACTORS
330
C
102
}
330
C
100
AcDbDictionary
281
     1
  0
DICTIONARY
  5
D
102
{ACAD_REACTORS
330
C
102
}
330
C
100
AcDbDictionary
281
     1
  0
DICTIONARY
  5
1A
102
{ACAD_REACTORS
330
C
102
}
330
C
100
AcDbDictionary
281
     1
  3
Layout1
350
1E
  3
Layout2
350
26
  3
Model
350
22
  0
DICTIONARY
  5
43
102
{ACAD_REACTORS
330
C
102
}
330
C
100
AcDbDictionary
281
     1
  3
ByBlock
350
45
  3
ByLayer
350
44
  3
Global
350
46
  0
DICTIONARY
  5
5B
102
{ACAD_REACTORS
330
C
102
}
330
C
100
AcDbDictionary
281
     1
  3
Standard
350
5C
  0
DICTIONARY
  5
17
102
{ACAD_REACTORS
330
C
102
}
330
C
100
AcDbDictionary
281
     1
  3
Standard
350
18
  0
DICTIONARY
  5
19
102
{ACAD_REACTORS
330
C
102
}
330
C
100
AcDbDictionary
281
     1
  0
ACDBDICTIONARYWDFLT
  5
E
102
{ACAD_REACTORS
330
C
102
}
330
C
100
AcDbDictionary
281
     1
  3
Normal
350
F
100
AcDbDictionaryWithDefault
340
F
  0
DICTIONARY
  5
47
102
{ACAD_REACTORS
330
C
102
}
330
C
100
AcDbDictionary
281
     1
  3
A0
350
48
  3
A1
350
49
  3
A2
350
4A
  3
A3
350
4B
  3
A4
350
4C
  3
A5
350
4D
  3
A6
350
4E
  3
A7
350
4F
  3
A8
350
50
  3
A9
350
51
  3
B0
350
52
  3
B1
350
53
  3
B2
350
54
  3
B3
350
55
  3
B4
350
56
  3
B5
350
57
  3
B6
350
58
  0
DICTIONARY
  5
C6
102
{ACAD_REACTORS
330
C
102
}
330
C
100
AcDbDictionary
281
     1
  0
DICTIONARY
  5
59
102
{ACAD_REACTORS
330
C
102
}
330
C
100
AcDbDictionary
281
     1
  3
Standard
350
5A
  0
DICTIONARY
  5
2A
102
{ACAD_REACTORS
330
C
102
}
330
C
100
AcDbDictionary
281
     1
  3
2dWireframe
350
2F
  3
Basic
350
32
  3
Brighten
350
36
  3
ColorChange
350
3A
  3
Conceptual
350
34
  3
Dim
350
35
  3
EdgeColorOff
350
3D
  3
Facepattern
350
39
  3
Flat
350
2B
  3
FlatWithEdges
350
2C
  3
Gouraud
350
2D
  3
GouraudWithEdges
350
2E
  3
Hidden
350
31
  3
JitterOff
350
3B
  3
Linepattern
350
38
  3
OverhangOff
350
3C
  3
Realistic
350
33
  3
Shaded
350
42
  3
Shaded with edges
350
41
  3
Shades of Gray
350
3E
  3
Sketchy
350
3F
  3
Thicken
350
37
  3
Wireframe
350
30
  3
X-Ray
350
40
  0
XRECORD
  5
C2
102
{ACAD_REACTORS
330
C
102
}
330
C
100
AcDbXrecord
280
     1
 90
        1
330
5A
  0
DICTIONARY
  5
BE
102
{ACAD_REACTORS
330
C
102
}
330
C
100
AcDbDictionary
281
     1
  3
CANNOSCALE
350
BF
  3
CENTEREXE
350
C7
  3
CENTERLTYPEFILE
350
C8
  3
CMLEADERSTYLE
350
C4
  3
CTABLESTYLE
350
C3
  0
LAYOUT
  5
1E
102
{ACAD_REACTORS
330
1A
102
}
330
1A
100
AcDbPlotSettings
  1

  2
none_device
  4

  6

 40
0.0
 41
0.0
 42
0.0
 43
0.0
 44
0.0
 45
0.0
 46
0.0
 47
0.0
 48
0.0
 49
0.0
140
0.0
141
0.0
142
1.0
143
1.0
 70
   688
 72
     1
 73
     0
 74
     5
  7

 75
    16
 76
     0
 77
     5
 78
   300
147
1.0
148
0.0
149
0.0
100
AcDbLayout
  1
Layout1
 70
     1
 71
     1
 10
0.0
 20
0.0
 11
420.0
 21
297.0
 12
0.0
 22
0.0
 32
0.0
 14
1.000000000000000E+20
 24
1.000000000000000E+20
 34
1.000000000000000E+20
 15
-1.000000000000000E+20
 25
-1.000000000000000E+20
 35
-1.000000000000000E+20
146
0.0
 13
0.0
 23
0.0
 33
0.0
 16
1.0
 26
0.0
 36
0.0
 17
0.0
 27
1.0
 37
0.0
 76
     0
330
1B
  0
LAYOUT
  5
26
102
{ACAD_REACTORS
330
1A
102
}
330
1A
100
AcDbPlotSettings
  1

  2
none_device
  4

  6

 40
0.0
 41
0.0
 42
0.0
 43
0.0
 44
0.0
 45
0.0
 46
0.0
 47
0.0
 48
0.0
 49
0.0
140
0.0
141
0.0
142
1.0
143
1.0
 70
   688
 72
     1
 73
     0
 74
     5
  7

 75
    16
 76
     0
 77
     5
 78
   300
147
1.0
148
0.0
149
0.0
100
AcDbLayout
  1
Layout2
 70
     1
 71
     2
 10
0.0
 20
0.0
 11
0.0
 21
0.0
 12
0.0
 22
0.0
 32
0.0
 14
0.0
 24
0.0
 34
0.0
 15
0.0
 25
0.0
 35
0.0
146
0.0
 13
0.0
 23
0.0
 33
0.0
 16
1.0
 26
0.0
 36
0.0
 17
0.0
 27
1.0
 37
0.0
 76
     0
330
23
  0
LAYOUT
  5
22
102
{ACAD_REACTORS
330
1A
102
}
330
1A
100
AcDbPlotSettings
  1

  2
none_device
  4
Letter_(8.50_x_11.00_Inches)
  6

 40
6.35
 41
6.35
 42
6.35000508
 43
6.35000508
 44
215.9
 45
279.4
 46
0.0
 47
0.0
 48
0.0
 49
0.0
140
0.0
141
0.0
142
1.0
143
1.0
 70
  1712
 72
     1
 73
     0
 74
     0
  7

 75
     0
 76
     0
 77
     5
 78
   300
147
1.0
148
0.0
149
0.0
100
AcDbLayout
  1
Model
 70
     1
 71
     0
 10
0.0
 20
0.0
 11
302.9997823349792
 21
216.0016055409748
 12
0.0
 22
0.0
 32
0.0
 14
0.0
 24
0.0
 34
0.0
 15
302.9997823349792
 25
216.0016055409748
 35
0.0
146
0.0
 13
0.0
 23
0.0
 33
0.0
 16
1.0
 26
0.0
 36
0.0
 17
0.0
 27
1.0
 37
0.0
 76
     0
330
1F
331
29
  0
MATERIAL
  5
45
102
{ACAD_REACTORS
330
43
102
}
330
43
100
AcDbMaterial
  1
ByBlock
 72
     1
 94
      127
  0
MATERIAL
  5
44
102
{ACAD_REACTORS
330
43
102
}
330
43
100
AcDbMaterial
  1
ByLayer
 72
     1
 94
      127
  0
MATERIAL
  5
46
102
{ACAD_REACTORS
330
43
102
}
330
43
100
AcDbMaterial
  1
Global
 72
     1
 94
      127
  0
MLEADERSTYLE
  5
5C
102
{ACAD_REACTORS
330
5B
102
}
330
5B
100
AcDbMLeaderStyle
179
     2
170
     2
171
     1
172
     0
 90
        2
 40
0.0
 41
0.0
173
     1
 91
-1056964608
340
14
 92
       -2
290
     1
 42
2.0
291
     1
 43
8.0
  3
Standard
341
0
 44
4.0
300

342
11
174
     1
178
     6
175
     1
176
     0
 93
-1056964608
 45
4.0
292
     0
297
     0
 46
4.0
343
0
 94
-1056964608
 47
1.0
 49
1.0
140
1.0
293
     1
141
0.0
294
     1
177
     0
142
1.0
295
     0
296
     0
143
3.75
271
     0
272
     9
273
     9
298
     0
  0
MLINESTYLE
  5
18
102
{ACAD_REACTORS
330
17
102
}
330
17
100
AcDbMlineStyle
  2
Standard
 70
     0
  3

 62
   256
 51
90.0
 52
90.0
 71
     2
 49
0.5
 62
   256
  6
BYLAYER
 49
-0.5
 62
   256
  6
BYLAYER
  0
ACDBPLACEHOLDER
  5
F
102
{ACAD_REACTORS
330
E
102
}
330
E
  0
SCALE
  5
48
102
{ACAD_REACTORS
330
47
102
}
330
47
100
AcDbScale
 70
     0
300
1:1
140
1.0
141
1.0
290
     1
  0
SCALE
  5
49
102
{ACAD_REACTORS
330
47
102
}
330
47
100
AcDbScale
 70
     0
300
1:2
140
1.0
141
2.0
290
     0
  0
SCALE
  5
4A
102
{ACAD_REACTORS
330
47
102
}
330
47
100
AcDbScale
 70
     0
300
1:4
140
1.0
141
4.0
290
     0
  0
SCALE
  5
4B
102
{ACAD_REACTORS
330
47
102
}
330
47
100
AcDbScale
 70
     0
300
1:5
140
1.0
141
5.0
290
     0
  0
SCALE
  5
4C
102
{ACAD_REACTORS
330
47
102
}
330
47
100
AcDbScale
 70
     0
300
1:8
140
1.0
141
8.0
290
     0
  0
SCALE
  5
4D
102
{ACAD_REACTORS
330
47
102
}
330
47
100
AcDbScale
 70
     0
300
1:10
140
1.0
141
10.0
290
     0
  0
SCALE
  5
4E
102
{ACAD_REACTORS
330
47
102
}
330
47
100
AcDbScale
 70
     0
300
1:16
140
1.0
141
16.0
290
     0
  0
SCALE
  5
4F
102
{ACAD_REACTORS
330
47
102
}
330
47
100
AcDbScale
 70
     0
300
1:20
140
1.0
141
20.0
290
     0
  0
SCALE
  5
50
102
{ACAD_REACTORS
330
47
102
}
330
47
100
AcDbScale
 70
     0
300
1:30
140
1.0
141
30.0
290
     0
  0
SCALE
  5
51
102
{ACAD_REACTORS
330
47
102
}
330
47
100
AcDbScale
 70
     0
300
1:40
140
1.0
141
40.0
290
     0
  0
SCALE
  5
52
102
{ACAD_REACTORS
330
47
102
}
330
47
100
AcDbScale
 70
     0
300
1:50
140
1.0
141
50.0
290
     0
  0
SCALE
  5
53
102
{ACAD_REACTORS
330
47
102
}
330
47
100
AcDbScale
 70
     0
300
1:100
140
1.0
141
100.0
290
     0
  0
SCALE
  5
54
102
{ACAD_REACTORS
330
47
102
}
330
47
100
AcDbScale
 70
     0
300
2:1
140
2.0
141
1.0
290
     0
  0
SCALE
  5
55
102
{ACAD_REACTORS
330
47
102
}
330
47
100
AcDbScale
 70
     0
300
4:1
140
4.0
141
1.0
290
     0
  0
SCALE
  5
56
102
{ACAD_REACTORS
330
47
102
}
330
47
100
AcDbScale
 70
     0
300
8:1
140
8.0
141
1.0
290
     0
  0
SCALE
  5
57
102
{ACAD_REACTORS
330
47
102
}
330
47
100
AcDbScale
 70
     0
300
10:1
140
10.0
141
1.0
290
     0
  0
SCALE
  5
58
102
{ACAD_REACTORS
330
47
102
}
330
47
100
AcDbScale
 70
     0
300
100:1
140
100.0
141
1.0
290
     0
  0
TABLESTYLE
  5
5A
102
{ACAD_REACTORS
330
59
102
}
102
{ACAD_XDICTIONARY
360
C0
102
}
330
59
100
AcDbTableStyle
  3
Standard
 70
     0
 71
     0
 40
0.06
 41
0.06
280
     0
281
     0
  7
Standard
140
4.5
170
     2
 62
     0
 63
   257
283
     0
 90
        4
 91
        0
  1

274
    -2
284
     1
 64
     0
275
    -2
285
     1
 65
     0
276
    -2
286
     1
 66
     0
277
    -2
287
     1
 67
     0
278
    -2
288
     1
 68
     0
279
    -2
289
     1
 69
     0
  7
Standard
140
6.0
170
     5
 62
     0
 63
   257
283
     0
 90
        4
 91
        0
  1

274
    -2
284
     1
 64
     0
275
    -2
285
     1
 65
     0
276
    -2
286
     1
 66
     0
277
    -2
287
     1
 67
     0
278
    -2
288
     1
 68
     0
279
    -2
289
     1
 69
     0
  7
Standard
140
4.5
170
     5
 62
     0
 63
   257
283
     0
 90
        4
 91
        0
  1

274
    -2
284
     1
 64
     0
275
    -2
285
     1
 65
     0
276
    -2
286
     1
 66
     0
277
    -2
287
     1
 67
     0
278
    -2
288
     1
 68
     0
279
    -2
289
     1
 69
     0
  0
VISUALSTYLE
  5
2F
102
{ACAD_REACTORS
330
2A
102
}
330
2A
100
AcDbVisualStyle
  2
2dWireframe
 70
     4
177
     3
291
     0
 70
    58
 90
        0
176
     1
 90
        2
176
     1
 90
        0
176
     1
 90
        0
176
     1
 40
0.6
176
     1
 40
30.0
176
     1
 62
     7
420
 16777215
176
     1
 90
        1
176
     1
 90
        4
176
     1
 62
     7
176
     1
 62
   257
176
     1
 90
        1
176
     1
 90
        1
176
     1
 40
1.0
176
     1
 90
        0
176
     1
 62
   257
176
     1
 40
1.0
176
     1
 90
        1
176
     1
 90
        6
176
     1
 90
        2
176
     1
 62
     7
176
     1
 90
        5
176
     1
 90
        0
176
     1
 90
        0
176
     1
290
     0
176
     1
 90
        1
176
     1
 40
0.0
176
     1
 90
        0
176
     1
290
     1
176
     1
290
     1
176
     1
290
     0
176
     1
290
     0
176
     1
290
     0
176
     1
290
     0
176
     1
290
     0
176
     1
290
     0
176
     1
290
     0
176
     1
 90
       50
176
     1
 40
0.0
176
     1
 40
1.0
176
     1
 90
        0
176
     1
 62
    18
420
        0
176
     1
 90
       50
176
     1
 90
        3
176
     1
 62
     5
420
      255
176
     1
290
     0
176
     1
 90
       50
176
     1
 90
       50
176
     1
 90
       50
176
     1
290
     0
176
     1
 90
       50
176
     1
 62
   256
176
     0
 40
1.0
176
     0
 90
        2
176
     1
  1
strokes_ogs.tif
176
     1
290
     0
176
     1
 40
1.0
176
     1
 40
1.0
176
     1
  0
VISUALSTYLE
  5
32
102
{ACAD_REACTORS
330
2A
102
}
330
2A
100
AcDbVisualStyle
  2
Basic
 70
     7
177
     3
291
     1
 70
    58
 90
        1
176
     1
 90
        0
176
     1
 90
        1
176
     1
 90
        0
176
     1
 40
0.6
176
     1
 40
30.0
176
     1
 62
     7
420
 16777215
176
     1
 90
        0
176
     1
 90
        4
176
     1
 62
     7
176
     1
 62
   257
176
     1
 90
        1
176
     1
 90
        1
176
     1
 40
1.0
176
     1
 90
        8
176
     1
 62
     7
176
     1
 40
1.0
176
     1
 90
        1
176
     1
 90
        6
176
     1
 90
        2
176
     1
 62
     7
176
     1
 90
        5
176
     1
 90
        0
176
     1
 90
        0
176
     1
290
     0
176
     1
 90
        1
176
     1
 40
0.0
176
     1
 90
        0
176
     1
290
     0
176
     1
290
     1
176
     1
290
     1
176
     1
290
     0
176
     1
290
     0
176
     1
290
     0
176
     1
290
     0
176
     1
290
     0
176
     1
290
     0
176
     1
 90
       50
176
     1
 40
0.0
176
     1
 40
1.0
176
     1
 90
        0
176
     1
 62
    18
420
        0
176
     1
 90
       50
176
     1
 90
        3
176
     1
 62
     5
420
      255
176
     1
290
     0
176
     1
 90
       50
176
     1
 90
       50
176
     1
 90
       50
176
     1
290
     0
176
     1
 90
       50
176
     1
 62
   256
176
     0
 40
1.0
176
     0
 90
        2
176
     1
  1
strokes_ogs.tif
176
     1
290
     0
176
     1
 40
1.0
176
     1
 40
1.0
176
     1
  0
VISUALSTYLE
  5
36
102
{ACAD_REACTORS
330
2A
102
}
330
2A
100
AcDbVisualStyle
  2
Brighten
 70
    12
177
     3
291
     1
 70
    58
 90
        2
176
     1
 90
        2
176
     1
 90
        0
176
     1
 90
        0
176
     1
 40
0.6
176
     1
 40
30.0
176
     1
 62
     7
420
 16777215
176
     1
 90
        1
176
     1
 90
        4
176
     1
 62
     7
176
     1
 62
   257
176
     1
 90
        1
176
     1
 90
        1
176
     1
 40
1.0
176
     1
 90
        8
176
     1
 62
     7
176
     1
 40
1.0
176
     1
 90
        1
176
     1
 90
        6
176
     1
 90
        2
176
     1
 62
     7
176
     1
 90
        5
176
     1
 90
        0
176
     1
 90
        0
176
     1
290
     0
176
     1
 90
        1
176
     1
 40
50.0
176
     1
 90
        0
176
     1
290
     0
176
     1
290
     1
176
     1
290
     1
176
     1
290
     0
176
     1
290
     0
176
     1
290
     0
176
     1
290
     0
176
     1
290
     0
176
     1
290
     0
176
     1
 90
       50
176
     1
 40
0.0
176
     1
 40
1.0
176
     1
 90
        0
176
     1
 62
    18
420
        0
176
     1
 90
       50
176
     1
 90
        3
176
     1
 62
     5
420
      255
176
     1
290
     0
176
     1
 90
       50
176
     1
 90
       50
176
     1
 90
       50
176
     1
290
     0
176
     1
 90
       50
176
     1
 62
   256
176
     0
 40
1.0
176
     0
 90
        2
176
     1
  1
strokes_ogs.tif
176
     1
290
     0
176
     1
 40
1.0
176
     1
 40
1.0
176
     1
  0
VISUALSTYLE
  5
3A
102
{ACAD_REACTORS
330
2A
102
}
330
2A
100
AcDbVisualStyle
  2
ColorChange
 70
    16
177
     3
291
     1
 70
    58
 90
        2
176
     1
 90
        2
176
     1
 90
        3
176
     1
 90
        0
176
     1
 40
0.6
176
     1
 40
30.0
176
     1
 62
     8
420
  8421504
176
     1
 90
        1
176
     1
 90
        4
176
     1
 62
     7
176
     1
 62
   257
176
     1
 90
        1
176
     1
 90
        1
176
     1
 40
1.0
176
     1
 90
        8
176
     1
 62
     8
420
  8421504
176
     1
 40
1.0
176
     1
 90
        1
176
     1
 90
        6
176
     1
 90
        2
176
     1
 62
     7
176
     1
 90
        5
176
     1
 90
        0
176
     1
 90
        0
176
     1
290
     0
176
     1
 90
        1
176
     1
 40
0.0
176
     1
 90
        0
176
     1
290
     0
176
     1
290
     1
176
     1
290
     1
176
     1
290
     0
176
     1
290
     0
176
     1
290
     0
176
     1
290
     0
176
     1
290
     0
176
     1
290
     0
176
     1
 90
       50
176
     1
 40
0.0
176
     1
 40
1.0
176
     1
 90
        0
176
     1
 62
    18
420
        0
176
     1
 90
       50
176
     1
 90
        3
176
     1
 62
     5
420
      255
176
     1
290
     0
176
     1
 90
       50
176
     1
 90
       50
176
     1
 90
       50
176
     1
290
     0
176
     1
 90
       50
176
     1
 62
   256
176
     0
 40
1.0
176
     0
 90
        2
176
     1
  1
strokes_ogs.tif
176
     1
290
     0
176
     1
 40
1.0
176
     1
 40
1.0
176
     1
  0
VISUALSTYLE
  5
34
102
{ACAD_REACTORS
330
2A
102
}
330
2A
100
AcDbVisualStyle
  2
Conceptual
 70
     9
177
     3
291
     0
 70
    58
 90
        3
176
     1
 90
        2
176
     1
 90
        0
176
     1
 90
        0
176
     1
 40
0.6
176
     1
 40
30.0
176
     1
 62
     7
420
 16777215
176
     1
 90
        2
176
     1
 90
        2
176
     1
 62
     7
176
     1
 62
   257
176
     1
 90
        1
176
     1
 90
        1
176
     1
 40
179.0
176
     1
 90
        8
176
     1
 62
     7
176
     1
 40
1.0
176
     1
 90
        1
176
     1
 90
        6
176
     1
 90
        2
176
     1
 62
     7
176
     1
 90
        3
176
     1
 90
        0
176
     1
 90
        0
176
     1
290
     0
176
     1
 90
        1
176
     1
 40
0.0
176
     1
 90
        0
176
     1
290
     0
176
     1
290
     1
176
     1
290
     1
176
     1
290
     0
176
     1
290
     0
176
     1
290
     0
176
     1
290
     0
176
     1
290
     0
176
     1
290
     0
176
     1
 90
       50
176
     1
 40
0.0
176
     1
 40
1.0
176
     1
 90
        0
176
     1
 62
    18
420
        0
176
     1
 90
       50
176
     1
 90
        3
176
     1
 62
     5
420
      255
176
     1
290
     0
176
     1
 90
       50
176
     1
 90
       50
176
     1
 90
       50
176
     1
290
     0
176
     1
 90
       50
176
     1
 62
   256
176
     0
 40
1.0
176
     0
 90
        2
176
     1
  1
strokes_ogs.tif
176
     1
290
     0
176
     1
 40
1.0
176
     1
 40
1.0
176
     1
  0
VISUALSTYLE
  5
35
102
{ACAD_REACTORS
330
2A
102
}
330
2A
100
AcDbVisualStyle
  2
Dim
 70
    11
177
     3
291
     1
 70
    58
 90
        2
176
     1
 90
        2
176
     1
 90
        0
176
     1
 90
        0
176
     1
 40
0.6
176
     1
 40
30.0
176
     1
 62
     7
420
 16777215
176
     1
 90
        1
176
     1
 90
        4
176
     1
 62
     7
176
     1
 62
   257
176
     1
 90
        1
176
     1
 90
        1
176
     1
 40
1.0
176
     1
 90
        8
176
     1
 62
     7
176
     1
 40
1.0
176
     1
 90
        1
176
     1
 90
        6
176
     1
 90
        2
176
     1
 62
     7
176
     1
 90
        5
176
     1
 90
        0
176
     1
 90
        0
176
     1
290
     0
176
     1
 90
        1
176
     1
 40
-50.0
176
     1
 90
        0
176
     1
290
     0
176
     1
290
     1
176
     1
290
     1
176
     1
290
     0
176
     1
290
     0
176
     1
290
     0
176
     1
290
     0
176
     1
290
     0
176
     1
290
     0
176
     1
 90
       50
176
     1
 40
0.0
176
     1
 40
1.0
176
     1
 90
        0
176
     1
 62
    18
420
        0
176
     1
 90
       50
176
     1
 90
        3
176
     1
 62
     5
420
      255
176
     1
290
     0
176
     1
 90
       50
176
     1
 90
       50
176
     1
 90
       50
176
     1
290
     0
176
     1
 90
       50
176
     1
 62
   256
176
     0
 40
1.0
176
     0
 90
        2
176
     1
  1
strokes_ogs.tif
176
     1
290
     0
176
     1
 40
1.0
176
     1
 40
1.0
176
     1
  0
VISUALSTYLE
  5
3D
102
{ACAD_REACTORS
330
2A
102
}
330
2A
100
AcDbVisualStyle
  2
EdgeColorOff
 70
    22
177
     3
291
     1
 70
    58
 90
        2
176
     0
 90
        2
176
     0
 90
        0
176
     0
 90
        0
176
     0
 40
0.6
176
     0
 40
30.0
176
     0
 62
     7
420
 16777215
176
     0
 90
        1
176
     0
 90
        4
176
     0
 62
     7
176
     0
 62
   257
176
     0
 90
        1
176
     0
 90
        1
176
     0
 40
1.0
176
     0
 90
        8
176
     2
 62
     7
176
     0
 40
1.0
176
     0
 90
        1
176
     0
 90
        6
176
     0
 90
        2
176
     0
 62
     7
176
     0
 90
        5
176
     0
 90
        0
176
     0
 90
        0
176
     0
290
     0
176
     0
 90
        1
176
     0
 40
0.0
176
     0
 90
        0
176
     0
290
     0
176
     0
290
     1
176
     0
290
     1
176
     0
290
     0
176
     0
290
     0
176
     0
290
     0
176
     0
290
     0
176
     0
290
     0
176
     0
290
     0
176
     0
 90
       50
176
     0
 40
0.0
176
     0
 40
1.0
176
     0
 90
        0
176
     0
 62
    18
420
        0
176
     0
 90
       50
176
     0
 90
        3
176
     0
 62
     5
420
      255
176
     0
290
     0
176
     0
 90
       50
176
     0
 90
       50
176
     0
 90
       50
176
     0
290
     0
176
     0
 90
       50
176
     0
 62
   256
176
     0
 40
1.0
176
     0
 90
        2
176
     0
  1
strokes_ogs.tif
176
     0
290
     0
176
     0
 40
1.0
176
     0
 40
1.0
176
     0
  0
VISUALSTYLE
  5
39
102
{ACAD_REACTORS
330
2A
102
}
330
2A
100
AcDbVisualStyle
  2
Facepattern
 70
    15
177
     3
291
     1
 70
    58
 90
        2
176
     1
 90
        2
176
     1
 90
        0
176
     1
 90
        0
176
     1
 40
0.6
176
     1
 40
30.0
176
     1
 62
     7
420
 16777215
176
     1
 90
        1
176
     1
 90
        4
176
     1
 62
     7
176
     1
 62
   257
176
     1
 90
        1
176
     1
 90
        1
176
     1
 40
1.0
176
     1
 90
        8
176
     1
 62
     7
176
     1
 40
1.0
176
     1
 90
        1
176
     1
 90
        6
176
     1
 90
        2
176
     1
 62
     7
176
     1
 90
        5
176
     1
 90
        0
176
     1
 90
        0
176
     1
290
     0
176
     1
 90
        1
176
     1
 40
0.0
176
     1
 90
        0
176
     1
290
     0
176
     1
290
     1
176
     1
290
     1
176
     1
290
     0
176
     1
290
     0
176
     1
290
     0
176
     1
290
     0
176
     1
290
     0
176
     1
290
     0
176
     1
 90
       50
176
     1
 40
0.0
176
     1
 40
1.0
176
     1
 90
        0
176
     1
 62
    18
420
        0
176
     1
 90
       50
176
     1
 90
        3
176
     1
 62
     5
420
      255
176
     1
290
     0
176
     1
 90
       50
176
     1
 90
       50
176
     1
 90
       50
176
     1
290
     0
176
     1
 90
       50
176
     1
 62
   256
176
     0
 40
1.0
176
     0
 90
        2
176
     1
  1
strokes_ogs.tif
176
     1
290
     0
176
     1
 40
1.0
176
     1
 40
1.0
176
     1
  0
VISUALSTYLE
  5
2B
102
{ACAD_REACTORS
330
2A
102
}
330
2A
100
AcDbVisualStyle
  2
Flat
 70
     0
177
     3
291
     1
 70
    58
 90
        2
176
     1
 90
        1
176
     1
 90
        1
176
     1
 90
        2
176
     1
 40
0.6
176
     1
 40
30.0
176
     1
 62
     7
420
 16777215
176
     1
 90
        0
176
     1
 90
        0
176
     1
 62
     7
176
     1
 62
   257
176
     1
 90
        1
176
     1
 90
        1
176
     1
 40
1.0
176
     1
 90
        8
176
     1
 62
     7
176
     1
 40
1.0
176
     1
 90
        1
176
     1
 90
        6
176
     1
 90
        2
176
     1
 62
     7
176
     1
 90
        5
176
     1
 90
        0
176
     1
 90
        0
176
     1
290
     0
176
     1
 90
       13
176
     1
 40
0.0
176
     1
 90
        0
176
     1
290
     0
176
     1
290
     1
176
     1
290
     1
176
     1
290
     0
176
     1
290
     0
176
     1
290
     0
176
     1
290
     0
176
     1
290
     0
176
     1
290
     0
176
     1
 90
       50
176
     1
 40
0.0
176
     1
 40
1.0
176
     1
 90
        0
176
     1
 62
    18
420
        0
176
     1
 90
       50
176
     1
 90
        3
176
     1
 62
     5
420
      255
176
     1
290
     0
176
     1
 90
       50
176
     1
 90
       50
176
     1
 90
       50
176
     1
290
     0
176
     1
 90
       50
176
     1
 62
   256
176
     0
 40
1.0
176
     0
 90
        2
176
     1
  1
strokes_ogs.tif
176
     1
290
     0
176
     1
 40
1.0
176
     1
 40
1.0
176
     1
  0
VISUALSTYLE
  5
2C
102
{ACAD_REACTORS
330
2A
102
}
330
2A
100
AcDbVisualStyle
  2
FlatWithEdges
 70
     1
177
     3
291
     1
 70
    58
 90
        2
176
     1
 90
        1
176
     1
 90
        1
176
     1
 90
        2
176
     1
 40
0.6
176
     1
 40
30.0
176
     1
 62
     7
420
 16777215
176
     1
 90
        1
176
     1
 90
        0
176
     1
 62
     7
176
     1
 62
   257
176
     1
 90
        1
176
     1
 90
        1
176
     1
 40
1.0
176
     1
 90
        0
176
     1
 62
   257
176
     1
 40
1.0
176
     1
 90
        1
176
     1
 90
        6
176
     1
 90
        2
176
     1
 62
     7
176
     1
 90
        5
176
     1
 90
        0
176
     1
 90
        0
176
     1
290
     0
176
     1
 90
       13
176
     1
 40
0.0
176
     1
 90
        0
176
     1
290
     0
176
     1
290
     1
176
     1
290
     1
176
     1
290
     0
176
     1
290
     0
176
     1
290
     0
176
     1
290
     0
176
     1
290
     0
176
     1
290
     0
176
     1
 90
       50
176
     1
 40
0.0
176
     1
 40
1.0
176
     1
 90
        0
176
     1
 62
    18
420
        0
176
     1
 90
       50
176
     1
 90
        3
176
     1
 62
     5
420
      255
176
     1
290
     0
176
     1
 90
       50
176
     1
 90
       50
176
     1
 90
       50
176
     1
290
     0
176
     1
 90
       50
176
     1
 62
   256
176
     0
 40
1.0
176
     0
 90
        2
176
     1
  1
strokes_ogs.tif
176
     1
290
     0
176
     1
 40
1.0
176
     1
 40
1.0
176
     1
  0
VISUALSTYLE
  5
2D
102
{ACAD_REACTORS
330
2A
102
}
330
2A
100
AcDbVisualStyle
  2
Gouraud
 70
     2
177
     3
291
     1
 70
    58
 90
        2
176
     1
 90
        2
176
     1
 90
        1
176
     1
 90
        2
176
     1
 40
0.6
176
     1
 40
30.0
176
     1
 62
     7
420
 16777215
176
     1
 90
        0
176
     1
 90
        0
176
     1
 62
     7
176
     1
 62
   257
176
     1
 90
        1
176
     1
 90
        1
176
     1
 40
1.0
176
     1
 90
        0
176
     1
 62
     7
176
     1
 40
1.0
176
     1
 90
        1
176
     1
 90
        6
176
     1
 90
        2
176
     1
 62
     7
176
     1
 90
        5
176
     1
 90
        0
176
     1
 90
        0
176
     1
290
     0
176
     1
 90
       13
176
     1
 40
0.0
176
     1
 90
        0
176
     1
290
     0
176
     1
290
     1
176
     1
290
     1
176
     1
290
     0
176
     1
290
     0
176
     1
290
     0
176
     1
290
     0
176
     1
290
     0
176
     1
290
     0
176
     1
 90
       50
176
     1
 40
0.0
176
     1
 40
1.0
176
     1
 90
        0
176
     1
 62
    18
420
        0
176
     1
 90
       50
176
     1
 90
        3
176
     1
 62
     5
420
      255
176
     1
290
     0
176
     1
 90
       50
176
     1
 90
       50
176
     1
 90
       50
176
     1
290
     0
176
     1
 90
       50
176
     1
 62
   256
176
     0
 40
1.0
176
     0
 90
        2
176
     1
  1
strokes_ogs.tif
176
     1
290
     0
176
     1
 40
1.0
176
     1
 40
1.0
176
     1
  0
VISUALSTYLE
  5
2E
102
{ACAD_REACTORS
330
2A
102
}
330
2A
100
AcDbVisualStyle
  2
GouraudWithEdges
 70
     3
177
     3
291
     1
 70
    58
 90
        2
176
     1
 90
        2
176
     1
 90
        1
176
     1
 90
        2
176
     1
 40
0.6
176
     1
 40
30.0
176
     1
 62
     7
420
 16777215
176
     1
 90
        1
176
     1
 90
        0
176
     1
 62
     7
176
     1
 62
   257
176
     1
 90
        1
176
     1
 90
        1
176
     1
 40
1.0
176
     1
 90
        0
176
     1
 62
   257
176
     1
 40
1.0
176
     1
 90
        1
176
     1
 90
        6
176
     1
 90
        2
176
     1
 62
     7
176
     1
 90
        5
176
     1
 90
        0
176
     1
 90
        0
176
     1
290
     0
176
     1
 90
       13
176
     1
 40
0.0
176
     1
 90
        0
176
     1
290
     0
176
     1
290
     1
176
     1
290
     1
176
     1
290
     0
176
     1
290
     0
176
     1
290
     0
176
     1
290
     0
176
     1
290
     0
176
     1
290
     0
176
     1
 90
       50
176
     1
 40
0.0
176
     1
 40
1.0
176
     1
 90
        0
176
     1
 62
    18
420
        0
176
     1
 90
       50
176
     1
 90
        3
176
     1
 62
     5
420
      255
176
     1
290
     0
176
     1
 90
       50
176
     1
 90
       50
176
     1
 90
       50
176
     1
290
     0
176
     1
 90
       50
176
     1
 62
   256
176
     0
 40
1.0
176
     0
 90
        2
176
     1
  1
strokes_ogs.tif
176
     1
290
     0
176
     1
 40
1.0
176
     1
 40
1.0
176
     1
  0
VISUALSTYLE
  5
31
102
{ACAD_REACTORS
330
2A
102
}
330
2A
100
AcDbVisualStyle
  2
Hidden
 70
     6
177
     3
291
     0
 70
    58
 90
        1
176
     1
 90
        2
176
     1
 90
        2
176
     1
 90
        0
176
     1
 40
0.6
176
     1
 40
30.0
176
     1
 62
     7
420
 16777215
176
     1
 90
        2
176
     1
 90
        2
176
     1
 62
     7
176
     1
 62
   257
176
     1
 90
        2
176
     1
 90
        1
176
     1
 40
40.0
176
     1
 90
        0
176
     1
 62
   257
176
     1
 40
1.0
176
     1
 90
        1
176
     1
 90
        6
176
     1
 90
        2
176
     1
 62
     7
176
     1
 90
        3
176
     1
 90
        0
176
     1
 90
        0
176
     1
290
     0
176
     1
 90
        1
176
     1
 40
0.0
176
     1
 90
        0
176
     1
290
     0
176
     1
290
     1
176
     1
290
     1
176
     1
290
     0
176
     1
290
     0
176
     1
290
     0
176
     1
290
     0
176
     1
290
     0
176
     1
290
     0
176
     1
 90
       50
176
     1
 40
0.0
176
     1
 40
1.0
176
     1
 90
        0
176
     1
 62
    18
420
        0
176
     1
 90
       50
176
     1
 90
        3
176
     1
 62
     5
420
      255
176
     1
290
     0
176
     1
 90
       50
176
     1
 90
       50
176
     1
 90
       50
176
     1
290
     0
176
     1
 90
       50
176
     1
 62
   256
176
     0
 40
1.0
176
     0
 90
        2
176
     1
  1
strokes_ogs.tif
176
     1
290
     0
176
     1
 40
1.0
176
     1
 40
1.0
176
     1
  0
VISUALSTYLE
  5
3B
102
{ACAD_REACTORS
330
2A
102
}
330
2A
100
AcDbVisualStyle
  2
JitterOff
 70
    20
177
     3
291
     1
 70
    58
 90
        2
176
     0
 90
        2
176
     0
 90
        0
176
     0
 90
        0
176
     0
 40
0.6
176
     0
 40
30.0
176
     0
 62
     7
420
 16777215
176
     0
 90
        1
176
     0
 90
        4
176
     0
 62
     7
176
     0
 62
   257
176
     0
 90
        1
176
     0
 90
        1
176
     0
 40
1.0
176
     0
 90
       10
176
     2
 62
     7
176
     0
 40
1.0
176
     0
 90
        1
176
     0
 90
        6
176
     0
 90
        2
176
     0
 62
     7
176
     0
 90
        5
176
     0
 90
        0
176
     0
 90
        0
176
     0
290
     0
176
     0
 90
        1
176
     0
 40
0.0
176
     0
 90
        0
176
     0
290
     0
176
     0
290
     1
176
     0
290
     1
176
     0
290
     0
176
     0
290
     0
176
     0
290
     0
176
     0
290
     0
176
     0
290
     0
176
     0
290
     0
176
     0
 90
       50
176
     0
 40
0.0
176
     0
 40
1.0
176
     0
 90
        0
176
     0
 62
    18
420
        0
176
     0
 90
       50
176
     0
 90
        3
176
     0
 62
     5
420
      255
176
     0
290
     0
176
     0
 90
       50
176
     0
 90
       50
176
     0
 90
       50
176
     0
290
     0
176
     0
 90
       50
176
     0
 62
   256
176
     0
 40
1.0
176
     0
 90
        2
176
     0
  1
strokes_ogs.tif
176
     0
290
     0
176
     0
 40
1.0
176
     0
 40
1.0
176
     0
  0
VISUALSTYLE
  5
38
102
{ACAD_REACTORS
330
2A
102
}
330
2A
100
AcDbVisualStyle
  2
Linepattern
 70
    14
177
     3
291
     1
 70
    58
 90
        2
176
     1
 90
        2
176
     1
 90
        0
176
     1
 90
        0
176
     1
 40
0.6
176
     1
 40
30.0
176
     1
 62
     7
420
 16777215
176
     1
 90
        1
176
     1
 90
        4
176
     1
 62
     7
176
     1
 62
   257
176
     1
 90
        7
176
     1
 90
        7
176
     1
 40
1.0
176
     1
 90
        8
176
     1
 62
     7
176
     1
 40
1.0
176
     1
 90
        1
176
     1
 90
        6
176
     1
 90
        2
176
     1
 62
     7
176
     1
 90
        5
176
     1
 90
        0
176
     1
 90
        0
176
     1
290
     0
176
     1
 90
        1
176
     1
 40
0.0
176
     1
 90
        0
176
     1
290
     0
176
     1
290
     1
176
     1
290
     1
176
     1
290
     0
176
     1
290
     0
176
     1
290
     0
176
     1
290
     0
176
     1
290
     0
176
     1
290
     0
176
     1
 90
       50
176
     1
 40
0.0
176
     1
 40
1.0
176
     1
 90
        0
176
     1
 62
    18
420
        0
176
     1
 90
       50
176
     1
 90
        3
176
     1
 62
     5
420
      255
176
     1
290
     0
176
     1
 90
       50
176
     1
 90
       50
176
     1
 90
       50
176
     1
290
     0
176
     1
 90
       50
176
     1
 62
   256
176
     0
 40
1.0
176
     0
 90
        2
176
     1
  1
strokes_ogs.tif
176
     1
290
     0
176
     1
 40
1.0
176
     1
 40
1.0
176
     1
  0
VISUALSTYLE
  5
3C
102
{ACAD_REACTORS
330
2A
102
}
330
2A
100
AcDbVisualStyle
  2
OverhangOff
 70
    21
177
     3
291
     1
 70
    58
 90
        2
176
     0
 90
        2
176
     0
 90
        0
176
     0
 90
        0
176
     0
 40
0.6
176
     0
 40
30.0
176
     0
 62
     7
420
 16777215
176
     0
 90
        1
176
     0
 90
        4
176
     0
 62
     7
176
     0
 62
   257
176
     0
 90
        1
176
     0
 90
        1
176
     0
 40
1.0
176
     0
 90
        9
176
     2
 62
     7
176
     0
 40
1.0
176
     0
 90
        1
176
     0
 90
        6
176
     0
 90
        2
176
     0
 62
     7
176
     0
 90
        5
176
     0
 90
        0
176
     0
 90
        0
176
     0
290
     0
176
     0
 90
        1
176
     0
 40
0.0
176
     0
 90
        0
176
     0
290
     0
176
     0
290
     1
176
     0
290
     1
176
     0
290
     0
176
     0
290
     0
176
     0
290
     0
176
     0
290
     0
176
     0
290
     0
176
     0
290
     0
176
     0
 90
       50
176
     0
 40
0.0
176
     0
 40
1.0
176
     0
 90
        0
176
     0
 62
    18
420
        0
176
     0
 90
       50
176
     0
 90
        3
176
     0
 62
     5
420
      255
176
     0
290
     0
176
     0
 90
       50
176
     0
 90
       50
176
     0
 90
       50
176
     0
290
     0
176
     0
 90
       50
176
     0
 62
   256
176
     0
 40
1.0
176
     0
 90
        2
176
     0
  1
strokes_ogs.tif
176
     0
290
     0
176
     0
 40
1.0
176
     0
 40
1.0
176
     0
  0
VISUALSTYLE
  5
33
102
{ACAD_REACTORS
330
2A
102
}
330
2A
100
AcDbVisualStyle
  2
Realistic
 70
     8
177
     3
291
     0
 70
    58
 90
        2
176
     1
 90
        3
176
     1
 90
        0
176
     1
 90
        2
176
     1
 40
0.6
176
     1
 40
30.0
176
     1
 62
     7
420
 16777215
176
     1
 90
        0
176
     1
 90
        0
176
     1
 62
     7
176
     1
 62
   257
176
     1
 90
        1
176
     1
 90
        1
176
     1
 40
1.0
176
     1
 90
        8
176
     1
 62
   257
176
     1
 40
1.0
176
     1
 90
        1
176
     1
 90
        6
176
     1
 90
        2
176
     1
 62
     7
176
     1
 90
        3
176
     1
 90
        0
176
     1
 90
        0
176
     1
290
     0
176
     1
 90
       13
176
     1
 40
0.0
176
     1
 90
        0
176
     1
290
     0
176
     1
290
     1
176
     1
290
     1
176
     1
290
     0
176
     1
290
     0
176
     1
290
     0
176
     1
290
     0
176
     1
290
     0
176
     1
290
     0
176
     1
 90
       50
176
     1
 40
0.0
176
     1
 40
1.0
176
     1
 90
        0
176
     1
 62
    18
420
        0
176
     1
 90
       50
176
     1
 90
        3
176
     1
 62
     5
420
      255
176
     1
290
     0
176
     1
 90
       50
176
     1
 90
       50
176
     1
 90
       50
176
     1
290
     0
176
     1
 90
       50
176
     1
 62
   256
176
     0
 40
1.0
176
     0
 90
        2
176
     1
  1
strokes_ogs.tif
176
     1
290
     0
176
     1
 40
1.0
176
     1
 40
1.0
176
     1
  0
VISUALSTYLE
  5
42
102
{ACAD_REACTORS
330
2A
102
}
330
2A
100
AcDbVisualStyle
  2
Shaded
 70
    27
177
     3
291
     0
 70
    58
 90
        2
176
     1
 90
        2
176
     1
 90
        1
176
     1
 90
        2
176
     1
 40
0.6
176
     1
 40
30.0
176
     1
 62
     7
420
 16777215
176
     1
 90
        0
176
     1
 90
        4
176
     1
 62
     7
176
     1
 62
   257
176
     1
 90
        1
176
     1
 90
        1
176
     1
 40
1.0
176
     1
 90
        8
176
     1
 62
   257
176
     1
 40
1.0
176
     1
 90
        1
176
     1
 90
        6
176
     1
 90
        2
176
     1
 62
     8
420
  7895160
176
     1
 90
        3
176
     1
 90
        0
176
     1
 90
        0
176
     1
290
     0
176
     1
 90
        5
176
     1
 40
0.0
176
     1
 90
        0
176
     1
290
     0
176
     1
290
     1
176
     1
290
     1
176
     1
290
     0
176
     1
290
     0
176
     1
290
     0
176
     1
290
     0
176
     1
290
     0
176
     1
290
     0
176
     1
 90
       50
176
     1
 40
0.0
176
     1
 40
1.0
176
     1
 90
        0
176
     1
 62
    18
420
        0
176
     1
 90
       50
176
     1
 90
        3
176
     1
 62
     5
420
      255
176
     1
290
     0
176
     1
 90
       50
176
     1
 90
       50
176
     1
 90
       50
176
     1
290
     0
176
     1
 90
       50
176
     1
 62
   256
176
     0
 40
1.0
176
     0
 90
        2
176
     1
  1
strokes_ogs.tif
176
     1
290
     0
176
     1
 40
1.0
176
     1
 40
1.0
176
     1
  0
VISUALSTYLE
  5
41
102
{ACAD_REACTORS
330
2A
102
}
330
2A
100
AcDbVisualStyle
  2
Shaded with edges
 70
    26
177
     3
291
     0
 70
    58
 90
        2
176
     1
 90
        2
176
     1
 90
        1
176
     1
 90
        2
176
     1
 40
0.6
176
     1
 40
30.0
176
     1
 62
     7
420
 16777215
176
     1
 90
        1
176
     1
 90
       10
176
     1
 62
     7
176
     1
 62
   257
176
     1
 90
        2
176
     1
 90
        1
176
     1
 40
1.0
176
     1
 90
        8
176
     1
 62
   257
176
     1
 40
1.0
176
     1
 90
        1
176
     1
 90
        6
176
     1
 90
        2
176
     1
 62
     7
176
     1
 90
        3
176
     1
 90
        0
176
     1
 90
        0
176
     1
290
     0
176
     1
 90
        5
176
     1
 40
0.0
176
     1
 90
        0
176
     1
290
     0
176
     1
290
     1
176
     1
290
     1
176
     1
290
     0
176
     1
290
     0
176
     1
290
     0
176
     1
290
     0
176
     1
290
     0
176
     1
290
     0
176
     1
 90
       50
176
     1
 40
0.0
176
     1
 40
1.0
176
     1
 90
        0
176
     1
 62
    18
420
        0
176
     1
 90
       50
176
     1
 90
        3
176
     1
 62
     5
420
      255
176
     1
290
     0
176
     1
 90
       50
176
     1
 90
       50
176
     1
 90
       50
176
     1
290
     0
176
     1
 90
       50
176
     1
 62
   256
176
     0
 40
1.0
176
     0
 90
        2
176
     1
  1
strokes_ogs.tif
176
     1
290
     0
176
     1
 40
1.0
176
     1
 40
1.0
176
     1
  0
VISUALSTYLE
  5
3E
102
{ACAD_REACTORS
330
2A
102
}
330
2A
100
AcDbVisualStyle
  2
Shades of Gray
 70
    23
177
     3
291
     0
 70
    58
 90
        2
176
     1
 90
        2
176
     1
 90
        3
176
     1
 90
        0
176
     1
 40
0.6
176
     1
 40
30.0
176
     1
 62
     7
420
 16777215
176
     1
 90
        2
176
     1
 90
        2
176
     1
 62
     7
176
     1
 62
     7
176
     1
 90
        1
176
     1
 90
        1
176
     1
 40
40.0
176
     1
 90
        8
176
     1
 62
     7
176
     1
 40
1.0
176
     1
 90
        1
176
     1
 90
        6
176
     1
 90
        2
176
     1
 62
     7
176
     1
 90
        3
176
     1
 90
        0
176
     1
 90
        0
176
     1
290
     0
176
     1
 90
        1
176
     1
 40
0.0
176
     1
 90
        0
176
     1
290
     0
176
     1
290
     1
176
     1
290
     1
176
     1
290
     0
176
     1
290
     0
176
     1
290
     0
176
     1
290
     0
176
     1
290
     0
176
     1
290
     0
176
     1
 90
       50
176
     1
 40
0.0
176
     1
 40
1.0
176
     1
 90
        0
176
     1
 62
    18
420
        0
176
     1
 90
       50
176
     1
 90
        3
176
     1
 62
     5
420
      255
176
     1
290
     0
176
     1
 90
       50
176
     1
 90
       50
176
     1
 90
       50
176
     1
290
     0
176
     1
 90
       50
176
     1
 62
   256
176
     0
 40
1.0
176
     0
 90
        2
176
     1
  1
strokes_ogs.tif
176
     1
290
     0
176
     1
 40
1.0
176
     1
 40
1.0
176
     1
  0
VISUALSTYLE
  5
3F
102
{ACAD_REACTORS
330
2A
102
}
330
2A
100
AcDbVisualStyle
  2
Sketchy
 70
    24
177
     3
291
     0
 70
    58
 90
        1
176
     1
 90
        2
176
     1
 90
        2
176
     1
 90
        0
176
     1
 40
0.6
176
     1
 40
30.0
176
     1
 62
     7
420
 16777215
176
     1
 90
        2
176
     1
 90
        2
176
     1
 62
     7
176
     1
 62
     7
176
     1
 90
        1
176
     1
 90
        1
176
     1
 40
40.0
176
     1
 90
       11
176
     1
 62
     7
176
     1
 40
1.0
176
     1
 90
        1
176
     1
 90
        6
176
     1
 90
        2
176
     1
 62
     7
176
     1
 90
        6
176
     1
 90
        0
176
     1
 90
        0
176
     1
290
     0
176
     1
 90
        1
176
     1
 40
0.0
176
     1
 90
        0
176
     1
290
     0
176
     1
290
     1
176
     1
290
     1
176
     1
290
     0
176
     1
290
     0
176
     1
290
     0
176
     1
290
     0
176
     1
290
     0
176
     1
290
     0
176
     1
 90
       50
176
     1
 40
0.0
176
     1
 40
1.0
176
     1
 90
        0
176
     1
 62
    18
420
        0
176
     1
 90
       50
176
     1
 90
        3
176
     1
 62
     5
420
      255
176
     1
290
     0
176
     1
 90
       50
176
     1
 90
       50
176
     1
 90
       50
176
     1
290
     0
176
     1
 90
       50
176
     1
 62
   256
176
     0
 40
1.0
176
     0
 90
        2
176
     1
  1
strokes_ogs.tif
176
     1
290
     0
176
     1
 40
1.0
176
     1
 40
1.0
176
     1
  0
VISUALSTYLE
  5
37
102
{ACAD_REACTORS
330
2A
102
}
330
2A
100
AcDbVisualStyle
  2
Thicken
 70
    13
177
     3
291
     1
 70
    58
 90
        2
176
     1
 90
        2
176
     1
 90
        0
176
     1
 90
        0
176
     1
 40
0.6
176
     1
 40
30.0
176
     1
 62
     7
420
 16777215
176
     1
 90
        1
176
     1
 90
        4
176
     1
 62
     7
176
     1
 62
   257
176
     1
 90
        1
176
     1
 90
        1
176
     1
 40
1.0
176
     1
 90
       12
176
     1
 62
     7
176
     1
 40
1.0
176
     1
 90
        1
176
     1
 90
        6
176
     1
 90
        2
176
     1
 62
     7
176
     1
 90
        5
176
     1
 90
        0
176
     1
 90
        0
176
     1
290
     0
176
     1
 90
        1
176
     1
 40
0.0
176
     1
 90
        0
176
     1
290
     0
176
     1
290
     1
176
     1
290
     1
176
     1
290
     0
176
     1
290
     0
176
     1
290
     0
176
     1
290
     0
176
     1
290
     0
176
     1
290
     0
176
     1
 90
       50
176
     1
 40
0.0
176
     1
 40
1.0
176
     1
 90
        0
176
     1
 62
    18
420
        0
176
     1
 90
       50
176
     1
 90
        3
176
     1
 62
     5
420
      255
176
     1
290
     0
176
     1
 90
       50
176
     1
 90
       50
176
     1
 90
       50
176
     1
290
     0
176
     1
 90
       50
176
     1
 62
   256
176
     0
 40
1.0
176
     0
 90
        2
176
     1
  1
strokes_ogs.tif
176
     1
290
     0
176
     1
 40
1.0
176
     1
 40
1.0
176
     1
  0
VISUALSTYLE
  5
30
102
{ACAD_REACTORS
330
2A
102
}
330
2A
100
AcDbVisualStyle
  2
Wireframe
 70
     5
177
     3
291
     0
 70
    58
 90
        0
176
     1
 90
        2
176
     1
 90
        0
176
     1
 90
        0
176
     1
 40
0.6
176
     1
 40
30.0
176
     1
 62
     7
420
 16777215
176
     1
 90
        1
176
     1
 90
        4
176
     1
 62
     7
176
     1
 62
   257
176
     1
 90
        1
176
     1
 90
        1
176
     1
 40
1.0
176
     1
 90
        0
176
     1
 62
   257
176
     1
 40
1.0
176
     1
 90
        1
176
     1
 90
        6
176
     1
 90
        2
176
     1
 62
     7
176
     1
 90
        3
176
     1
 90
        0
176
     1
 90
        0
176
     1
290
     0
176
     1
 90
        1
176
     1
 40
0.0
176
     1
 90
        0
176
     1
290
     0
176
     1
290
     1
176
     1
290
     1
176
     1
290
     0
176
     1
290
     0
176
     1
290
     0
176
     1
290
     0
176
     1
290
     0
176
     1
290
     0
176
     1
 90
       50
176
     1
 40
0.0
176
     1
 40
1.0
176
     1
 90
        0
176
     1
 62
    18
420
        0
176
     1
 90
       50
176
     1
 90
        3
176
     1
 62
     5
420
      255
176
     1
290
     0
176
     1
 90
       50
176
     1
 90
       50
176
     1
 90
       50
176
     1
290
     0
176
     1
 90
       50
176
     1
 62
   256
176
     0
 40
1.0
176
     0
 90
        2
176
     1
  1
strokes_ogs.tif
176
     1
290
     0
176
     1
 40
1.0
176
     1
 40
1.0
176
     1
  0
VISUALSTYLE
  5
40
102
{ACAD_REACTORS
330
2A
102
}
330
2A
100
AcDbVisualStyle
  2
X-Ray
 70
    25
177
     3
291
     0
 70
    58
 90
        2
176
     1
 90
        2
176
     1
 90
        1
176
     1
 90
        1
176
     1
 40
0.5
176
     1
 40
30.0
176
     1
 62
     7
420
 16777215
176
     1
 90
        1
176
     1
 90
        0
176
     1
 62
     7
176
     1
 62
   257
176
     1
 90
        1
176
     1
 90
        1
176
     1
 40
1.0
176
     1
 90
        8
176
     1
 62
     7
176
     1
 40
1.0
176
     1
 90
        1
176
     1
 90
        6
176
     1
 90
        2
176
     1
 62
     7
176
     1
 90
        3
176
     1
 90
        0
176
     1
 90
        0
176
     1
290
     0
176
     1
 90
       13
176
     1
 40
0.0
176
     1
 90
        0
176
     1
290
     0
176
     1
290
     1
176
     1
290
     1
176
     1
290
     0
176
     1
290
     0
176
     1
290
     0
176
     1
290
     0
176
     1
290
     0
176
     1
290
     0
176
     1
 90
       50
176
     1
 40
0.0
176
     1
 40
1.0
176
     1
 90
        0
176
     1
 62
    18
420
        0
176
     1
 90
       50
176
     1
 90
        3
176
     1
 62
     5
420
      255
176
     1
290
     0
176
     1
 90
       50
176
     1
 90
       50
176
     1
 90
       50
176
     1
290
     0
176
     1
 90
       50
176
     1
 62
   256
176
     0
 40
1.0
176
     0
 90
        2
176
     1
  1
strokes_ogs.tif
176
     1
290
     0
176
     1
 40
1.0
176
     1
 40
1.0
176
     1
  0
DICTIONARYVAR
  5
BF
102
{ACAD_REACTORS
330
BE
102
}
330
BE
100
DictionaryVariables
280
     0
  1
1:1
  0
DICTIONARYVAR
  5
C7
102
{ACAD_REACTORS
330
BE
102
}
330
BE
100
DictionaryVariables
280
     0
  1
3.500000
  0
DICTIONARYVAR
  5
C8
102
{ACAD_REACTORS
330
BE
102
}
330
BE
100
DictionaryVariables
280
     0
  1
acadiso.lin
  0
DICTIONARYVAR
  5
C4
102
{ACAD_REACTORS
330
BE
102
}
330
BE
100
DictionaryVariables
280
     0
  1
Standard
  0
DICTIONARYVAR
  5
C3
102
{ACAD_REACTORS
330
BE
102
}
330
BE
100
DictionaryVariables
280
     0
  1
Standard
  0
DICTIONARY
  5
C0
330
5A
100
AcDbDictionary
280
     1
281
     1
  3
ACAD_ROUNDTRIP_2008_TABLESTYLE_CELLSTYLEMAP
360
C1
  0
CELLSTYLEMAP
  5
C1
102
{ACAD_REACTORS
330
C0
102
}
330
C0
100
AcDbCellStyleMap
 90
        3
300
CELLSTYLE
  1
TABLEFORMAT_BEGIN
 90
        5
170
     1
 91
        0
 92
    32768
 62
   257
 93
        1
300
CONTENTFORMAT
  1
CONTENTFORMAT_BEGIN
 90
        0
 91
        0
 92
        4
 93
        0
300

 40
0.0
140
1.0
 94
        5
 62
     0
340
11
144
6.0
309
CONTENTFORMAT_END
171
     1
301
MARGIN
  1
CELLMARGIN_BEGIN
 40
1.5
 40
1.5
 40
1.5
 40
1.5
 40
1.5
 40
1.5
309
CELLMARGIN_END
 94
        6
 95
        1
302
GRIDFORMAT
  1
GRIDFORMAT_BEGIN
 90
        0
 91
        1
 62
     0
 92
       -2
340
14
 93
        0
 40
0.045
309
GRIDFORMAT_END
 95
        2
302
GRIDFORMAT
  1
GRIDFORMAT_BEGIN
 90
        0
 91
        1
 62
     0
 92
       -2
340
14
 93
        0
 40
0.045
309
GRIDFORMAT_END
 95
        4
302
GRIDFORMAT
  1
GRIDFORMAT_BEGIN
 90
        0
 91
        1
 62
     0
 92
       -2
340
14
 93
        0
 40
0.045
309
GRIDFORMAT_END
 95
        8
302
GRIDFORMAT
  1
GRIDFORMAT_BEGIN
 90
        0
 91
        1
 62
     0
 92
       -2
340
14
 93
        0
 40
0.045
309
GRIDFORMAT_END
 95
       16
302
GRIDFORMAT
  1
GRIDFORMAT_BEGIN
 90
        0
 91
        1
 62
     0
 92
       -2
340
14
 93
        0
 40
0.045
309
GRIDFORMAT_END
 95
       32
302
GRIDFORMAT
  1
GRIDFORMAT_BEGIN
 90
        0
 91
        1
 62
     0
 92
       -2
340
14
 93
        0
 40
0.045
309
GRIDFORMAT_END
309
TABLEFORMAT_END
  1
CELLSTYLE_BEGIN
 90
        1
 91
        1
300
_TITLE
309
CELLSTYLE_END
300
CELLSTYLE
  1
TABLEFORMAT_BEGIN
 90
        5
170
     1
 91
        0
 92
        0
 62
   257
 93
        1
300
CONTENTFORMAT
  1
CONTENTFORMAT_BEGIN
 90
        0
 91
        0
 92
        4
 93
        0
300

 40
0.0
140
1.0
 94
        5
 62
     0
340
11
144
4.5
309
CONTENTFORMAT_END
171
     1
301
MARGIN
  1
CELLMARGIN_BEGIN
 40
1.5
 40
1.5
 40
1.5
 40
1.5
 40
1.5
 40
1.5
309
CELLMARGIN_END
 94
        6
 95
        1
302
GRIDFORMAT
  1
GRIDFORMAT_BEGIN
 90
        0
 91
        1
 62
     0
 92
       -2
340
14
 93
        0
 40
0.045
309
GRIDFORMAT_END
 95
        2
302
GRIDFORMAT
  1
GRIDFORMAT_BEGIN
 90
        0
 91
        1
 62
     0
 92
       -2
340
14
 93
        0
 40
0.045
309
GRIDFORMAT_END
 95
        4
302
GRIDFORMAT
  1
GRIDFORMAT_BEGIN
 90
        0
 91
        1
 62
     0
 92
       -2
340
14
 93
        0
 40
0.045
309
GRIDFORMAT_END
 95
        8
302
GRIDFORMAT
  1
GRIDFORMAT_BEGIN
 90
        0
 91
        1
 62
     0
 92
       -2
340
14
 93
        0
 40
0.045
309
GRIDFORMAT_END
 95
       16
302
GRIDFORMAT
  1
GRIDFORMAT_BEGIN
 90
        0
 91
        1
 62
     0
 92
       -2
340
14
 93
        0
 40
0.045
309
GRIDFORMAT_END
 95
       32
302
GRIDFORMAT
  1
GRIDFORMAT_BEGIN
 90
        0
 91
        1
 62
     0
 92
       -2
340
14
 93
        0
 40
0.045
309
GRIDFORMAT_END
309
TABLEFORMAT_END
  1
CELLSTYLE_BEGIN
 90
        2
 91
        1
300
_HEADER
309
CELLSTYLE_END
300
CELLSTYLE
  1
TABLEFORMAT_BEGIN
 90
        5
170
     1
 91
        0
 92
        0
 62
   257
 93
        1
300
CONTENTFORMAT
  1
CONTENTFORMAT_BEGIN
 90
        0
 91
        0
 92
        4
 93
        0
300

 40
0.0
140
1.0
 94
        2
 62
     0
340
11
144
4.5
309
CONTENTFORMAT_END
171
     1
301
MARGIN
  1
CELLMARGIN_BEGIN
 40
1.5
 40
1.5
 40
1.5
 40
1.5
 40
1.5
 40
1.5
309
CELLMARGIN_END
 94
        6
 95
        1
302
GRIDFORMAT
  1
GRIDFORMAT_BEGIN
 90
        0
 91
        1
 62
     0
 92
       -2
340
14
 93
        0
 40
0.045
309
GRIDFORMAT_END
 95
        2
302
GRIDFORMAT
  1
GRIDFORMAT_BEGIN
 90
        0
 91
        1
 62
     0
 92
       -2
340
14
 93
        0
 40
0.045
309
GRIDFORMAT_END
 95
        4
302
GRIDFORMAT
  1
GRIDFORMAT_BEGIN
 90
        0
 91
        1
 62
     0
 92
       -2
340
14
 93
        0
 40
0.045
309
GRIDFORMAT_END
 95
        8
302
GRIDFORMAT
  1
GRIDFORMAT_BEGIN
 90
        0
 91
        1
 62
     0
 92
       -2
340
14
 93
        0
 40
0.045
309
GRIDFORMAT_END
 95
       16
302
GRIDFORMAT
  1
GRIDFORMAT_BEGIN
 90
        0
 91
        1
 62
     0
 92
       -2
340
14
 93
        0
 40
0.045
309
GRIDFORMAT_END
 95
       32
302
GRIDFORMAT
  1
GRIDFORMAT_BEGIN
 90
        0
 91
        1
 62
     0
 92
       -2
340
14
 93
        0
 40
0.045
309
GRIDFORMAT_END
309
TABLEFORMAT_END
  1
CELLSTYLE_BEGIN
 90
        3
 91
        2
300
_DATA
309
CELLSTYLE_END
  0
ENDSEC
  0
EOF
