  0
SECTION
  2
HEADER
  9
$ACADVER
  1
AC1027
  9
$ACADMAINTVER
 70
   105
  9
$DWGCODEPAGE
  3
ANSI_932
  9
$LASTSAVEDBY
  1
a.yasuda
  9
$REQUIREDVERSIONS
160
                 0
  9
$INSBASE
 10
0.0
 20
0.0
 30
0.0
  9
$EXTMIN
 10
0.0
 20
0.0
 30
0.0
  9
$EXTMAX
 10
302.9997823349792
 20
216.0016055409748
 30
0.0
  9
$LIMMIN
 10
0.0
 20
0.0
  9
$LIMMAX
 10
302.9997823349792
 20
216.0016055409748
  9
$ORTHOMODE
 70
     0
  9
$REGENMODE
 70
     1
  9
$FILLMODE
 70
     1
  9
$QTEXTMODE
 70
     0
  9
$MIRRTEXT
 70
     1
  9
$LTSCALE
 40
1.0
  9
$ATTMODE
 70
     1
  9
$TEXTSIZE
 40
2.5
  9
$TRACEWID
 40
1.0
  9
$TEXTSTYLE
  7
Standard
  9
$CLAYER
  8
0
  9
$CELTYPE
  6
ByLayer
  9
$CECOLOR
 62
   256
  9
$CELTSCALE
 40
1.0
  9
$DISPSILH
 70
     0
  9
$DIMSCALE
 40
1.0
  9
$DIMASZ
 40
2.5
  9
$DIMEXO
 40
0.625
  9
$DIMDLI
 40
3.75
  9
$DIMRND
 40
0.0
  9
$DIMDLE
 40
0.0
  9
$DIMEXE
 40
1.25
  9
$DIMTP
 40
0.0
  9
$DIMTM
 40
0.0
  9
$DIMTXT
 40
2.5
  9
$DIMCEN
 40
2.5
  9
$DIMTSZ
 40
0.0
  9
$DIMTOL
 70
     0
  9
$DIMLIM
 70
     0
  9
$DIMTIH
 70
     0
  9
$DIMTOH
 70
     0
  9
$DIMSE1
 70
     0
  9
$DIMSE2
 70
     0
  9
$DIMTAD
 70
     1
  9
$DIMZIN
 70
     8
  9
$DIMBLK
  1

  9
$DIMASO
 70
     1
  9
$DIMSHO
 70
     1
  9
$DIMPOST
  1

  9
$DIMAPOST
  1

  9
$DIMALT
 70
     0
  9
$DIMALTD
 70
     3
  9
$DIMALTF
 40
0.03937007874016
  9
$DIMLFAC
 40
1.0
  9
$DIMTOFL
 70
     1
  9
$DIMTVP
 40
0.0
  9
$DIMTIX
 70
     0
  9
$DIMSOXD
 70
     0
  9
$DIMSAH
 70
     0
  9
$DIMBLK1
  1

  9
$DIMBLK2
  1

  9
$DIMSTYLE
  2
ISO-25
  9
$DIMCLRD
 70
     0
  9
$DIMCLRE
 70
     0
  9
$DIMCLRT
 70
     0
  9
$DIMTFAC
 40
1.0
  9
$DIMGAP
 40
0.625
  9
$DIMJUST
 70
     0
  9
$DIMSD1
 70
     0
  9
$DIMSD2
 70
     0
  9
$DIMTOLJ
 70
     0
  9
$DIMTZIN
 70
     8
  9
$DIMALTZ
 70
     0
  9
$DIMALTTZ
 70
     0
  9
$DIMUPT
 70
     0
  9
$DIMDEC
 70
     2
  9
$DIMTDEC
 70
     2
  9
$DIMALTU
 70
     2
  9
$DIMALTTD
 70
     3
  9
$DIMTXSTY
  7
Standard
  9
$DIMAUNIT
 70
     0
  9
$DIMADEC
 70
     0
  9
$DIMALTRND
 40
0.0
  9
$DIMAZIN
 70
     0
  9
$DIMDSEP
 70
    44
  9
$DIMATFIT
 70
     3
  9
$DIMFRAC
 70
     0
  9
$DIMLDRBLK
  1

  9
$DIMLUNIT
 70
     2
  9
$DIMLWD
 70
    -2
  9
$DIMLWE
 70
    -2
  9
$DIMTMOVE
 70
     0
  9
$DIMFXL
 40
1.0
  9
$DIMFXLON
 70
     0
  9
$DIMJOGANG
 40
0.7853981633974483
  9
$DIMTFILL
 70
     0
  9
$DIMTFILLCLR
 70
     0
  9
$DIMARCSYM
 70
     0
  9
$DIMLTYPE
  6

  9
$DIMLTEX1
  6

  9
$DIMLTEX2
  6

  9
$DIMTXTDIRECTION
 70
     0
  9
$LUNITS
 70
     2
  9
$LUPREC
 70
     4
  9
$SKETCHINC
 40
1.0
  9
$FILLETRAD
 40
0.0
  9
$AUNITS
 70
     0
  9
$AUPREC
 70
     0
  9
$MENU
  1
.
  9
$ELEVATION
 40
0.0
  9
$PELEVATION
 40
0.0
  9
$THICKNESS
 40
0.0
  9
$LIMCHECK
 70
     0
  9
$CHAMFERA
 40
0.0
  9
$CHAMFERB
 40
0.0
  9
$CHAMFERC
 40
0.0
  9
$CHAMFERD
 40
0.0
  9
$SKPOLY
 70
     0
  9
$TDCREATE
 40
2459866.620507269
  9
$TDUCREATE
 40
2459866.245507269
  9
$TDUPDATE
 40
2459866.620507326
  9
$TDUUPDATE
 40
2459866.245507326
  9
$TDINDWG
 40
0.0000000116
  9
$TDUSRTIMER
 40
0.0000000116
  9
$USRTIMER
 70
     1
  9
$ANGBASE
 50
0.0
  9
$ANGDIR
 70
     0
  9
$PDMODE
 70
     0
  9
$PDSIZE
 40
0.0
  9
$PLINEWID
 40
0.0
  9
$SPLFRAME
 70
     0
  9
$SPLINETYPE
 70
     6
  9
$SPLINESEGS
 70
     8
  9
$HANDSEED
  5
D8
  9
$SURFTAB1
 70
     6
  9
$SURFTAB2
 70
     6
  9
$SURFTYPE
 70
     6
  9
$SURFU
 70
     6
  9
$SURFV
 70
     6
  9
$UCSBASE
  2

  9
$UCSNAME
  2

  9
$UCSORG
 10
0.0
 20
0.0
 30
0.0
  9
$UCSXDIR
 10
1.0
 20
0.0
 30
0.0
  9
$UCSYDIR
 10
0.0
 20
1.0
 30
0.0
  9
$UCSORTHOREF
  2

  9
$UCSORTHOVIEW
 70
     0
  9
$UCSORGTOP
 10
0.0
 20
0.0
 30
0.0
  9
$UCSORGBOTTOM
 10
0.0
 20
0.0
 30
0.0
  9
$UCSORGLEFT
 10
0.0
 20
0.0
 30
0.0
  9
$UCSORGRIGHT
 10
0.0
 20
0.0
 30
0.0
  9
$UCSORGFRONT
 10
0.0
 20
0.0
 30
0.0
  9
$UCSORGBACK
 10
0.0
 20
0.0
 30
0.0
  9
$PUCSBASE
  2

  9
$PUCSNAME
  2

  9
$PUCSORG
 10
0.0
 20
0.0
 30
0.0
  9
$PUCSXDIR
 10
1.0
 20
0.0
 30
0.0
  9
$PUCSYDIR
 10
0.0
 20
1.0
 30
0.0
  9
$PUCSORTHOREF
  2

  9
$PUCSORTHOVIEW
 70
     0
  9
$PUCSORGTOP
 10
0.0
 20
0.0
 30
0.0
  9
$PUCSORGBOTTOM
 10
0.0
 20
0.0
 30
0.0
  9
$PUCSORGLEFT
 10
0.0
 20
0.0
 30
0.0
  9
$PUCSORGRIGHT
 10
0.0
 20
0.0
 30
0.0
  9
$PUCSORGFRONT
 10
0.0
 20
0.0
 30
0.0
  9
$PUCSORGBACK
 10
0.0
 20
0.0
 30
0.0
  9
$USERI1
 70
     0
  9
$USERI2
 70
     0
  9
$USERI3
 70
     0
  9
$USERI4
 70
     0
  9
$USERI5
 70
     0
  9
$USERR1
 40
0.0
  9
$USERR2
 40
0.0
  9
$USERR3
 40
0.0
  9
$USERR4
 40
0.0
  9
$USERR5
 40
0.0
  9
$WORLDVIEW
 70
     1
  9
$SHADEDGE
 70
     3
  9
$SHADEDIF
 70
    70
  9
$TILEMODE
 70
     1
  9
$MAXACTVP
 70
    64
  9
$PINSBASE
 10
0.0
 20
0.0
 30
0.0
  9
$PLIMCHECK
 70
     0
  9
$PEXTMIN
 10
1.000000000000000E+20
 20
1.000000000000000E+20
 30
1.000000000000000E+20
  9
$PEXTMAX
 10
-1.000000000000000E+20
 20
-1.000000000000000E+20
 30
-1.000000000000000E+20
  9
$PLIMMIN
 10
0.0
 20
0.0
  9
$PLIMMAX
 10
420.0
 20
297.0
  9
$UNITMODE
 70
     0
  9
$VISRETAIN
 70
     1
  9
$PLINEGEN
 70
     0
  9
$PSLTSCALE
 70
     1
  9
$TREEDEPTH
 70
  3020
  9
$CMLSTYLE
  2
Standard
  9
$CMLJUST
 70
     0
  9
$CMLSCALE
 40
20.0
  9
$PROXYGRAPHICS
 70
     1
  9
$MEASUREMENT
 70
     1
  9
$CELWEIGHT
370
    -1
  9
$ENDCAPS
280
     0
  9
$JOINSTYLE
280
     0
  9
$LWDISPLAY
290
     0
  9
$INSUNITS
 70
     4
  9
$HYPERLINKBASE
  1

  9
$STYLESHEET
  1

  9
$XEDIT
290
     1
  9
$CEPSNTYPE
380
     0
  9
$PSTYLEMODE
290
     1
  9
$FINGERPRINTGUID
  2
{52a3e902-8ce6-4087-893b-160983f4621d}
  9
$VERSIONGUID
  2
{FAEB1C32-E019-11D5-929B-00C0DF256EC4}
  9
$EXTNAMES
290
     1
  9
$PSVPSCALE
 40
0.0
  9
$OLESTARTUP
290
     0
  9
$SORTENTS
280
   127
  9
$INDEXCTL
280
     0
  9
$HIDETEXT
280
     1
  9
$XCLIPFRAME
280
     2
  9
$HALOGAP
280
     0
  9
$OBSCOLOR
 70
   257
  9
$OBSLTYPE
280
     0
  9
$INTERSECTIONDISPLAY
280
     0
  9
$INTERSECTIONCOLOR
 70
   257
  9
$DIMASSOC
280
     2
  9
$PROJECTNAME
  1

  9
$CAMERADISPLAY
290
     0
  9
$LENSLENGTH
 40
50.0
  9
$CAMERAHEIGHT
 40
0.0
  9
$STEPSPERSEC
 40
2.0
  9
$STEPSIZE
 40
6.0
  9
$3DDWFPREC
 40
2.0
  9
$PSOLWIDTH
 40
5.0
  9
$PSOLHEIGHT
 40
80.0
  9
$LOFTANG1
 40
1.570796326794897
  9
$LOFTANG2
 40
1.570796326794897
  9
$LOFTMAG1
 40
0.0
  9
$LOFTMAG2
 40
0.0
  9
$LOFTPARAM
 70
     7
  9
$LOFTNORMALS
280
     1
  9
$LATITUDE
 40
37.795
  9
$LONGITUDE
 40
-122.394
  9
$NORTHDIRECTION
 40
0.0
  9
$TIMEZONE
 70
 -8000
  9
$LIGHTGLYPHDISPLAY
280
     1
  9
$TILEMODELIGHTSYNCH
280
     1
  9
$CMATERIAL
347
44
  9
$SOLIDHIST
280
     0
  9
$SHOWHIST
280
     1
  9
$DWFFRAME
280
     2
  9
$DGNFRAME
280
     2
  9
$REALWORLDSCALE
290
     1
  9
$INTERFERECOLOR
 62
   256
  9
$CSHADOW
280
     0
  9
$SHADOWPLANELOCATION
 40
0.0
  0
ENDSEC
  0
SECTION
  2
CLASSES
  0
CLASS
  1
ACDBDICTIONARYWDFLT
  2
AcDbDictionaryWithDefault
  3
ObjectDBX Classes
 90
        0
 91
        3
280
     0
281
     0
  0
CLASS
  1
VISUALSTYLE
  2
AcDbVisualStyle
  3
ObjectDBX Classes
 90
     4095
 91
        3
280
     0
281
     0
  0
CLASS
  1
MATERIAL
  2
AcDbMaterial
  3
ObjectDBX Classes
 90
     1153
 91
        3
280
     0
281
     0
  0
CLASS
  1
SCALE
  2
AcDbScale
  3
ObjectDBX Classes
 90
     1153
 91
        3
280
     0
281
     0
  0
CLASS
  1
TABLESTYLE
  2
AcDbTableStyle
  3
ObjectDBX Classes
 90
     4095
 91
        3
280
     0
281
     0
  0
CLASS
  1
MLEADERSTYLE
  2
AcDbMLeaderStyle
  3
ACDB_MLEADERSTYLE_CLASS
 90
     4095
 91
        3
280
     0
281
     0
  0
CLASS
  1
SUN
  2
AcDbSun
  3
SCENEOE
 90
     1153
 91
        3
280
     0
281
     0
  0
CLASS
  1
DICTIONARYVAR
  2
AcDbDictionaryVar
  3
ObjectDBX Classes
 90
        0
 91
        3
280
     0
281
     0
  0
CLASS
  1
CELLSTYLEMAP
  2
AcDbCellStyleMap
  3
ObjectDBX Classes
 90
     1152
 91
        3
280
     0
281
     0
  0
ENDSEC
  0
SECTION
  2
TABLES
  0
TABLE
  2
VPORT
  5
8
330
0
100
AcDbSymbolTable
 70
     1
  0
VPORT
  5
29
330
8
100
AcDbSymbolTableRecord
100
AcDbViewportTableRecord
  2
*Active
 70
     0
 10
0.0
 20
0.0
 11
1.0
 21
1.0
 12
151.4998911674896
 22
108.0008027704874
 13
0.0
 23
0.0
 14
10.0
 24
10.0
 15
10.0
 25
10.0
 16
0.0
 26
0.0
 36
1.0
 17
0.0
 27
0.0
 37
0.0
 40
237.6017660950723
 41
1.402766343222857
 42
50.0
 43
0.0
 44
0.0
 50
0.0
 51
0.0
 71
     0
 72
 10000
 73
     1
 74
     3
 75
     0
 76
     0
 77
     0
 78
     0
281
     0
 65
     1
110
0.0
120
0.0
130
0.0
111
1.0
121
0.0
131
0.0
112
0.0
122
1.0
132
0.0
 79
     0
146
0.0
348
2F
 60
     3
 61
     5
292
     1
282
     1
141
0.0
142
0.0
 63
   250
361
5D
  0
ENDTAB
  0
TABLE
  2
LTYPE
  5
5
330
0
100
AcDbSymbolTable
 70
     2
  0
LTYPE
  5
14
330
5
100
AcDbSymbolTableRecord
100
AcDbLinetypeTableRecord
  2
ByBlock
 70
     0
  3

 72
    65
 73
     0
 40
0.0
  0
LTYPE
  5
15
330
5
100
AcDbSymbolTableRecord
100
AcDbLinetypeTableRecord
  2
ByLayer
 70
     0
  3

 72
    65
 73
     0
 40
0.0
  0
LTYPE
  5
16
330
5
100
AcDbSymbolTableRecord
100
AcDbLinetypeTableRecord
  2
Continuous
 70
     0
  3
Solid line
 72
    65
 73
     0
 40
0.0
  0
LTYPE
  5
5F
330
5
100
AcDbSymbolTableRecord
100
AcDbLinetypeTableRecord
  2
UserDefined01
 70
     0
  3
----------------                
 72
    65
 73
     2
 40
0.7055555449591743
 49
0.3527777724795871
 74
     0
 49
-0.3527777724795871
 74
     0
  0
ENDTAB
  0
TABLE
  2
LAYER
  5
2
330
0
100
AcDbSymbolTable
 70
     4
  0
LAYER
  5
10
330
2
100
AcDbSymbolTableRecord
100
AcDbLayerTableRecord
  2
0
 70
     0
 62
     7
  6
Continuous
370
    -3
390
F
347
46
348
0
  0
LAYER
  5
60
330
2
100
AcDbSymbolTableRecord
100
AcDbLayerTableRecord
  2
外枠
 70
     0
 62
     7
  6
Continuous
370
    -3
390
F
347
46
348
0
  0
LAYER
  5
61
330
2
100
AcDbSymbolTableRecord
100
AcDbLayerTableRecord
  2
レイヤー_2
 70
     0
 62
     7
  6
Continuous
370
    -3
390
F
347
46
348
0
  0
LAYER
  5
62
330
2
100
AcDbSymbolTableRecord
100
AcDbLayerTableRecord
  2
ISS138金台
 70
     0
 62
     7
  6
Continuous
370
    -3
390
F
347
46
348
0
  0
ENDTAB
  0
TABLE
  2
STYLE
  5
3
330
0
100
AcDbSymbolTable
 70
     2
  0
STYLE
  5
11
330
3
100
AcDbSymbolTableRecord
100
AcDbTextStyleTableRecord
  2
Standard
 70
     0
 40
0.0
 41
1.0
 50
0.0
 71
     0
 42
2.5
  3

  4

  0
STYLE
  5
5E
330
3
100
AcDbSymbolTableRecord
100
AcDbTextStyleTableRecord
  2
MS Gothic
 70
     0
 40
1.0
 41
1.0
 50
0.0
 71
     0
 42
2.5
  3
msgothic.ttc
  4

1001
ACAD
1000
MS Gothic
1071
    32817
  0
ENDTAB
  0
TABLE
  2
VIEW
  5
6
330
0
100
AcDbSymbolTable
 70
     0
  0
ENDTAB
  0
TABLE
  2
UCS
  5
7
330
0
100
AcDbSymbolTable
 70
     0
  0
ENDTAB
  0
TABLE
  2
APPID
  5
9
330
0
100
AcDbSymbolTable
 70
     1
  0
APPID
  5
12
330
9
100
AcDbSymbolTableRecord
100
AcDbRegAppTableRecord
  2
ACAD
 70
     0
  0
ENDTAB
  0
TABLE
  2
DIMSTYLE
  5
A
330
0
100
AcDbSymbolTable
 70
     1
100
AcDbDimStyleTable
  0
DIMSTYLE
105
27
330
A
100
AcDbSymbolTableRecord
100
AcDbDimStyleTableRecord
  2
ISO-25
 70
     0
 41
2.5
 42
0.625
 43
3.75
 44
1.25
 73
     0
 74
     0
 77
     1
 78
     8
140
2.5
141
2.5
143
0.03937007874016
147
0.625
171
     3
172
     1
178
     0
271
     2
272
     2
274
     3
278
    44
283
     0
284
     8
340
11
  0
ENDTAB
  0
TABLE
  2
BLOCK_RECORD
  5
1
330
0
100
AcDbSymbolTable
 70
     1
  0
BLOCK_RECORD
  5
1F
330
1
100
AcDbSymbolTableRecord
100
AcDbBlockTableRecord
  2
*Model_Space
340
22
 70
     0
280
     1
281
     0
  0
BLOCK_RECORD
  5
1B
330
1
100
AcDbSymbolTableRecord
100
AcDbBlockTableRecord
  2
*Paper_Space
340
1E
 70
     0
280
     1
281
     0
  0
BLOCK_RECORD
  5
23
330
1
100
AcDbSymbolTableRecord
100
AcDbBlockTableRecord
  2
*Paper_Space0
340
26
 70
     0
280
     1
281
     0
  0
ENDTAB
  0
ENDSEC
  0
SECTION
  2
BLOCKS
  0
BLOCK
  5
20
330
1F
100
AcDbEntity
  8
0
100
AcDbBlockBegin
  2
*Model_Space
 70
     0
 10
0.0
 20
0.0
 30
0.0
  3
*Model_Space
  1

  0
ENDBLK
  5
21
330
1F
100
AcDbEntity
  8
0
100
AcDbBlockEnd
  0
BLOCK
  5
1C
330
1B
100
AcDbEntity
 67
     1
  8
0
100
AcDbBlockBegin
  2
*Paper_Space
 70
     0
 10
0.0
 20
0.0
 30
0.0
  3
*Paper_Space
  1

  0
ENDBLK
  5
1D
330
1B
100
AcDbEntity
 67
     1
  8
0
100
AcDbBlockEnd
  0
BLOCK
  5
24
330
23
100
AcDbEntity
  8
0
100
AcDbBlockBegin
  2
*Paper_Space0
 70
     0
 10
0.0
 20
0.0
 30
0.0
  3
*Paper_Space0
  1

  0
ENDBLK
  5
25
330
23
100
AcDbEntity
  8
0
100
AcDbBlockEnd
  0
ENDSEC
  0
SECTION
  2
ENTITIES
  0
LWPOLYLINE
  5
63
330
1F
100
AcDbEntity
  8
外枠
  6
Continuous
 62
   250
420
  2367521
370
   100
100
AcDbPolyline
 90
        5
 70
     0
 43
0.0
 10
281.9999662644599
 20
13.29407825637392
 10
20.99981607051935
 20
13.29407825637392
 10
20.99981607051935
 20
193.0018900389566
 10
281.9999662644599
 20
193.0018900389566
 10
281.9999662644599
 20
13.29407825637392
  0
LINE
  5
64
330
1F
100
AcDbEntity
  8
外枠
  6
Continuous
 62
   250
420
  2367521
370
    25
100
AcDbLine
 10
223.3097080177524
 20
174.0786160074276
 30
0.0
 11
281.9999232007669
 21
174.0786160074276
 31
0.0
  0
LINE
  5
65
330
1F
100
AcDbEntity
  8
外枠
  6
Continuous
 62
   250
420
  2367521
370
    25
100
AcDbLine
 10
223.3097080177524
 20
50.37109023844297
 30
0.0
 11
281.9999232007669
 21
50.37109023844297
 31
0.0
  0
LINE
  5
66
330
1F
100
AcDbEntity
  8
外枠
  6
Continuous
 62
   250
420
  2367521
370
    25
100
AcDbLine
 10
223.3097080177524
 20
36.25997933925949
 30
0.0
 11
281.9999232007669
 21
36.25997933925949
 31
0.0
  0
LINE
  5
67
330
1F
100
AcDbEntity
  8
外枠
  6
Continuous
 62
   250
420
  2367521
370
    50
100
AcDbLine
 10
223.0158413772006
 20
193.3637327187979
 30
0.0
 11
223.0158413772006
 21
13.29396655992039
 31
0.0
  0
TEXT
  5
68
330
1F
100
AcDbEntity
  8
外枠
  6
Continuous
 62
   250
420
  2367521
100
AcDbText
 10
224.7190965599536
 20
186.6888051931772
 30
0.0
 40
2.688166626294454
  1
品名：
 41
0.974166170756022
  7
MS Gothic
100
AcDbText
  0
TEXT
  5
69
330
1F
100
AcDbEntity
  8
外枠
  6
Continuous
 62
   250
420
  2367521
100
AcDbText
 10
224.7190965599536
 20
168.1080059455944
 30
0.0
 40
2.688166626294454
  1
仕様：
 41
0.9978878657023111
  7
MS Gothic
100
AcDbText
  0
TEXT
  5
6A
330
1F
100
AcDbEntity
  8
外枠
  6
Continuous
 62
   250
420
  2367521
100
AcDbText
 10
224.7190965599536
 20
44.16660664327048
 30
0.0
 40
2.688166626294454
  1
縮尺：
 41
0.9939999262491861
  7
MS Gothic
100
AcDbText
  0
TEXT
  5
6B
330
1F
100
AcDbEntity
  8
外枠
  6
Continuous
 62
   250
420
  2367521
100
AcDbText
 10
250.2379519709696
 20
40.59738467878129
 30
0.0
 40
2.150533301035563
  1
1/1
 41
1.000003814697266
  7
MS Gothic
100
AcDbText
  0
TEXT
  5
6C
330
1F
100
AcDbEntity
  8
外枠
  6
Continuous
 62
   250
420
  2367521
100
AcDbText
 10
232.657974478918
 20
156.9052368606422
 30
0.0
 40
2.016124969720841
  1
金台：
 41
1.494500562879774
  7
MS Gothic
100
AcDbText
  0
TEXT
  5
6D
330
1F
100
AcDbEntity
  8
外枠
  6
Continuous
 62
   250
420
  2367521
100
AcDbText
 10
243.4900220118208
 20
156.9052368606422
 30
0.0
 40
2.016124969720841
  1
アルミ押出形材（A6063S-T5）
 41
1.033106825086805
  7
MS Gothic
100
AcDbText
  0
TEXT
  5
6E
330
1F
100
AcDbEntity
  8
外枠
  6
Continuous
 62
   250
420
  2367521
100
AcDbText
 10
243.3259708736053
 20
152.6719035908871
 30
0.0
 40
2.016124969720841
  1
アンバー
 41
1.043984731038411
  7
MS Gothic
100
AcDbText
  0
TEXT
  5
6F
330
1F
100
AcDbEntity
  8
外枠
  6
Continuous
 62
   250
420
  2367521
100
AcDbText
 10
253.9093040479929
 20
152.6719035908871
 30
0.0
 40
2.016124969720841
  1
仕上（アルマイト）
 41
1.021342750831886
  7
MS Gothic
100
AcDbText
  0
TEXT
  5
70
330
1F
100
AcDbEntity
  8
外枠
  6
Continuous
 62
   250
420
  2367521
100
AcDbText
 10
232.7757967427735
 20
181.9845273775436
 30
0.0
 40
2.688166626294454
  1
ハガタ　ISAN-40(U)DT
 41
1.040400009155273
  7
MS Gothic
100
AcDbText
  0
TEXT
  5
71
330
1F
100
AcDbEntity
  8
外枠
  6
Continuous
 62
   250
420
  2367521
100
AcDbText
 10
232.657974478918
 20
129.9762931224148
 30
0.0
 40
2.016124969720841
  1
IS-13  グレー
 41
0.90473398061899
  7
MS Gothic
100
AcDbText
  0
TEXT
  5
72
330
1F
100
AcDbEntity
  8
外枠
  6
Continuous
 62
   250
420
  2367521
100
AcDbText
 10
232.657974478918
 20
124.684626535221
 30
0.0
 40
2.016124969720841
  1
IS-14  ダークグレー
 41
0.9366206654331138
  7
MS Gothic
100
AcDbText
  0
TEXT
  5
73
330
1F
100
AcDbEntity
  8
外枠
  6
Continuous
 62
   250
420
  2367521
100
AcDbText
 10
232.657974478918
 20
119.3929599480272
 30
0.0
 40
2.016124969720841
  1
IS-20  ブラック
 41
0.911960788302951
  7
MS Gothic
100
AcDbText
  0
TEXT
  5
74
330
1F
100
AcDbEntity
  8
外枠
  6
Continuous
 62
   250
420
  2367521
100
AcDbText
 10
232.657974478918
 20
114.1012933608334
 30
0.0
 40
2.016124969720841
  1
IS-16  ベージュ
 41
0.9228807915581594
  7
MS Gothic
100
AcDbText
  0
TEXT
  5
75
330
1F
100
AcDbEntity
  8
外枠
  6
Continuous
 62
   250
420
  2367521
100
AcDbText
 10
232.657974478918
 20
108.8096267736396
 30
0.0
 40
2.016124969720841
  1
IS-18  ブラウン
 41
0.9214809841579858
  7
MS Gothic
100
AcDbText
  0
TEXT
  5
76
330
1F
100
AcDbEntity
  8
外枠
  6
Continuous
 62
   250
420
  2367521
100
AcDbText
 10
232.657974478918
 20
103.5179601864457
 30
0.0
 40
2.016124969720841
  1
IS-21  チョコレート
 41
0.9285238701000545
  7
MS Gothic
100
AcDbText
  0
TEXT
  5
77
330
1F
100
AcDbEntity
  8
外枠
  6
Continuous
 62
   250
420
  2367521
100
AcDbText
 10
232.657974478918
 20
98.22629359925195
 30
0.0
 40
2.016124969720841
  1
IS-12  ワインレッド
 41
0.9415448105126094
  7
MS Gothic
100
AcDbText
  0
TEXT
  5
78
330
1F
100
AcDbEntity
  8
外枠
  6
Continuous
 62
   250
420
  2367521
100
AcDbText
 10
232.657974478918
 20
92.93462701205813
 30
0.0
 40
2.016124969720841
  1
IS-6   グリーン
 41
0.8741602918836803
  7
MS Gothic
100
AcDbText
  0
TEXT
  5
79
330
1F
100
AcDbEntity
  8
外枠
  6
Continuous
 62
   250
420
  2367521
100
AcDbText
 10
232.657974478918
 20
87.64296580782595
 30
0.0
 40
2.016124969720841
  1
IS-15  シャドーブルー
 41
0.9429933578249006
  7
MS Gothic
100
AcDbText
  0
TEXT
  5
7A
330
1F
100
AcDbEntity
  8
外枠
  6
Continuous
 62
   250
420
  2367521
100
AcDbText
 10
232.657974478918
 20
82.35129922063214
 30
0.0
 40
2.016124969720841
  1
IS-9   マスタードイエロー
 41
0.924693196614583
  7
MS Gothic
100
AcDbText
  0
TEXT
  5
7B
330
1F
100
AcDbEntity
  8
外枠
  6
Continuous
 62
   250
420
  2367521
100
AcDbText
 10
226.1633020978884
 20
24.25683874973963
 30
0.0
 40
2.553758294979732
  1
ヤスダインテリアサプライ株式会社
 41
1.0194908945184
  7
MS Gothic
100
AcDbText
  0
TEXT
  5
7C
330
1F
100
AcDbEntity
  8
外枠
  6
Continuous
 62
   250
420
  2367521
100
AcDbText
 10
227.7635273953072
 20
135.3178613140838
 30
0.0
 40
2.150533301035563
  1
タイヤカラー
 41
1.008334398269653
  7
MS Gothic
100
AcDbText
  0
TEXT
  5
7D
330
1F
100
AcDbEntity
  8
外枠
  6
Continuous
 62
   250
420
  2367521
100
AcDbText
 10
227.7635273953072
 20
161.7761942500528
 30
0.0
 40
2.150533301035563
  1
材質
 41
1.028502464294433
  7
MS Gothic
100
AcDbText
  0
TEXT
  5
7E
330
1F
100
AcDbEntity
  8
レイヤー_2
  6
Continuous
 62
   250
420
  2367521
100
AcDbText
 10
232.657974478918
 20
148.2620091801205
 30
0.0
 40
2.016124969720841
  1
タイヤ：  （非塩ビ）オレフィン系
 41
0.9251073837280269
  7
MS Gothic
100
AcDbText
  0
TEXT
  5
7F
330
1F
100
AcDbEntity
  8
レイヤー_2
  6
Continuous
 62
   250
420
  2367521
100
AcDbText
 10
232.657974478918
 20
144.0286759103655
 30
0.0
 40
2.016124969720841
  1
                   熱可塑性エラストマー/
 41
0.7486498514811195
  7
MS Gothic
100
AcDbText
  0
TEXT
  5
80
330
1F
100
AcDbEntity
  8
レイヤー_2
  6
Continuous
 62
   250
420
  2367521
100
AcDbText
 10
232.657974478918
 20
139.7953426406104
 30
0.0
 40
2.016124969720841
  1
　　　　 アクリル系両面テープ
 41
0.9977381914511492
  7
MS Gothic
100
AcDbText
  0
HATCH
  5
81
330
1F
100
AcDbEntity
  8
ISS138金台
  6
Continuous
 62
   254
420
 13816532
370
    50
100
AcDbHatch
 10
0.0
 20
0.0
 30
0.0
210
0.0
220
0.0
230
1.0
  2
SOLID
 70
     1
 71
     0
 91
        1
 92
        3
 72
     0
 73
     1
 93
       25
 10
104.8172008455084
 20
102.7427581615484
 10
104.8172008455084
 20
102.7427581615484
 10
104.8612980670684
 20
104.7493539972978
 10
106.7468956916087
 20
104.7271331317461
 10
106.7468956916087
 20
105.7413692276249
 10
111.3330067338433
 20
105.7413692276249
 10
111.3330067338433
 20
104.7271331317461
 10
113.2732844824811
 20
104.7493539972978
 10
113.2732844824811
 20
105.7413692276249
 10
117.7712010815958
 20
105.7413692276249
 10
117.7712010815958
 20
104.7271331317461
 10
119.8878677164733
 20
104.7271331317461
 10
119.8878677164733
 20
105.7413692276249
 10
124.2972345970015
 20
105.7413692276249
 10
124.2972345970015
 20
104.7271331317461
 10
126.5144441889465
 20
104.7271331317461
 10
126.413901231879
 20
105.7413692276249
 10
130.8239786633405
 20
105.7413692276249
 10
130.8239786633405
 20
104.7229021239157
 10
132.7642564119782
 20
104.7229021239157
 10
132.7642564119782
 20
105.7371382197946
 10
137.3503674542129
 20
105.7371382197946
 10
137.3503674542129
 20
104.7229021239157
 10
139.752783223525
 20
104.7229021239157
 10
139.752783223525
 20
102.7427581615484
 97
        0
 75
     1
 76
     1
 98
        0
  0
LWPOLYLINE
  5
82
330
1F
100
AcDbEntity
  8
ISS138金台
  6
Continuous
 62
   254
420
 13816532
370
    50
100
AcDbPolyline
 90
       26
 70
     0
 43
0.0
 10
104.8172008455084
 20
102.7427581615484
 10
104.8172008455084
 20
102.7427581615484
 10
104.8612980670684
 20
104.7493539972978
 10
106.7468956916087
 20
104.7271331317461
 10
106.7468956916087
 20
105.7413692276249
 10
111.3330067338433
 20
105.7413692276249
 10
111.3330067338433
 20
104.7271331317461
 10
113.2732844824811
 20
104.7493539972978
 10
113.2732844824811
 20
105.7413692276249
 10
117.7712010815958
 20
105.7413692276249
 10
117.7712010815958
 20
104.7271331317461
 10
119.8878677164733
 20
104.7271331317461
 10
119.8878677164733
 20
105.7413692276249
 10
124.2972345970015
 20
105.7413692276249
 10
124.2972345970015
 20
104.7271331317461
 10
126.5144441889465
 20
104.7271331317461
 10
126.413901231879
 20
105.7413692276249
 10
130.8239786633405
 20
105.7413692276249
 10
130.8239786633405
 20
104.7229021239157
 10
132.7642564119782
 20
104.7229021239157
 10
132.7642564119782
 20
105.7371382197946
 10
137.3503674542129
 20
105.7371382197946
 10
137.3503674542129
 20
104.7229021239157
 10
139.752783223525
 20
104.7229021239157
 10
139.752783223525
 20
102.7427581615484
 10
104.8172008455084
 20
102.7427581615484
  0
LWPOLYLINE
  5
83
330
1F
100
AcDbEntity
  8
ISS138金台
  6
Continuous
 62
   250
420
  2367521
370
    25
100
AcDbPolyline
 90
       26
 70
     0
 43
0.0
 10
104.8172008455084
 20
102.7427581615484
 10
104.8172008455084
 20
102.7427581615484
 10
104.8612980670684
 20
104.7493539972978
 10
106.7468956916087
 20
104.7271331317461
 10
106.7468956916087
 20
105.7413692276249
 10
111.3330067338433
 20
105.7413692276249
 10
111.3330067338433
 20
104.7271331317461
 10
113.2732844824811
 20
104.7493539972978
 10
113.2732844824811
 20
105.7413692276249
 10
117.7712010815958
 20
105.7413692276249
 10
117.7712010815958
 20
104.7271331317461
 10
119.8878677164733
 20
104.7271331317461
 10
119.8878677164733
 20
105.7413692276249
 10
124.2972345970015
 20
105.7413692276249
 10
124.2972345970015
 20
104.7271331317461
 10
126.5144441889465
 20
104.7271331317461
 10
126.413901231879
 20
105.7413692276249
 10
130.8239786633405
 20
105.7413692276249
 10
130.8239786633405
 20
104.7229021239157
 10
132.7642564119782
 20
104.7229021239157
 10
132.7642564119782
 20
105.7371382197946
 10
137.3503674542129
 20
105.7371382197946
 10
137.3503674542129
 20
104.7229021239157
 10
139.752783223525
 20
104.7229021239157
 10
139.752783223525
 20
102.7427581615484
 10
104.8172008455084
 20
102.7427581615484
  0
LINE
  5
84
330
1F
100
AcDbEntity
  8
ISS138金台
  6
Continuous
 62
   250
420
  2367521
370
    25
100
AcDbLine
 10
104.6752736795356
 20
115.0195279967011
 30
0.0
 11
104.6752736795356
 21
128.0193910657585
 31
0.0
  0
LINE
  5
85
330
1F
100
AcDbEntity
  8
ISS138金台
  6
Continuous
 62
   250
420
  2367521
370
    25
100
AcDbLine
 10
104.2122420872329
 20
128.0193802998353
 30
0.0
 11
104.2122420872329
 21
115.0195172307779
 31
0.0
  0
LWPOLYLINE
  5
86
330
1F
100
AcDbEntity
  8
ISS138金台
  6
Continuous
 62
   250
420
  2367521
370
    25
100
AcDbPolyline
 90
        2
 70
     0
 43
0.0
 10
104.6753059773053
 20
128.0194771931444
 10
104.6753059773053
 20
115.0196141240869
  0
LWPOLYLINE
  5
87
330
1F
100
AcDbEntity
  8
ISS138金台
  6
Continuous
 62
   250
420
  2367521
370
    25
100
AcDbPolyline
 90
       36
 70
     0
 43
0.0
 10
106.8656976544783
 20
115.0196141240869
 10
106.8656976544783
 20
115.0203246750203
 10
106.8773033197229
 20
115.2502632634181
 10
106.9113882326767
 20
115.4736023408744
 10
106.9668435032468
 20
115.6891468899105
 10
107.042495645801
 20
115.8957987863566
 10
107.1372250043229
 20
116.0924168423501
 10
107.2499226887198
 20
116.2778814018748
 10
107.3794259792824
 20
116.4510405111448
 10
107.5246475177644
 20
116.6107745141441
 10
107.6844245844566
 20
116.7559637548564
 10
107.8576267574196
 20
116.8854455135725
 10
108.0431451465605
 20
116.9981216661229
 10
108.2398277980934
 20
117.0928510246449
 10
108.4465658219253
 20
117.1684924012758
 10
108.6622072642705
 20
117.2239261399995
 10
108.8856432350359
 20
117.2580110529533
 10
109.1157217804357
 20
117.2696274841211
 10
109.1157217804357
 20
117.2696274841211
 10
109.3457464962194
 20
117.2580110529533
 10
109.5691286373686
 20
117.2239261399995
 10
109.7847377819441
 20
117.1684924012758
 10
109.9914542739296
 20
117.0928510246449
 10
110.1881369254625
 20
116.9981216661229
 10
110.3736445486801
 20
116.8854455135725
 10
110.5468790194128
 20
116.7559529889331
 10
110.706656086105
 20
116.6107745141441
 10
110.8518883905102
 20
116.4510297452216
 10
110.9814239788425
 20
116.2778706359515
 10
111.0941324291626
 20
116.0924168423501
 10
111.1888940854543
 20
115.8957987863566
 10
111.2645677598549
 20
115.6891468899105
 10
111.3200122645018
 20
115.4736023408744
 10
111.3541187093021
 20
115.2502847952645
 10
111.3657351404699
 20
115.0203246750203
 10
111.3657351404699
 20
115.0196141240869
  0
LWPOLYLINE
  5
88
330
1F
100
AcDbEntity
  8
ISS138金台
  6
Continuous
 62
   250
420
  2367521
370
    25
100
AcDbPolyline
 90
       36
 70
     0
 43
0.0
 10
113.3659898474353
 20
115.0196141240869
 10
113.3659898474353
 20
115.0203246750203
 10
113.3776062786031
 20
115.2502632634181
 10
113.4117019574801
 20
115.4736023408744
 10
113.4671249302806
 20
115.6891468899105
 10
113.5427770728347
 20
115.8957987863566
 10
113.6374956654335
 20
116.0924168423501
 10
113.7501825839071
 20
116.2778814018748
 10
113.8796858744697
 20
116.4510405111448
 10
114.0248858811052
 20
116.6107745141441
 10
114.184641415951
 20
116.7559637548564
 10
114.3578328229907
 20
116.8854455135725
 10
114.5433081484387
 20
116.9981216661229
 10
114.7399692681251
 20
117.0928510246449
 10
114.9466534623409
 20
117.1684924012758
 10
115.1622518409931
 20
117.2239261399995
 10
115.3856232162191
 20
117.2580110529533
 10
115.6156479320028
 20
117.2696274841211
 10
115.6156479320028
 20
117.2696274841211
 10
115.8457372433259
 20
117.2580110529533
 10
116.0691839800145
 20
117.2239261399995
 10
116.2848254223597
 20
117.1684924012758
 10
116.4915957439613
 20
117.0928510246449
 10
116.6882999273407
 20
116.9981216661229
 10
116.8738506142512
 20
116.8854455135725
 10
117.0470850849839
 20
116.7559529889331
 10
117.2068944494458
 20
116.6107745141441
 10
117.3521375197743
 20
116.4510297452216
 10
117.4816838740298
 20
116.2778706359515
 10
117.5944030902732
 20
116.0924168423501
 10
117.6891755124881
 20
115.8957987863566
 10
117.7648491868887
 20
115.6891468899105
 10
117.8202936915356
 20
115.4736023408744
 10
117.8544001363359
 20
115.2502847952645
 10
117.8660165675036
 20
115.0203246750203
 10
117.8660165675036
 20
115.0196141240869
  0
LWPOLYLINE
  5
89
330
1F
100
AcDbEntity
  8
ISS138金台
  6
Continuous
 62
   250
420
  2367521
370
    25
100
AcDbPolyline
 90
       36
 70
     0
 43
0.0
 10
119.8655607235358
 20
115.0196141240869
 10
119.8655607235358
 20
115.0203246750203
 10
119.8771771547035
 20
115.2502632634181
 10
119.9112728335806
 20
115.4736023408744
 10
119.966695806381
 20
115.6891468899105
 10
120.0423587148584
 20
115.8957987863566
 10
120.1370773074571
 20
116.0924168423501
 10
120.2497857577772
 20
116.2778814018748
 10
120.3792998142631
 20
116.4510405111448
 10
120.5245105868218
 20
116.6107745141441
 10
120.684287653514
 20
116.7559637548564
 10
120.857489826477
 20
116.8854455135725
 10
121.0430082156179
 20
116.9981216661229
 10
121.2396908671508
 20
117.0928510246449
 10
121.4464288909827
 20
117.1684924012758
 10
121.6620703333279
 20
117.2239261399995
 10
121.8855063040933
 20
117.2580110529533
 10
122.1155848494931
 20
117.2696274841211
 10
122.1155848494931
 20
117.2696274841211
 10
122.3455987993536
 20
117.2580110529533
 10
122.5689701745796
 20
117.2239261399995
 10
122.7845685532318
 20
117.1684924012758
 10
122.9912635133708
 20
117.0928510246449
 10
123.1879031012108
 20
116.9981216661229
 10
123.3733999585052
 20
116.8854455135725
 10
123.5465805996217
 20
116.7559529889331
 10
123.7063469003907
 20
116.6107745141441
 10
123.851536141103
 20
116.4510297452216
 10
123.9810394316656
 20
116.2778706359515
 10
124.0937263501392
 20
116.0924168423501
 10
124.1884557086612
 20
115.8957987863566
 10
124.2640970852921
 20
115.6891468899105
 10
124.319541589939
 20
115.4736023408744
 10
124.3536265028928
 20
115.2502847952645
 10
124.3652429340606
 20
115.0203246750203
 10
124.3652429340606
 20
115.0196141240869
  0
LWPOLYLINE
  5
8A
330
1F
100
AcDbEntity
  8
ISS138金台
  6
Continuous
 62
   250
420
  2367521
370
    25
100
AcDbPolyline
 90
       36
 70
     0
 43
0.0
 10
126.3658421505695
 20
115.0196141240869
 10
126.3658421505695
 20
115.0203246750203
 10
126.3774693476605
 20
115.2502632634181
 10
126.4115650265376
 20
115.4736023408744
 10
126.4670095311845
 20
115.6891468899105
 10
126.5426832055851
 20
115.8957987863566
 10
126.6374340959535
 20
116.0924168423501
 10
126.7501317803504
 20
116.2778814018748
 10
126.8796673686827
 20
116.4510405111448
 10
127.0248781412415
 20
116.6107745141441
 10
127.1846444420104
 20
116.7559637548564
 10
127.3578466149734
 20
116.8854455135725
 10
127.5433327063446
 20
116.9981216661229
 10
127.7399722941846
 20
117.0928510246449
 10
127.9466457224771
 20
117.1684924012758
 10
128.1622225692829
 20
117.2239261399995
 10
128.385550880816
 20
117.2580110529533
 10
128.6155110010602
 20
117.2696274841211
 10
128.6155110010602
 20
117.2696274841211
 10
128.8456541419994
 20
117.2580110529533
 10
129.0691331764578
 20
117.2239261399995
 10
129.2848284484191
 20
117.1684924012758
 10
129.4915987700208
 20
117.0928510246449
 10
129.6883137193234
 20
116.9981216661229
 10
129.8738644062339
 20
116.8854455135725
 10
130.0470988769666
 20
116.7559529889331
 10
130.2068974755053
 20
116.6107745141441
 10
130.352108248064
 20
116.4510297452216
 10
130.4816438363964
 20
116.2778706359515
 10
130.5943415207932
 20
116.0924168423501
 10
130.6890816452384
 20
115.8957987863566
 10
130.7647337877926
 20
115.6891468899105
 10
130.8201782924395
 20
115.4736023408744
 10
130.8542632053933
 20
115.2502847952645
 10
130.865879636561
 20
115.0203246750203
 10
130.865879636561
 20
115.0196141240869
  0
LWPOLYLINE
  5
8B
330
1F
100
AcDbEntity
  8
ISS138金台
  6
Continuous
 62
   250
420
  2367521
370
    25
100
AcDbPolyline
 90
       36
 70
     0
 43
0.0
 10
132.8654237925932
 20
115.0196141240869
 10
132.8654237925932
 20
115.0203246750203
 10
132.8770509896842
 20
115.2502632634181
 10
132.9111682004077
 20
115.4736023408744
 10
132.9666557687476
 20
115.6891468899105
 10
133.0423725068411
 20
115.8957987863566
 10
133.1371664609024
 20
116.0924168423501
 10
133.2499287408387
 20
116.2778814018748
 10
133.3795289247104
 20
116.4510405111448
 10
133.5248042928086
 20
116.6107745141441
 10
133.6846459550401
 20
116.7559637548564
 10
133.8579019576193
 20
116.8854455135725
 10
134.0434526445299
 20
116.9981216661229
 10
134.240146061986
 20
117.0928510246449
 10
134.4468625539715
 20
117.1684924012758
 10
134.6624716985469
 20
117.2239261399995
 10
134.8858215419265
 20
117.2580110529533
 10
135.115792428094
 20
117.2696274841211
 10
135.115792428094
 20
117.2696274841211
 10
135.3458709734938
 20
117.2580110529533
 10
135.5693284761057
 20
117.2239261399995
 10
135.7849806843741
 20
117.1684924012758
 10
135.9917294741293
 20
117.0928510246449
 10
136.1884444234319
 20
116.9981216661229
 10
136.3739843444192
 20
116.8854455135725
 10
136.5472295810752
 20
116.7559529889331
 10
136.7070281796138
 20
116.6107745141441
 10
136.8522820158655
 20
116.4510297452216
 10
136.981828370121
 20
116.2778706359515
 10
137.0945475863644
 20
116.0924168423501
 10
137.189309242656
 20
115.8957987863566
 10
137.2649936829799
 20
115.6891468899105
 10
137.3204381876268
 20
115.4736023408744
 10
137.3545446324271
 20
115.2502847952645
 10
137.3661610635948
 20
115.0203246750203
 10
137.3661610635948
 20
115.0196141240869
  0
LWPOLYLINE
  5
8C
330
1F
100
AcDbEntity
  8
ISS138金台
  6
Continuous
 62
   250
420
  2367521
370
    25
100
AcDbPolyline
 90
        2
 70
     0
 43
0.0
 10
139.7770496144909
 20
115.0196141240869
 10
139.7770496144909
 20
128.0194771931444
  0
LWPOLYLINE
  5
8D
330
1F
100
AcDbEntity
  8
ISS138金台
  6
Continuous
 62
   250
420
  2367521
370
    25
100
AcDbPolyline
 90
       34
 70
     0
 43
0.0
 10
137.3661610635948
 20
128.0194771931444
 10
137.3544262072715
 20
127.7894524773607
 10
137.3202013373157
 20
127.5660811021347
 10
137.2646599393597
 20
127.3504827234825
 10
137.1889324353429
 20
127.1437985292666
 10
137.0940954175886
 20
126.9471481755035
 10
136.9813331376524
 20
126.761651318209
 10
136.8517652515503
 20
126.5884599111693
 10
136.7065114152986
 20
126.4287151422468
 10
136.54671281676
 20
126.2835151356113
 10
136.3734891119505
 20
126.1540118450487
 10
136.1880030205793
 20
126.041324926575
 10
135.9913419008929
 20
125.9465955680531
 10
135.7846577066771
 20
125.8709434254989
 10
135.5690916257946
 20
125.8155096867752
 10
135.3457525483383
 20
125.7814247738214
 10
135.115792428094
 20
125.7698083426537
 10
135.115792428094
 20
125.7698083426537
 10
134.8858323078497
 20
125.7814140078982
 10
134.6625039963166
 20
125.8155096867752
 10
134.4469271495109
 20
125.8709434254989
 10
134.2402537212183
 20
125.9465955680531
 10
134.0435818356087
 20
126.041324926575
 10
133.8580849783143
 20
126.1540118450487
 10
133.684872039428
 20
126.2835151356113
 10
133.5250734408894
 20
126.4287151422468
 10
133.3798196046377
 20
126.5884706770925
 10
133.2502409526124
 20
126.761651318209
 10
133.1374786726762
 20
126.9471374095802
 10
133.0426631867684
 20
127.1437877633434
 10
132.9669141509051
 20
127.3504827234825
 10
132.9113727529491
 20
127.5660811021347
 10
132.8771694148398
 20
127.7894524773607
 10
132.8654237925932
 20
128.0194771931444
  0
LWPOLYLINE
  5
8E
330
1F
100
AcDbEntity
  8
ISS138金台
  6
Continuous
 62
   250
420
  2367521
370
    25
100
AcDbPolyline
 90
       34
 70
     0
 43
0.0
 10
130.865879636561
 20
128.0194771931444
 10
130.8541555461609
 20
127.7894524773607
 10
130.8199414421284
 20
127.5660811021347
 10
130.7644108100956
 20
127.3504827234825
 10
130.6886833060788
 20
127.1437985292666
 10
130.5938785860942
 20
126.9471481755035
 10
130.4811486039277
 20
126.761651318209
 10
130.3515914837488
 20
126.5884599111693
 10
130.2063591793437
 20
126.4287151422468
 10
130.0465713467282
 20
126.2835151356113
 10
129.8733691737652
 20
126.1540118450487
 10
129.6878723164708
 20
126.041324926575
 10
129.4912004308612
 20
125.9465955680531
 10
129.2845054707221
 20
125.8709434254989
 10
129.0689070920699
 20
125.8155096867752
 10
128.8455249509207
 20
125.7814247738214
 10
128.6155110010602
 20
125.7698083426537
 10
128.6155110010602
 20
125.7698083426537
 10
128.385550880816
 20
125.7814140078982
 10
128.1622225692829
 20
125.8155096867752
 10
127.9466457224771
 20
125.8709434254989
 10
127.7399830601078
 20
125.9465955680531
 10
127.5433327063446
 20
126.041324926575
 10
127.3578466149734
 20
126.1540118450487
 10
127.1846444420104
 20
126.2835151356113
 10
127.0248781412415
 20
126.4287151422468
 10
126.8796566027595
 20
126.5884706770925
 10
126.7501317803504
 20
126.761651318209
 10
126.6374340959535
 20
126.9471374095802
 10
126.5426724396618
 20
127.1437877633434
 10
126.4670095311845
 20
127.3504827234825
 10
126.4115650265376
 20
127.5660811021347
 10
126.3774585817373
 20
127.7894524773607
 10
126.3658421505695
 20
128.0194771931444
  0
LWPOLYLINE
  5
8F
330
1F
100
AcDbEntity
  8
ISS138金台
  6
Continuous
 62
   250
420
  2367521
370
    25
100
AcDbPolyline
 90
       34
 70
     0
 43
0.0
 10
124.3652429340606
 20
128.0194771931444
 10
124.3536372688161
 20
127.7894524773607
 10
124.319541589939
 20
127.5660811021347
 10
124.2640970852921
 20
127.3504827234825
 10
124.1884557086612
 20
127.1437985292666
 10
124.093715584216
 20
126.9471481755035
 10
123.9810501975889
 20
126.761651318209
 10
123.851536141103
 20
126.5884599111693
 10
123.7063361344675
 20
126.4287151422468
 10
123.546591365545
 20
126.2835151356113
 10
123.3733999585052
 20
126.1540118450487
 10
123.187913867134
 20
126.041324926575
 10
122.9912635133708
 20
125.9465955680531
 10
122.7845793191551
 20
125.8709434254989
 10
122.5689809405028
 20
125.8155096867752
 10
122.3455987993536
 20
125.7814247738214
 10
122.1155848494931
 20
125.7698083426537
 10
122.1155848494931
 20
125.7698083426537
 10
121.8856139633256
 20
125.7814140078982
 10
121.6622964177158
 20
125.8155096867752
 10
121.44671957091
 20
125.8709434254989
 10
121.2400461426175
 20
125.9465955680531
 10
121.043385022931
 20
126.041324926575
 10
120.8578989315599
 20
126.1540118450487
 10
120.6846859926736
 20
126.2835151356113
 10
120.5248981600582
 20
126.4287151422468
 10
120.379665855653
 20
126.5884706770925
 10
120.2501195013974
 20
126.761651318209
 10
120.1373895192309
 20
126.9471374095802
 10
120.0425955651695
 20
127.1437877633434
 10
119.9668895929992
 20
127.3504827234825
 10
119.9113912587361
 20
127.5660811021347
 10
119.8772417502429
 20
127.7894524773607
 10
119.8655607235358
 20
128.0194771931444
  0
LWPOLYLINE
  5
90
330
1F
100
AcDbEntity
  8
ISS138金台
  6
Continuous
 62
   250
420
  2367521
370
    25
100
AcDbPolyline
 90
       34
 70
     0
 43
0.0
 10
117.8660165675036
 20
128.0194771931444
 10
117.8542924771035
 20
127.7894524773607
 10
117.8200999049174
 20
127.5660811021347
 10
117.7645908047311
 20
127.3504827234825
 10
117.6888740666376
 20
127.1437985292666
 10
117.5940908784994
 20
126.9471481755035
 10
117.4813716622561
 20
126.761651318209
 10
117.351846839847
 20
126.5884599111693
 10
117.2066360672882
 20
126.4287151422468
 10
117.0468590005961
 20
126.2835151356113
 10
116.8736675935563
 20
126.1540118450487
 10
116.6881707362619
 20
126.041324926575
 10
116.491488084729
 20
125.9465955680531
 10
116.2847715927435
 20
125.8709434254989
 10
116.0691516822448
 20
125.8155096867752
 10
115.8457264774026
 20
125.7814247738214
 10
115.6156479320028
 20
125.7698083426537
 10
115.6156479320028
 20
125.7698083426537
 10
115.3856339821424
 20
125.7814140078982
 10
115.1622626069163
 20
125.8155096867752
 10
114.9466642282641
 20
125.8709434254989
 10
114.7399585022019
 20
125.9465955680531
 10
114.5433081484387
 20
126.041324926575
 10
114.3578328229907
 20
126.1540118450487
 10
114.184641415951
 20
126.2835151356113
 10
114.0248858811052
 20
126.4287151422468
 10
113.8796858744697
 20
126.5884706770925
 10
113.7501825839071
 20
126.761651318209
 10
113.6375064313567
 20
126.9471374095802
 10
113.5427770728347
 20
127.1437877633434
 10
113.4671249302806
 20
127.3504827234825
 10
113.4116911915569
 20
127.5660811021347
 10
113.3776062786031
 20
127.7894524773607
 10
113.3659898474353
 20
128.0194771931444
  0
LWPOLYLINE
  5
91
330
1F
100
AcDbEntity
  8
ISS138金台
  6
Continuous
 62
   250
420
  2367521
370
    25
100
AcDbPolyline
 90
       34
 70
     0
 43
0.0
 10
111.3657351404699
 20
128.0194771931444
 10
111.3541079433788
 20
127.7894524773607
 10
111.3199907326553
 20
127.5660811021347
 10
111.2645354620852
 20
127.3504827234825
 10
111.1888402558381
 20
127.1437985292666
 10
111.0940570677
 20
126.9471481755035
 10
110.9813378514567
 20
126.761651318209
 10
110.8517699653546
 20
126.5884599111693
 10
110.7065268950262
 20
126.4287151422468
 10
110.5467175305643
 20
126.2835151356113
 10
110.3734938257548
 20
126.1540118450487
 10
110.187975436614
 20
126.041324926575
 10
109.9913143169276
 20
125.9465955680531
 10
109.7846085908653
 20
125.8709434254989
 10
109.5690317440595
 20
125.8155096867752
 10
109.3456926666032
 20
125.7814247738214
 10
109.1157217804357
 20
125.7698083426537
 10
109.1157217804357
 20
125.7698083426537
 10
108.885697064652
 20
125.7814140078982
 10
108.6623149235028
 20
125.8155096867752
 10
108.4467273107738
 20
125.8709434254989
 10
108.2400215847115
 20
125.9465955680531
 10
108.0433712309484
 20
126.041324926575
 10
107.8578851395772
 20
126.1540118450487
 10
107.6846829666142
 20
126.2835151356113
 10
107.5249166658452
 20
126.4287151422468
 10
107.3796951273632
 20
126.5884706770925
 10
107.2501703049541
 20
126.761651318209
 10
107.1374510887108
 20
126.9471374095802
 10
107.0426894324191
 20
127.1437877633434
 10
106.9670049920953
 20
127.3504827234825
 10
106.9115174237555
 20
127.5660811021347
 10
106.8773786811855
 20
127.7894524773607
 10
106.8656976544783
 20
128.0194771931444
  0
ELLIPSE
  5
92
330
1F
100
AcDbEntity
  8
ISS138金台
  6
Continuous
 62
   250
420
  2367521
100
AcDbEllipse
 10
135.115792428094
 20
121.5198955511207
 30
0.0
 11
2.250368635500814
 21
0.0
 31
0.0
210
0.0
220
0.0
230
1.0
 40
0.9998445176938864
 41
0.0
 42
6.283185307179586
  0
CIRCLE
  5
93
330
1F
100
AcDbEntity
  8
ISS138金台
  6
Continuous
 62
   250
420
  2367521
100
AcDbCircle
 10
128.6155110010602
 20
121.5198955511207
 30
0.0
 40
2.25001874299576
  0
ELLIPSE
  5
94
330
1F
100
AcDbEntity
  8
ISS138金台
  6
Continuous
 62
   250
420
  2367521
100
AcDbEllipse
 10
122.1155848494931
 20
121.5198955511207
 30
0.0
 11
-9.835144678658793E-8
 21
2.250018742995759
 31
0.0
210
0.0
220
0.0
230
1.0
 40
0.9999210505539619
 41
0.0
 42
6.283185307179586
  0
CIRCLE
  5
95
330
1F
100
AcDbEntity
  8
ISS138金台
  6
Continuous
 62
   250
420
  2367521
100
AcDbCircle
 10
115.6156479320028
 20
121.5198955511207
 30
0.0
 40
2.25001874299576
  0
CIRCLE
  5
96
330
1F
100
AcDbEntity
  8
ISS138金台
  6
Continuous
 62
   250
420
  2367521
100
AcDbCircle
 10
109.1157217804357
 20
121.5198955511207
 30
0.0
 40
2.25001874299576
  0
LINE
  5
97
330
1F
100
AcDbEntity
  8
ISS138金台
  6
Continuous
 62
   250
420
  2367521
370
    25
100
AcDbLine
 10
140.2131448668661
 20
115.0195279967011
 30
0.0
 11
140.199386016975
 21
128.0193910657585
 31
0.0
  0
LINE
  5
98
330
1F
100
AcDbEntity
  8
ISS138金台
  6
Continuous
 62
   250
420
  2367521
370
    25
100
AcDbLine
 10
139.7770173167212
 20
128.0193802998353
 30
0.0
 11
139.7770173167212
 21
115.0195172307779
 31
0.0
  0
LWPOLYLINE
  5
99
330
1F
100
AcDbEntity
  8
ISS138金台
  6
Continuous
 62
   250
420
  2367521
370
    25
100
AcDbPolyline
 90
       36
 70
     0
 43
0.0
 10
124.3653505932929
 20
115.0195279967011
 10
124.3653505932929
 20
115.0202385476344
 10
124.3537341621252
 20
115.2501879019554
 10
124.3196384832481
 20
115.4735162134885
 10
124.2642047445245
 20
115.6890607625246
 10
124.1885633678936
 20
115.8957126589707
 10
124.0938340093716
 20
116.0923414808874
 10
123.9811470908979
 20
116.2777952744889
 10
123.8516438003353
 20
116.450954383759
 10
123.706454559623
 20
116.6106883867582
 10
123.5466882588541
 20
116.7558668615473
 10
123.3735076177375
 20
116.8853593861867
 10
123.1880215263664
 20
116.9980355387371
 10
122.9913604066799
 20
117.092764897259
 10
122.7846762124641
 20
117.16840627389
 10
122.5690778338119
 20
117.2238400126136
 10
122.3457064585859
 20
117.2579249255675
 10
122.1156817428022
 20
117.2695413567352
 10
122.1156817428022
 20
117.2695413567352
 10
121.8855924314792
 20
117.2579249255675
 10
121.662167226637
 20
117.2238400126136
 10
121.4465042524454
 20
117.16840627389
 10
121.2397339308437
 20
117.092764897259
 10
121.0430405133876
 20
116.9980463046603
 10
120.8574790605538
 20
116.8853593861867
 10
120.6842445898211
 20
116.7558668615473
 10
120.5244352253592
 20
116.6106883867582
 10
120.3791921550308
 20
116.450954383759
 10
120.2496458007752
 20
116.2777952744889
 10
120.1369265845319
 20
116.0923307149642
 10
120.0421649282402
 20
115.8957126589707
 10
119.9664912538396
 20
115.6890715284478
 10
119.9110359832695
 20
115.4735162134885
 10
119.8769295384692
 20
115.2501986678787
 10
119.8653131073014
 20
115.0202385476344
 10
119.8653131073014
 20
115.0195279967011
  0
LWPOLYLINE
  5
9A
330
1F
100
AcDbEntity
  8
ISS138金台
  6
Continuous
 62
   250
420
  2367521
370
    25
100
AcDbPolyline
 90
       36
 70
     0
 43
0.0
 10
117.8658335468087
 20
115.0195279967011
 10
117.8658335468087
 20
115.0202385476344
 10
117.8542278815641
 20
115.2501879019554
 10
117.8201322026871
 20
115.4735162134885
 10
117.7646876980402
 20
115.6890607625246
 10
117.689035555486
 20
115.8957126589707
 10
117.5942954310408
 20
116.0923414808874
 10
117.481597746644
 20
116.2777952744889
 10
117.3520621583116
 20
116.450954383759
 10
117.2068406198297
 20
116.6106883867582
 10
117.0470527872142
 20
116.7558668615473
 10
116.8738183164815
 20
116.8853593861867
 10
116.6882783954942
 20
116.9980355387371
 10
116.4915526802684
 20
117.092764897259
 10
116.2847823586667
 20
117.16840627389
 10
116.0690870867054
 20
117.2238400126136
 10
115.8456080522471
 20
117.2579249255675
 10
115.6154649113079
 20
117.2695413567352
 10
115.6154649113079
 20
117.2695413567352
 10
115.3855155569868
 20
117.2579249255675
 10
115.1621764795305
 20
117.2238400126136
 10
114.946610398648
 20
117.16840627389
 10
114.7399262044322
 20
117.092764897259
 10
114.5432866165922
 20
116.9980463046603
 10
114.357800525221
 20
116.8853593861867
 10
114.1846091181813
 20
116.7558668615473
 10
114.0248320514891
 20
116.6106883867582
 10
113.8796212789303
 20
116.450954383759
 10
113.750085690598
 20
116.2777952744889
 10
113.6373880062011
 20
116.0923307149642
 10
113.5426371158327
 20
115.8957126589707
 10
113.4669634414321
 20
115.6890715284478
 10
113.4115189367852
 20
115.4735162134885
 10
113.3774124919849
 20
115.2501986678787
 10
113.3657960608171
 20
115.0202385476344
 10
113.3657960608171
 20
115.0195279967011
  0
LWPOLYLINE
  5
9B
330
1F
100
AcDbEntity
  8
ISS138金台
  6
Continuous
 62
   250
420
  2367521
370
    25
100
AcDbPolyline
 90
       36
 70
     0
 43
0.0
 10
111.3656274812375
 20
115.0195279967011
 10
111.3656274812375
 20
115.0202385476344
 10
111.3540110500698
 20
115.2501879019554
 10
111.3199261371159
 20
115.4735162134885
 10
111.264481632469
 20
115.6890607625246
 10
111.1888402558381
 20
115.8957126589707
 10
111.0941001313929
 20
116.0923414808874
 10
110.9814024469961
 20
116.2777952744889
 10
110.8518883905102
 20
116.450954383759
 10
110.7066883838747
 20
116.6106883867582
 10
110.5469113171825
 20
116.7558668615473
 10
110.3736983782963
 20
116.8853593861867
 10
110.1881907550786
 20
116.9980355387371
 10
109.9914973376225
 20
117.092764897259
 10
109.7847593137906
 20
117.16840627389
 10
109.5691286373686
 20
117.2238400126136
 10
109.3456926666032
 20
117.2579249255675
 10
109.1156141212034
 20
117.2695413567352
 10
109.1156141212034
 20
117.2695413567352
 10
108.8855786394965
 20
117.2579249255675
 10
108.6622072642705
 20
117.2238400126136
 10
108.4465873537718
 20
117.16840627389
 10
108.2398708617863
 20
117.092764897259
 10
108.0431989761766
 20
116.9980463046603
 10
107.8576698211125
 20
116.8853593861867
 10
107.6844568822263
 20
116.7558668615473
 10
107.5246690496109
 20
116.6106883867582
 10
107.3794367452057
 20
116.450954383759
 10
107.2499011568733
 20
116.2777952744889
 10
107.1371927065532
 20
116.0923307149642
 10
107.0424310502616
 20
115.8957126589707
 10
106.966757375861
 20
115.6890715284478
 10
106.911312871214
 20
115.4735162134885
 10
106.8772064264138
 20
115.2501986678787
 10
106.865589995246
 20
115.0202385476344
 10
106.865589995246
 20
115.0195279967011
  0
LWPOLYLINE
  5
9C
330
1F
100
AcDbEntity
  8
ISS138金台
  6
Continuous
 62
   250
420
  2367521
370
    25
100
AcDbPolyline
 90
       36
 70
     0
 43
0.0
 10
130.8659011684075
 20
115.0195279967011
 10
130.8659011684075
 20
115.0202385476344
 10
130.854295503163
 20
115.2501879019554
 10
130.8201890583627
 20
115.4735162134885
 10
130.7647660855623
 20
115.6890607625246
 10
130.6891139430081
 20
115.8957126589707
 10
130.5943630526397
 20
116.0923414808874
 10
130.4816546023196
 20
116.2777952744889
 10
130.3521297799105
 20
116.450954383759
 10
130.2069082414285
 20
116.6106883867582
 10
130.0471096428899
 20
116.7558668615473
 10
129.8738859380804
 20
116.8853593861867
 10
129.6883460170931
 20
116.9980355387371
 10
129.4916203018672
 20
117.092764897259
 10
129.2848499802656
 20
117.16840627389
 10
129.0691547083043
 20
117.2238400126136
 10
128.8456756738459
 20
117.2579249255675
 10
128.6155325329067
 20
117.2695413567352
 10
128.6155325329067
 20
117.2695413567352
 10
128.3855831785857
 20
117.2579249255675
 10
128.1622441011293
 20
117.2238400126136
 10
127.9466672543236
 20
117.16840627389
 10
127.7400045919542
 20
117.092764897259
 10
127.5433434722678
 20
116.9980463046603
 10
127.3578681468199
 20
116.8853593861867
 10
127.1846767397801
 20
116.7558668615473
 10
127.0248996730879
 20
116.6106883867582
 10
126.8796889005292
 20
116.450954383759
 10
126.7501640781201
 20
116.2777952744889
 10
126.6374556278
 20
116.0923307149642
 10
126.5427047374315
 20
115.8957126589707
 10
126.4670310630309
 20
115.6890715284478
 10
126.411586558384
 20
115.4735162134885
 10
126.3774801135838
 20
115.2501986678787
 10
126.365863682416
 20
115.0202385476344
 10
126.365863682416
 20
115.0195279967011
  0
LWPOLYLINE
  5
9D
330
1F
100
AcDbEntity
  8
ISS138金台
  6
Continuous
 62
   250
420
  2367521
370
    25
100
AcDbPolyline
 90
       36
 70
     0
 43
0.0
 10
137.3661179999019
 20
115.0195279967011
 10
137.3661179999019
 20
115.0202385476344
 10
137.3545015687341
 20
115.2501879019554
 10
137.3204058898571
 20
115.4735162134885
 10
137.2649721511334
 20
115.6890607625246
 10
137.1893200085793
 20
115.8957126589707
 10
137.0945691182108
 20
116.0923414808874
 10
136.9818821997372
 20
116.2777952744889
 10
136.8523466114049
 20
116.450954383759
 10
136.7071358388461
 20
116.6106883867582
 10
136.5473372403075
 20
116.7558668615473
 10
136.3741027695748
 20
116.8853593861867
 10
136.1885520826642
 20
116.9980355387371
 10
135.9918371333616
 20
117.092764897259
 10
135.78506681176
 20
117.16840627389
 10
135.5693715397986
 20
117.2238400126136
 10
135.3458925053403
 20
117.2579249255675
 10
135.1157493644011
 20
117.2695413567352
 10
135.1157493644011
 20
117.2695413567352
 10
134.8857784782336
 20
117.2579249255675
 10
134.662428634854
 20
117.2238400126136
 10
134.4468302562018
 20
117.16840627389
 10
134.2401137642163
 20
117.092764897259
 10
134.0433988149137
 20
116.9980463046603
 10
133.8578588939264
 20
116.8853593861867
 10
133.6846136572705
 20
116.7558668615473
 10
133.5247612291157
 20
116.6106883867582
 10
133.3794750950943
 20
116.450954383759
 10
133.249896443069
 20
116.2777952744889
 10
133.1371341631327
 20
116.0923307149642
 10
133.0423294431482
 20
115.8957126589707
 10
132.9666127050546
 20
115.6890715284478
 10
132.9111251367148
 20
115.4735162134885
 10
132.8770079259913
 20
115.2501986678787
 10
132.8653807289003
 20
115.0202385476344
 10
132.8653807289003
 20
115.0195279967011
  0
CIRCLE
  5
9E
330
1F
100
AcDbEntity
  8
ISS138金台
  6
Continuous
 62
   250
420
  2367521
100
AcDbCircle
 10
122.1157140405719
 20
121.5198740192742
 30
0.0
 40
2.25001874299576
  0
CIRCLE
  5
9F
330
1F
100
AcDbEntity
  8
ISS138金台
  6
Continuous
 62
   250
420
  2367521
100
AcDbCircle
 10
115.6155079750008
 20
121.5198740192742
 30
0.0
 40
2.25001874299576
  0
CIRCLE
  5
A0
330
1F
100
AcDbEntity
  8
ISS138金台
  6
Continuous
 62
   250
420
  2367521
100
AcDbCircle
 10
109.1156464189731
 20
121.5198740192742
 30
0.0
 40
2.25001874299576
  0
CIRCLE
  5
A1
330
1F
100
AcDbEntity
  8
ISS138金台
  6
Continuous
 62
   250
420
  2367521
100
AcDbCircle
 10
128.6155863625229
 20
121.5198740192742
 30
0.0
 40
2.25001874299576
  0
ELLIPSE
  5
A2
330
1F
100
AcDbEntity
  8
ISS138金台
  6
Continuous
 62
   250
420
  2367521
100
AcDbEllipse
 10
135.115792428094
 20
121.5198740192742
 30
0.0
 11
2.250368635500814
 21
0.0
 31
0.0
210
0.0
220
0.0
230
1.0
 40
0.9998445176938864
 41
0.0
 42
6.283185307179586
  0
LWPOLYLINE
  5
A3
330
1F
100
AcDbEntity
  8
ISS138金台
  6
Continuous
 62
   250
420
  2367521
370
    25
100
AcDbPolyline
 90
       34
 70
     0
 43
0.0
 10
119.865388468764
 20
128.0193802998353
 10
119.8771340910106
 20
127.7893663499748
 10
119.91133742912
 20
127.5659949747488
 10
119.9668465293063
 20
127.3504181279431
 10
120.042574033323
 20
127.1437554655737
 10
120.1373787533076
 20
126.9471374095802
 10
120.2501302673206
 20
126.7616620841323
 10
120.3796766215762
 20
126.5885137407855
 10
120.5248981600582
 20
126.4287905037094
 10
120.6846859926736
 20
126.2836227948436
 10
120.8578989315599
 20
126.1541625679739
 10
121.0433957888543
 20
126.04150794727
 10
121.2400676744639
 20
125.9468001205945
 10
121.4467626346029
 20
125.8711695098868
 10
121.6623610132552
 20
125.8157573030096
 10
121.8857323884812
 20
125.7816723900558
 10
122.1157571042649
 20
125.7700667248112
 10
122.1157571042649
 20
125.7700667248112
 10
122.3457064585859
 20
125.7816723900558
 10
122.5690455360422
 20
125.8157573030096
 10
122.784622382848
 20
125.8711695098868
 10
122.9912850452173
 20
125.9467893546712
 10
123.1879461649037
 20
126.04150794727
 10
123.3734214903517
 20
126.1541518020507
 10
123.5466236633147
 20
126.2836335607669
 10
123.7063899640836
 20
126.4287905037094
 10
123.8516007366424
 20
126.5885137407855
 10
123.9811255590515
 20
126.7616728500555
 10
124.0938340093716
 20
126.947126643657
 10
124.18858489974
 20
127.1437554655737
 10
124.2642585741406
 20
127.3504181279431
 10
124.3197030787875
 20
127.5659949747488
 10
124.3538095235878
 20
127.7893663499748
 10
124.3654259547556
 20
128.0193802998353
  0
LWPOLYLINE
  5
A4
330
1F
100
AcDbEntity
  8
ISS138金台
  6
Continuous
 62
   250
420
  2367521
370
    25
100
AcDbPolyline
 90
       34
 70
     0
 43
0.0
 10
113.3658714222798
 20
128.0193802998353
 10
113.3774878534475
 20
127.7893663499748
 10
113.4115727664014
 20
127.5659949747488
 10
113.467006505125
 20
127.3504181279431
 10
113.5426478817559
 20
127.1437554655737
 10
113.6373880062011
 20
126.9471374095802
 10
113.7500749246748
 20
126.7616620841323
 10
113.8795782152374
 20
126.5885137407855
 10
114.0247674559497
 20
126.4287905037094
 10
114.1845337567186
 20
126.2836227948436
 10
114.3577143978352
 20
126.1541625679739
 10
114.5432004892064
 20
126.04150794727
 10
114.7398616088928
 20
125.9468001205945
 10
114.9465458031086
 20
125.8711695098868
 10
115.1621441817608
 20
125.8157573030096
 10
115.3855155569868
 20
125.7816723900558
 10
115.6155402727705
 20
125.7700667248112
 10
115.6155402727705
 20
125.7700667248112
 10
115.8456188181703
 20
125.7816723900558
 10
116.0690440230125
 20
125.8157573030096
 10
116.2846639335112
 20
125.8711695098868
 10
116.4913804254967
 20
125.9467893546712
 10
116.6880523111063
 20
126.04150794727
 10
116.8735491684007
 20
126.1541518020507
 10
117.0467513413637
 20
126.2836335607669
 10
117.2065284080559
 20
126.4287905037094
 10
117.3517284146914
 20
126.5885137407855
 10
117.4812640030238
 20
126.7616728500555
 10
117.5939832192671
 20
126.947126643657
 10
117.6887664074052
 20
127.1437554655737
 10
117.7644723795755
 20
127.3504181279431
 10
117.8199814797618
 20
127.5659949747488
 10
117.854174051948
 20
127.7893663499748
 10
117.8659089082713
 20
128.0193802998353
  0
LWPOLYLINE
  5
A5
330
1F
100
AcDbEntity
  8
ISS138金台
  6
Continuous
 62
   250
420
  2367521
370
    25
100
AcDbPolyline
 90
       34
 70
     0
 43
0.0
 10
106.8656653567086
 20
128.0193802998353
 10
106.8773356174926
 20
127.7893663499748
 10
106.9114743600625
 20
127.5659949747488
 10
106.9669726943256
 20
127.3504181279431
 10
107.0426571346494
 20
127.1437554655737
 10
107.1374187909411
 20
126.9471374095802
 10
107.2501272412612
 20
126.7616620841323
 10
107.3796628295935
 20
126.5885137407855
 10
107.5248736021523
 20
126.4287905037094
 10
107.6846399029212
 20
126.2836227948436
 10
107.8578420758842
 20
126.1541625679739
 10
108.0433389331786
 20
126.04150794727
 10
108.2399892869418
 20
125.9468001205945
 10
108.4466842470809
 20
125.8711695098868
 10
108.6622826257331
 20
125.8157573030096
 10
108.8856540009591
 20
125.7816723900558
 10
109.1156787167428
 20
125.7700667248112
 10
109.1156787167428
 20
125.7700667248112
 10
109.3456496029103
 20
125.7816723900558
 10
109.5689886803666
 20
125.8157573030096
 10
109.7845655271724
 20
125.8711695098868
 10
109.9912604873114
 20
125.9467893546712
 10
110.1879323729211
 20
126.04150794727
 10
110.3734615279852
 20
126.1541518020507
 10
110.5466852327946
 20
126.2836335607669
 10
110.7064945972565
 20
126.4287905037094
 10
110.8517376675849
 20
126.5885137407855
 10
110.9812947877638
 20
126.7616728500555
 10
111.0940355358535
 20
126.947126643657
 10
111.1888079580684
 20
127.1437554655737
 10
111.2645031643155
 20
127.3504181279431
 10
111.3199692008089
 20
127.5659949747488
 10
111.3540756456092
 20
127.7893663499748
 10
111.3657028427002
 20
128.0193802998353
  0
LWPOLYLINE
  5
A6
330
1F
100
AcDbEntity
  8
ISS138金台
  6
Continuous
 62
   250
420
  2367521
370
    25
100
AcDbPolyline
 90
       34
 70
     0
 43
0.0
 10
126.3659282779554
 20
128.0193802998353
 10
126.3775447091232
 20
127.7893663499748
 10
126.411629622077
 20
127.5659949747488
 10
126.4670633608006
 20
127.3504181279431
 10
126.5427155033548
 20
127.1437554655737
 10
126.6374448618768
 20
126.9471374095802
 10
126.7501317803504
 20
126.7616620841323
 10
126.879635070913
 20
126.5885137407855
 10
127.0248243116253
 20
126.4287905037094
 10
127.1845906123942
 20
126.2836227948436
 10
127.3577712535108
 20
126.1541625679739
 10
127.543257344882
 20
126.04150794727
 10
127.7399184645684
 20
125.9468001205945
 10
127.9466026587842
 20
125.8711695098868
 10
128.1622010374364
 20
125.8157573030096
 10
128.3855724126624
 20
125.7816723900558
 10
128.6155971284461
 20
125.7700667248112
 10
128.6155971284461
 20
125.7700667248112
 10
128.8455572486903
 20
125.7816723900558
 10
129.0688855602235
 20
125.8157573030096
 10
129.2844624070292
 20
125.8711695098868
 10
129.4911358353218
 20
125.9467893546712
 10
129.6877969550082
 20
126.04150794727
 10
129.8733045782258
 20
126.1541518020507
 10
130.0465175171121
 20
126.2836335607669
 10
130.2063161156507
 20
126.4287905037094
 10
130.3515699519024
 20
126.5885137407855
 10
130.4811378380044
 20
126.7616728500555
 10
130.5939001179407
 20
126.947126643657
 10
130.6887156038485
 20
127.1437554655737
 10
130.7644646397118
 20
127.3504181279431
 10
130.820016803591
 20
127.5659949747488
 10
130.8542201417004
 20
127.7893663499748
 10
130.8659657639469
 20
128.0193802998353
  0
LWPOLYLINE
  5
A7
330
1F
100
AcDbEntity
  8
ISS138金台
  6
Continuous
 62
   250
420
  2367521
370
    25
100
AcDbPolyline
 90
       34
 70
     0
 43
0.0
 10
132.8654560903629
 20
128.0193802998353
 10
132.8771909466862
 20
127.7893663499748
 10
132.9113942847956
 20
127.5659949747488
 10
132.9669249168284
 20
127.3504181279431
 10
133.0426524208451
 20
127.1437554655737
 10
133.1374463749065
 20
126.9471374095802
 10
133.2501871229963
 20
126.7616620841323
 10
133.3797442431751
 20
126.5885137407855
 10
133.524965781657
 20
126.4287905037094
 10
133.6847643801957
 20
126.2836227948436
 10
133.8579665531587
 20
126.1541625679739
 10
134.0434634104531
 20
126.04150794727
 10
134.2401352960628
 20
125.9468001205945
 10
134.4468302562018
 20
125.8711695098868
 10
134.662428634854
 20
125.8157573030096
 10
134.8858107760033
 20
125.7816723900558
 10
135.1158247258637
 20
125.7700667248112
 10
135.1158247258637
 20
125.7700667248112
 10
135.345784846108
 20
125.7816723900558
 10
135.5691239235643
 20
125.8157573030096
 10
135.7846900044468
 20
125.8711695098868
 10
135.9913741986626
 20
125.9467893546712
 10
136.1880245524258
 20
126.04150794727
 10
136.3735214097202
 20
126.1541518020507
 10
136.5467451145297
 20
126.2836335607669
 10
136.7065437130684
 20
126.4287905037094
 10
136.85179754932
 20
126.5885137407855
 10
136.981365435422
 20
126.7616728500555
 10
137.0941277153583
 20
126.947126643657
 10
137.1889539671894
 20
127.1437554655737
 10
137.2647030030526
 20
127.3504181279431
 10
137.3202444010086
 20
127.5659949747488
 10
137.354447739118
 20
127.7893663499748
 10
137.3661933613645
 20
128.0193802998353
  0
LWPOLYLINE
  5
A8
330
1F
100
AcDbEntity
  8
ISS138金台
  6
Continuous
 62
   250
420
  2367521
370
    25
100
AcDbPolyline
 90
        9
 70
     0
 43
0.0
 10
141.847142865465
 20
101.4280989778692
 10
102.8472091487492
 20
101.4280989778692
 10
102.3469705257554
 20
104.4281203798892
 10
104.8467533047814
 20
104.4281203798892
 10
104.3472252327208
 20
102.6275412511152
 10
140.3471267814934
 20
102.6275412511152
 10
139.8468881584995
 20
104.4281203798892
 10
142.3470262129922
 20
104.4281203798892
 10
141.847142865465
 20
101.4280989778692
  0
LINE
  5
A9
330
1F
100
AcDbEntity
  8
ISS138金台
  6
Continuous
 62
   250
420
  2367521
370
    13
100
AcDbLine
 10
102.3470781849877
 20
105.4278440112507
 30
0.0
 11
102.3470781849877
 21
110.4327064035331
 31
0.0
  0
LINE
  5
AA
330
1F
100
AcDbEntity
  8
ISS138金台
  6
Continuous
 62
   250
420
  2367521
370
    13
100
AcDbLine
 10
104.846828666244
 20
109.9255883555937
 30
0.0
 11
102.5968153062099
 21
109.9255883555937
 31
0.0
  0
LINE
  5
AB
330
1F
100
AcDbEntity
  8
ISS138金台
  6
Continuous
 62
   250
420
  2367521
370
    13
100
AcDbLine
 10
104.846828666244
 20
110.4327064035331
 30
0.0
 11
104.846828666244
 21
105.4278440112507
 31
0.0
  0
LINE
  5
AC
330
1F
100
AcDbEntity
  8
ISS138金台
  6
Continuous
 62
   250
420
  2367521
370
    13
100
AcDbLine
 10
102.3470781849877
 20
100.4276540296511
 30
0.0
 11
102.3470781849877
 21
90.48355831311105
 31
0.0
  0
LINE
  5
AD
330
1F
100
AcDbEntity
  8
ISS138金台
  6
Continuous
 62
   250
420
  2367521
370
    13
100
AcDbLine
 10
142.3470262129922
 20
90.99083784989892
 30
0.0
 11
102.596729178824
 21
90.99083784989892
 31
0.0
  0
LINE
  5
AE
330
1F
100
AcDbEntity
  8
ISS138金台
  6
Continuous
 62
   250
420
  2367521
370
    13
100
AcDbLine
 10
142.3470262129922
 20
100.4276540296511
 30
0.0
 11
142.3470262129922
 21
90.48355831311105
 31
0.0
  0
HATCH
  5
AF
330
1F
100
AcDbEntity
  8
ISS138金台
  6
Continuous
 62
   250
420
  2367521
370
    13
100
AcDbHatch
 10
0.0
 20
0.0
 30
0.0
210
0.0
220
0.0
230
1.0
  2
SOLID
 70
     1
 71
     0
 91
        1
 92
        3
 72
     0
 73
     1
 93
       67
 10
102.3470781849877
 20
109.6758189366018
 10
102.372614954895
 20
109.6771000814664
 10
102.3974196420224
 20
109.6808896864443
 10
102.4213522893681
 20
109.6870477945332
 10
102.4442944717763
 20
109.6954344487312
 10
102.4661277640917
 20
109.7059635216525
 10
102.4867229752353
 20
109.7184735244486
 10
102.5059509141283
 20
109.7328567978871
 10
102.5236931556153
 20
109.748973384966
 10
102.5398097426943
 20
109.766715626453
 10
102.5541930161328
 20
109.7859435653461
 10
102.5667030189288
 20
109.8065387764897
 10
102.5772213259269
 20
109.828372068805
 10
102.5856187460482
 20
109.8513142512133
 10
102.5917768541371
 20
109.8752468985589
 10
102.5955556931917
 20
109.9000515856864
 10
102.5968476039796
 20
109.9255883555937
 10
102.5968476039796
 20
109.9255883555937
 10
102.5955556931917
 20
109.9511789551171
 10
102.5917768541371
 20
109.9760374718608
 10
102.5856079801249
 20
110.0000239488226
 10
102.5772213259269
 20
110.0230091949238
 10
102.5667030189288
 20
110.0448747850088
 10
102.5541822502095
 20
110.0654915279989
 10
102.5398097426943
 20
110.0847409987384
 10
102.5236931556153
 20
110.1025047720719
 10
102.5059509141283
 20
110.1186428909973
 10
102.4867229752353
 20
110.1330261644358
 10
102.4661277640917
 20
110.145546933155
 10
102.4442944717763
 20
110.1560652401531
 10
102.4213522893681
 20
110.1644734261976
 10
102.3974088760992
 20
110.1706207683633
 10
102.372614954895
 20
110.1744103733411
 10
102.3470781849877
 20
110.175702284129
 10
102.3470781849877
 20
110.175702284129
 10
102.3214122240016
 20
110.1744103733411
 10
102.2965214094883
 20
110.1706207683633
 10
102.27251340068
 20
110.1644734261976
 10
102.2495066227323
 20
110.1560760060763
 10
102.2276302667241
 20
110.145546933155
 10
102.207013523734
 20
110.1330261644358
 10
102.1877640529945
 20
110.1186428909973
 10
102.1700218115075
 20
110.1025047720719
 10
102.1539052244286
 20
110.0847517646616
 10
102.1395434828365
 20
110.0654915279989
 10
102.1270442459637
 20
110.0448747850088
 10
102.1165367048889
 20
110.0230091949238
 10
102.108160816614
 20
110.0000239488226
 10
102.1020134744483
 20
109.9760374718608
 10
102.0982346353938
 20
109.9511897210404
 10
102.0969534905291
 20
109.9255883555937
 10
102.0969534905291
 20
109.9255883555937
 10
102.0982346353938
 20
109.9000515856864
 10
102.1020134744483
 20
109.8752468985589
 10
102.1081500506908
 20
109.8513250171365
 10
102.1165367048889
 20
109.828372068805
 10
102.1270442459637
 20
109.8065280105665
 10
102.1395327169133
 20
109.7859435653461
 10
102.1539052244286
 20
109.766715626453
 10
102.1700218115075
 20
109.748973384966
 10
102.1877640529945
 20
109.7328567978871
 10
102.207013523734
 20
109.7184735244486
 10
102.2276302667241
 20
109.7059635216525
 10
102.2495066227323
 20
109.6954452146545
 10
102.27251340068
 20
109.6870477945332
 10
102.2965214094883
 20
109.6808896864443
 10
102.3214229899248
 20
109.6771108473897
 97
        0
 75
     1
 76
     1
 98
        0
  0
LWPOLYLINE
  5
B0
330
1F
100
AcDbEntity
  8
ISS138金台
  6
Continuous
 62
   250
420
  2367521
370
    13
100
AcDbPolyline
 90
       68
 70
     0
 43
0.0
 10
102.3470781849877
 20
109.6758189366018
 10
102.372614954895
 20
109.6771000814664
 10
102.3974196420224
 20
109.6808896864443
 10
102.4213522893681
 20
109.6870477945332
 10
102.4442944717763
 20
109.6954344487312
 10
102.4661277640917
 20
109.7059635216525
 10
102.4867229752353
 20
109.7184735244486
 10
102.5059509141283
 20
109.7328567978871
 10
102.5236931556153
 20
109.748973384966
 10
102.5398097426943
 20
109.766715626453
 10
102.5541930161328
 20
109.7859435653461
 10
102.5667030189288
 20
109.8065387764897
 10
102.5772213259269
 20
109.828372068805
 10
102.5856187460482
 20
109.8513142512133
 10
102.5917768541371
 20
109.8752468985589
 10
102.5955556931917
 20
109.9000515856864
 10
102.5968476039796
 20
109.9255883555937
 10
102.5968476039796
 20
109.9255883555937
 10
102.5955556931917
 20
109.9511789551171
 10
102.5917768541371
 20
109.9760374718608
 10
102.5856079801249
 20
110.0000239488226
 10
102.5772213259269
 20
110.0230091949238
 10
102.5667030189288
 20
110.0448747850088
 10
102.5541822502095
 20
110.0654915279989
 10
102.5398097426943
 20
110.0847409987384
 10
102.5236931556153
 20
110.1025047720719
 10
102.5059509141283
 20
110.1186428909973
 10
102.4867229752353
 20
110.1330261644358
 10
102.4661277640917
 20
110.145546933155
 10
102.4442944717763
 20
110.1560652401531
 10
102.4213522893681
 20
110.1644734261976
 10
102.3974088760992
 20
110.1706207683633
 10
102.372614954895
 20
110.1744103733411
 10
102.3470781849877
 20
110.175702284129
 10
102.3470781849877
 20
110.175702284129
 10
102.3214122240016
 20
110.1744103733411
 10
102.2965214094883
 20
110.1706207683633
 10
102.27251340068
 20
110.1644734261976
 10
102.2495066227323
 20
110.1560760060763
 10
102.2276302667241
 20
110.145546933155
 10
102.207013523734
 20
110.1330261644358
 10
102.1877640529945
 20
110.1186428909973
 10
102.1700218115075
 20
110.1025047720719
 10
102.1539052244286
 20
110.0847517646616
 10
102.1395434828365
 20
110.0654915279989
 10
102.1270442459637
 20
110.0448747850088
 10
102.1165367048889
 20
110.0230091949238
 10
102.108160816614
 20
110.0000239488226
 10
102.1020134744483
 20
109.9760374718608
 10
102.0982346353938
 20
109.9511897210404
 10
102.0969534905291
 20
109.9255883555937
 10
102.0969534905291
 20
109.9255883555937
 10
102.0982346353938
 20
109.9000515856864
 10
102.1020134744483
 20
109.8752468985589
 10
102.1081500506908
 20
109.8513250171365
 10
102.1165367048889
 20
109.828372068805
 10
102.1270442459637
 20
109.8065280105665
 10
102.1395327169133
 20
109.7859435653461
 10
102.1539052244286
 20
109.766715626453
 10
102.1700218115075
 20
109.748973384966
 10
102.1877640529945
 20
109.7328567978871
 10
102.207013523734
 20
109.7184735244486
 10
102.2276302667241
 20
109.7059635216525
 10
102.2495066227323
 20
109.6954452146545
 10
102.27251340068
 20
109.6870477945332
 10
102.2965214094883
 20
109.6808896864443
 10
102.3214229899248
 20
109.6771108473897
 10
102.3470781849877
 20
109.6758189366018
  0
HATCH
  5
B1
330
1F
100
AcDbEntity
  8
ISS138金台
  6
Continuous
 62
   250
420
  2367521
370
    13
100
AcDbHatch
 10
0.0
 20
0.0
 30
0.0
210
0.0
220
0.0
230
1.0
  2
SOLID
 70
     1
 71
     0
 91
        1
 92
        3
 72
     0
 73
     1
 93
       67
 10
102.3470781849877
 20
90.74140217452724
 10
102.372614954895
 20
90.74268331939189
 10
102.3974196420224
 20
90.74646215844646
 10
102.4213522893681
 20
90.75259873468895
 10
102.4442944717763
 20
90.76097462296376
 10
102.4661277640917
 20
90.77147139811535
 10
102.4867229752353
 20
90.78394910314172
 10
102.5059509141283
 20
90.79828931288729
 10
102.5236931556153
 20
90.81438436811973
 10
102.5398097426943
 20
90.83209431183705
 10
102.5541930161328
 20
90.8512791870372
 10
102.5667030189288
 20
90.87185286633434
 10
102.5772213259269
 20
90.89365386087997
 10
102.5856187460482
 20
90.91657451144178
 10
102.5917768541371
 20
90.94049639286419
 10
102.5955556931917
 20
90.96529031406843
 10
102.5968476039796
 20
90.99081631805247
 10
102.5968476039796
 20
90.99081631805247
 10
102.5955556931917
 20
91.0164715131153
 10
102.5917768541371
 20
91.04137309355187
 10
102.5856079801249
 20
91.06538110236013
 10
102.5772213259269
 20
91.08838788030779
 10
102.5667030189288
 20
91.11026423631606
 10
102.5541822502095
 20
91.13088097930611
 10
102.5398097426943
 20
91.15011968412242
 10
102.5236931556153
 20
91.16786192560943
 10
102.5059509141283
 20
91.18397851268836
 10
102.4867229752353
 20
91.19835102020362
 10
102.4661277640917
 20
91.21085025707644
 10
102.4442944717763
 20
91.22134703222804
 10
102.4213522893681
 20
91.2297336864261
 10
102.3974088760992
 20
91.23587026266856
 10
102.372614954895
 20
91.23964910172313
 10
102.3470781849877
 20
91.2409302465878
 10
102.3470781849877
 20
91.2409302465878
 10
102.3214122240016
 20
91.23963833579991
 10
102.2965214094883
 20
91.23587026266856
 10
102.27251340068
 20
91.2297336864261
 10
102.2495066227323
 20
91.22134703222804
 10
102.2276302667241
 20
91.21083949115322
 10
102.207013523734
 20
91.19835102020362
 10
102.1877640529945
 20
91.18397851268836
 10
102.1700218115075
 20
91.16786192560943
 10
102.1539052244286
 20
91.15011968412242
 10
102.1395434828365
 20
91.13088097930611
 10
102.1270442459637
 20
91.11026423631606
 10
102.1165367048889
 20
91.08838788030779
 10
102.108160816614
 20
91.06538110236013
 10
102.1020134744483
 20
91.04137309355187
 10
102.0982346353938
 20
91.0164715131153
 10
102.0969534905291
 20
90.99081631805247
 10
102.0969534905291
 20
90.99081631805247
 10
102.0982346353938
 20
90.96529031406843
 10
102.1020134744483
 20
90.94049639286419
 10
102.1081500506908
 20
90.91657451144178
 10
102.1165367048889
 20
90.89365386087997
 10
102.1270442459637
 20
90.8718421004111
 10
102.1395327169133
 20
90.85128995296044
 10
102.1539052244286
 20
90.83208354591383
 10
102.1700218115075
 20
90.81438436811973
 10
102.1877640529945
 20
90.79830007881051
 10
102.207013523734
 20
90.78394910314172
 10
102.2276302667241
 20
90.77147139811535
 10
102.2495066227323
 20
90.76097462296376
 10
102.27251340068
 20
90.75259873468895
 10
102.2965214094883
 20
90.74646215844646
 10
102.3214229899248
 20
90.74268331939189
 97
        0
 75
     1
 76
     1
 98
        0
  0
LWPOLYLINE
  5
B2
330
1F
100
AcDbEntity
  8
ISS138金台
  6
Continuous
 62
   250
420
  2367521
370
    13
100
AcDbPolyline
 90
       68
 70
     0
 43
0.0
 10
102.3470781849877
 20
90.74140217452724
 10
102.372614954895
 20
90.74268331939189
 10
102.3974196420224
 20
90.74646215844646
 10
102.4213522893681
 20
90.75259873468895
 10
102.4442944717763
 20
90.76097462296376
 10
102.4661277640917
 20
90.77147139811535
 10
102.4867229752353
 20
90.78394910314172
 10
102.5059509141283
 20
90.79828931288729
 10
102.5236931556153
 20
90.81438436811973
 10
102.5398097426943
 20
90.83209431183705
 10
102.5541930161328
 20
90.8512791870372
 10
102.5667030189288
 20
90.87185286633434
 10
102.5772213259269
 20
90.89365386087997
 10
102.5856187460482
 20
90.91657451144178
 10
102.5917768541371
 20
90.94049639286419
 10
102.5955556931917
 20
90.96529031406843
 10
102.5968476039796
 20
90.99081631805247
 10
102.5968476039796
 20
90.99081631805247
 10
102.5955556931917
 20
91.0164715131153
 10
102.5917768541371
 20
91.04137309355187
 10
102.5856079801249
 20
91.06538110236013
 10
102.5772213259269
 20
91.08838788030779
 10
102.5667030189288
 20
91.11026423631606
 10
102.5541822502095
 20
91.13088097930611
 10
102.5398097426943
 20
91.15011968412242
 10
102.5236931556153
 20
91.16786192560943
 10
102.5059509141283
 20
91.18397851268836
 10
102.4867229752353
 20
91.19835102020362
 10
102.4661277640917
 20
91.21085025707644
 10
102.4442944717763
 20
91.22134703222804
 10
102.4213522893681
 20
91.2297336864261
 10
102.3974088760992
 20
91.23587026266856
 10
102.372614954895
 20
91.23964910172313
 10
102.3470781849877
 20
91.2409302465878
 10
102.3470781849877
 20
91.2409302465878
 10
102.3214122240016
 20
91.23963833579991
 10
102.2965214094883
 20
91.23587026266856
 10
102.27251340068
 20
91.2297336864261
 10
102.2495066227323
 20
91.22134703222804
 10
102.2276302667241
 20
91.21083949115322
 10
102.207013523734
 20
91.19835102020362
 10
102.1877640529945
 20
91.18397851268836
 10
102.1700218115075
 20
91.16786192560943
 10
102.1539052244286
 20
91.15011968412242
 10
102.1395434828365
 20
91.13088097930611
 10
102.1270442459637
 20
91.11026423631606
 10
102.1165367048889
 20
91.08838788030779
 10
102.108160816614
 20
91.06538110236013
 10
102.1020134744483
 20
91.04137309355187
 10
102.0982346353938
 20
91.0164715131153
 10
102.0969534905291
 20
90.99081631805247
 10
102.0969534905291
 20
90.99081631805247
 10
102.0982346353938
 20
90.96529031406843
 10
102.1020134744483
 20
90.94049639286419
 10
102.1081500506908
 20
90.91657451144178
 10
102.1165367048889
 20
90.89365386087997
 10
102.1270442459637
 20
90.8718421004111
 10
102.1395327169133
 20
90.85128995296044
 10
102.1539052244286
 20
90.83208354591383
 10
102.1700218115075
 20
90.81438436811973
 10
102.1877640529945
 20
90.79830007881051
 10
102.207013523734
 20
90.78394910314172
 10
102.2276302667241
 20
90.77147139811535
 10
102.2495066227323
 20
90.76097462296376
 10
102.27251340068
 20
90.75259873468895
 10
102.2965214094883
 20
90.74646215844646
 10
102.3214229899248
 20
90.74268331939189
 10
102.3470781849877
 20
90.74140217452724
  0
HATCH
  5
B3
330
1F
100
AcDbEntity
  8
ISS138金台
  6
Continuous
 62
   250
420
  2367521
370
    13
100
AcDbHatch
 10
0.0
 20
0.0
 30
0.0
210
0.0
220
0.0
230
1.0
  2
SOLID
 70
     1
 71
     0
 91
        1
 92
        3
 72
     0
 73
     1
 93
       67
 10
104.846828666244
 20
109.6758189366018
 10
104.8724300316907
 20
109.6771000814664
 10
104.8972777825111
 20
109.6808896864443
 10
104.9212642594729
 20
109.6870477945332
 10
104.9442495055741
 20
109.6954344487312
 10
104.9661258615823
 20
109.7059635216525
 10
104.9867426045724
 20
109.7184735244486
 10
105.005992075312
 20
109.7328567978871
 10
105.0237450827222
 20
109.748973384966
 10
105.0398832016476
 20
109.766715626453
 10
105.0542772410093
 20
109.7859435653461
 10
105.0667980097286
 20
109.8065387764897
 10
105.0773163167267
 20
109.828372068805
 10
105.0857245027712
 20
109.8513142512133
 10
105.0918826108601
 20
109.8752468985589
 10
105.0956614499147
 20
109.9000515856864
 10
105.0969533607026
 20
109.9255883555937
 10
105.0969533607026
 20
109.9255883555937
 10
105.0956614499147
 20
109.9511789551171
 10
105.0918826108601
 20
109.9760374718608
 10
105.0857137368479
 20
110.0000239488226
 10
105.0773163167267
 20
110.0230091949238
 10
105.0667980097286
 20
110.0448747850088
 10
105.0542772410093
 20
110.0654915279989
 10
105.0398832016476
 20
110.0847409987384
 10
105.0237450827222
 20
110.1025047720719
 10
105.005992075312
 20
110.1186428909973
 10
104.9867426045724
 20
110.1330261644358
 10
104.9661258615823
 20
110.145546933155
 10
104.9442495055741
 20
110.1560652401531
 10
104.9212642594729
 20
110.1644734261976
 10
104.8972777825111
 20
110.1706207683633
 10
104.8724300316907
 20
110.1744103733411
 10
104.846828666244
 20
110.175702284129
 10
104.846828666244
 20
110.175702284129
 10
104.8212918963367
 20
110.1744103733411
 10
104.7964979751325
 20
110.1706207683633
 10
104.7725545618636
 20
110.1644734261976
 10
104.7496123794554
 20
110.1560760060763
 10
104.72777908714
 20
110.145546933155
 10
104.7071838759964
 20
110.1330261644358
 10
104.6879559371034
 20
110.1186428909973
 10
104.6702244615396
 20
110.1025047720719
 10
104.6540971085374
 20
110.0847517646616
 10
104.6397138350989
 20
110.0654915279989
 10
104.6272038323029
 20
110.0448747850088
 10
104.6166855253048
 20
110.0230091949238
 10
104.6082881051835
 20
110.0000239488226
 10
104.6021299970946
 20
109.9760374718608
 10
104.59835115804
 20
109.9511897210404
 10
104.5970592472521
 20
109.9255883555937
 10
104.5970592472521
 20
109.9255883555937
 10
104.5983619239632
 20
109.9000515856864
 10
104.6021299970946
 20
109.8752468985589
 10
104.6082988711068
 20
109.8513250171365
 10
104.6166855253048
 20
109.828372068805
 10
104.6272145982261
 20
109.8065280105665
 10
104.6397246010222
 20
109.7859435653461
 10
104.6540971085374
 20
109.766715626453
 10
104.6702244615396
 20
109.748973384966
 10
104.6879559371034
 20
109.7328567978871
 10
104.7071838759964
 20
109.7184735244486
 10
104.72777908714
 20
109.7059635216525
 10
104.7496123794554
 20
109.6954452146545
 10
104.7725545618636
 20
109.6870477945332
 10
104.7964979751325
 20
109.6808896864443
 10
104.8212918963367
 20
109.6771108473897
 97
        0
 75
     1
 76
     1
 98
        0
  0
LWPOLYLINE
  5
B4
330
1F
100
AcDbEntity
  8
ISS138金台
  6
Continuous
 62
   250
420
  2367521
370
    13
100
AcDbPolyline
 90
       68
 70
     0
 43
0.0
 10
104.846828666244
 20
109.6758189366018
 10
104.8724300316907
 20
109.6771000814664
 10
104.8972777825111
 20
109.6808896864443
 10
104.9212642594729
 20
109.6870477945332
 10
104.9442495055741
 20
109.6954344487312
 10
104.9661258615823
 20
109.7059635216525
 10
104.9867426045724
 20
109.7184735244486
 10
105.005992075312
 20
109.7328567978871
 10
105.0237450827222
 20
109.748973384966
 10
105.0398832016476
 20
109.766715626453
 10
105.0542772410093
 20
109.7859435653461
 10
105.0667980097286
 20
109.8065387764897
 10
105.0773163167267
 20
109.828372068805
 10
105.0857245027712
 20
109.8513142512133
 10
105.0918826108601
 20
109.8752468985589
 10
105.0956614499147
 20
109.9000515856864
 10
105.0969533607026
 20
109.9255883555937
 10
105.0969533607026
 20
109.9255883555937
 10
105.0956614499147
 20
109.9511789551171
 10
105.0918826108601
 20
109.9760374718608
 10
105.0857137368479
 20
110.0000239488226
 10
105.0773163167267
 20
110.0230091949238
 10
105.0667980097286
 20
110.0448747850088
 10
105.0542772410093
 20
110.0654915279989
 10
105.0398832016476
 20
110.0847409987384
 10
105.0237450827222
 20
110.1025047720719
 10
105.005992075312
 20
110.1186428909973
 10
104.9867426045724
 20
110.1330261644358
 10
104.9661258615823
 20
110.145546933155
 10
104.9442495055741
 20
110.1560652401531
 10
104.9212642594729
 20
110.1644734261976
 10
104.8972777825111
 20
110.1706207683633
 10
104.8724300316907
 20
110.1744103733411
 10
104.846828666244
 20
110.175702284129
 10
104.846828666244
 20
110.175702284129
 10
104.8212918963367
 20
110.1744103733411
 10
104.7964979751325
 20
110.1706207683633
 10
104.7725545618636
 20
110.1644734261976
 10
104.7496123794554
 20
110.1560760060763
 10
104.72777908714
 20
110.145546933155
 10
104.7071838759964
 20
110.1330261644358
 10
104.6879559371034
 20
110.1186428909973
 10
104.6702244615396
 20
110.1025047720719
 10
104.6540971085374
 20
110.0847517646616
 10
104.6397138350989
 20
110.0654915279989
 10
104.6272038323029
 20
110.0448747850088
 10
104.6166855253048
 20
110.0230091949238
 10
104.6082881051835
 20
110.0000239488226
 10
104.6021299970946
 20
109.9760374718608
 10
104.59835115804
 20
109.9511897210404
 10
104.5970592472521
 20
109.9255883555937
 10
104.5970592472521
 20
109.9255883555937
 10
104.5983619239632
 20
109.9000515856864
 10
104.6021299970946
 20
109.8752468985589
 10
104.6082988711068
 20
109.8513250171365
 10
104.6166855253048
 20
109.828372068805
 10
104.6272145982261
 20
109.8065280105665
 10
104.6397246010222
 20
109.7859435653461
 10
104.6540971085374
 20
109.766715626453
 10
104.6702244615396
 20
109.748973384966
 10
104.6879559371034
 20
109.7328567978871
 10
104.7071838759964
 20
109.7184735244486
 10
104.72777908714
 20
109.7059635216525
 10
104.7496123794554
 20
109.6954452146545
 10
104.7725545618636
 20
109.6870477945332
 10
104.7964979751325
 20
109.6808896864443
 10
104.8212918963367
 20
109.6771108473897
 10
104.846828666244
 20
109.6758189366018
  0
HATCH
  5
B5
330
1F
100
AcDbEntity
  8
ISS138金台
  6
Continuous
 62
   250
420
  2367521
370
    13
100
AcDbHatch
 10
0.0
 20
0.0
 30
0.0
210
0.0
220
0.0
230
1.0
  2
SOLID
 70
     1
 71
     0
 91
        1
 92
        3
 72
     0
 73
     1
 93
       67
 10
142.3470262129922
 20
90.7407239213636
 10
142.3725629828995
 20
90.74200506622824
 10
142.3973676700269
 20
90.74580543712929
 10
142.4213218492191
 20
90.75198507706469
 10
142.4443070953203
 20
90.76041479495566
 10
142.4661511535588
 20
90.7709546338002
 10
142.4867786624721
 20
90.78349693436596
 10
142.5060496650581
 20
90.79790173965092
 10
142.5238134383916
 20
90.81406139042278
 10
142.5399730891634
 20
90.83182516375624
 10
142.5543778944484
 20
90.85108540041902
 10
142.5669201950142
 20
90.87171290933233
 10
142.5774600338587
 20
90.89356773349411
 10
142.5858897517497
 20
90.91654221367207
 10
142.5920586257618
 20
90.94049639286419
 10
142.5958589966629
 20
90.9653118459149
 10
142.5971509074508
 20
90.99084861582216
 10
142.5971509074508
 20
90.99084861582216
 10
142.5958589966629
 20
91.01638538572944
 10
142.5920586257618
 20
91.04120083878014
 10
142.5858897517497
 20
91.06514425204901
 10
142.5774600338587
 20
91.08811873222697
 10
142.5669201950142
 20
91.109984322312
 10
142.5543778944484
 20
91.13060106530207
 10
142.5399623232402
 20
91.14986130196485
 10
142.5238134383916
 20
91.16762507529833
 10
142.5060496650581
 20
91.18378472607017
 10
142.4867786624721
 20
91.19818953135513
 10
142.466161919482
 20
91.2107318319209
 10
142.444296329397
 20
91.22128243668865
 10
142.4213326151423
 20
91.2297013886564
 10
142.3973784359502
 20
91.23587026266856
 10
142.3725629828995
 20
91.2396706335696
 10
142.3470262129922
 20
91.2409625443575
 10
142.3470262129922
 20
91.2409625443575
 10
142.3214786771617
 20
91.23965986764637
 10
142.2966739900342
 20
91.23587026266856
 10
142.2727305767654
 20
91.2297013886564
 10
142.2497560965874
 20
91.22128243668865
 10
142.2278905065024
 20
91.2107318319209
 10
142.2072737635123
 20
91.19820029727836
 10
142.1880135268495
 20
91.18378472607017
 10
142.1702389875928
 20
91.16762507529833
 10
142.1540901027442
 20
91.14986130196485
 10
142.139674531536
 20
91.13060106530207
 10
142.1271322309702
 20
91.10997355638878
 10
142.1165816262025
 20
91.08811873222697
 10
142.1081626742347
 20
91.06515501797224
 10
142.1019938002226
 20
91.04120083878014
 10
142.0981934293215
 20
91.01638538572944
 10
142.0969015185336
 20
90.99084861582216
 10
142.0969015185336
 20
90.99084861582216
 10
142.0981934293215
 20
90.9653118459149
 10
142.1019830342993
 20
90.94049639286419
 10
142.108173440158
 20
90.91654221367207
 10
142.1165923921257
 20
90.89356773349411
 10
142.1271322309702
 20
90.87171290933233
 10
142.139674531536
 20
90.85108540041902
 10
142.154079336821
 20
90.83182516375624
 10
142.1702389875928
 20
90.81406139042278
 10
142.1880135268495
 20
90.79790173965092
 10
142.2072737635123
 20
90.78348616844272
 10
142.2278905065024
 20
90.7709546338002
 10
142.2497560965874
 20
90.76040402903244
 10
142.2727305767654
 20
90.75198507706469
 10
142.2966739900342
 20
90.74581620305253
 10
142.3214894430849
 20
90.74201583215148
 97
        0
 75
     1
 76
     1
 98
        0
  0
LWPOLYLINE
  5
B6
330
1F
100
AcDbEntity
  8
ISS138金台
  6
Continuous
 62
   250
420
  2367521
370
    13
100
AcDbPolyline
 90
       68
 70
     0
 43
0.0
 10
142.3470262129922
 20
90.7407239213636
 10
142.3725629828995
 20
90.74200506622824
 10
142.3973676700269
 20
90.74580543712929
 10
142.4213218492191
 20
90.75198507706469
 10
142.4443070953203
 20
90.76041479495566
 10
142.4661511535588
 20
90.7709546338002
 10
142.4867786624721
 20
90.78349693436596
 10
142.5060496650581
 20
90.79790173965092
 10
142.5238134383916
 20
90.81406139042278
 10
142.5399730891634
 20
90.83182516375624
 10
142.5543778944484
 20
90.85108540041902
 10
142.5669201950142
 20
90.87171290933233
 10
142.5774600338587
 20
90.89356773349411
 10
142.5858897517497
 20
90.91654221367207
 10
142.5920586257618
 20
90.94049639286419
 10
142.5958589966629
 20
90.9653118459149
 10
142.5971509074508
 20
90.99084861582216
 10
142.5971509074508
 20
90.99084861582216
 10
142.5958589966629
 20
91.01638538572944
 10
142.5920586257618
 20
91.04120083878014
 10
142.5858897517497
 20
91.06514425204901
 10
142.5774600338587
 20
91.08811873222697
 10
142.5669201950142
 20
91.109984322312
 10
142.5543778944484
 20
91.13060106530207
 10
142.5399623232402
 20
91.14986130196485
 10
142.5238134383916
 20
91.16762507529833
 10
142.5060496650581
 20
91.18378472607017
 10
142.4867786624721
 20
91.19818953135513
 10
142.466161919482
 20
91.2107318319209
 10
142.444296329397
 20
91.22128243668865
 10
142.4213326151423
 20
91.2297013886564
 10
142.3973784359502
 20
91.23587026266856
 10
142.3725629828995
 20
91.2396706335696
 10
142.3470262129922
 20
91.2409625443575
 10
142.3470262129922
 20
91.2409625443575
 10
142.3214786771617
 20
91.23965986764637
 10
142.2966739900342
 20
91.23587026266856
 10
142.2727305767654
 20
91.2297013886564
 10
142.2497560965874
 20
91.22128243668865
 10
142.2278905065024
 20
91.2107318319209
 10
142.2072737635123
 20
91.19820029727836
 10
142.1880135268495
 20
91.18378472607017
 10
142.1702389875928
 20
91.16762507529833
 10
142.1540901027442
 20
91.14986130196485
 10
142.139674531536
 20
91.13060106530207
 10
142.1271322309702
 20
91.10997355638878
 10
142.1165816262025
 20
91.08811873222697
 10
142.1081626742347
 20
91.06515501797224
 10
142.1019938002226
 20
91.04120083878014
 10
142.0981934293215
 20
91.01638538572944
 10
142.0969015185336
 20
90.99084861582216
 10
142.0969015185336
 20
90.99084861582216
 10
142.0981934293215
 20
90.9653118459149
 10
142.1019830342993
 20
90.94049639286419
 10
142.108173440158
 20
90.91654221367207
 10
142.1165923921257
 20
90.89356773349411
 10
142.1271322309702
 20
90.87171290933233
 10
142.139674531536
 20
90.85108540041902
 10
142.154079336821
 20
90.83182516375624
 10
142.1702389875928
 20
90.81406139042278
 10
142.1880135268495
 20
90.79790173965092
 10
142.2072737635123
 20
90.78348616844272
 10
142.2278905065024
 20
90.7709546338002
 10
142.2497560965874
 20
90.76040402903244
 10
142.2727305767654
 20
90.75198507706469
 10
142.2966739900342
 20
90.74581620305253
 10
142.3214894430849
 20
90.74201583215148
 10
142.3470262129922
 20
90.7407239213636
  0
TEXT
  5
B7
330
1F
100
AcDbEntity
  8
ISS138金台
  6
Continuous
 62
   250
420
  2367521
100
AcDbText
 10
95.98067850643147
 20
102.0812890548317
 30
0.0
 40
2.150533301035563
  1
3
 50
90.00000250447816
 41
0.8120040893554685
  7
MS Gothic
100
AcDbText
  0
TEXT
  5
B8
330
1F
100
AcDbEntity
  8
ISS138金台
  6
Continuous
 62
   250
420
  2367521
100
AcDbText
 10
101.7631237429386
 20
111.0290772279098
 30
0.0
 40
2.150533301035563
  1
2.5
 41
0.7473347981770833
  7
MS Gothic
100
AcDbText
  0
LINE
  5
B9
330
1F
100
AcDbEntity
  8
ISS138金台
  6
Continuous
 62
   250
420
  2367521
370
    13
100
AcDbLine
 10
139.8472757317359
 20
105.4278440112507
 30
0.0
 11
139.8472757317359
 21
110.4327064035331
 31
0.0
  0
LINE
  5
BA
330
1F
100
AcDbEntity
  8
ISS138金台
  6
Continuous
 62
   250
420
  2367521
370
    13
100
AcDbLine
 10
142.3473814884589
 20
109.9255883555937
 30
0.0
 11
140.0970128529581
 21
109.9255883555937
 31
0.0
  0
LINE
  5
BB
330
1F
100
AcDbEntity
  8
ISS138金台
  6
Continuous
 62
   250
420
  2367521
370
    13
100
AcDbLine
 10
142.3473814884589
 20
110.4327064035331
 30
0.0
 11
142.3473814884589
 21
105.4278440112507
 31
0.0
  0
HATCH
  5
BC
330
1F
100
AcDbEntity
  8
ISS138金台
  6
Continuous
 62
   250
420
  2367521
370
    13
100
AcDbHatch
 10
0.0
 20
0.0
 30
0.0
210
0.0
220
0.0
230
1.0
  2
SOLID
 70
     1
 71
     0
 91
        1
 92
        3
 72
     0
 73
     1
 93
       67
 10
139.8472757317359
 20
109.6758189366018
 10
139.8728125016431
 20
109.6771000814664
 10
139.8976171887706
 20
109.6808896864443
 10
139.921539070193
 20
109.6870477945332
 10
139.9444812526013
 20
109.6954344487312
 10
139.9663253108399
 20
109.7059635216525
 10
139.9869205219834
 20
109.7184735244486
 10
140.0061484608765
 20
109.7328567978871
 10
140.0238799364403
 20
109.748973384966
 10
140.0400072894425
 20
109.766715626453
 10
140.0543905628809
 20
109.7859435653461
 10
140.066900565677
 20
109.8065387764897
 10
140.0774188726751
 20
109.828372068805
 10
140.0858162927964
 20
109.8513142512133
 10
140.0919744008853
 20
109.8752468985589
 10
140.0957532399399
 20
109.9000515856864
 10
140.0970451507278
 20
109.9255883555937
 10
140.0970451507278
 20
109.9255883555937
 10
140.0957532399399
 20
109.9511789551171
 10
140.0919851668085
 20
109.9760374718608
 10
140.0858055268731
 20
110.0000239488226
 10
140.0774188726751
 20
110.0230091949238
 10
140.0668897997538
 20
110.0448747850088
 10
140.0543797969577
 20
110.0654915279989
 10
140.0400072894425
 20
110.0847409987384
 10
140.0238799364403
 20
110.1025047720719
 10
140.0061484608765
 20
110.1186428909973
 10
139.9869205219834
 20
110.1330261644358
 10
139.9663253108399
 20
110.145546933155
 10
139.9444920185245
 20
110.1560652401531
 10
139.9215498361162
 20
110.1644734261976
 10
139.8976171887706
 20
110.1706207683633
 10
139.8728125016431
 20
110.1744103733411
 10
139.8472757317359
 20
110.175702284129
 10
139.8472757317359
 20
110.175702284129
 10
139.8216851322124
 20
110.1744103733411
 10
139.7968266154688
 20
110.1706207683633
 10
139.772840138507
 20
110.1644734261976
 10
139.7498548924058
 20
110.1560760060763
 10
139.7279893023208
 20
110.145546933155
 10
139.7073617934075
 20
110.1330261644358
 10
139.6881123226679
 20
110.1186428909973
 10
139.6703593152577
 20
110.1025047720719
 10
139.6542211963323
 20
110.0847517646616
 10
139.6398271569706
 20
110.0654915279989
 10
139.6273171541745
 20
110.0448747850088
 10
139.6167880812532
 20
110.0230091949238
 10
139.6083798952087
 20
110.0000239488226
 10
139.6022217871198
 20
109.9760374718608
 10
139.5984429480652
 20
109.9511897210404
 10
139.5971510372773
 20
109.9255883555937
 10
139.5971510372773
 20
109.9255883555937
 10
139.5984429480652
 20
109.9000515856864
 10
139.6022217871198
 20
109.8752468985589
 10
139.6083906611319
 20
109.8513250171365
 10
139.6167880812532
 20
109.828372068805
 10
139.6272956223281
 20
109.8065280105665
 10
139.6398271569706
 20
109.7859435653461
 10
139.6542211963323
 20
109.766715626453
 10
139.6703593152577
 20
109.748973384966
 10
139.6881123226679
 20
109.7328567978871
 10
139.7073617934075
 20
109.7184735244486
 10
139.7279785363975
 20
109.7059635216525
 10
139.7498548924058
 20
109.6954452146545
 10
139.772840138507
 20
109.6870477945332
 10
139.7968266154688
 20
109.6808896864443
 10
139.8216743662892
 20
109.6771108473897
 97
        0
 75
     1
 76
     1
 98
        0
  0
LWPOLYLINE
  5
BD
330
1F
100
AcDbEntity
  8
ISS138金台
  6
Continuous
 62
   250
420
  2367521
370
    13
100
AcDbPolyline
 90
       68
 70
     0
 43
0.0
 10
139.8472757317359
 20
109.6758189366018
 10
139.8728125016431
 20
109.6771000814664
 10
139.8976171887706
 20
109.6808896864443
 10
139.921539070193
 20
109.6870477945332
 10
139.9444812526013
 20
109.6954344487312
 10
139.9663253108399
 20
109.7059635216525
 10
139.9869205219834
 20
109.7184735244486
 10
140.0061484608765
 20
109.7328567978871
 10
140.0238799364403
 20
109.748973384966
 10
140.0400072894425
 20
109.766715626453
 10
140.0543905628809
 20
109.7859435653461
 10
140.066900565677
 20
109.8065387764897
 10
140.0774188726751
 20
109.828372068805
 10
140.0858162927964
 20
109.8513142512133
 10
140.0919744008853
 20
109.8752468985589
 10
140.0957532399399
 20
109.9000515856864
 10
140.0970451507278
 20
109.9255883555937
 10
140.0970451507278
 20
109.9255883555937
 10
140.0957532399399
 20
109.9511789551171
 10
140.0919851668085
 20
109.9760374718608
 10
140.0858055268731
 20
110.0000239488226
 10
140.0774188726751
 20
110.0230091949238
 10
140.0668897997538
 20
110.0448747850088
 10
140.0543797969577
 20
110.0654915279989
 10
140.0400072894425
 20
110.0847409987384
 10
140.0238799364403
 20
110.1025047720719
 10
140.0061484608765
 20
110.1186428909973
 10
139.9869205219834
 20
110.1330261644358
 10
139.9663253108399
 20
110.145546933155
 10
139.9444920185245
 20
110.1560652401531
 10
139.9215498361162
 20
110.1644734261976
 10
139.8976171887706
 20
110.1706207683633
 10
139.8728125016431
 20
110.1744103733411
 10
139.8472757317359
 20
110.175702284129
 10
139.8472757317359
 20
110.175702284129
 10
139.8216851322124
 20
110.1744103733411
 10
139.7968266154688
 20
110.1706207683633
 10
139.772840138507
 20
110.1644734261976
 10
139.7498548924058
 20
110.1560760060763
 10
139.7279893023208
 20
110.145546933155
 10
139.7073617934075
 20
110.1330261644358
 10
139.6881123226679
 20
110.1186428909973
 10
139.6703593152577
 20
110.1025047720719
 10
139.6542211963323
 20
110.0847517646616
 10
139.6398271569706
 20
110.0654915279989
 10
139.6273171541745
 20
110.0448747850088
 10
139.6167880812532
 20
110.0230091949238
 10
139.6083798952087
 20
110.0000239488226
 10
139.6022217871198
 20
109.9760374718608
 10
139.5984429480652
 20
109.9511897210404
 10
139.5971510372773
 20
109.9255883555937
 10
139.5971510372773
 20
109.9255883555937
 10
139.5984429480652
 20
109.9000515856864
 10
139.6022217871198
 20
109.8752468985589
 10
139.6083906611319
 20
109.8513250171365
 10
139.6167880812532
 20
109.828372068805
 10
139.6272956223281
 20
109.8065280105665
 10
139.6398271569706
 20
109.7859435653461
 10
139.6542211963323
 20
109.766715626453
 10
139.6703593152577
 20
109.748973384966
 10
139.6881123226679
 20
109.7328567978871
 10
139.7073617934075
 20
109.7184735244486
 10
139.7279785363975
 20
109.7059635216525
 10
139.7498548924058
 20
109.6954452146545
 10
139.772840138507
 20
109.6870477945332
 10
139.7968266154688
 20
109.6808896864443
 10
139.8216743662892
 20
109.6771108473897
 10
139.8472757317359
 20
109.6758189366018
  0
HATCH
  5
BE
330
1F
100
AcDbEntity
  8
ISS138金台
  6
Continuous
 62
   250
420
  2367521
370
    13
100
AcDbHatch
 10
0.0
 20
0.0
 30
0.0
210
0.0
220
0.0
230
1.0
  2
SOLID
 70
     1
 71
     0
 91
        1
 92
        3
 72
     0
 73
     1
 93
       67
 10
142.3473814884589
 20
109.6758189366018
 10
142.3729182583662
 20
109.6771000814664
 10
142.3977121795704
 20
109.6808896864443
 10
142.421644826916
 20
109.6870477945332
 10
142.4446085411708
 20
109.6954344487312
 10
142.4664310675628
 20
109.7059635216525
 10
142.4870262787065
 20
109.7184735244486
 10
142.5062542175995
 20
109.7328567978871
 10
142.5239856931633
 20
109.748973384966
 10
142.5401130461655
 20
109.766715626453
 10
142.5544855536807
 20
109.7859435653461
 10
142.5670063224
 20
109.8065387764897
 10
142.5775246293981
 20
109.828372068805
 10
142.5859220495194
 20
109.8513142512133
 10
142.5920801576083
 20
109.8752468985589
 10
142.5958589966629
 20
109.9000515856864
 10
142.5971509074508
 20
109.9255883555937
 10
142.5971509074508
 20
109.9255883555937
 10
142.5958589966629
 20
109.9511789551171
 10
142.5920693916851
 20
109.9760374718608
 10
142.5859220495194
 20
110.0000239488226
 10
142.5775138634748
 20
110.0230091949238
 10
142.5670063224
 20
110.0448747850088
 10
142.554496319604
 20
110.0654915279989
 10
142.5401130461655
 20
110.0847409987384
 10
142.5239856931633
 20
110.1025047720719
 10
142.5062542175995
 20
110.1186428909973
 10
142.4870262787065
 20
110.1330261644358
 10
142.4664310675628
 20
110.145546933155
 10
142.4445977752475
 20
110.1560652401531
 10
142.4216555928393
 20
110.1644734261976
 10
142.3977121795704
 20
110.1706207683633
 10
142.3729182583662
 20
110.1744103733411
 10
142.3473814884589
 20
110.175702284129
 10
142.3473814884589
 20
110.175702284129
 10
142.3217801230122
 20
110.1744103733411
 10
142.2969216062686
 20
110.1706207683633
 10
142.27294589523
 20
110.1644734261976
 10
142.2499606491288
 20
110.1560760060763
 10
142.2280950590438
 20
110.145546933155
 10
142.2074675501305
 20
110.1330261644358
 10
142.1882180793909
 20
110.1186428909973
 10
142.1704650719807
 20
110.1025047720719
 10
142.1543269530553
 20
110.0847517646616
 10
142.1399329136936
 20
110.0654915279989
 10
142.1274121449743
 20
110.0448747850088
 10
142.1168938379762
 20
110.0230091949238
 10
142.1084856519317
 20
110.0000239488226
 10
142.1023275438428
 20
109.9760374718608
 10
142.0985487047882
 20
109.9511897210404
 10
142.0972567940003
 20
109.9255883555937
 10
142.0972567940003
 20
109.9255883555937
 10
142.098537938865
 20
109.9000515856864
 10
142.1023275438428
 20
109.8752468985589
 10
142.108496417855
 20
109.8513250171365
 10
142.1168938379762
 20
109.828372068805
 10
142.1274121449743
 20
109.8065280105665
 10
142.1399329136936
 20
109.7859435653461
 10
142.1543269530553
 20
109.766715626453
 10
142.1704650719807
 20
109.748973384966
 10
142.1882180793909
 20
109.7328567978871
 10
142.2074675501305
 20
109.7184735244486
 10
142.2280950590438
 20
109.7059635216525
 10
142.2499606491288
 20
109.6954452146545
 10
142.27294589523
 20
109.6870477945332
 10
142.2969323721918
 20
109.6808896864443
 10
142.3217801230122
 20
109.6771108473897
 97
        0
 75
     1
 76
     1
 98
        0
  0
LWPOLYLINE
  5
BF
330
1F
100
AcDbEntity
  8
ISS138金台
  6
Continuous
 62
   250
420
  2367521
370
    13
100
AcDbPolyline
 90
       68
 70
     0
 43
0.0
 10
142.3473814884589
 20
109.6758189366018
 10
142.3729182583662
 20
109.6771000814664
 10
142.3977121795704
 20
109.6808896864443
 10
142.421644826916
 20
109.6870477945332
 10
142.4446085411708
 20
109.6954344487312
 10
142.4664310675628
 20
109.7059635216525
 10
142.4870262787065
 20
109.7184735244486
 10
142.5062542175995
 20
109.7328567978871
 10
142.5239856931633
 20
109.748973384966
 10
142.5401130461655
 20
109.766715626453
 10
142.5544855536807
 20
109.7859435653461
 10
142.5670063224
 20
109.8065387764897
 10
142.5775246293981
 20
109.828372068805
 10
142.5859220495194
 20
109.8513142512133
 10
142.5920801576083
 20
109.8752468985589
 10
142.5958589966629
 20
109.9000515856864
 10
142.5971509074508
 20
109.9255883555937
 10
142.5971509074508
 20
109.9255883555937
 10
142.5958589966629
 20
109.9511789551171
 10
142.5920693916851
 20
109.9760374718608
 10
142.5859220495194
 20
110.0000239488226
 10
142.5775138634748
 20
110.0230091949238
 10
142.5670063224
 20
110.0448747850088
 10
142.554496319604
 20
110.0654915279989
 10
142.5401130461655
 20
110.0847409987384
 10
142.5239856931633
 20
110.1025047720719
 10
142.5062542175995
 20
110.1186428909973
 10
142.4870262787065
 20
110.1330261644358
 10
142.4664310675628
 20
110.145546933155
 10
142.4445977752475
 20
110.1560652401531
 10
142.4216555928393
 20
110.1644734261976
 10
142.3977121795704
 20
110.1706207683633
 10
142.3729182583662
 20
110.1744103733411
 10
142.3473814884589
 20
110.175702284129
 10
142.3473814884589
 20
110.175702284129
 10
142.3217801230122
 20
110.1744103733411
 10
142.2969216062686
 20
110.1706207683633
 10
142.27294589523
 20
110.1644734261976
 10
142.2499606491288
 20
110.1560760060763
 10
142.2280950590438
 20
110.145546933155
 10
142.2074675501305
 20
110.1330261644358
 10
142.1882180793909
 20
110.1186428909973
 10
142.1704650719807
 20
110.1025047720719
 10
142.1543269530553
 20
110.0847517646616
 10
142.1399329136936
 20
110.0654915279989
 10
142.1274121449743
 20
110.0448747850088
 10
142.1168938379762
 20
110.0230091949238
 10
142.1084856519317
 20
110.0000239488226
 10
142.1023275438428
 20
109.9760374718608
 10
142.0985487047882
 20
109.9511897210404
 10
142.0972567940003
 20
109.9255883555937
 10
142.0972567940003
 20
109.9255883555937
 10
142.098537938865
 20
109.9000515856864
 10
142.1023275438428
 20
109.8752468985589
 10
142.108496417855
 20
109.8513250171365
 10
142.1168938379762
 20
109.828372068805
 10
142.1274121449743
 20
109.8065280105665
 10
142.1399329136936
 20
109.7859435653461
 10
142.1543269530553
 20
109.766715626453
 10
142.1704650719807
 20
109.748973384966
 10
142.1882180793909
 20
109.7328567978871
 10
142.2074675501305
 20
109.7184735244486
 10
142.2280950590438
 20
109.7059635216525
 10
142.2499606491288
 20
109.6954452146545
 10
142.27294589523
 20
109.6870477945332
 10
142.2969323721918
 20
109.6808896864443
 10
142.3217801230122
 20
109.6771108473897
 10
142.3473814884589
 20
109.6758189366018
  0
TEXT
  5
C0
330
1F
100
AcDbEntity
  8
ISS138金台
  6
Continuous
 62
   250
420
  2367521
100
AcDbText
 10
139.2629875460665
 20
111.0290772279098
 30
0.0
 40
2.150533301035563
  1
2.5
 41
0.7473347981770833
  7
MS Gothic
100
AcDbText
  0
TEXT
  5
C1
330
1F
100
AcDbEntity
  8
ISS138金台
  6
Continuous
 62
   250
420
  2367521
100
AcDbText
 10
120.653249496835
 20
92.04963737487736
 30
0.0
 40
2.150533301035563
  1
40
 41
0.976001739501953
  7
MS Gothic
100
AcDbText
  0
LINE
  5
C2
330
1F
100
AcDbEntity
  8
ISS138金台
  6
Continuous
 62
   250
420
  2367521
370
    13
100
AcDbLine
 10
101.3469562144665
 20
104.4280880821195
 30
0.0
 11
96.34174931264069
 21
104.4280880821195
 31
0.0
  0
LINE
  5
C3
330
1F
100
AcDbEntity
  8
ISS138金台
  6
Continuous
 62
   250
420
  2367521
370
    13
100
AcDbLine
 10
101.3469562144665
 20
101.4280989778692
 30
0.0
 11
96.34174931264069
 21
101.4280989778692
 31
0.0
  0
HATCH
  5
C4
330
1F
100
AcDbEntity
  8
ISS138金台
  6
Continuous
 62
   250
420
  2367521
370
    13
100
AcDbHatch
 10
0.0
 20
0.0
 30
0.0
210
0.0
220
0.0
230
1.0
  2
SOLID
 70
     1
 71
     0
 91
        1
 92
        3
 72
     0
 73
     1
 93
       67
 10
96.84903961535181
 20
101.1779635174874
 10
96.82351361136776
 20
101.1792446623521
 10
96.79868739239383
 20
101.1830342673299
 10
96.77473321320173
 20
101.1891708435724
 10
96.751769498947
 20
101.1975467318472
 10
96.72990390886197
 20
101.208054272922
 10
96.70927639994866
 20
101.2205535097948
 10
96.69002692920913
 20
101.2349152513869
 10
96.67225238995242
 20
101.2510318384658
 10
96.65609273918056
 20
101.2687740799528
 10
96.64168793389561
 20
101.2880235506923
 10
96.62914563332984
 20
101.3086402936824
 10
96.61859502856208
 20
101.3305166496907
 10
96.61017607659434
 20
101.3535234276383
 10
96.60400720258218
 20
101.3775314364466
 10
96.60020683168113
 20
101.4024330168832
 10
96.59891492089324
 20
101.428088211946
 10
96.59891492089324
 20
101.428088211946
 10
96.60020683168113
 20
101.4536249818533
 10
96.60399643665895
 20
101.478397371211
 10
96.61017607659434
 20
101.5023192526334
 10
96.61860579448532
 20
101.5252399031952
 10
96.62914563332984
 20
101.5470624295873
 10
96.64168793389561
 20
101.567614577038
 10
96.6561035051038
 20
101.5868102181614
 10
96.67225238995242
 20
101.6045201618787
 10
96.69002692920913
 20
101.6206044511879
 10
96.7092871658719
 20
101.6349446609335
 10
96.72990390886197
 20
101.6474223659599
 10
96.751769498947
 20
101.6579191411114
 10
96.77473321320173
 20
101.6662950293863
 10
96.79868739239383
 20
101.6724316056287
 10
96.82350284544454
 20
101.6762104446833
 10
96.84903961535181
 20
101.677491589548
 10
96.84903961535181
 20
101.677491589548
 10
96.87458715118231
 20
101.6761996787601
 10
96.89938107238655
 20
101.672442371552
 10
96.92333525157866
 20
101.6663057953095
 10
96.94630973175663
 20
101.6579191411114
 10
96.96817532184164
 20
101.6474331318831
 10
96.98880283075495
 20
101.6349446609335
 10
97.0080523014945
 20
101.6206044511879
 10
97.0258268407512
 20
101.6045201618787
 10
97.04197572559983
 20
101.5868102181614
 10
97.05639129680802
 20
101.567614577038
 10
97.06893359737377
 20
101.5470516636641
 10
97.07948420214153
 20
101.5252506691185
 10
97.08790315410928
 20
101.5023300185567
 10
97.09407202812145
 20
101.4784081371343
 10
97.09787239902249
 20
101.4536249818533
 10
97.09916430981038
 20
101.428088211946
 10
97.09916430981038
 20
101.428088211946
 10
97.09787239902249
 20
101.4024222509599
 10
97.09407202812145
 20
101.3775314364466
 10
97.08790315410928
 20
101.3535234276383
 10
97.07948420214153
 20
101.3305058837674
 10
97.06893359737377
 20
101.3086402936824
 10
97.05639129680802
 20
101.2880235506923
 10
97.04197572559983
 20
101.2687740799528
 10
97.0258268407512
 20
101.2510318384658
 10
97.0080523014945
 20
101.2349152513869
 10
96.98879206483171
 20
101.2205427438716
 10
96.96817532184164
 20
101.208054272922
 10
96.94630973175663
 20
101.1975467318472
 10
96.9233460175019
 20
101.1891600776491
 10
96.89939183830978
 20
101.1830235014067
 10
96.87457638525908
 20
101.1792446623521
 97
        0
 75
     1
 76
     1
 98
        0
  0
LWPOLYLINE
  5
C5
330
1F
100
AcDbEntity
  8
ISS138金台
  6
Continuous
 62
   250
420
  2367521
370
    13
100
AcDbPolyline
 90
       68
 70
     0
 43
0.0
 10
96.84903961535181
 20
101.1779635174874
 10
96.82351361136776
 20
101.1792446623521
 10
96.79868739239383
 20
101.1830342673299
 10
96.77473321320173
 20
101.1891708435724
 10
96.751769498947
 20
101.1975467318472
 10
96.72990390886197
 20
101.208054272922
 10
96.70927639994866
 20
101.2205535097948
 10
96.69002692920913
 20
101.2349152513869
 10
96.67225238995242
 20
101.2510318384658
 10
96.65609273918056
 20
101.2687740799528
 10
96.64168793389561
 20
101.2880235506923
 10
96.62914563332984
 20
101.3086402936824
 10
96.61859502856208
 20
101.3305166496907
 10
96.61017607659434
 20
101.3535234276383
 10
96.60400720258218
 20
101.3775314364466
 10
96.60020683168113
 20
101.4024330168832
 10
96.59891492089324
 20
101.428088211946
 10
96.59891492089324
 20
101.428088211946
 10
96.60020683168113
 20
101.4536249818533
 10
96.60399643665895
 20
101.478397371211
 10
96.61017607659434
 20
101.5023192526334
 10
96.61860579448532
 20
101.5252399031952
 10
96.62914563332984
 20
101.5470624295873
 10
96.64168793389561
 20
101.567614577038
 10
96.6561035051038
 20
101.5868102181614
 10
96.67225238995242
 20
101.6045201618787
 10
96.69002692920913
 20
101.6206044511879
 10
96.7092871658719
 20
101.6349446609335
 10
96.72990390886197
 20
101.6474223659599
 10
96.751769498947
 20
101.6579191411114
 10
96.77473321320173
 20
101.6662950293863
 10
96.79868739239383
 20
101.6724316056287
 10
96.82350284544454
 20
101.6762104446833
 10
96.84903961535181
 20
101.677491589548
 10
96.84903961535181
 20
101.677491589548
 10
96.87458715118231
 20
101.6761996787601
 10
96.89938107238655
 20
101.672442371552
 10
96.92333525157866
 20
101.6663057953095
 10
96.94630973175663
 20
101.6579191411114
 10
96.96817532184164
 20
101.6474331318831
 10
96.98880283075495
 20
101.6349446609335
 10
97.0080523014945
 20
101.6206044511879
 10
97.0258268407512
 20
101.6045201618787
 10
97.04197572559983
 20
101.5868102181614
 10
97.05639129680802
 20
101.567614577038
 10
97.06893359737377
 20
101.5470516636641
 10
97.07948420214153
 20
101.5252506691185
 10
97.08790315410928
 20
101.5023300185567
 10
97.09407202812145
 20
101.4784081371343
 10
97.09787239902249
 20
101.4536249818533
 10
97.09916430981038
 20
101.428088211946
 10
97.09916430981038
 20
101.428088211946
 10
97.09787239902249
 20
101.4024222509599
 10
97.09407202812145
 20
101.3775314364466
 10
97.08790315410928
 20
101.3535234276383
 10
97.07948420214153
 20
101.3305058837674
 10
97.06893359737377
 20
101.3086402936824
 10
97.05639129680802
 20
101.2880235506923
 10
97.04197572559983
 20
101.2687740799528
 10
97.0258268407512
 20
101.2510318384658
 10
97.0080523014945
 20
101.2349152513869
 10
96.98879206483171
 20
101.2205427438716
 10
96.96817532184164
 20
101.208054272922
 10
96.94630973175663
 20
101.1975467318472
 10
96.9233460175019
 20
101.1891600776491
 10
96.89939183830978
 20
101.1830235014067
 10
96.87457638525908
 20
101.1792446623521
 10
96.84903961535181
 20
101.1779635174874
  0
HATCH
  5
C6
330
1F
100
AcDbEntity
  8
ISS138金台
  6
Continuous
 62
   250
420
  2367521
370
    13
100
AcDbHatch
 10
0.0
 20
0.0
 30
0.0
210
0.0
220
0.0
230
1.0
  2
SOLID
 70
     1
 71
     0
 91
        1
 92
        3
 72
     0
 73
     1
 93
       67
 10
96.84903961535181
 20
104.1779526217376
 10
96.82351361136776
 20
104.1792445325255
 10
96.79871969016352
 20
104.1830449034266
 10
96.77479780874111
 20
104.189224543362
 10
96.75187715817933
 20
104.1976434953297
 10
96.7300761636337
 20
104.2081833341743
 10
96.70951325025979
 20
104.22072563474
 10
96.6903176091364
 20
104.2351412059482
 10
96.6726076654191
 20
104.2512900907968
 10
96.65652337610987
 20
104.2690538641303
 10
96.64217240044107
 20
104.2883141007931
 10
96.62969469541471
 20
104.3089416097064
 10
96.6191979202631
 20
104.3307964338682
 10
96.61082203198829
 20
104.3537709140461
 10
96.60468545574582
 20
104.3777250932383
 10
96.60090661669125
 20
104.4025405462889
 10
96.59962547182658
 20
104.4280773161962
 10
96.59962547182658
 20
104.4280773161962
 10
96.60090661669125
 20
104.4536140861035
 10
96.60467468982259
 20
104.478418773231
 10
96.61082203198829
 20
104.5023837183463
 10
96.61920868618634
 20
104.5253581985243
 10
96.62969469541471
 20
104.5472130226861
 10
96.64217240044107
 20
104.5678297656761
 10
96.65652337610987
 20
104.5870900023389
 10
96.6726076654191
 20
104.6048537756724
 10
96.69030684321316
 20
104.6210134264442
 10
96.70951325025979
 20
104.6354182317292
 10
96.73006539771046
 20
104.6479712982182
 10
96.75187715817933
 20
104.6585111370627
 10
96.77479780874111
 20
104.6669300890305
 10
96.79871969016352
 20
104.6730989630426
 10
96.82350284544454
 20
104.6768993339437
 10
96.84903961535181
 20
104.6781912447316
 10
96.84903961535181
 20
104.6781912447316
 10
96.87469481041464
 20
104.6768993339437
 10
96.89958562492797
 20
104.6730989630426
 10
96.92360439965947
 20
104.6669408549537
 10
96.94661117760714
 20
104.6585111370627
 10
96.96848753361539
 20
104.6479712982182
 10
96.98911504252868
 20
104.6354289976524
 10
97.00835374734501
 20
104.6210134264442
 10
97.02609598883201
 20
104.6048537756724
 10
97.04221257591092
 20
104.5870900023389
 10
97.05657431750296
 20
104.5678297656761
 10
97.06907355437579
 20
104.5472022567628
 10
97.07958109545062
 20
104.525347432601
 10
97.08795698372543
 20
104.5023837183463
 10
97.09410432589115
 20
104.4784295391542
 10
97.09788316494573
 20
104.4536140861035
 10
97.09916430981038
 20
104.4280773161962
 10
97.09916430981038
 20
104.4280773161962
 10
97.09787239902249
 20
104.4025297803657
 10
97.09410432589115
 20
104.3777250932383
 10
97.08795698372543
 20
104.3537709140461
 10
97.07958109545062
 20
104.3307964338682
 10
97.06908432029903
 20
104.3089416097064
 10
97.0565850834262
 20
104.2883248667163
 10
97.04221257591092
 20
104.2690538641303
 10
97.02609598883201
 20
104.2512900907968
 10
97.00835374734501
 20
104.235130440025
 10
96.98910427660545
 20
104.22072563474
 10
96.96848753361539
 20
104.2081833341743
 10
96.94661117760714
 20
104.1976327294065
 10
96.92360439965947
 20
104.1892137774388
 10
96.8995963908512
 20
104.1830449034266
 10
96.87469481041464
 20
104.1792445325255
 97
        0
 75
     1
 76
     1
 98
        0
  0
LWPOLYLINE
  5
C7
330
1F
100
AcDbEntity
  8
ISS138金台
  6
Continuous
 62
   250
420
  2367521
370
    13
100
AcDbPolyline
 90
       68
 70
     0
 43
0.0
 10
96.84903961535181
 20
104.1779526217376
 10
96.82351361136776
 20
104.1792445325255
 10
96.79871969016352
 20
104.1830449034266
 10
96.77479780874111
 20
104.189224543362
 10
96.75187715817933
 20
104.1976434953297
 10
96.7300761636337
 20
104.2081833341743
 10
96.70951325025979
 20
104.22072563474
 10
96.6903176091364
 20
104.2351412059482
 10
96.6726076654191
 20
104.2512900907968
 10
96.65652337610987
 20
104.2690538641303
 10
96.64217240044107
 20
104.2883141007931
 10
96.62969469541471
 20
104.3089416097064
 10
96.6191979202631
 20
104.3307964338682
 10
96.61082203198829
 20
104.3537709140461
 10
96.60468545574582
 20
104.3777250932383
 10
96.60090661669125
 20
104.4025405462889
 10
96.59962547182658
 20
104.4280773161962
 10
96.59962547182658
 20
104.4280773161962
 10
96.60090661669125
 20
104.4536140861035
 10
96.60467468982259
 20
104.478418773231
 10
96.61082203198829
 20
104.5023837183463
 10
96.61920868618634
 20
104.5253581985243
 10
96.62969469541471
 20
104.5472130226861
 10
96.64217240044107
 20
104.5678297656761
 10
96.65652337610987
 20
104.5870900023389
 10
96.6726076654191
 20
104.6048537756724
 10
96.69030684321316
 20
104.6210134264442
 10
96.70951325025979
 20
104.6354182317292
 10
96.73006539771046
 20
104.6479712982182
 10
96.75187715817933
 20
104.6585111370627
 10
96.77479780874111
 20
104.6669300890305
 10
96.79871969016352
 20
104.6730989630426
 10
96.82350284544454
 20
104.6768993339437
 10
96.84903961535181
 20
104.6781912447316
 10
96.84903961535181
 20
104.6781912447316
 10
96.87469481041464
 20
104.6768993339437
 10
96.89958562492797
 20
104.6730989630426
 10
96.92360439965947
 20
104.6669408549537
 10
96.94661117760714
 20
104.6585111370627
 10
96.96848753361539
 20
104.6479712982182
 10
96.98911504252868
 20
104.6354289976524
 10
97.00835374734501
 20
104.6210134264442
 10
97.02609598883201
 20
104.6048537756724
 10
97.04221257591092
 20
104.5870900023389
 10
97.05657431750296
 20
104.5678297656761
 10
97.06907355437579
 20
104.5472022567628
 10
97.07958109545062
 20
104.525347432601
 10
97.08795698372543
 20
104.5023837183463
 10
97.09410432589115
 20
104.4784295391542
 10
97.09788316494573
 20
104.4536140861035
 10
97.09916430981038
 20
104.4280773161962
 10
97.09916430981038
 20
104.4280773161962
 10
97.09787239902249
 20
104.4025297803657
 10
97.09410432589115
 20
104.3777250932383
 10
97.08795698372543
 20
104.3537709140461
 10
97.07958109545062
 20
104.3307964338682
 10
97.06908432029903
 20
104.3089416097064
 10
97.0565850834262
 20
104.2883248667163
 10
97.04221257591092
 20
104.2690538641303
 10
97.02609598883201
 20
104.2512900907968
 10
97.00835374734501
 20
104.235130440025
 10
96.98910427660545
 20
104.22072563474
 10
96.96848753361539
 20
104.2081833341743
 10
96.94661117760714
 20
104.1976327294065
 10
96.92360439965947
 20
104.1892137774388
 10
96.8995963908512
 20
104.1830449034266
 10
96.87469481041464
 20
104.1792445325255
 10
96.84903961535181
 20
104.1779526217376
  0
LINE
  5
C8
330
1F
100
AcDbEntity
  8
ISS138金台
  6
Continuous
 62
   250
420
  2367521
370
    13
100
AcDbLine
 10
96.84903961535181
 20
101.4280989778692
 30
0.0
 11
96.84903961535181
 21
104.4281203798892
 31
0.0
  0
LINE
  5
C9
330
1F
100
AcDbEntity
  8
ISS138金台
  6
UserDefined01
 62
   140
420
    44526
370
    13
100
AcDbLine
 10
122.3472136878384
 20
96.47403021139729
 30
0.0
 11
142.3468862559902
 21
96.47403021139729
 31
0.0
  0
TEXT
  5
CA
330
1F
100
AcDbEntity
  8
ISS138金台
  6
Continuous
 62
   140
420
    44526
100
AcDbText
 10
131.0805090821224
 20
97.26320485435737
 30
0.0
 40
1.881716638406118
  1
20
 41
1.064251491001674
  7
MS Gothic
100
AcDbText
  0
HATCH
  5
CB
330
1F
100
AcDbEntity
  8
ISS138金台
  6
Continuous
 62
   140
420
    44526
370
    25
100
AcDbHatch
 10
0.0
 20
0.0
 30
0.0
210
0.0
220
0.0
230
1.0
  2
SOLID
 70
     1
 71
     0
 91
        1
 92
        3
 72
     0
 73
     1
 93
        3
 10
121.481138227484
 20
104.3991492804707
 10
123.2132783822696
 20
104.3984387295374
 10
122.3479134728485
 20
102.9005542983658
 97
        0
 75
     1
 76
     1
 98
        0
  0
LWPOLYLINE
  5
CC
330
1F
100
AcDbEntity
  8
ISS138金台
  6
Continuous
 62
   140
420
    44526
370
    25
100
AcDbPolyline
 90
        4
 70
     0
 43
0.0
 10
121.481138227484
 20
104.3991492804707
 10
123.2132783822696
 20
104.3984387295374
 10
122.3479134728485
 20
102.9005542983658
 10
121.481138227484
 20
104.3991492804707
  0
ENDSEC
  0
SECTION
  2
OBJECTS
  0
DICTIONARY
  5
C
330
0
100
AcDbDictionary
281
     1
  3
ACAD_DETAILVIEWSTYLE
350
D4
  3
ACAD_GROUP
350
D
  3
ACAD_LAYOUT
350
1A
  3
ACAD_MATERIAL
350
43
  3
ACAD_MLEADERSTYLE
350
5B
  3
ACAD_MLINESTYLE
350
17
  3
ACAD_PLOTSETTINGS
350
19
  3
ACAD_PLOTSTYLENAME
350
E
  3
ACAD_SCALELIST
350
47
  3
ACAD_SECTIONVIEWSTYLE
350
D5
  3
ACAD_TABLESTYLE
350
59
  3
ACAD_VISUALSTYLE
350
2A
  3
ACDB_RECOMPOSE_DATA
350
D1
  3
AcDbVariableDictionary
350
CD
  0
SUN
  5
5D
330
29
100
AcDbSun
 90
        1
290
     0
 63
     7
421
 16777215
 40
1.0
291
     1
 91
  2455826
 92
 54000000
292
     0
 70
     2
 71
   256
280
     1
  0
DICTIONARY
  5
D4
102
{ACAD_REACTORS
330
C
102
}
330
C
100
AcDbDictionary
281
     1
  0
DICTIONARY
  5
D
102
{ACAD_REACTORS
330
C
102
}
330
C
100
AcDbDictionary
281
     1
  0
DICTIONARY
  5
1A
102
{ACAD_REACTORS
330
C
102
}
330
C
100
AcDbDictionary
281
     1
  3
Layout1
350
1E
  3
Layout2
350
26
  3
Model
350
22
  0
DICTIONARY
  5
43
102
{ACAD_REACTORS
330
C
102
}
330
C
100
AcDbDictionary
281
     1
  3
ByBlock
350
45
  3
ByLayer
350
44
  3
Global
350
46
  0
DICTIONARY
  5
5B
102
{ACAD_REACTORS
330
C
102
}
330
C
100
AcDbDictionary
281
     1
  3
Standard
350
5C
  0
DICTIONARY
  5
17
102
{ACAD_REACTORS
330
C
102
}
330
C
100
AcDbDictionary
281
     1
  3
Standard
350
18
  0
DICTIONARY
  5
19
102
{ACAD_REACTORS
330
C
102
}
330
C
100
AcDbDictionary
281
     1
  0
ACDBDICTIONARYWDFLT
  5
E
102
{ACAD_REACTORS
330
C
102
}
330
C
100
AcDbDictionary
281
     1
  3
Normal
350
F
100
AcDbDictionaryWithDefault
340
F
  0
DICTIONARY
  5
47
102
{ACAD_REACTORS
330
C
102
}
330
C
100
AcDbDictionary
281
     1
  3
A0
350
48
  3
A1
350
49
  3
A2
350
4A
  3
A3
350
4B
  3
A4
350
4C
  3
A5
350
4D
  3
A6
350
4E
  3
A7
350
4F
  3
A8
350
50
  3
A9
350
51
  3
B0
350
52
  3
B1
350
53
  3
B2
350
54
  3
B3
350
55
  3
B4
350
56
  3
B5
350
57
  3
B6
350
58
  0
DICTIONARY
  5
D5
102
{ACAD_REACTORS
330
C
102
}
330
C
100
AcDbDictionary
281
     1
  0
DICTIONARY
  5
59
102
{ACAD_REACTORS
330
C
102
}
330
C
100
AcDbDictionary
281
     1
  3
Standard
350
5A
  0
DICTIONARY
  5
2A
102
{ACAD_REACTORS
330
C
102
}
330
C
100
AcDbDictionary
281
     1
  3
2dWireframe
350
2F
  3
Basic
350
32
  3
Brighten
350
36
  3
ColorChange
350
3A
  3
Conceptual
350
34
  3
Dim
350
35
  3
EdgeColorOff
350
3D
  3
Facepattern
350
39
  3
Flat
350
2B
  3
FlatWithEdges
350
2C
  3
Gouraud
350
2D
  3
GouraudWithEdges
350
2E
  3
Hidden
350
31
  3
JitterOff
350
3B
  3
Linepattern
350
38
  3
OverhangOff
350
3C
  3
Realistic
350
33
  3
Shaded
350
42
  3
Shaded with edges
350
41
  3
Shades of Gray
350
3E
  3
Sketchy
350
3F
  3
Thicken
350
37
  3
Wireframe
350
30
  3
X-Ray
350
40
  0
XRECORD
  5
D1
102
{ACAD_REACTORS
330
C
102
}
330
C
100
AcDbXrecord
280
     1
 90
        1
330
5A
  0
DICTIONARY
  5
CD
102
{ACAD_REACTORS
330
C
102
}
330
C
100
AcDbDictionary
281
     1
  3
CANNOSCALE
350
CE
  3
CENTEREXE
350
D6
  3
CENTERLTYPEFILE
350
D7
  3
CMLEADERSTYLE
350
D3
  3
CTABLESTYLE
350
D2
  0
LAYOUT
  5
1E
102
{ACAD_REACTORS
330
1A
102
}
330
1A
100
AcDbPlotSettings
  1

  2
none_device
  4

  6

 40
0.0
 41
0.0
 42
0.0
 43
0.0
 44
0.0
 45
0.0
 46
0.0
 47
0.0
 48
0.0
 49
0.0
140
0.0
141
0.0
142
1.0
143
1.0
 70
   688
 72
     1
 73
     0
 74
     5
  7

 75
    16
 76
     0
 77
     5
 78
   300
147
1.0
148
0.0
149
0.0
100
AcDbLayout
  1
Layout1
 70
     1
 71
     1
 10
0.0
 20
0.0
 11
420.0
 21
297.0
 12
0.0
 22
0.0
 32
0.0
 14
1.000000000000000E+20
 24
1.000000000000000E+20
 34
1.000000000000000E+20
 15
-1.000000000000000E+20
 25
-1.000000000000000E+20
 35
-1.000000000000000E+20
146
0.0
 13
0.0
 23
0.0
 33
0.0
 16
1.0
 26
0.0
 36
0.0
 17
0.0
 27
1.0
 37
0.0
 76
     0
330
1B
  0
LAYOUT
  5
26
102
{ACAD_REACTORS
330
1A
102
}
330
1A
100
AcDbPlotSettings
  1

  2
none_device
  4

  6

 40
0.0
 41
0.0
 42
0.0
 43
0.0
 44
0.0
 45
0.0
 46
0.0
 47
0.0
 48
0.0
 49
0.0
140
0.0
141
0.0
142
1.0
143
1.0
 70
   688
 72
     1
 73
     0
 74
     5
  7

 75
    16
 76
     0
 77
     5
 78
   300
147
1.0
148
0.0
149
0.0
100
AcDbLayout
  1
Layout2
 70
     1
 71
     2
 10
0.0
 20
0.0
 11
0.0
 21
0.0
 12
0.0
 22
0.0
 32
0.0
 14
0.0
 24
0.0
 34
0.0
 15
0.0
 25
0.0
 35
0.0
146
0.0
 13
0.0
 23
0.0
 33
0.0
 16
1.0
 26
0.0
 36
0.0
 17
0.0
 27
1.0
 37
0.0
 76
     0
330
23
  0
LAYOUT
  5
22
102
{ACAD_REACTORS
330
1A
102
}
330
1A
100
AcDbPlotSettings
  1

  2
none_device
  4
Letter_(8.50_x_11.00_Inches)
  6

 40
6.35
 41
6.35
 42
6.35000508
 43
6.35000508
 44
215.9
 45
279.4
 46
0.0
 47
0.0
 48
0.0
 49
0.0
140
0.0
141
0.0
142
1.0
143
1.0
 70
  1712
 72
     1
 73
     0
 74
     0
  7

 75
     0
 76
     0
 77
     5
 78
   300
147
1.0
148
0.0
149
0.0
100
AcDbLayout
  1
Model
 70
     1
 71
     0
 10
0.0
 20
0.0
 11
302.9997823349792
 21
216.0016055409748
 12
0.0
 22
0.0
 32
0.0
 14
0.0
 24
0.0
 34
0.0
 15
302.9997823349792
 25
216.0016055409748
 35
0.0
146
0.0
 13
0.0
 23
0.0
 33
0.0
 16
1.0
 26
0.0
 36
0.0
 17
0.0
 27
1.0
 37
0.0
 76
     0
330
1F
331
29
  0
MATERIAL
  5
45
102
{ACAD_REACTORS
330
43
102
}
330
43
100
AcDbMaterial
  1
ByBlock
 72
     1
 94
      127
  0
MATERIAL
  5
44
102
{ACAD_REACTORS
330
43
102
}
330
43
100
AcDbMaterial
  1
ByLayer
 72
     1
 94
      127
  0
MATERIAL
  5
46
102
{ACAD_REACTORS
330
43
102
}
330
43
100
AcDbMaterial
  1
Global
 72
     1
 94
      127
  0
MLEADERSTYLE
  5
5C
102
{ACAD_REACTORS
330
5B
102
}
330
5B
100
AcDbMLeaderStyle
179
     2
170
     2
171
     1
172
     0
 90
        2
 40
0.0
 41
0.0
173
     1
 91
-1056964608
340
14
 92
       -2
290
     1
 42
2.0
291
     1
 43
8.0
  3
Standard
341
0
 44
4.0
300

342
11
174
     1
178
     6
175
     1
176
     0
 93
-1056964608
 45
4.0
292
     0
297
     0
 46
4.0
343
0
 94
-1056964608
 47
1.0
 49
1.0
140
1.0
293
     1
141
0.0
294
     1
177
     0
142
1.0
295
     0
296
     0
143
3.75
271
     0
272
     9
273
     9
298
     0
  0
MLINESTYLE
  5
18
102
{ACAD_REACTORS
330
17
102
}
330
17
100
AcDbMlineStyle
  2
Standard
 70
     0
  3

 62
   256
 51
90.0
 52
90.0
 71
     2
 49
0.5
 62
   256
  6
BYLAYER
 49
-0.5
 62
   256
  6
BYLAYER
  0
ACDBPLACEHOLDER
  5
F
102
{ACAD_REACTORS
330
E
102
}
330
E
  0
SCALE
  5
48
102
{ACAD_REACTORS
330
47
102
}
330
47
100
AcDbScale
 70
     0
300
1:1
140
1.0
141
1.0
290
     1
  0
SCALE
  5
49
102
{ACAD_REACTORS
330
47
102
}
330
47
100
AcDbScale
 70
     0
300
1:2
140
1.0
141
2.0
290
     0
  0
SCALE
  5
4A
102
{ACAD_REACTORS
330
47
102
}
330
47
100
AcDbScale
 70
     0
300
1:4
140
1.0
141
4.0
290
     0
  0
SCALE
  5
4B
102
{ACAD_REACTORS
330
47
102
}
330
47
100
AcDbScale
 70
     0
300
1:5
140
1.0
141
5.0
290
     0
  0
SCALE
  5
4C
102
{ACAD_REACTORS
330
47
102
}
330
47
100
AcDbScale
 70
     0
300
1:8
140
1.0
141
8.0
290
     0
  0
SCALE
  5
4D
102
{ACAD_REACTORS
330
47
102
}
330
47
100
AcDbScale
 70
     0
300
1:10
140
1.0
141
10.0
290
     0
  0
SCALE
  5
4E
102
{ACAD_REACTORS
330
47
102
}
330
47
100
AcDbScale
 70
     0
300
1:16
140
1.0
141
16.0
290
     0
  0
SCALE
  5
4F
102
{ACAD_REACTORS
330
47
102
}
330
47
100
AcDbScale
 70
     0
300
1:20
140
1.0
141
20.0
290
     0
  0
SCALE
  5
50
102
{ACAD_REACTORS
330
47
102
}
330
47
100
AcDbScale
 70
     0
300
1:30
140
1.0
141
30.0
290
     0
  0
SCALE
  5
51
102
{ACAD_REACTORS
330
47
102
}
330
47
100
AcDbScale
 70
     0
300
1:40
140
1.0
141
40.0
290
     0
  0
SCALE
  5
52
102
{ACAD_REACTORS
330
47
102
}
330
47
100
AcDbScale
 70
     0
300
1:50
140
1.0
141
50.0
290
     0
  0
SCALE
  5
53
102
{ACAD_REACTORS
330
47
102
}
330
47
100
AcDbScale
 70
     0
300
1:100
140
1.0
141
100.0
290
     0
  0
SCALE
  5
54
102
{ACAD_REACTORS
330
47
102
}
330
47
100
AcDbScale
 70
     0
300
2:1
140
2.0
141
1.0
290
     0
  0
SCALE
  5
55
102
{ACAD_REACTORS
330
47
102
}
330
47
100
AcDbScale
 70
     0
300
4:1
140
4.0
141
1.0
290
     0
  0
SCALE
  5
56
102
{ACAD_REACTORS
330
47
102
}
330
47
100
AcDbScale
 70
     0
300
8:1
140
8.0
141
1.0
290
     0
  0
SCALE
  5
57
102
{ACAD_REACTORS
330
47
102
}
330
47
100
AcDbScale
 70
     0
300
10:1
140
10.0
141
1.0
290
     0
  0
SCALE
  5
58
102
{ACAD_REACTORS
330
47
102
}
330
47
100
AcDbScale
 70
     0
300
100:1
140
100.0
141
1.0
290
     0
  0
TABLESTYLE
  5
5A
102
{ACAD_REACTORS
330
59
102
}
102
{ACAD_XDICTIONARY
360
CF
102
}
330
59
100
AcDbTableStyle
  3
Standard
 70
     0
 71
     0
 40
0.06
 41
0.06
280
     0
281
     0
  7
Standard
140
4.5
170
     2
 62
     0
 63
   257
283
     0
 90
        4
 91
        0
  1

274
    -2
284
     1
 64
     0
275
    -2
285
     1
 65
     0
276
    -2
286
     1
 66
     0
277
    -2
287
     1
 67
     0
278
    -2
288
     1
 68
     0
279
    -2
289
     1
 69
     0
  7
Standard
140
6.0
170
     5
 62
     0
 63
   257
283
     0
 90
        4
 91
        0
  1

274
    -2
284
     1
 64
     0
275
    -2
285
     1
 65
     0
276
    -2
286
     1
 66
     0
277
    -2
287
     1
 67
     0
278
    -2
288
     1
 68
     0
279
    -2
289
     1
 69
     0
  7
Standard
140
4.5
170
     5
 62
     0
 63
   257
283
     0
 90
        4
 91
        0
  1

274
    -2
284
     1
 64
     0
275
    -2
285
     1
 65
     0
276
    -2
286
     1
 66
     0
277
    -2
287
     1
 67
     0
278
    -2
288
     1
 68
     0
279
    -2
289
     1
 69
     0
  0
VISUALSTYLE
  5
2F
102
{ACAD_REACTORS
330
2A
102
}
330
2A
100
AcDbVisualStyle
  2
2dWireframe
 70
     4
177
     3
291
     0
 70
    58
 90
        0
176
     1
 90
        2
176
     1
 90
        0
176
     1
 90
        0
176
     1
 40
0.6
176
     1
 40
30.0
176
     1
 62
     7
420
 16777215
176
     1
 90
        1
176
     1
 90
        4
176
     1
 62
     7
176
     1
 62
   257
176
     1
 90
        1
176
     1
 90
        1
176
     1
 40
1.0
176
     1
 90
        0
176
     1
 62
   257
176
     1
 40
1.0
176
     1
 90
        1
176
     1
 90
        6
176
     1
 90
        2
176
     1
 62
     7
176
     1
 90
        5
176
     1
 90
        0
176
     1
 90
        0
176
     1
290
     0
176
     1
 90
        1
176
     1
 40
0.0
176
     1
 90
        0
176
     1
290
     1
176
     1
290
     1
176
     1
290
     0
176
     1
290
     0
176
     1
290
     0
176
     1
290
     0
176
     1
290
     0
176
     1
290
     0
176
     1
290
     0
176
     1
 90
       50
176
     1
 40
0.0
176
     1
 40
1.0
176
     1
 90
        0
176
     1
 62
    18
420
        0
176
     1
 90
       50
176
     1
 90
        3
176
     1
 62
     5
420
      255
176
     1
290
     0
176
     1
 90
       50
176
     1
 90
       50
176
     1
 90
       50
176
     1
290
     0
176
     1
 90
       50
176
     1
 62
   256
176
     0
 40
1.0
176
     0
 90
        2
176
     1
  1
strokes_ogs.tif
176
     1
290
     0
176
     1
 40
1.0
176
     1
 40
1.0
176
     1
  0
VISUALSTYLE
  5
32
102
{ACAD_REACTORS
330
2A
102
}
330
2A
100
AcDbVisualStyle
  2
Basic
 70
     7
177
     3
291
     1
 70
    58
 90
        1
176
     1
 90
        0
176
     1
 90
        1
176
     1
 90
        0
176
     1
 40
0.6
176
     1
 40
30.0
176
     1
 62
     7
420
 16777215
176
     1
 90
        0
176
     1
 90
        4
176
     1
 62
     7
176
     1
 62
   257
176
     1
 90
        1
176
     1
 90
        1
176
     1
 40
1.0
176
     1
 90
        8
176
     1
 62
     7
176
     1
 40
1.0
176
     1
 90
        1
176
     1
 90
        6
176
     1
 90
        2
176
     1
 62
     7
176
     1
 90
        5
176
     1
 90
        0
176
     1
 90
        0
176
     1
290
     0
176
     1
 90
        1
176
     1
 40
0.0
176
     1
 90
        0
176
     1
290
     0
176
     1
290
     1
176
     1
290
     1
176
     1
290
     0
176
     1
290
     0
176
     1
290
     0
176
     1
290
     0
176
     1
290
     0
176
     1
290
     0
176
     1
 90
       50
176
     1
 40
0.0
176
     1
 40
1.0
176
     1
 90
        0
176
     1
 62
    18
420
        0
176
     1
 90
       50
176
     1
 90
        3
176
     1
 62
     5
420
      255
176
     1
290
     0
176
     1
 90
       50
176
     1
 90
       50
176
     1
 90
       50
176
     1
290
     0
176
     1
 90
       50
176
     1
 62
   256
176
     0
 40
1.0
176
     0
 90
        2
176
     1
  1
strokes_ogs.tif
176
     1
290
     0
176
     1
 40
1.0
176
     1
 40
1.0
176
     1
  0
VISUALSTYLE
  5
36
102
{ACAD_REACTORS
330
2A
102
}
330
2A
100
AcDbVisualStyle
  2
Brighten
 70
    12
177
     3
291
     1
 70
    58
 90
        2
176
     1
 90
        2
176
     1
 90
        0
176
     1
 90
        0
176
     1
 40
0.6
176
     1
 40
30.0
176
     1
 62
     7
420
 16777215
176
     1
 90
        1
176
     1
 90
        4
176
     1
 62
     7
176
     1
 62
   257
176
     1
 90
        1
176
     1
 90
        1
176
     1
 40
1.0
176
     1
 90
        8
176
     1
 62
     7
176
     1
 40
1.0
176
     1
 90
        1
176
     1
 90
        6
176
     1
 90
        2
176
     1
 62
     7
176
     1
 90
        5
176
     1
 90
        0
176
     1
 90
        0
176
     1
290
     0
176
     1
 90
        1
176
     1
 40
50.0
176
     1
 90
        0
176
     1
290
     0
176
     1
290
     1
176
     1
290
     1
176
     1
290
     0
176
     1
290
     0
176
     1
290
     0
176
     1
290
     0
176
     1
290
     0
176
     1
290
     0
176
     1
 90
       50
176
     1
 40
0.0
176
     1
 40
1.0
176
     1
 90
        0
176
     1
 62
    18
420
        0
176
     1
 90
       50
176
     1
 90
        3
176
     1
 62
     5
420
      255
176
     1
290
     0
176
     1
 90
       50
176
     1
 90
       50
176
     1
 90
       50
176
     1
290
     0
176
     1
 90
       50
176
     1
 62
   256
176
     0
 40
1.0
176
     0
 90
        2
176
     1
  1
strokes_ogs.tif
176
     1
290
     0
176
     1
 40
1.0
176
     1
 40
1.0
176
     1
  0
VISUALSTYLE
  5
3A
102
{ACAD_REACTORS
330
2A
102
}
330
2A
100
AcDbVisualStyle
  2
ColorChange
 70
    16
177
     3
291
     1
 70
    58
 90
        2
176
     1
 90
        2
176
     1
 90
        3
176
     1
 90
        0
176
     1
 40
0.6
176
     1
 40
30.0
176
     1
 62
     8
420
  8421504
176
     1
 90
        1
176
     1
 90
        4
176
     1
 62
     7
176
     1
 62
   257
176
     1
 90
        1
176
     1
 90
        1
176
     1
 40
1.0
176
     1
 90
        8
176
     1
 62
     8
420
  8421504
176
     1
 40
1.0
176
     1
 90
        1
176
     1
 90
        6
176
     1
 90
        2
176
     1
 62
     7
176
     1
 90
        5
176
     1
 90
        0
176
     1
 90
        0
176
     1
290
     0
176
     1
 90
        1
176
     1
 40
0.0
176
     1
 90
        0
176
     1
290
     0
176
     1
290
     1
176
     1
290
     1
176
     1
290
     0
176
     1
290
     0
176
     1
290
     0
176
     1
290
     0
176
     1
290
     0
176
     1
290
     0
176
     1
 90
       50
176
     1
 40
0.0
176
     1
 40
1.0
176
     1
 90
        0
176
     1
 62
    18
420
        0
176
     1
 90
       50
176
     1
 90
        3
176
     1
 62
     5
420
      255
176
     1
290
     0
176
     1
 90
       50
176
     1
 90
       50
176
     1
 90
       50
176
     1
290
     0
176
     1
 90
       50
176
     1
 62
   256
176
     0
 40
1.0
176
     0
 90
        2
176
     1
  1
strokes_ogs.tif
176
     1
290
     0
176
     1
 40
1.0
176
     1
 40
1.0
176
     1
  0
VISUALSTYLE
  5
34
102
{ACAD_REACTORS
330
2A
102
}
330
2A
100
AcDbVisualStyle
  2
Conceptual
 70
     9
177
     3
291
     0
 70
    58
 90
        3
176
     1
 90
        2
176
     1
 90
        0
176
     1
 90
        0
176
     1
 40
0.6
176
     1
 40
30.0
176
     1
 62
     7
420
 16777215
176
     1
 90
        2
176
     1
 90
        2
176
     1
 62
     7
176
     1
 62
   257
176
     1
 90
        1
176
     1
 90
        1
176
     1
 40
179.0
176
     1
 90
        8
176
     1
 62
     7
176
     1
 40
1.0
176
     1
 90
        1
176
     1
 90
        6
176
     1
 90
        2
176
     1
 62
     7
176
     1
 90
        3
176
     1
 90
        0
176
     1
 90
        0
176
     1
290
     0
176
     1
 90
        1
176
     1
 40
0.0
176
     1
 90
        0
176
     1
290
     0
176
     1
290
     1
176
     1
290
     1
176
     1
290
     0
176
     1
290
     0
176
     1
290
     0
176
     1
290
     0
176
     1
290
     0
176
     1
290
     0
176
     1
 90
       50
176
     1
 40
0.0
176
     1
 40
1.0
176
     1
 90
        0
176
     1
 62
    18
420
        0
176
     1
 90
       50
176
     1
 90
        3
176
     1
 62
     5
420
      255
176
     1
290
     0
176
     1
 90
       50
176
     1
 90
       50
176
     1
 90
       50
176
     1
290
     0
176
     1
 90
       50
176
     1
 62
   256
176
     0
 40
1.0
176
     0
 90
        2
176
     1
  1
strokes_ogs.tif
176
     1
290
     0
176
     1
 40
1.0
176
     1
 40
1.0
176
     1
  0
VISUALSTYLE
  5
35
102
{ACAD_REACTORS
330
2A
102
}
330
2A
100
AcDbVisualStyle
  2
Dim
 70
    11
177
     3
291
     1
 70
    58
 90
        2
176
     1
 90
        2
176
     1
 90
        0
176
     1
 90
        0
176
     1
 40
0.6
176
     1
 40
30.0
176
     1
 62
     7
420
 16777215
176
     1
 90
        1
176
     1
 90
        4
176
     1
 62
     7
176
     1
 62
   257
176
     1
 90
        1
176
     1
 90
        1
176
     1
 40
1.0
176
     1
 90
        8
176
     1
 62
     7
176
     1
 40
1.0
176
     1
 90
        1
176
     1
 90
        6
176
     1
 90
        2
176
     1
 62
     7
176
     1
 90
        5
176
     1
 90
        0
176
     1
 90
        0
176
     1
290
     0
176
     1
 90
        1
176
     1
 40
-50.0
176
     1
 90
        0
176
     1
290
     0
176
     1
290
     1
176
     1
290
     1
176
     1
290
     0
176
     1
290
     0
176
     1
290
     0
176
     1
290
     0
176
     1
290
     0
176
     1
290
     0
176
     1
 90
       50
176
     1
 40
0.0
176
     1
 40
1.0
176
     1
 90
        0
176
     1
 62
    18
420
        0
176
     1
 90
       50
176
     1
 90
        3
176
     1
 62
     5
420
      255
176
     1
290
     0
176
     1
 90
       50
176
     1
 90
       50
176
     1
 90
       50
176
     1
290
     0
176
     1
 90
       50
176
     1
 62
   256
176
     0
 40
1.0
176
     0
 90
        2
176
     1
  1
strokes_ogs.tif
176
     1
290
     0
176
     1
 40
1.0
176
     1
 40
1.0
176
     1
  0
VISUALSTYLE
  5
3D
102
{ACAD_REACTORS
330
2A
102
}
330
2A
100
AcDbVisualStyle
  2
EdgeColorOff
 70
    22
177
     3
291
     1
 70
    58
 90
        2
176
     0
 90
        2
176
     0
 90
        0
176
     0
 90
        0
176
     0
 40
0.6
176
     0
 40
30.0
176
     0
 62
     7
420
 16777215
176
     0
 90
        1
176
     0
 90
        4
176
     0
 62
     7
176
     0
 62
   257
176
     0
 90
        1
176
     0
 90
        1
176
     0
 40
1.0
176
     0
 90
        8
176
     2
 62
     7
176
     0
 40
1.0
176
     0
 90
        1
176
     0
 90
        6
176
     0
 90
        2
176
     0
 62
     7
176
     0
 90
        5
176
     0
 90
        0
176
     0
 90
        0
176
     0
290
     0
176
     0
 90
        1
176
     0
 40
0.0
176
     0
 90
        0
176
     0
290
     0
176
     0
290
     1
176
     0
290
     1
176
     0
290
     0
176
     0
290
     0
176
     0
290
     0
176
     0
290
     0
176
     0
290
     0
176
     0
290
     0
176
     0
 90
       50
176
     0
 40
0.0
176
     0
 40
1.0
176
     0
 90
        0
176
     0
 62
    18
420
        0
176
     0
 90
       50
176
     0
 90
        3
176
     0
 62
     5
420
      255
176
     0
290
     0
176
     0
 90
       50
176
     0
 90
       50
176
     0
 90
       50
176
     0
290
     0
176
     0
 90
       50
176
     0
 62
   256
176
     0
 40
1.0
176
     0
 90
        2
176
     0
  1
strokes_ogs.tif
176
     0
290
     0
176
     0
 40
1.0
176
     0
 40
1.0
176
     0
  0
VISUALSTYLE
  5
39
102
{ACAD_REACTORS
330
2A
102
}
330
2A
100
AcDbVisualStyle
  2
Facepattern
 70
    15
177
     3
291
     1
 70
    58
 90
        2
176
     1
 90
        2
176
     1
 90
        0
176
     1
 90
        0
176
     1
 40
0.6
176
     1
 40
30.0
176
     1
 62
     7
420
 16777215
176
     1
 90
        1
176
     1
 90
        4
176
     1
 62
     7
176
     1
 62
   257
176
     1
 90
        1
176
     1
 90
        1
176
     1
 40
1.0
176
     1
 90
        8
176
     1
 62
     7
176
     1
 40
1.0
176
     1
 90
        1
176
     1
 90
        6
176
     1
 90
        2
176
     1
 62
     7
176
     1
 90
        5
176
     1
 90
        0
176
     1
 90
        0
176
     1
290
     0
176
     1
 90
        1
176
     1
 40
0.0
176
     1
 90
        0
176
     1
290
     0
176
     1
290
     1
176
     1
290
     1
176
     1
290
     0
176
     1
290
     0
176
     1
290
     0
176
     1
290
     0
176
     1
290
     0
176
     1
290
     0
176
     1
 90
       50
176
     1
 40
0.0
176
     1
 40
1.0
176
     1
 90
        0
176
     1
 62
    18
420
        0
176
     1
 90
       50
176
     1
 90
        3
176
     1
 62
     5
420
      255
176
     1
290
     0
176
     1
 90
       50
176
     1
 90
       50
176
     1
 90
       50
176
     1
290
     0
176
     1
 90
       50
176
     1
 62
   256
176
     0
 40
1.0
176
     0
 90
        2
176
     1
  1
strokes_ogs.tif
176
     1
290
     0
176
     1
 40
1.0
176
     1
 40
1.0
176
     1
  0
VISUALSTYLE
  5
2B
102
{ACAD_REACTORS
330
2A
102
}
330
2A
100
AcDbVisualStyle
  2
Flat
 70
     0
177
     3
291
     1
 70
    58
 90
        2
176
     1
 90
        1
176
     1
 90
        1
176
     1
 90
        2
176
     1
 40
0.6
176
     1
 40
30.0
176
     1
 62
     7
420
 16777215
176
     1
 90
        0
176
     1
 90
        0
176
     1
 62
     7
176
     1
 62
   257
176
     1
 90
        1
176
     1
 90
        1
176
     1
 40
1.0
176
     1
 90
        8
176
     1
 62
     7
176
     1
 40
1.0
176
     1
 90
        1
176
     1
 90
        6
176
     1
 90
        2
176
     1
 62
     7
176
     1
 90
        5
176
     1
 90
        0
176
     1
 90
        0
176
     1
290
     0
176
     1
 90
       13
176
     1
 40
0.0
176
     1
 90
        0
176
     1
290
     0
176
     1
290
     1
176
     1
290
     1
176
     1
290
     0
176
     1
290
     0
176
     1
290
     0
176
     1
290
     0
176
     1
290
     0
176
     1
290
     0
176
     1
 90
       50
176
     1
 40
0.0
176
     1
 40
1.0
176
     1
 90
        0
176
     1
 62
    18
420
        0
176
     1
 90
       50
176
     1
 90
        3
176
     1
 62
     5
420
      255
176
     1
290
     0
176
     1
 90
       50
176
     1
 90
       50
176
     1
 90
       50
176
     1
290
     0
176
     1
 90
       50
176
     1
 62
   256
176
     0
 40
1.0
176
     0
 90
        2
176
     1
  1
strokes_ogs.tif
176
     1
290
     0
176
     1
 40
1.0
176
     1
 40
1.0
176
     1
  0
VISUALSTYLE
  5
2C
102
{ACAD_REACTORS
330
2A
102
}
330
2A
100
AcDbVisualStyle
  2
FlatWithEdges
 70
     1
177
     3
291
     1
 70
    58
 90
        2
176
     1
 90
        1
176
     1
 90
        1
176
     1
 90
        2
176
     1
 40
0.6
176
     1
 40
30.0
176
     1
 62
     7
420
 16777215
176
     1
 90
        1
176
     1
 90
        0
176
     1
 62
     7
176
     1
 62
   257
176
     1
 90
        1
176
     1
 90
        1
176
     1
 40
1.0
176
     1
 90
        0
176
     1
 62
   257
176
     1
 40
1.0
176
     1
 90
        1
176
     1
 90
        6
176
     1
 90
        2
176
     1
 62
     7
176
     1
 90
        5
176
     1
 90
        0
176
     1
 90
        0
176
     1
290
     0
176
     1
 90
       13
176
     1
 40
0.0
176
     1
 90
        0
176
     1
290
     0
176
     1
290
     1
176
     1
290
     1
176
     1
290
     0
176
     1
290
     0
176
     1
290
     0
176
     1
290
     0
176
     1
290
     0
176
     1
290
     0
176
     1
 90
       50
176
     1
 40
0.0
176
     1
 40
1.0
176
     1
 90
        0
176
     1
 62
    18
420
        0
176
     1
 90
       50
176
     1
 90
        3
176
     1
 62
     5
420
      255
176
     1
290
     0
176
     1
 90
       50
176
     1
 90
       50
176
     1
 90
       50
176
     1
290
     0
176
     1
 90
       50
176
     1
 62
   256
176
     0
 40
1.0
176
     0
 90
        2
176
     1
  1
strokes_ogs.tif
176
     1
290
     0
176
     1
 40
1.0
176
     1
 40
1.0
176
     1
  0
VISUALSTYLE
  5
2D
102
{ACAD_REACTORS
330
2A
102
}
330
2A
100
AcDbVisualStyle
  2
Gouraud
 70
     2
177
     3
291
     1
 70
    58
 90
        2
176
     1
 90
        2
176
     1
 90
        1
176
     1
 90
        2
176
     1
 40
0.6
176
     1
 40
30.0
176
     1
 62
     7
420
 16777215
176
     1
 90
        0
176
     1
 90
        0
176
     1
 62
     7
176
     1
 62
   257
176
     1
 90
        1
176
     1
 90
        1
176
     1
 40
1.0
176
     1
 90
        0
176
     1
 62
     7
176
     1
 40
1.0
176
     1
 90
        1
176
     1
 90
        6
176
     1
 90
        2
176
     1
 62
     7
176
     1
 90
        5
176
     1
 90
        0
176
     1
 90
        0
176
     1
290
     0
176
     1
 90
       13
176
     1
 40
0.0
176
     1
 90
        0
176
     1
290
     0
176
     1
290
     1
176
     1
290
     1
176
     1
290
     0
176
     1
290
     0
176
     1
290
     0
176
     1
290
     0
176
     1
290
     0
176
     1
290
     0
176
     1
 90
       50
176
     1
 40
0.0
176
     1
 40
1.0
176
     1
 90
        0
176
     1
 62
    18
420
        0
176
     1
 90
       50
176
     1
 90
        3
176
     1
 62
     5
420
      255
176
     1
290
     0
176
     1
 90
       50
176
     1
 90
       50
176
     1
 90
       50
176
     1
290
     0
176
     1
 90
       50
176
     1
 62
   256
176
     0
 40
1.0
176
     0
 90
        2
176
     1
  1
strokes_ogs.tif
176
     1
290
     0
176
     1
 40
1.0
176
     1
 40
1.0
176
     1
  0
VISUALSTYLE
  5
2E
102
{ACAD_REACTORS
330
2A
102
}
330
2A
100
AcDbVisualStyle
  2
GouraudWithEdges
 70
     3
177
     3
291
     1
 70
    58
 90
        2
176
     1
 90
        2
176
     1
 90
        1
176
     1
 90
        2
176
     1
 40
0.6
176
     1
 40
30.0
176
     1
 62
     7
420
 16777215
176
     1
 90
        1
176
     1
 90
        0
176
     1
 62
     7
176
     1
 62
   257
176
     1
 90
        1
176
     1
 90
        1
176
     1
 40
1.0
176
     1
 90
        0
176
     1
 62
   257
176
     1
 40
1.0
176
     1
 90
        1
176
     1
 90
        6
176
     1
 90
        2
176
     1
 62
     7
176
     1
 90
        5
176
     1
 90
        0
176
     1
 90
        0
176
     1
290
     0
176
     1
 90
       13
176
     1
 40
0.0
176
     1
 90
        0
176
     1
290
     0
176
     1
290
     1
176
     1
290
     1
176
     1
290
     0
176
     1
290
     0
176
     1
290
     0
176
     1
290
     0
176
     1
290
     0
176
     1
290
     0
176
     1
 90
       50
176
     1
 40
0.0
176
     1
 40
1.0
176
     1
 90
        0
176
     1
 62
    18
420
        0
176
     1
 90
       50
176
     1
 90
        3
176
     1
 62
     5
420
      255
176
     1
290
     0
176
     1
 90
       50
176
     1
 90
       50
176
     1
 90
       50
176
     1
290
     0
176
     1
 90
       50
176
     1
 62
   256
176
     0
 40
1.0
176
     0
 90
        2
176
     1
  1
strokes_ogs.tif
176
     1
290
     0
176
     1
 40
1.0
176
     1
 40
1.0
176
     1
  0
VISUALSTYLE
  5
31
102
{ACAD_REACTORS
330
2A
102
}
330
2A
100
AcDbVisualStyle
  2
Hidden
 70
     6
177
     3
291
     0
 70
    58
 90
        1
176
     1
 90
        2
176
     1
 90
        2
176
     1
 90
        0
176
     1
 40
0.6
176
     1
 40
30.0
176
     1
 62
     7
420
 16777215
176
     1
 90
        2
176
     1
 90
        2
176
     1
 62
     7
176
     1
 62
   257
176
     1
 90
        2
176
     1
 90
        1
176
     1
 40
40.0
176
     1
 90
        0
176
     1
 62
   257
176
     1
 40
1.0
176
     1
 90
        1
176
     1
 90
        6
176
     1
 90
        2
176
     1
 62
     7
176
     1
 90
        3
176
     1
 90
        0
176
     1
 90
        0
176
     1
290
     0
176
     1
 90
        1
176
     1
 40
0.0
176
     1
 90
        0
176
     1
290
     0
176
     1
290
     1
176
     1
290
     1
176
     1
290
     0
176
     1
290
     0
176
     1
290
     0
176
     1
290
     0
176
     1
290
     0
176
     1
290
     0
176
     1
 90
       50
176
     1
 40
0.0
176
     1
 40
1.0
176
     1
 90
        0
176
     1
 62
    18
420
        0
176
     1
 90
       50
176
     1
 90
        3
176
     1
 62
     5
420
      255
176
     1
290
     0
176
     1
 90
       50
176
     1
 90
       50
176
     1
 90
       50
176
     1
290
     0
176
     1
 90
       50
176
     1
 62
   256
176
     0
 40
1.0
176
     0
 90
        2
176
     1
  1
strokes_ogs.tif
176
     1
290
     0
176
     1
 40
1.0
176
     1
 40
1.0
176
     1
  0
VISUALSTYLE
  5
3B
102
{ACAD_REACTORS
330
2A
102
}
330
2A
100
AcDbVisualStyle
  2
JitterOff
 70
    20
177
     3
291
     1
 70
    58
 90
        2
176
     0
 90
        2
176
     0
 90
        0
176
     0
 90
        0
176
     0
 40
0.6
176
     0
 40
30.0
176
     0
 62
     7
420
 16777215
176
     0
 90
        1
176
     0
 90
        4
176
     0
 62
     7
176
     0
 62
   257
176
     0
 90
        1
176
     0
 90
        1
176
     0
 40
1.0
176
     0
 90
       10
176
     2
 62
     7
176
     0
 40
1.0
176
     0
 90
        1
176
     0
 90
        6
176
     0
 90
        2
176
     0
 62
     7
176
     0
 90
        5
176
     0
 90
        0
176
     0
 90
        0
176
     0
290
     0
176
     0
 90
        1
176
     0
 40
0.0
176
     0
 90
        0
176
     0
290
     0
176
     0
290
     1
176
     0
290
     1
176
     0
290
     0
176
     0
290
     0
176
     0
290
     0
176
     0
290
     0
176
     0
290
     0
176
     0
290
     0
176
     0
 90
       50
176
     0
 40
0.0
176
     0
 40
1.0
176
     0
 90
        0
176
     0
 62
    18
420
        0
176
     0
 90
       50
176
     0
 90
        3
176
     0
 62
     5
420
      255
176
     0
290
     0
176
     0
 90
       50
176
     0
 90
       50
176
     0
 90
       50
176
     0
290
     0
176
     0
 90
       50
176
     0
 62
   256
176
     0
 40
1.0
176
     0
 90
        2
176
     0
  1
strokes_ogs.tif
176
     0
290
     0
176
     0
 40
1.0
176
     0
 40
1.0
176
     0
  0
VISUALSTYLE
  5
38
102
{ACAD_REACTORS
330
2A
102
}
330
2A
100
AcDbVisualStyle
  2
Linepattern
 70
    14
177
     3
291
     1
 70
    58
 90
        2
176
     1
 90
        2
176
     1
 90
        0
176
     1
 90
        0
176
     1
 40
0.6
176
     1
 40
30.0
176
     1
 62
     7
420
 16777215
176
     1
 90
        1
176
     1
 90
        4
176
     1
 62
     7
176
     1
 62
   257
176
     1
 90
        7
176
     1
 90
        7
176
     1
 40
1.0
176
     1
 90
        8
176
     1
 62
     7
176
     1
 40
1.0
176
     1
 90
        1
176
     1
 90
        6
176
     1
 90
        2
176
     1
 62
     7
176
     1
 90
        5
176
     1
 90
        0
176
     1
 90
        0
176
     1
290
     0
176
     1
 90
        1
176
     1
 40
0.0
176
     1
 90
        0
176
     1
290
     0
176
     1
290
     1
176
     1
290
     1
176
     1
290
     0
176
     1
290
     0
176
     1
290
     0
176
     1
290
     0
176
     1
290
     0
176
     1
290
     0
176
     1
 90
       50
176
     1
 40
0.0
176
     1
 40
1.0
176
     1
 90
        0
176
     1
 62
    18
420
        0
176
     1
 90
       50
176
     1
 90
        3
176
     1
 62
     5
420
      255
176
     1
290
     0
176
     1
 90
       50
176
     1
 90
       50
176
     1
 90
       50
176
     1
290
     0
176
     1
 90
       50
176
     1
 62
   256
176
     0
 40
1.0
176
     0
 90
        2
176
     1
  1
strokes_ogs.tif
176
     1
290
     0
176
     1
 40
1.0
176
     1
 40
1.0
176
     1
  0
VISUALSTYLE
  5
3C
102
{ACAD_REACTORS
330
2A
102
}
330
2A
100
AcDbVisualStyle
  2
OverhangOff
 70
    21
177
     3
291
     1
 70
    58
 90
        2
176
     0
 90
        2
176
     0
 90
        0
176
     0
 90
        0
176
     0
 40
0.6
176
     0
 40
30.0
176
     0
 62
     7
420
 16777215
176
     0
 90
        1
176
     0
 90
        4
176
     0
 62
     7
176
     0
 62
   257
176
     0
 90
        1
176
     0
 90
        1
176
     0
 40
1.0
176
     0
 90
        9
176
     2
 62
     7
176
     0
 40
1.0
176
     0
 90
        1
176
     0
 90
        6
176
     0
 90
        2
176
     0
 62
     7
176
     0
 90
        5
176
     0
 90
        0
176
     0
 90
        0
176
     0
290
     0
176
     0
 90
        1
176
     0
 40
0.0
176
     0
 90
        0
176
     0
290
     0
176
     0
290
     1
176
     0
290
     1
176
     0
290
     0
176
     0
290
     0
176
     0
290
     0
176
     0
290
     0
176
     0
290
     0
176
     0
290
     0
176
     0
 90
       50
176
     0
 40
0.0
176
     0
 40
1.0
176
     0
 90
        0
176
     0
 62
    18
420
        0
176
     0
 90
       50
176
     0
 90
        3
176
     0
 62
     5
420
      255
176
     0
290
     0
176
     0
 90
       50
176
     0
 90
       50
176
     0
 90
       50
176
     0
290
     0
176
     0
 90
       50
176
     0
 62
   256
176
     0
 40
1.0
176
     0
 90
        2
176
     0
  1
strokes_ogs.tif
176
     0
290
     0
176
     0
 40
1.0
176
     0
 40
1.0
176
     0
  0
VISUALSTYLE
  5
33
102
{ACAD_REACTORS
330
2A
102
}
330
2A
100
AcDbVisualStyle
  2
Realistic
 70
     8
177
     3
291
     0
 70
    58
 90
        2
176
     1
 90
        3
176
     1
 90
        0
176
     1
 90
        2
176
     1
 40
0.6
176
     1
 40
30.0
176
     1
 62
     7
420
 16777215
176
     1
 90
        0
176
     1
 90
        0
176
     1
 62
     7
176
     1
 62
   257
176
     1
 90
        1
176
     1
 90
        1
176
     1
 40
1.0
176
     1
 90
        8
176
     1
 62
   257
176
     1
 40
1.0
176
     1
 90
        1
176
     1
 90
        6
176
     1
 90
        2
176
     1
 62
     7
176
     1
 90
        3
176
     1
 90
        0
176
     1
 90
        0
176
     1
290
     0
176
     1
 90
       13
176
     1
 40
0.0
176
     1
 90
        0
176
     1
290
     0
176
     1
290
     1
176
     1
290
     1
176
     1
290
     0
176
     1
290
     0
176
     1
290
     0
176
     1
290
     0
176
     1
290
     0
176
     1
290
     0
176
     1
 90
       50
176
     1
 40
0.0
176
     1
 40
1.0
176
     1
 90
        0
176
     1
 62
    18
420
        0
176
     1
 90
       50
176
     1
 90
        3
176
     1
 62
     5
420
      255
176
     1
290
     0
176
     1
 90
       50
176
     1
 90
       50
176
     1
 90
       50
176
     1
290
     0
176
     1
 90
       50
176
     1
 62
   256
176
     0
 40
1.0
176
     0
 90
        2
176
     1
  1
strokes_ogs.tif
176
     1
290
     0
176
     1
 40
1.0
176
     1
 40
1.0
176
     1
  0
VISUALSTYLE
  5
42
102
{ACAD_REACTORS
330
2A
102
}
330
2A
100
AcDbVisualStyle
  2
Shaded
 70
    27
177
     3
291
     0
 70
    58
 90
        2
176
     1
 90
        2
176
     1
 90
        1
176
     1
 90
        2
176
     1
 40
0.6
176
     1
 40
30.0
176
     1
 62
     7
420
 16777215
176
     1
 90
        0
176
     1
 90
        4
176
     1
 62
     7
176
     1
 62
   257
176
     1
 90
        1
176
     1
 90
        1
176
     1
 40
1.0
176
     1
 90
        8
176
     1
 62
   257
176
     1
 40
1.0
176
     1
 90
        1
176
     1
 90
        6
176
     1
 90
        2
176
     1
 62
     8
420
  7895160
176
     1
 90
        3
176
     1
 90
        0
176
     1
 90
        0
176
     1
290
     0
176
     1
 90
        5
176
     1
 40
0.0
176
     1
 90
        0
176
     1
290
     0
176
     1
290
     1
176
     1
290
     1
176
     1
290
     0
176
     1
290
     0
176
     1
290
     0
176
     1
290
     0
176
     1
290
     0
176
     1
290
     0
176
     1
 90
       50
176
     1
 40
0.0
176
     1
 40
1.0
176
     1
 90
        0
176
     1
 62
    18
420
        0
176
     1
 90
       50
176
     1
 90
        3
176
     1
 62
     5
420
      255
176
     1
290
     0
176
     1
 90
       50
176
     1
 90
       50
176
     1
 90
       50
176
     1
290
     0
176
     1
 90
       50
176
     1
 62
   256
176
     0
 40
1.0
176
     0
 90
        2
176
     1
  1
strokes_ogs.tif
176
     1
290
     0
176
     1
 40
1.0
176
     1
 40
1.0
176
     1
  0
VISUALSTYLE
  5
41
102
{ACAD_REACTORS
330
2A
102
}
330
2A
100
AcDbVisualStyle
  2
Shaded with edges
 70
    26
177
     3
291
     0
 70
    58
 90
        2
176
     1
 90
        2
176
     1
 90
        1
176
     1
 90
        2
176
     1
 40
0.6
176
     1
 40
30.0
176
     1
 62
     7
420
 16777215
176
     1
 90
        1
176
     1
 90
       10
176
     1
 62
     7
176
     1
 62
   257
176
     1
 90
        2
176
     1
 90
        1
176
     1
 40
1.0
176
     1
 90
        8
176
     1
 62
   257
176
     1
 40
1.0
176
     1
 90
        1
176
     1
 90
        6
176
     1
 90
        2
176
     1
 62
     7
176
     1
 90
        3
176
     1
 90
        0
176
     1
 90
        0
176
     1
290
     0
176
     1
 90
        5
176
     1
 40
0.0
176
     1
 90
        0
176
     1
290
     0
176
     1
290
     1
176
     1
290
     1
176
     1
290
     0
176
     1
290
     0
176
     1
290
     0
176
     1
290
     0
176
     1
290
     0
176
     1
290
     0
176
     1
 90
       50
176
     1
 40
0.0
176
     1
 40
1.0
176
     1
 90
        0
176
     1
 62
    18
420
        0
176
     1
 90
       50
176
     1
 90
        3
176
     1
 62
     5
420
      255
176
     1
290
     0
176
     1
 90
       50
176
     1
 90
       50
176
     1
 90
       50
176
     1
290
     0
176
     1
 90
       50
176
     1
 62
   256
176
     0
 40
1.0
176
     0
 90
        2
176
     1
  1
strokes_ogs.tif
176
     1
290
     0
176
     1
 40
1.0
176
     1
 40
1.0
176
     1
  0
VISUALSTYLE
  5
3E
102
{ACAD_REACTORS
330
2A
102
}
330
2A
100
AcDbVisualStyle
  2
Shades of Gray
 70
    23
177
     3
291
     0
 70
    58
 90
        2
176
     1
 90
        2
176
     1
 90
        3
176
     1
 90
        0
176
     1
 40
0.6
176
     1
 40
30.0
176
     1
 62
     7
420
 16777215
176
     1
 90
        2
176
     1
 90
        2
176
     1
 62
     7
176
     1
 62
     7
176
     1
 90
        1
176
     1
 90
        1
176
     1
 40
40.0
176
     1
 90
        8
176
     1
 62
     7
176
     1
 40
1.0
176
     1
 90
        1
176
     1
 90
        6
176
     1
 90
        2
176
     1
 62
     7
176
     1
 90
        3
176
     1
 90
        0
176
     1
 90
        0
176
     1
290
     0
176
     1
 90
        1
176
     1
 40
0.0
176
     1
 90
        0
176
     1
290
     0
176
     1
290
     1
176
     1
290
     1
176
     1
290
     0
176
     1
290
     0
176
     1
290
     0
176
     1
290
     0
176
     1
290
     0
176
     1
290
     0
176
     1
 90
       50
176
     1
 40
0.0
176
     1
 40
1.0
176
     1
 90
        0
176
     1
 62
    18
420
        0
176
     1
 90
       50
176
     1
 90
        3
176
     1
 62
     5
420
      255
176
     1
290
     0
176
     1
 90
       50
176
     1
 90
       50
176
     1
 90
       50
176
     1
290
     0
176
     1
 90
       50
176
     1
 62
   256
176
     0
 40
1.0
176
     0
 90
        2
176
     1
  1
strokes_ogs.tif
176
     1
290
     0
176
     1
 40
1.0
176
     1
 40
1.0
176
     1
  0
VISUALSTYLE
  5
3F
102
{ACAD_REACTORS
330
2A
102
}
330
2A
100
AcDbVisualStyle
  2
Sketchy
 70
    24
177
     3
291
     0
 70
    58
 90
        1
176
     1
 90
        2
176
     1
 90
        2
176
     1
 90
        0
176
     1
 40
0.6
176
     1
 40
30.0
176
     1
 62
     7
420
 16777215
176
     1
 90
        2
176
     1
 90
        2
176
     1
 62
     7
176
     1
 62
     7
176
     1
 90
        1
176
     1
 90
        1
176
     1
 40
40.0
176
     1
 90
       11
176
     1
 62
     7
176
     1
 40
1.0
176
     1
 90
        1
176
     1
 90
        6
176
     1
 90
        2
176
     1
 62
     7
176
     1
 90
        6
176
     1
 90
        0
176
     1
 90
        0
176
     1
290
     0
176
     1
 90
        1
176
     1
 40
0.0
176
     1
 90
        0
176
     1
290
     0
176
     1
290
     1
176
     1
290
     1
176
     1
290
     0
176
     1
290
     0
176
     1
290
     0
176
     1
290
     0
176
     1
290
     0
176
     1
290
     0
176
     1
 90
       50
176
     1
 40
0.0
176
     1
 40
1.0
176
     1
 90
        0
176
     1
 62
    18
420
        0
176
     1
 90
       50
176
     1
 90
        3
176
     1
 62
     5
420
      255
176
     1
290
     0
176
     1
 90
       50
176
     1
 90
       50
176
     1
 90
       50
176
     1
290
     0
176
     1
 90
       50
176
     1
 62
   256
176
     0
 40
1.0
176
     0
 90
        2
176
     1
  1
strokes_ogs.tif
176
     1
290
     0
176
     1
 40
1.0
176
     1
 40
1.0
176
     1
  0
VISUALSTYLE
  5
37
102
{ACAD_REACTORS
330
2A
102
}
330
2A
100
AcDbVisualStyle
  2
Thicken
 70
    13
177
     3
291
     1
 70
    58
 90
        2
176
     1
 90
        2
176
     1
 90
        0
176
     1
 90
        0
176
     1
 40
0.6
176
     1
 40
30.0
176
     1
 62
     7
420
 16777215
176
     1
 90
        1
176
     1
 90
        4
176
     1
 62
     7
176
     1
 62
   257
176
     1
 90
        1
176
     1
 90
        1
176
     1
 40
1.0
176
     1
 90
       12
176
     1
 62
     7
176
     1
 40
1.0
176
     1
 90
        1
176
     1
 90
        6
176
     1
 90
        2
176
     1
 62
     7
176
     1
 90
        5
176
     1
 90
        0
176
     1
 90
        0
176
     1
290
     0
176
     1
 90
        1
176
     1
 40
0.0
176
     1
 90
        0
176
     1
290
     0
176
     1
290
     1
176
     1
290
     1
176
     1
290
     0
176
     1
290
     0
176
     1
290
     0
176
     1
290
     0
176
     1
290
     0
176
     1
290
     0
176
     1
 90
       50
176
     1
 40
0.0
176
     1
 40
1.0
176
     1
 90
        0
176
     1
 62
    18
420
        0
176
     1
 90
       50
176
     1
 90
        3
176
     1
 62
     5
420
      255
176
     1
290
     0
176
     1
 90
       50
176
     1
 90
       50
176
     1
 90
       50
176
     1
290
     0
176
     1
 90
       50
176
     1
 62
   256
176
     0
 40
1.0
176
     0
 90
        2
176
     1
  1
strokes_ogs.tif
176
     1
290
     0
176
     1
 40
1.0
176
     1
 40
1.0
176
     1
  0
VISUALSTYLE
  5
30
102
{ACAD_REACTORS
330
2A
102
}
330
2A
100
AcDbVisualStyle
  2
Wireframe
 70
     5
177
     3
291
     0
 70
    58
 90
        0
176
     1
 90
        2
176
     1
 90
        0
176
     1
 90
        0
176
     1
 40
0.6
176
     1
 40
30.0
176
     1
 62
     7
420
 16777215
176
     1
 90
        1
176
     1
 90
        4
176
     1
 62
     7
176
     1
 62
   257
176
     1
 90
        1
176
     1
 90
        1
176
     1
 40
1.0
176
     1
 90
        0
176
     1
 62
   257
176
     1
 40
1.0
176
     1
 90
        1
176
     1
 90
        6
176
     1
 90
        2
176
     1
 62
     7
176
     1
 90
        3
176
     1
 90
        0
176
     1
 90
        0
176
     1
290
     0
176
     1
 90
        1
176
     1
 40
0.0
176
     1
 90
        0
176
     1
290
     0
176
     1
290
     1
176
     1
290
     1
176
     1
290
     0
176
     1
290
     0
176
     1
290
     0
176
     1
290
     0
176
     1
290
     0
176
     1
290
     0
176
     1
 90
       50
176
     1
 40
0.0
176
     1
 40
1.0
176
     1
 90
        0
176
     1
 62
    18
420
        0
176
     1
 90
       50
176
     1
 90
        3
176
     1
 62
     5
420
      255
176
     1
290
     0
176
     1
 90
       50
176
     1
 90
       50
176
     1
 90
       50
176
     1
290
     0
176
     1
 90
       50
176
     1
 62
   256
176
     0
 40
1.0
176
     0
 90
        2
176
     1
  1
strokes_ogs.tif
176
     1
290
     0
176
     1
 40
1.0
176
     1
 40
1.0
176
     1
  0
VISUALSTYLE
  5
40
102
{ACAD_REACTORS
330
2A
102
}
330
2A
100
AcDbVisualStyle
  2
X-Ray
 70
    25
177
     3
291
     0
 70
    58
 90
        2
176
     1
 90
        2
176
     1
 90
        1
176
     1
 90
        1
176
     1
 40
0.5
176
     1
 40
30.0
176
     1
 62
     7
420
 16777215
176
     1
 90
        1
176
     1
 90
        0
176
     1
 62
     7
176
     1
 62
   257
176
     1
 90
        1
176
     1
 90
        1
176
     1
 40
1.0
176
     1
 90
        8
176
     1
 62
     7
176
     1
 40
1.0
176
     1
 90
        1
176
     1
 90
        6
176
     1
 90
        2
176
     1
 62
     7
176
     1
 90
        3
176
     1
 90
        0
176
     1
 90
        0
176
     1
290
     0
176
     1
 90
       13
176
     1
 40
0.0
176
     1
 90
        0
176
     1
290
     0
176
     1
290
     1
176
     1
290
     1
176
     1
290
     0
176
     1
290
     0
176
     1
290
     0
176
     1
290
     0
176
     1
290
     0
176
     1
290
     0
176
     1
 90
       50
176
     1
 40
0.0
176
     1
 40
1.0
176
     1
 90
        0
176
     1
 62
    18
420
        0
176
     1
 90
       50
176
     1
 90
        3
176
     1
 62
     5
420
      255
176
     1
290
     0
176
     1
 90
       50
176
     1
 90
       50
176
     1
 90
       50
176
     1
290
     0
176
     1
 90
       50
176
     1
 62
   256
176
     0
 40
1.0
176
     0
 90
        2
176
     1
  1
strokes_ogs.tif
176
     1
290
     0
176
     1
 40
1.0
176
     1
 40
1.0
176
     1
  0
DICTIONARYVAR
  5
CE
102
{ACAD_REACTORS
330
CD
102
}
330
CD
100
DictionaryVariables
280
     0
  1
1:1
  0
DICTIONARYVAR
  5
D6
102
{ACAD_REACTORS
330
CD
102
}
330
CD
100
DictionaryVariables
280
     0
  1
3.500000
  0
DICTIONARYVAR
  5
D7
102
{ACAD_REACTORS
330
CD
102
}
330
CD
100
DictionaryVariables
280
     0
  1
acadiso.lin
  0
DICTIONARYVAR
  5
D3
102
{ACAD_REACTORS
330
CD
102
}
330
CD
100
DictionaryVariables
280
     0
  1
Standard
  0
DICTIONARYVAR
  5
D2
102
{ACAD_REACTORS
330
CD
102
}
330
CD
100
DictionaryVariables
280
     0
  1
Standard
  0
DICTIONARY
  5
CF
330
5A
100
AcDbDictionary
280
     1
281
     1
  3
ACAD_ROUNDTRIP_2008_TABLESTYLE_CELLSTYLEMAP
360
D0
  0
CELLSTYLEMAP
  5
D0
102
{ACAD_REACTORS
330
CF
102
}
330
CF
100
AcDbCellStyleMap
 90
        3
300
CELLSTYLE
  1
TABLEFORMAT_BEGIN
 90
        5
170
     1
 91
        0
 92
    32768
 62
   257
 93
        1
300
CONTENTFORMAT
  1
CONTENTFORMAT_BEGIN
 90
        0
 91
        0
 92
        4
 93
        0
300

 40
0.0
140
1.0
 94
        5
 62
     0
340
11
144
6.0
309
CONTENTFORMAT_END
171
     1
301
MARGIN
  1
CELLMARGIN_BEGIN
 40
1.5
 40
1.5
 40
1.5
 40
1.5
 40
1.5
 40
1.5
309
CELLMARGIN_END
 94
        6
 95
        1
302
GRIDFORMAT
  1
GRIDFORMAT_BEGIN
 90
        0
 91
        1
 62
     0
 92
       -2
340
14
 93
        0
 40
0.045
309
GRIDFORMAT_END
 95
        2
302
GRIDFORMAT
  1
GRIDFORMAT_BEGIN
 90
        0
 91
        1
 62
     0
 92
       -2
340
14
 93
        0
 40
0.045
309
GRIDFORMAT_END
 95
        4
302
GRIDFORMAT
  1
GRIDFORMAT_BEGIN
 90
        0
 91
        1
 62
     0
 92
       -2
340
14
 93
        0
 40
0.045
309
GRIDFORMAT_END
 95
        8
302
GRIDFORMAT
  1
GRIDFORMAT_BEGIN
 90
        0
 91
        1
 62
     0
 92
       -2
340
14
 93
        0
 40
0.045
309
GRIDFORMAT_END
 95
       16
302
GRIDFORMAT
  1
GRIDFORMAT_BEGIN
 90
        0
 91
        1
 62
     0
 92
       -2
340
14
 93
        0
 40
0.045
309
GRIDFORMAT_END
 95
       32
302
GRIDFORMAT
  1
GRIDFORMAT_BEGIN
 90
        0
 91
        1
 62
     0
 92
       -2
340
14
 93
        0
 40
0.045
309
GRIDFORMAT_END
309
TABLEFORMAT_END
  1
CELLSTYLE_BEGIN
 90
        1
 91
        1
300
_TITLE
309
CELLSTYLE_END
300
CELLSTYLE
  1
TABLEFORMAT_BEGIN
 90
        5
170
     1
 91
        0
 92
        0
 62
   257
 93
        1
300
CONTENTFORMAT
  1
CONTENTFORMAT_BEGIN
 90
        0
 91
        0
 92
        4
 93
        0
300

 40
0.0
140
1.0
 94
        5
 62
     0
340
11
144
4.5
309
CONTENTFORMAT_END
171
     1
301
MARGIN
  1
CELLMARGIN_BEGIN
 40
1.5
 40
1.5
 40
1.5
 40
1.5
 40
1.5
 40
1.5
309
CELLMARGIN_END
 94
        6
 95
        1
302
GRIDFORMAT
  1
GRIDFORMAT_BEGIN
 90
        0
 91
        1
 62
     0
 92
       -2
340
14
 93
        0
 40
0.045
309
GRIDFORMAT_END
 95
        2
302
GRIDFORMAT
  1
GRIDFORMAT_BEGIN
 90
        0
 91
        1
 62
     0
 92
       -2
340
14
 93
        0
 40
0.045
309
GRIDFORMAT_END
 95
        4
302
GRIDFORMAT
  1
GRIDFORMAT_BEGIN
 90
        0
 91
        1
 62
     0
 92
       -2
340
14
 93
        0
 40
0.045
309
GRIDFORMAT_END
 95
        8
302
GRIDFORMAT
  1
GRIDFORMAT_BEGIN
 90
        0
 91
        1
 62
     0
 92
       -2
340
14
 93
        0
 40
0.045
309
GRIDFORMAT_END
 95
       16
302
GRIDFORMAT
  1
GRIDFORMAT_BEGIN
 90
        0
 91
        1
 62
     0
 92
       -2
340
14
 93
        0
 40
0.045
309
GRIDFORMAT_END
 95
       32
302
GRIDFORMAT
  1
GRIDFORMAT_BEGIN
 90
        0
 91
        1
 62
     0
 92
       -2
340
14
 93
        0
 40
0.045
309
GRIDFORMAT_END
309
TABLEFORMAT_END
  1
CELLSTYLE_BEGIN
 90
        2
 91
        1
300
_HEADER
309
CELLSTYLE_END
300
CELLSTYLE
  1
TABLEFORMAT_BEGIN
 90
        5
170
     1
 91
        0
 92
        0
 62
   257
 93
        1
300
CONTENTFORMAT
  1
CONTENTFORMAT_BEGIN
 90
        0
 91
        0
 92
        4
 93
        0
300

 40
0.0
140
1.0
 94
        2
 62
     0
340
11
144
4.5
309
CONTENTFORMAT_END
171
     1
301
MARGIN
  1
CELLMARGIN_BEGIN
 40
1.5
 40
1.5
 40
1.5
 40
1.5
 40
1.5
 40
1.5
309
CELLMARGIN_END
 94
        6
 95
        1
302
GRIDFORMAT
  1
GRIDFORMAT_BEGIN
 90
        0
 91
        1
 62
     0
 92
       -2
340
14
 93
        0
 40
0.045
309
GRIDFORMAT_END
 95
        2
302
GRIDFORMAT
  1
GRIDFORMAT_BEGIN
 90
        0
 91
        1
 62
     0
 92
       -2
340
14
 93
        0
 40
0.045
309
GRIDFORMAT_END
 95
        4
302
GRIDFORMAT
  1
GRIDFORMAT_BEGIN
 90
        0
 91
        1
 62
     0
 92
       -2
340
14
 93
        0
 40
0.045
309
GRIDFORMAT_END
 95
        8
302
GRIDFORMAT
  1
GRIDFORMAT_BEGIN
 90
        0
 91
        1
 62
     0
 92
       -2
340
14
 93
        0
 40
0.045
309
GRIDFORMAT_END
 95
       16
302
GRIDFORMAT
  1
GRIDFORMAT_BEGIN
 90
        0
 91
        1
 62
     0
 92
       -2
340
14
 93
        0
 40
0.045
309
GRIDFORMAT_END
 95
       32
302
GRIDFORMAT
  1
GRIDFORMAT_BEGIN
 90
        0
 91
        1
 62
     0
 92
       -2
340
14
 93
        0
 40
0.045
309
GRIDFORMAT_END
309
TABLEFORMAT_END
  1
CELLSTYLE_BEGIN
 90
        3
 91
        2
300
_DATA
309
CELLSTYLE_END
  0
ENDSEC
  0
EOF
