  0
SECTION
  2
HEADER
  9
$ACADVER
  1
AC1027
  9
$ACADMAINTVER
 70
   105
  9
$DWGCODEPAGE
  3
ANSI_932
  9
$LASTSAVEDBY
  1
a.yasuda
  9
$REQUIREDVERSIONS
160
                 0
  9
$INSBASE
 10
0.0
 20
0.0
 30
0.0
  9
$EXTMIN
 10
0.0
 20
0.0
 30
0.0
  9
$EXTMAX
 10
302.9997823349792
 20
216.0016055409748
 30
0.0
  9
$LIMMIN
 10
0.0
 20
0.0
  9
$LIMMAX
 10
302.9997823349792
 20
216.0016055409748
  9
$ORTHOMODE
 70
     0
  9
$REGENMODE
 70
     1
  9
$FILLMODE
 70
     1
  9
$QTEXTMODE
 70
     0
  9
$MIRRTEXT
 70
     1
  9
$LTSCALE
 40
1.0
  9
$ATTMODE
 70
     1
  9
$TEXTSIZE
 40
2.5
  9
$TRACEWID
 40
1.0
  9
$TEXTSTYLE
  7
Standard
  9
$CLAYER
  8
0
  9
$CELTYPE
  6
ByLayer
  9
$CECOLOR
 62
   256
  9
$CELTSCALE
 40
1.0
  9
$DISPSILH
 70
     0
  9
$DIMSCALE
 40
1.0
  9
$DIMASZ
 40
2.5
  9
$DIMEXO
 40
0.625
  9
$DIMDLI
 40
3.75
  9
$DIMRND
 40
0.0
  9
$DIMDLE
 40
0.0
  9
$DIMEXE
 40
1.25
  9
$DIMTP
 40
0.0
  9
$DIMTM
 40
0.0
  9
$DIMTXT
 40
2.5
  9
$DIMCEN
 40
2.5
  9
$DIMTSZ
 40
0.0
  9
$DIMTOL
 70
     0
  9
$DIMLIM
 70
     0
  9
$DIMTIH
 70
     0
  9
$DIMTOH
 70
     0
  9
$DIMSE1
 70
     0
  9
$DIMSE2
 70
     0
  9
$DIMTAD
 70
     1
  9
$DIMZIN
 70
     8
  9
$DIMBLK
  1

  9
$DIMASO
 70
     1
  9
$DIMSHO
 70
     1
  9
$DIMPOST
  1

  9
$DIMAPOST
  1

  9
$DIMALT
 70
     0
  9
$DIMALTD
 70
     3
  9
$DIMALTF
 40
0.03937007874016
  9
$DIMLFAC
 40
1.0
  9
$DIMTOFL
 70
     1
  9
$DIMTVP
 40
0.0
  9
$DIMTIX
 70
     0
  9
$DIMSOXD
 70
     0
  9
$DIMSAH
 70
     0
  9
$DIMBLK1
  1

  9
$DIMBLK2
  1

  9
$DIMSTYLE
  2
ISO-25
  9
$DIMCLRD
 70
     0
  9
$DIMCLRE
 70
     0
  9
$DIMCLRT
 70
     0
  9
$DIMTFAC
 40
1.0
  9
$DIMGAP
 40
0.625
  9
$DIMJUST
 70
     0
  9
$DIMSD1
 70
     0
  9
$DIMSD2
 70
     0
  9
$DIMTOLJ
 70
     0
  9
$DIMTZIN
 70
     8
  9
$DIMALTZ
 70
     0
  9
$DIMALTTZ
 70
     0
  9
$DIMUPT
 70
     0
  9
$DIMDEC
 70
     2
  9
$DIMTDEC
 70
     2
  9
$DIMALTU
 70
     2
  9
$DIMALTTD
 70
     3
  9
$DIMTXSTY
  7
Standard
  9
$DIMAUNIT
 70
     0
  9
$DIMADEC
 70
     0
  9
$DIMALTRND
 40
0.0
  9
$DIMAZIN
 70
     0
  9
$DIMDSEP
 70
    44
  9
$DIMATFIT
 70
     3
  9
$DIMFRAC
 70
     0
  9
$DIMLDRBLK
  1

  9
$DIMLUNIT
 70
     2
  9
$DIMLWD
 70
    -2
  9
$DIMLWE
 70
    -2
  9
$DIMTMOVE
 70
     0
  9
$DIMFXL
 40
1.0
  9
$DIMFXLON
 70
     0
  9
$DIMJOGANG
 40
0.7853981633974483
  9
$DIMTFILL
 70
     0
  9
$DIMTFILLCLR
 70
     0
  9
$DIMARCSYM
 70
     0
  9
$DIMLTYPE
  6

  9
$DIMLTEX1
  6

  9
$DIMLTEX2
  6

  9
$DIMTXTDIRECTION
 70
     0
  9
$LUNITS
 70
     2
  9
$LUPREC
 70
     4
  9
$SKETCHINC
 40
1.0
  9
$FILLETRAD
 40
0.0
  9
$AUNITS
 70
     0
  9
$AUPREC
 70
     0
  9
$MENU
  1
.
  9
$ELEVATION
 40
0.0
  9
$PELEVATION
 40
0.0
  9
$THICKNESS
 40
0.0
  9
$LIMCHECK
 70
     0
  9
$CHAMFERA
 40
0.0
  9
$CHAMFERB
 40
0.0
  9
$CHAMFERC
 40
0.0
  9
$CHAMFERD
 40
0.0
  9
$SKPOLY
 70
     0
  9
$TDCREATE
 40
2459866.620508414
  9
$TDUCREATE
 40
2459866.245508414
  9
$TDUPDATE
 40
2459866.620508461
  9
$TDUUPDATE
 40
2459866.245508461
  9
$TDINDWG
 40
0.0000000116
  9
$TDUSRTIMER
 40
0.0000000116
  9
$USRTIMER
 70
     1
  9
$ANGBASE
 50
0.0
  9
$ANGDIR
 70
     0
  9
$PDMODE
 70
     0
  9
$PDSIZE
 40
0.0
  9
$PLINEWID
 40
0.0
  9
$SPLFRAME
 70
     0
  9
$SPLINETYPE
 70
     6
  9
$SPLINESEGS
 70
     8
  9
$HANDSEED
  5
B5
  9
$SURFTAB1
 70
     6
  9
$SURFTAB2
 70
     6
  9
$SURFTYPE
 70
     6
  9
$SURFU
 70
     6
  9
$SURFV
 70
     6
  9
$UCSBASE
  2

  9
$UCSNAME
  2

  9
$UCSORG
 10
0.0
 20
0.0
 30
0.0
  9
$UCSXDIR
 10
1.0
 20
0.0
 30
0.0
  9
$UCSYDIR
 10
0.0
 20
1.0
 30
0.0
  9
$UCSORTHOREF
  2

  9
$UCSORTHOVIEW
 70
     0
  9
$UCSORGTOP
 10
0.0
 20
0.0
 30
0.0
  9
$UCSORGBOTTOM
 10
0.0
 20
0.0
 30
0.0
  9
$UCSORGLEFT
 10
0.0
 20
0.0
 30
0.0
  9
$UCSORGRIGHT
 10
0.0
 20
0.0
 30
0.0
  9
$UCSORGFRONT
 10
0.0
 20
0.0
 30
0.0
  9
$UCSORGBACK
 10
0.0
 20
0.0
 30
0.0
  9
$PUCSBASE
  2

  9
$PUCSNAME
  2

  9
$PUCSORG
 10
0.0
 20
0.0
 30
0.0
  9
$PUCSXDIR
 10
1.0
 20
0.0
 30
0.0
  9
$PUCSYDIR
 10
0.0
 20
1.0
 30
0.0
  9
$PUCSORTHOREF
  2

  9
$PUCSORTHOVIEW
 70
     0
  9
$PUCSORGTOP
 10
0.0
 20
0.0
 30
0.0
  9
$PUCSORGBOTTOM
 10
0.0
 20
0.0
 30
0.0
  9
$PUCSORGLEFT
 10
0.0
 20
0.0
 30
0.0
  9
$PUCSORGRIGHT
 10
0.0
 20
0.0
 30
0.0
  9
$PUCSORGFRONT
 10
0.0
 20
0.0
 30
0.0
  9
$PUCSORGBACK
 10
0.0
 20
0.0
 30
0.0
  9
$USERI1
 70
     0
  9
$USERI2
 70
     0
  9
$USERI3
 70
     0
  9
$USERI4
 70
     0
  9
$USERI5
 70
     0
  9
$USERR1
 40
0.0
  9
$USERR2
 40
0.0
  9
$USERR3
 40
0.0
  9
$USERR4
 40
0.0
  9
$USERR5
 40
0.0
  9
$WORLDVIEW
 70
     1
  9
$SHADEDGE
 70
     3
  9
$SHADEDIF
 70
    70
  9
$TILEMODE
 70
     1
  9
$MAXACTVP
 70
    64
  9
$PINSBASE
 10
0.0
 20
0.0
 30
0.0
  9
$PLIMCHECK
 70
     0
  9
$PEXTMIN
 10
1.000000000000000E+20
 20
1.000000000000000E+20
 30
1.000000000000000E+20
  9
$PEXTMAX
 10
-1.000000000000000E+20
 20
-1.000000000000000E+20
 30
-1.000000000000000E+20
  9
$PLIMMIN
 10
0.0
 20
0.0
  9
$PLIMMAX
 10
420.0
 20
297.0
  9
$UNITMODE
 70
     0
  9
$VISRETAIN
 70
     1
  9
$PLINEGEN
 70
     0
  9
$PSLTSCALE
 70
     1
  9
$TREEDEPTH
 70
  3020
  9
$CMLSTYLE
  2
Standard
  9
$CMLJUST
 70
     0
  9
$CMLSCALE
 40
20.0
  9
$PROXYGRAPHICS
 70
     1
  9
$MEASUREMENT
 70
     1
  9
$CELWEIGHT
370
    -1
  9
$ENDCAPS
280
     0
  9
$JOINSTYLE
280
     0
  9
$LWDISPLAY
290
     0
  9
$INSUNITS
 70
     4
  9
$HYPERLINKBASE
  1

  9
$STYLESHEET
  1

  9
$XEDIT
290
     1
  9
$CEPSNTYPE
380
     0
  9
$PSTYLEMODE
290
     1
  9
$FINGERPRINTGUID
  2
{c2c86902-4959-4dec-bc53-92b450cdc9a6}
  9
$VERSIONGUID
  2
{FAEB1C32-E019-11D5-929B-00C0DF256EC4}
  9
$EXTNAMES
290
     1
  9
$PSVPSCALE
 40
0.0
  9
$OLESTARTUP
290
     0
  9
$SORTENTS
280
   127
  9
$INDEXCTL
280
     0
  9
$HIDETEXT
280
     1
  9
$XCLIPFRAME
280
     2
  9
$HALOGAP
280
     0
  9
$OBSCOLOR
 70
   257
  9
$OBSLTYPE
280
     0
  9
$INTERSECTIONDISPLAY
280
     0
  9
$INTERSECTIONCOLOR
 70
   257
  9
$DIMASSOC
280
     2
  9
$PROJECTNAME
  1

  9
$CAMERADISPLAY
290
     0
  9
$LENSLENGTH
 40
50.0
  9
$CAMERAHEIGHT
 40
0.0
  9
$STEPSPERSEC
 40
2.0
  9
$STEPSIZE
 40
6.0
  9
$3DDWFPREC
 40
2.0
  9
$PSOLWIDTH
 40
5.0
  9
$PSOLHEIGHT
 40
80.0
  9
$LOFTANG1
 40
1.570796326794897
  9
$LOFTANG2
 40
1.570796326794897
  9
$LOFTMAG1
 40
0.0
  9
$LOFTMAG2
 40
0.0
  9
$LOFTPARAM
 70
     7
  9
$LOFTNORMALS
280
     1
  9
$LATITUDE
 40
37.795
  9
$LONGITUDE
 40
-122.394
  9
$NORTHDIRECTION
 40
0.0
  9
$TIMEZONE
 70
 -8000
  9
$LIGHTGLYPHDISPLAY
280
     1
  9
$TILEMODELIGHTSYNCH
280
     1
  9
$CMATERIAL
347
44
  9
$SOLIDHIST
280
     0
  9
$SHOWHIST
280
     1
  9
$DWFFRAME
280
     2
  9
$DGNFRAME
280
     2
  9
$REALWORLDSCALE
290
     1
  9
$INTERFERECOLOR
 62
   256
  9
$CSHADOW
280
     0
  9
$SHADOWPLANELOCATION
 40
0.0
  0
ENDSEC
  0
SECTION
  2
CLASSES
  0
CLASS
  1
ACDBDICTIONARYWDFLT
  2
AcDbDictionaryWithDefault
  3
ObjectDBX Classes
 90
        0
 91
        3
280
     0
281
     0
  0
CLASS
  1
VISUALSTYLE
  2
AcDbVisualStyle
  3
ObjectDBX Classes
 90
     4095
 91
        3
280
     0
281
     0
  0
CLASS
  1
MATERIAL
  2
AcDbMaterial
  3
ObjectDBX Classes
 90
     1153
 91
        3
280
     0
281
     0
  0
CLASS
  1
SCALE
  2
AcDbScale
  3
ObjectDBX Classes
 90
     1153
 91
        3
280
     0
281
     0
  0
CLASS
  1
TABLESTYLE
  2
AcDbTableStyle
  3
ObjectDBX Classes
 90
     4095
 91
        3
280
     0
281
     0
  0
CLASS
  1
MLEADERSTYLE
  2
AcDbMLeaderStyle
  3
ACDB_MLEADERSTYLE_CLASS
 90
     4095
 91
        3
280
     0
281
     0
  0
CLASS
  1
SUN
  2
AcDbSun
  3
SCENEOE
 90
     1153
 91
        3
280
     0
281
     0
  0
CLASS
  1
DICTIONARYVAR
  2
AcDbDictionaryVar
  3
ObjectDBX Classes
 90
        0
 91
        3
280
     0
281
     0
  0
CLASS
  1
CELLSTYLEMAP
  2
AcDbCellStyleMap
  3
ObjectDBX Classes
 90
     1152
 91
        3
280
     0
281
     0
  0
ENDSEC
  0
SECTION
  2
TABLES
  0
TABLE
  2
VPORT
  5
8
330
0
100
AcDbSymbolTable
 70
     1
  0
VPORT
  5
29
330
8
100
AcDbSymbolTableRecord
100
AcDbViewportTableRecord
  2
*Active
 70
     0
 10
0.0
 20
0.0
 11
1.0
 21
1.0
 12
151.4998911674896
 22
108.0008027704874
 13
0.0
 23
0.0
 14
10.0
 24
10.0
 15
10.0
 25
10.0
 16
0.0
 26
0.0
 36
1.0
 17
0.0
 27
0.0
 37
0.0
 40
237.6017660950723
 41
1.402766343222857
 42
50.0
 43
0.0
 44
0.0
 50
0.0
 51
0.0
 71
     0
 72
 10000
 73
     1
 74
     3
 75
     0
 76
     0
 77
     0
 78
     0
281
     0
 65
     1
110
0.0
120
0.0
130
0.0
111
1.0
121
0.0
131
0.0
112
0.0
122
1.0
132
0.0
 79
     0
146
0.0
348
2F
 60
     3
 61
     5
292
     1
282
     1
141
0.0
142
0.0
 63
   250
361
5D
  0
ENDTAB
  0
TABLE
  2
LTYPE
  5
5
330
0
100
AcDbSymbolTable
 70
     2
  0
LTYPE
  5
14
330
5
100
AcDbSymbolTableRecord
100
AcDbLinetypeTableRecord
  2
ByBlock
 70
     0
  3

 72
    65
 73
     0
 40
0.0
  0
LTYPE
  5
15
330
5
100
AcDbSymbolTableRecord
100
AcDbLinetypeTableRecord
  2
ByLayer
 70
     0
  3

 72
    65
 73
     0
 40
0.0
  0
LTYPE
  5
16
330
5
100
AcDbSymbolTableRecord
100
AcDbLinetypeTableRecord
  2
Continuous
 70
     0
  3
Solid line
 72
    65
 73
     0
 40
0.0
  0
LTYPE
  5
5F
330
5
100
AcDbSymbolTableRecord
100
AcDbLinetypeTableRecord
  2
UserDefined01
 70
     0
  3
----------------                
 72
    65
 73
     2
 40
0.7055555449591743
 49
0.3527777724795871
 74
     0
 49
-0.3527777724795871
 74
     0
  0
ENDTAB
  0
TABLE
  2
LAYER
  5
2
330
0
100
AcDbSymbolTable
 70
     4
  0
LAYER
  5
10
330
2
100
AcDbSymbolTableRecord
100
AcDbLayerTableRecord
  2
0
 70
     0
 62
     7
  6
Continuous
370
    -3
390
F
347
46
348
0
  0
LAYER
  5
60
330
2
100
AcDbSymbolTableRecord
100
AcDbLayerTableRecord
  2
外枠
 70
     0
 62
     7
  6
Continuous
370
    -3
390
F
347
46
348
0
  0
LAYER
  5
61
330
2
100
AcDbSymbolTableRecord
100
AcDbLayerTableRecord
  2
レイヤー_2
 70
     0
 62
     7
  6
Continuous
370
    -3
390
F
347
46
348
0
  0
LAYER
  5
62
330
2
100
AcDbSymbolTableRecord
100
AcDbLayerTableRecord
  2
ISS138金台
 70
     0
 62
     7
  6
Continuous
370
    -3
390
F
347
46
348
0
  0
ENDTAB
  0
TABLE
  2
STYLE
  5
3
330
0
100
AcDbSymbolTable
 70
     2
  0
STYLE
  5
11
330
3
100
AcDbSymbolTableRecord
100
AcDbTextStyleTableRecord
  2
Standard
 70
     0
 40
0.0
 41
1.0
 50
0.0
 71
     0
 42
2.5
  3

  4

  0
STYLE
  5
5E
330
3
100
AcDbSymbolTableRecord
100
AcDbTextStyleTableRecord
  2
MS Gothic
 70
     0
 40
1.0
 41
1.0
 50
0.0
 71
     0
 42
2.5
  3
msgothic.ttc
  4

1001
ACAD
1000
MS Gothic
1071
    32817
  0
ENDTAB
  0
TABLE
  2
VIEW
  5
6
330
0
100
AcDbSymbolTable
 70
     0
  0
ENDTAB
  0
TABLE
  2
UCS
  5
7
330
0
100
AcDbSymbolTable
 70
     0
  0
ENDTAB
  0
TABLE
  2
APPID
  5
9
330
0
100
AcDbSymbolTable
 70
     1
  0
APPID
  5
12
330
9
100
AcDbSymbolTableRecord
100
AcDbRegAppTableRecord
  2
ACAD
 70
     0
  0
ENDTAB
  0
TABLE
  2
DIMSTYLE
  5
A
330
0
100
AcDbSymbolTable
 70
     1
100
AcDbDimStyleTable
  0
DIMSTYLE
105
27
330
A
100
AcDbSymbolTableRecord
100
AcDbDimStyleTableRecord
  2
ISO-25
 70
     0
 41
2.5
 42
0.625
 43
3.75
 44
1.25
 73
     0
 74
     0
 77
     1
 78
     8
140
2.5
141
2.5
143
0.03937007874016
147
0.625
171
     3
172
     1
178
     0
271
     2
272
     2
274
     3
278
    44
283
     0
284
     8
340
11
  0
ENDTAB
  0
TABLE
  2
BLOCK_RECORD
  5
1
330
0
100
AcDbSymbolTable
 70
     1
  0
BLOCK_RECORD
  5
1F
330
1
100
AcDbSymbolTableRecord
100
AcDbBlockTableRecord
  2
*Model_Space
340
22
 70
     0
280
     1
281
     0
  0
BLOCK_RECORD
  5
1B
330
1
100
AcDbSymbolTableRecord
100
AcDbBlockTableRecord
  2
*Paper_Space
340
1E
 70
     0
280
     1
281
     0
  0
BLOCK_RECORD
  5
23
330
1
100
AcDbSymbolTableRecord
100
AcDbBlockTableRecord
  2
*Paper_Space0
340
26
 70
     0
280
     1
281
     0
  0
ENDTAB
  0
ENDSEC
  0
SECTION
  2
BLOCKS
  0
BLOCK
  5
20
330
1F
100
AcDbEntity
  8
0
100
AcDbBlockBegin
  2
*Model_Space
 70
     0
 10
0.0
 20
0.0
 30
0.0
  3
*Model_Space
  1

  0
ENDBLK
  5
21
330
1F
100
AcDbEntity
  8
0
100
AcDbBlockEnd
  0
BLOCK
  5
1C
330
1B
100
AcDbEntity
 67
     1
  8
0
100
AcDbBlockBegin
  2
*Paper_Space
 70
     0
 10
0.0
 20
0.0
 30
0.0
  3
*Paper_Space
  1

  0
ENDBLK
  5
1D
330
1B
100
AcDbEntity
 67
     1
  8
0
100
AcDbBlockEnd
  0
BLOCK
  5
24
330
23
100
AcDbEntity
  8
0
100
AcDbBlockBegin
  2
*Paper_Space0
 70
     0
 10
0.0
 20
0.0
 30
0.0
  3
*Paper_Space0
  1

  0
ENDBLK
  5
25
330
23
100
AcDbEntity
  8
0
100
AcDbBlockEnd
  0
ENDSEC
  0
SECTION
  2
ENTITIES
  0
LWPOLYLINE
  5
63
330
1F
100
AcDbEntity
  8
外枠
  6
Continuous
 62
   250
420
  2367521
370
   100
100
AcDbPolyline
 90
        5
 70
     0
 43
0.0
 10
281.9999662644599
 20
13.29407825637392
 10
20.99981607051935
 20
13.29407825637392
 10
20.99981607051935
 20
193.0018900389566
 10
281.9999662644599
 20
193.0018900389566
 10
281.9999662644599
 20
13.29407825637392
  0
LINE
  5
64
330
1F
100
AcDbEntity
  8
外枠
  6
Continuous
 62
   250
420
  2367521
370
    25
100
AcDbLine
 10
223.3097080177524
 20
174.0786160074276
 30
0.0
 11
281.9999232007669
 21
174.0786160074276
 31
0.0
  0
LINE
  5
65
330
1F
100
AcDbEntity
  8
外枠
  6
Continuous
 62
   250
420
  2367521
370
    25
100
AcDbLine
 10
223.3097080177524
 20
50.37109023844297
 30
0.0
 11
281.9999232007669
 21
50.37109023844297
 31
0.0
  0
LINE
  5
66
330
1F
100
AcDbEntity
  8
外枠
  6
Continuous
 62
   250
420
  2367521
370
    25
100
AcDbLine
 10
223.3097080177524
 20
36.25997933925949
 30
0.0
 11
281.9999232007669
 21
36.25997933925949
 31
0.0
  0
LINE
  5
67
330
1F
100
AcDbEntity
  8
外枠
  6
Continuous
 62
   250
420
  2367521
370
    50
100
AcDbLine
 10
223.0158413772006
 20
193.3637327187979
 30
0.0
 11
223.0158413772006
 21
13.29396655992039
 31
0.0
  0
TEXT
  5
68
330
1F
100
AcDbEntity
  8
外枠
  6
Continuous
 62
   250
420
  2367521
100
AcDbText
 10
224.7190965599536
 20
186.6888051931772
 30
0.0
 40
2.688166626294454
  1
品名：
 41
0.974166170756022
  7
MS Gothic
100
AcDbText
  0
TEXT
  5
69
330
1F
100
AcDbEntity
  8
外枠
  6
Continuous
 62
   250
420
  2367521
100
AcDbText
 10
224.7190965599536
 20
168.1080059455944
 30
0.0
 40
2.688166626294454
  1
仕様：
 41
0.9978878657023111
  7
MS Gothic
100
AcDbText
  0
TEXT
  5
6A
330
1F
100
AcDbEntity
  8
外枠
  6
Continuous
 62
   250
420
  2367521
100
AcDbText
 10
224.7190965599536
 20
44.16660664327048
 30
0.0
 40
2.688166626294454
  1
縮尺：
 41
0.9939999262491861
  7
MS Gothic
100
AcDbText
  0
TEXT
  5
6B
330
1F
100
AcDbEntity
  8
外枠
  6
Continuous
 62
   250
420
  2367521
100
AcDbText
 10
250.2379519709696
 20
40.59738467878129
 30
0.0
 40
2.150533301035563
  1
1/1
 41
1.000003814697266
  7
MS Gothic
100
AcDbText
  0
TEXT
  5
6C
330
1F
100
AcDbEntity
  8
外枠
  6
Continuous
 62
   250
420
  2367521
100
AcDbText
 10
232.657974478918
 20
156.9052368606422
 30
0.0
 40
2.016124969720841
  1
金台：
 41
1.494500562879774
  7
MS Gothic
100
AcDbText
  0
TEXT
  5
6D
330
1F
100
AcDbEntity
  8
外枠
  6
Continuous
 62
   250
420
  2367521
100
AcDbText
 10
243.4900220118208
 20
156.9052368606422
 30
0.0
 40
2.016124969720841
  1
アルミ押出形材（A6063S-T5）
 41
1.033106825086805
  7
MS Gothic
100
AcDbText
  0
TEXT
  5
6E
330
1F
100
AcDbEntity
  8
外枠
  6
Continuous
 62
   250
420
  2367521
100
AcDbText
 10
243.3259708736053
 20
152.6719035908871
 30
0.0
 40
2.016124969720841
  1
アンバー
 41
1.043984731038411
  7
MS Gothic
100
AcDbText
  0
TEXT
  5
6F
330
1F
100
AcDbEntity
  8
外枠
  6
Continuous
 62
   250
420
  2367521
100
AcDbText
 10
253.9093040479929
 20
152.6719035908871
 30
0.0
 40
2.016124969720841
  1
仕上（アルマイト）
 41
1.021342750831886
  7
MS Gothic
100
AcDbText
  0
TEXT
  5
70
330
1F
100
AcDbEntity
  8
外枠
  6
Continuous
 62
   250
420
  2367521
100
AcDbText
 10
232.7757967427735
 20
181.9845273775436
 30
0.0
 40
2.688166626294454
  1
ハガタ　ISAN-40(U)FL
 41
1.017552108764648
  7
MS Gothic
100
AcDbText
  0
TEXT
  5
71
330
1F
100
AcDbEntity
  8
外枠
  6
Continuous
 62
   250
420
  2367521
100
AcDbText
 10
232.657974478918
 20
129.9762931224148
 30
0.0
 40
2.016124969720841
  1
IS-13  グレー
 41
0.90473398061899
  7
MS Gothic
100
AcDbText
  0
TEXT
  5
72
330
1F
100
AcDbEntity
  8
外枠
  6
Continuous
 62
   250
420
  2367521
100
AcDbText
 10
232.657974478918
 20
124.684626535221
 30
0.0
 40
2.016124969720841
  1
IS-14  ダークグレー
 41
0.9366206654331138
  7
MS Gothic
100
AcDbText
  0
TEXT
  5
73
330
1F
100
AcDbEntity
  8
外枠
  6
Continuous
 62
   250
420
  2367521
100
AcDbText
 10
232.657974478918
 20
119.3929599480272
 30
0.0
 40
2.016124969720841
  1
IS-20  ブラック
 41
0.911960788302951
  7
MS Gothic
100
AcDbText
  0
TEXT
  5
74
330
1F
100
AcDbEntity
  8
外枠
  6
Continuous
 62
   250
420
  2367521
100
AcDbText
 10
232.657974478918
 20
114.1012933608334
 30
0.0
 40
2.016124969720841
  1
IS-16  ベージュ
 41
0.9228807915581594
  7
MS Gothic
100
AcDbText
  0
TEXT
  5
75
330
1F
100
AcDbEntity
  8
外枠
  6
Continuous
 62
   250
420
  2367521
100
AcDbText
 10
232.657974478918
 20
108.8096267736396
 30
0.0
 40
2.016124969720841
  1
IS-18  ブラウン
 41
0.9214809841579858
  7
MS Gothic
100
AcDbText
  0
TEXT
  5
76
330
1F
100
AcDbEntity
  8
外枠
  6
Continuous
 62
   250
420
  2367521
100
AcDbText
 10
232.657974478918
 20
103.5179601864457
 30
0.0
 40
2.016124969720841
  1
IS-21  チョコレート
 41
0.9285238701000545
  7
MS Gothic
100
AcDbText
  0
TEXT
  5
77
330
1F
100
AcDbEntity
  8
外枠
  6
Continuous
 62
   250
420
  2367521
100
AcDbText
 10
232.657974478918
 20
98.22629359925195
 30
0.0
 40
2.016124969720841
  1
IS-12  ワインレッド
 41
0.9415448105126094
  7
MS Gothic
100
AcDbText
  0
TEXT
  5
78
330
1F
100
AcDbEntity
  8
外枠
  6
Continuous
 62
   250
420
  2367521
100
AcDbText
 10
232.657974478918
 20
92.93462701205813
 30
0.0
 40
2.016124969720841
  1
IS-6   グリーン
 41
0.8741602918836803
  7
MS Gothic
100
AcDbText
  0
TEXT
  5
79
330
1F
100
AcDbEntity
  8
外枠
  6
Continuous
 62
   250
420
  2367521
100
AcDbText
 10
232.657974478918
 20
87.64296580782595
 30
0.0
 40
2.016124969720841
  1
IS-15  シャドーブルー
 41
0.9429933578249006
  7
MS Gothic
100
AcDbText
  0
TEXT
  5
7A
330
1F
100
AcDbEntity
  8
外枠
  6
Continuous
 62
   250
420
  2367521
100
AcDbText
 10
232.657974478918
 20
82.35129922063214
 30
0.0
 40
2.016124969720841
  1
IS-9   マスタードイエロー
 41
0.924693196614583
  7
MS Gothic
100
AcDbText
  0
TEXT
  5
7B
330
1F
100
AcDbEntity
  8
外枠
  6
Continuous
 62
   250
420
  2367521
100
AcDbText
 10
226.1633020978884
 20
24.25683874973963
 30
0.0
 40
2.553758294979732
  1
ヤスダインテリアサプライ株式会社
 41
1.0194908945184
  7
MS Gothic
100
AcDbText
  0
TEXT
  5
7C
330
1F
100
AcDbEntity
  8
外枠
  6
Continuous
 62
   250
420
  2367521
100
AcDbText
 10
227.7635273953072
 20
135.3178613140838
 30
0.0
 40
2.150533301035563
  1
タイヤカラー
 41
1.008334398269653
  7
MS Gothic
100
AcDbText
  0
TEXT
  5
7D
330
1F
100
AcDbEntity
  8
外枠
  6
Continuous
 62
   250
420
  2367521
100
AcDbText
 10
227.7635273953072
 20
161.7761942500528
 30
0.0
 40
2.150533301035563
  1
材質
 41
1.028502464294433
  7
MS Gothic
100
AcDbText
  0
TEXT
  5
7E
330
1F
100
AcDbEntity
  8
レイヤー_2
  6
Continuous
 62
   250
420
  2367521
100
AcDbText
 10
232.657974478918
 20
148.2620091801205
 30
0.0
 40
2.016124969720841
  1
タイヤ：  （非塩ビ）オレフィン系
 41
0.9251073837280269
  7
MS Gothic
100
AcDbText
  0
TEXT
  5
7F
330
1F
100
AcDbEntity
  8
レイヤー_2
  6
Continuous
 62
   250
420
  2367521
100
AcDbText
 10
232.657974478918
 20
144.0286759103655
 30
0.0
 40
2.016124969720841
  1
                   熱可塑性エラストマー/
 41
0.7486498514811195
  7
MS Gothic
100
AcDbText
  0
TEXT
  5
80
330
1F
100
AcDbEntity
  8
レイヤー_2
  6
Continuous
 62
   250
420
  2367521
100
AcDbText
 10
232.657974478918
 20
139.7953426406104
 30
0.0
 40
2.016124969720841
  1
　　　　 アクリル系両面テープ
 41
0.9977381914511492
  7
MS Gothic
100
AcDbText
  0
LWPOLYLINE
  5
81
330
1F
100
AcDbEntity
  8
ISS138金台
  6
Continuous
 62
   250
420
  2367521
370
    25
100
AcDbPolyline
 90
        9
 70
     0
 43
0.0
 10
142.0717523218627
 20
105.7706417728938
 10
103.071818605147
 20
105.7706417728938
 10
102.5715799821531
 20
108.7706631749138
 10
105.0717072707226
 20
108.7706631749138
 10
104.5718239231953
 20
106.9704393216064
 10
140.5717362378911
 20
106.9704393216064
 10
140.0714976148973
 20
108.7706631749138
 10
142.57163566939
 20
108.7706631749138
 10
142.0717523218627
 20
105.7706417728938
  0
HATCH
  5
82
330
1F
100
AcDbEntity
  8
ISS138金台
  6
Continuous
 62
   254
420
 13816532
370
    25
100
AcDbHatch
 10
0.0
 20
0.0
 30
0.0
210
0.0
220
0.0
230
1.0
  2
SOLID
 70
     1
 71
     0
 91
        1
 92
        3
 72
     0
 73
     1
 93
        4
 10
140.0770420653619
 20
107.0404931840797
 10
104.9767087641198
 20
107.0404931840797
 10
105.0768964457206
 20
110.0405145860997
 10
139.9772096592278
 20
110.0405145860997
 97
        0
 75
     1
 76
     1
 98
        0
  0
LWPOLYLINE
  5
83
330
1F
100
AcDbEntity
  8
ISS138金台
  6
Continuous
 62
   254
420
 13816532
370
    25
100
AcDbPolyline
 90
        5
 70
     0
 43
0.0
 10
140.0770420653619
 20
107.0404931840797
 10
104.9767087641198
 20
107.0404931840797
 10
105.0768964457206
 20
110.0405145860997
 10
139.9772096592278
 20
110.0405145860997
 10
140.0770420653619
 20
107.0404931840797
  0
LWPOLYLINE
  5
84
330
1F
100
AcDbEntity
  8
ISS138金台
  6
Continuous
 62
   250
420
  2367521
370
    25
100
AcDbPolyline
 90
        5
 70
     0
 43
0.0
 10
140.0770420653619
 20
107.0404931840797
 10
104.9767087641198
 20
107.0404931840797
 10
105.0768964457206
 20
110.0405145860997
 10
139.9772096592278
 20
110.0405145860997
 10
140.0770420653619
 20
107.0404931840797
  0
LINE
  5
85
330
1F
100
AcDbEntity
  8
ISS138金台
  6
Continuous
 62
   250
420
  2367521
370
    13
100
AcDbLine
 10
102.5715046206905
 20
110.4761038400829
 30
0.0
 11
102.5715046206905
 21
115.4813107419088
 31
0.0
  0
LINE
  5
86
330
1F
100
AcDbEntity
  8
ISS138金台
  6
Continuous
 62
   250
420
  2367521
370
    13
100
AcDbLine
 10
105.0716103774135
 20
114.9740204391977
 30
0.0
 11
102.8215970173793
 21
114.9740204391977
 31
0.0
  0
LINE
  5
87
330
1F
100
AcDbEntity
  8
ISS138金台
  6
Continuous
 62
   250
420
  2367521
370
    13
100
AcDbLine
 10
105.0716103774135
 20
115.4811277212139
 30
0.0
 11
105.0716103774135
 21
110.475920819388
 31
0.0
  0
LINE
  5
88
330
1F
100
AcDbEntity
  8
ISS138金台
  6
Continuous
 62
   250
420
  2367521
370
    13
100
AcDbLine
 10
102.5715046206905
 20
104.7705090364495
 30
0.0
 11
102.5715046206905
 21
94.82641331990939
 31
0.0
  0
LINE
  5
89
330
1F
100
AcDbEntity
  8
ISS138金台
  6
Continuous
 62
   250
420
  2367521
370
    13
100
AcDbLine
 10
142.5716464353132
 20
95.33371438854374
 30
0.0
 11
102.821349401145
 21
95.33371438854374
 31
0.0
  0
LINE
  5
8A
330
1F
100
AcDbEntity
  8
ISS138金台
  6
Continuous
 62
   250
420
  2367521
370
    13
100
AcDbLine
 10
142.5716464353132
 20
104.7705090364495
 30
0.0
 11
142.5716464353132
 21
94.82641331990939
 31
0.0
  0
HATCH
  5
8B
330
1F
100
AcDbEntity
  8
ISS138金台
  6
Continuous
 62
   250
420
  2367521
370
    13
100
AcDbHatch
 10
0.0
 20
0.0
 30
0.0
210
0.0
220
0.0
230
1.0
  2
SOLID
 70
     1
 71
     0
 91
        1
 92
        3
 72
     0
 73
     1
 93
       67
 10
102.5715046206905
 20
114.7240787654341
 10
102.5970413905977
 20
114.7253599102987
 10
102.6218460777252
 20
114.7291602811998
 10
102.6457787250709
 20
114.7353183892887
 10
102.6687101415559
 20
114.7437050434867
 10
102.6905541997945
 20
114.7542233504848
 10
102.711149410938
 20
114.7667441192041
 10
102.7303773498311
 20
114.7811058607961
 10
102.7481088253949
 20
114.7972332137983
 10
102.7642361783971
 20
114.8149754552853
 10
102.7786194518356
 20
114.8342033941784
 10
102.7911294546316
 20
114.854798605322
 10
102.8016477616297
 20
114.8766318976373
 10
102.810045181751
 20
114.8995740800456
 10
102.8162032898399
 20
114.9235067273912
 10
102.8199821288945
 20
114.9483114145187
 10
102.8212740396824
 20
114.973848184426
 10
102.8212740396824
 20
114.973848184426
 10
102.8199821288945
 20
114.9994387839494
 10
102.8162032898399
 20
115.024297300693
 10
102.810045181751
 20
115.0482837776548
 10
102.8016477616297
 20
115.071269023756
 10
102.7911294546316
 20
115.0931346138411
 10
102.7786194518356
 20
115.1137621227544
 10
102.7642361783971
 20
115.1330115934939
 10
102.7481088253949
 20
115.1507646009041
 10
102.7303773498311
 20
115.1669027198295
 10
102.711149410938
 20
115.181285993268
 10
102.6905541997945
 20
115.1938067619873
 10
102.6687209074791
 20
115.2043250689854
 10
102.6457787250709
 20
115.2127332550299
 10
102.621835311802
 20
115.2188913631188
 10
102.5970413905977
 20
115.2226702021734
 10
102.5715046206905
 20
115.2239621129613
 10
102.5715046206905
 20
115.2239621129613
 10
102.545914021167
 20
115.2226702021734
 10
102.5210770362699
 20
115.2188805971956
 10
102.4971013252313
 20
115.2127332550299
 10
102.4741268450533
 20
115.2043250689854
 10
102.452293552738
 20
115.1938067619873
 10
102.4316983415944
 20
115.181285993268
 10
102.4124811686246
 20
115.1668919539063
 10
102.394760458984
 20
115.1507646009041
 10
102.3786654037516
 20
115.1330115934939
 10
102.3642928962363
 20
115.1137621227544
 10
102.3518151912099
 20
115.0931346138411
 10
102.3413184160583
 20
115.071269023756
 10
102.3329317618603
 20
115.0482837776548
 10
102.3267951856178
 20
115.024297300693
 10
102.3230163465632
 20
114.9994495498726
 10
102.3217352016986
 20
114.973848184426
 10
102.3217352016986
 20
114.973848184426
 10
102.3230163465632
 20
114.9483114145187
 10
102.3267951856178
 20
114.9235174933144
 10
102.3329317618603
 20
114.8995848459688
 10
102.3413184160583
 20
114.8766211317141
 10
102.3518151912099
 20
114.8547878393987
 10
102.3643036621595
 20
114.8341926282552
 10
102.3786654037516
 20
114.8149754552853
 10
102.394760458984
 20
114.7972332137983
 10
102.4124811686246
 20
114.7811166267194
 10
102.4317091075176
 20
114.7667333532809
 10
102.452293552738
 20
114.7542233504848
 10
102.4741376109766
 20
114.7437050434867
 10
102.4971013252313
 20
114.7353076233655
 10
102.5210662703466
 20
114.7291495152765
 10
102.545914021167
 20
114.7253706762219
 97
        0
 75
     1
 76
     1
 98
        0
  0
LWPOLYLINE
  5
8C
330
1F
100
AcDbEntity
  8
ISS138金台
  6
Continuous
 62
   250
420
  2367521
370
    13
100
AcDbPolyline
 90
       68
 70
     0
 43
0.0
 10
102.5715046206905
 20
114.7240787654341
 10
102.5970413905977
 20
114.7253599102987
 10
102.6218460777252
 20
114.7291602811998
 10
102.6457787250709
 20
114.7353183892887
 10
102.6687101415559
 20
114.7437050434867
 10
102.6905541997945
 20
114.7542233504848
 10
102.711149410938
 20
114.7667441192041
 10
102.7303773498311
 20
114.7811058607961
 10
102.7481088253949
 20
114.7972332137983
 10
102.7642361783971
 20
114.8149754552853
 10
102.7786194518356
 20
114.8342033941784
 10
102.7911294546316
 20
114.854798605322
 10
102.8016477616297
 20
114.8766318976373
 10
102.810045181751
 20
114.8995740800456
 10
102.8162032898399
 20
114.9235067273912
 10
102.8199821288945
 20
114.9483114145187
 10
102.8212740396824
 20
114.973848184426
 10
102.8212740396824
 20
114.973848184426
 10
102.8199821288945
 20
114.9994387839494
 10
102.8162032898399
 20
115.024297300693
 10
102.810045181751
 20
115.0482837776548
 10
102.8016477616297
 20
115.071269023756
 10
102.7911294546316
 20
115.0931346138411
 10
102.7786194518356
 20
115.1137621227544
 10
102.7642361783971
 20
115.1330115934939
 10
102.7481088253949
 20
115.1507646009041
 10
102.7303773498311
 20
115.1669027198295
 10
102.711149410938
 20
115.181285993268
 10
102.6905541997945
 20
115.1938067619873
 10
102.6687209074791
 20
115.2043250689854
 10
102.6457787250709
 20
115.2127332550299
 10
102.621835311802
 20
115.2188913631188
 10
102.5970413905977
 20
115.2226702021734
 10
102.5715046206905
 20
115.2239621129613
 10
102.5715046206905
 20
115.2239621129613
 10
102.545914021167
 20
115.2226702021734
 10
102.5210770362699
 20
115.2188805971956
 10
102.4971013252313
 20
115.2127332550299
 10
102.4741268450533
 20
115.2043250689854
 10
102.452293552738
 20
115.1938067619873
 10
102.4316983415944
 20
115.181285993268
 10
102.4124811686246
 20
115.1668919539063
 10
102.394760458984
 20
115.1507646009041
 10
102.3786654037516
 20
115.1330115934939
 10
102.3642928962363
 20
115.1137621227544
 10
102.3518151912099
 20
115.0931346138411
 10
102.3413184160583
 20
115.071269023756
 10
102.3329317618603
 20
115.0482837776548
 10
102.3267951856178
 20
115.024297300693
 10
102.3230163465632
 20
114.9994495498726
 10
102.3217352016986
 20
114.973848184426
 10
102.3217352016986
 20
114.973848184426
 10
102.3230163465632
 20
114.9483114145187
 10
102.3267951856178
 20
114.9235174933144
 10
102.3329317618603
 20
114.8995848459688
 10
102.3413184160583
 20
114.8766211317141
 10
102.3518151912099
 20
114.8547878393987
 10
102.3643036621595
 20
114.8341926282552
 10
102.3786654037516
 20
114.8149754552853
 10
102.394760458984
 20
114.7972332137983
 10
102.4124811686246
 20
114.7811166267194
 10
102.4317091075176
 20
114.7667333532809
 10
102.452293552738
 20
114.7542233504848
 10
102.4741376109766
 20
114.7437050434867
 10
102.4971013252313
 20
114.7353076233655
 10
102.5210662703466
 20
114.7291495152765
 10
102.545914021167
 20
114.7253706762219
 10
102.5715046206905
 20
114.7240787654341
  0
HATCH
  5
8D
330
1F
100
AcDbEntity
  8
ISS138金台
  6
Continuous
 62
   250
420
  2367521
370
    13
100
AcDbHatch
 10
0.0
 20
0.0
 30
0.0
210
0.0
220
0.0
230
1.0
  2
SOLID
 70
     1
 71
     0
 91
        1
 92
        3
 72
     0
 73
     1
 93
       67
 10
102.5715046206905
 20
95.08394496955185
 10
102.5970413905977
 20
95.08523688033974
 10
102.6218460777252
 20
95.08901571939431
 10
102.6457787250709
 20
95.09517382748325
 10
102.6687101415559
 20
95.10358201352776
 10
102.6905541997945
 20
95.1140895546026
 10
102.711149410938
 20
95.12661032332188
 10
102.7303773498311
 20
95.14098283083715
 10
102.7481088253949
 20
95.15709941791607
 10
102.7642361783971
 20
95.17483089347985
 10
102.7786194518356
 20
95.19405883237292
 10
102.7911294546316
 20
95.21465404351653
 10
102.8016477616297
 20
95.23649810175507
 10
102.810045181751
 20
95.25944028416335
 10
102.8162032898399
 20
95.28337293150899
 10
102.8199821288945
 20
95.30817761863646
 10
102.8212740396824
 20
95.33371438854374
 10
102.8212740396824
 20
95.33371438854374
 10
102.8199821288945
 20
95.35931575399042
 10
102.8162032898399
 20
95.38417427073404
 10
102.810045181751
 20
95.40814998177262
 10
102.8016477616297
 20
95.43112446195059
 10
102.7911294546316
 20
95.45300081795884
 10
102.7786194518356
 20
95.4736175609489
 10
102.7642361783971
 20
95.49287779761167
 10
102.7481088253949
 20
95.51063080502192
 10
102.7303773498311
 20
95.5267689239473
 10
102.711149410938
 20
95.5411521973858
 10
102.6905541997945
 20
95.5536729661051
 10
102.6687209074791
 20
95.56419127310315
 10
102.6457787250709
 20
95.57259945914767
 10
102.621835311802
 20
95.57875756723661
 10
102.5970413905977
 20
95.58253640629118
 10
102.5715046206905
 20
95.58382831707908
 10
102.5715046206905
 20
95.58382831707908
 10
102.545914021167
 20
95.58254717221442
 10
102.5210770362699
 20
95.57875756723661
 10
102.4971013252313
 20
95.57259945914767
 10
102.4741268450533
 20
95.56419127310315
 10
102.452293552738
 20
95.55366220018186
 10
102.4316983415944
 20
95.5411521973858
 10
102.4124811686246
 20
95.5267689239473
 10
102.394760458984
 20
95.51063080502192
 10
102.3786654037516
 20
95.49287779761167
 10
102.3642928962363
 20
95.4736175609489
 10
102.3518151912099
 20
95.45300081795884
 10
102.3413184160583
 20
95.43113522787381
 10
102.3329317618603
 20
95.40814998177262
 10
102.3267951856178
 20
95.3841635048108
 10
102.3230163465632
 20
95.35931575399042
 10
102.3217352016986
 20
95.33371438854374
 10
102.3217352016986
 20
95.33371438854374
 10
102.3230163465632
 20
95.30817761863646
 10
102.3267951856178
 20
95.28337293150899
 10
102.3329317618603
 20
95.25944028416335
 10
102.3413184160583
 20
95.23648733583185
 10
102.3518151912099
 20
95.21465404351653
 10
102.3643036621595
 20
95.19406959829615
 10
102.3786654037516
 20
95.17483089347985
 10
102.394760458984
 20
95.15709941791607
 10
102.4124811686246
 20
95.14098283083715
 10
102.4317091075176
 20
95.12659955739865
 10
102.452293552738
 20
95.1140895546026
 10
102.4741376109766
 20
95.10357124760452
 10
102.4971013252313
 20
95.09517382748325
 10
102.5210662703466
 20
95.08901571939431
 10
102.545914021167
 20
95.08523688033974
 97
        0
 75
     1
 76
     1
 98
        0
  0
LWPOLYLINE
  5
8E
330
1F
100
AcDbEntity
  8
ISS138金台
  6
Continuous
 62
   250
420
  2367521
370
    13
100
AcDbPolyline
 90
       68
 70
     0
 43
0.0
 10
102.5715046206905
 20
95.08394496955185
 10
102.5970413905977
 20
95.08523688033974
 10
102.6218460777252
 20
95.08901571939431
 10
102.6457787250709
 20
95.09517382748325
 10
102.6687101415559
 20
95.10358201352776
 10
102.6905541997945
 20
95.1140895546026
 10
102.711149410938
 20
95.12661032332188
 10
102.7303773498311
 20
95.14098283083715
 10
102.7481088253949
 20
95.15709941791607
 10
102.7642361783971
 20
95.17483089347985
 10
102.7786194518356
 20
95.19405883237292
 10
102.7911294546316
 20
95.21465404351653
 10
102.8016477616297
 20
95.23649810175507
 10
102.810045181751
 20
95.25944028416335
 10
102.8162032898399
 20
95.28337293150899
 10
102.8199821288945
 20
95.30817761863646
 10
102.8212740396824
 20
95.33371438854374
 10
102.8212740396824
 20
95.33371438854374
 10
102.8199821288945
 20
95.35931575399042
 10
102.8162032898399
 20
95.38417427073404
 10
102.810045181751
 20
95.40814998177262
 10
102.8016477616297
 20
95.43112446195059
 10
102.7911294546316
 20
95.45300081795884
 10
102.7786194518356
 20
95.4736175609489
 10
102.7642361783971
 20
95.49287779761167
 10
102.7481088253949
 20
95.51063080502192
 10
102.7303773498311
 20
95.5267689239473
 10
102.711149410938
 20
95.5411521973858
 10
102.6905541997945
 20
95.5536729661051
 10
102.6687209074791
 20
95.56419127310315
 10
102.6457787250709
 20
95.57259945914767
 10
102.621835311802
 20
95.57875756723661
 10
102.5970413905977
 20
95.58253640629118
 10
102.5715046206905
 20
95.58382831707908
 10
102.5715046206905
 20
95.58382831707908
 10
102.545914021167
 20
95.58254717221442
 10
102.5210770362699
 20
95.57875756723661
 10
102.4971013252313
 20
95.57259945914767
 10
102.4741268450533
 20
95.56419127310315
 10
102.452293552738
 20
95.55366220018186
 10
102.4316983415944
 20
95.5411521973858
 10
102.4124811686246
 20
95.5267689239473
 10
102.394760458984
 20
95.51063080502192
 10
102.3786654037516
 20
95.49287779761167
 10
102.3642928962363
 20
95.4736175609489
 10
102.3518151912099
 20
95.45300081795884
 10
102.3413184160583
 20
95.43113522787381
 10
102.3329317618603
 20
95.40814998177262
 10
102.3267951856178
 20
95.3841635048108
 10
102.3230163465632
 20
95.35931575399042
 10
102.3217352016986
 20
95.33371438854374
 10
102.3217352016986
 20
95.33371438854374
 10
102.3230163465632
 20
95.30817761863646
 10
102.3267951856178
 20
95.28337293150899
 10
102.3329317618603
 20
95.25944028416335
 10
102.3413184160583
 20
95.23648733583185
 10
102.3518151912099
 20
95.21465404351653
 10
102.3643036621595
 20
95.19406959829615
 10
102.3786654037516
 20
95.17483089347985
 10
102.394760458984
 20
95.15709941791607
 10
102.4124811686246
 20
95.14098283083715
 10
102.4317091075176
 20
95.12659955739865
 10
102.452293552738
 20
95.1140895546026
 10
102.4741376109766
 20
95.10357124760452
 10
102.4971013252313
 20
95.09517382748325
 10
102.5210662703466
 20
95.08901571939431
 10
102.545914021167
 20
95.08523688033974
 10
102.5715046206905
 20
95.08394496955185
  0
HATCH
  5
8F
330
1F
100
AcDbEntity
  8
ISS138金台
  6
Continuous
 62
   250
420
  2367521
370
    13
100
AcDbHatch
 10
0.0
 20
0.0
 30
0.0
210
0.0
220
0.0
230
1.0
  2
SOLID
 70
     1
 71
     0
 91
        1
 92
        3
 72
     0
 73
     1
 93
       67
 10
105.0716103774135
 20
114.7240787654341
 10
105.0971471473208
 20
114.7253599102987
 10
105.1219518344482
 20
114.7291602811998
 10
105.1458844817939
 20
114.7353183892887
 10
105.1688266642021
 20
114.7437050434867
 10
105.1906599565175
 20
114.7542233504848
 10
105.2112551676611
 20
114.7667441192041
 10
105.2304831065542
 20
114.7811058607961
 10
105.2482253480412
 20
114.7972332137983
 10
105.2643419351201
 20
114.8149754552853
 10
105.2787144426353
 20
114.8342033941784
 10
105.2912352113546
 20
114.854798605322
 10
105.3017535183527
 20
114.8766318976373
 10
105.310150938474
 20
114.8995740800456
 10
105.3163090465629
 20
114.9235067273912
 10
105.3200878856175
 20
114.9483114145187
 10
105.3213797964054
 20
114.973848184426
 10
105.3213797964054
 20
114.973848184426
 10
105.3200878856175
 20
114.9994387839494
 10
105.3163090465629
 20
115.024297300693
 10
105.310150938474
 20
115.0482837776548
 10
105.3017427524295
 20
115.071269023756
 10
105.2912352113546
 20
115.0931346138411
 10
105.2787252085586
 20
115.1137621227544
 10
105.2643419351201
 20
115.1330115934939
 10
105.2482253480412
 20
115.1507646009041
 10
105.2304831065542
 20
115.1669027198295
 10
105.2112551676611
 20
115.181285993268
 10
105.1906599565175
 20
115.1938067619873
 10
105.1688266642021
 20
115.2043250689854
 10
105.1458844817939
 20
115.2127332550299
 10
105.121941068525
 20
115.2188913631188
 10
105.0971471473208
 20
115.2226702021734
 10
105.0716103774135
 20
115.2239621129613
 10
105.0716103774135
 20
115.2239621129613
 10
105.04601977789
 20
115.2226702021734
 10
105.0211612611464
 20
115.2188805971956
 10
104.9972070819543
 20
115.2127332550299
 10
104.9742433676996
 20
115.2043250689854
 10
104.952399309461
 20
115.1938067619873
 10
104.9318040983174
 20
115.181285993268
 10
104.9125869253476
 20
115.1668919539063
 10
104.894866215707
 20
115.1507646009041
 10
104.8787603945513
 20
115.1330115934939
 10
104.8644094188825
 20
115.1137621227544
 10
104.8519101820097
 20
115.0931346138411
 10
104.8414241727813
 20
115.071269023756
 10
104.8330375185833
 20
115.0482837776548
 10
104.8269009423408
 20
115.024297300693
 10
104.8231221032863
 20
114.9994495498726
 10
104.8218409584216
 20
114.973848184426
 10
104.8218409584216
 20
114.973848184426
 10
104.8231328692095
 20
114.9483114145187
 10
104.8269009423408
 20
114.9235174933144
 10
104.8330482845065
 20
114.8995848459688
 10
104.8414134068581
 20
114.8766211317141
 10
104.851920947933
 20
114.8547878393987
 10
104.8644094188825
 20
114.8341926282552
 10
104.8787711604746
 20
114.8149754552853
 10
104.894866215707
 20
114.7972332137983
 10
104.9125869253476
 20
114.7811166267194
 10
104.9318148642406
 20
114.7667333532809
 10
104.952399309461
 20
114.7542233504848
 10
104.9742433676996
 20
114.7437050434867
 10
104.9972070819543
 20
114.7353076233655
 10
105.0211720270697
 20
114.7291495152765
 10
105.04601977789
 20
114.7253706762219
 97
        0
 75
     1
 76
     1
 98
        0
  0
LWPOLYLINE
  5
90
330
1F
100
AcDbEntity
  8
ISS138金台
  6
Continuous
 62
   250
420
  2367521
370
    13
100
AcDbPolyline
 90
       68
 70
     0
 43
0.0
 10
105.0716103774135
 20
114.7240787654341
 10
105.0971471473208
 20
114.7253599102987
 10
105.1219518344482
 20
114.7291602811998
 10
105.1458844817939
 20
114.7353183892887
 10
105.1688266642021
 20
114.7437050434867
 10
105.1906599565175
 20
114.7542233504848
 10
105.2112551676611
 20
114.7667441192041
 10
105.2304831065542
 20
114.7811058607961
 10
105.2482253480412
 20
114.7972332137983
 10
105.2643419351201
 20
114.8149754552853
 10
105.2787144426353
 20
114.8342033941784
 10
105.2912352113546
 20
114.854798605322
 10
105.3017535183527
 20
114.8766318976373
 10
105.310150938474
 20
114.8995740800456
 10
105.3163090465629
 20
114.9235067273912
 10
105.3200878856175
 20
114.9483114145187
 10
105.3213797964054
 20
114.973848184426
 10
105.3213797964054
 20
114.973848184426
 10
105.3200878856175
 20
114.9994387839494
 10
105.3163090465629
 20
115.024297300693
 10
105.310150938474
 20
115.0482837776548
 10
105.3017427524295
 20
115.071269023756
 10
105.2912352113546
 20
115.0931346138411
 10
105.2787252085586
 20
115.1137621227544
 10
105.2643419351201
 20
115.1330115934939
 10
105.2482253480412
 20
115.1507646009041
 10
105.2304831065542
 20
115.1669027198295
 10
105.2112551676611
 20
115.181285993268
 10
105.1906599565175
 20
115.1938067619873
 10
105.1688266642021
 20
115.2043250689854
 10
105.1458844817939
 20
115.2127332550299
 10
105.121941068525
 20
115.2188913631188
 10
105.0971471473208
 20
115.2226702021734
 10
105.0716103774135
 20
115.2239621129613
 10
105.0716103774135
 20
115.2239621129613
 10
105.04601977789
 20
115.2226702021734
 10
105.0211612611464
 20
115.2188805971956
 10
104.9972070819543
 20
115.2127332550299
 10
104.9742433676996
 20
115.2043250689854
 10
104.952399309461
 20
115.1938067619873
 10
104.9318040983174
 20
115.181285993268
 10
104.9125869253476
 20
115.1668919539063
 10
104.894866215707
 20
115.1507646009041
 10
104.8787603945513
 20
115.1330115934939
 10
104.8644094188825
 20
115.1137621227544
 10
104.8519101820097
 20
115.0931346138411
 10
104.8414241727813
 20
115.071269023756
 10
104.8330375185833
 20
115.0482837776548
 10
104.8269009423408
 20
115.024297300693
 10
104.8231221032863
 20
114.9994495498726
 10
104.8218409584216
 20
114.973848184426
 10
104.8218409584216
 20
114.973848184426
 10
104.8231328692095
 20
114.9483114145187
 10
104.8269009423408
 20
114.9235174933144
 10
104.8330482845065
 20
114.8995848459688
 10
104.8414134068581
 20
114.8766211317141
 10
104.851920947933
 20
114.8547878393987
 10
104.8644094188825
 20
114.8341926282552
 10
104.8787711604746
 20
114.8149754552853
 10
104.894866215707
 20
114.7972332137983
 10
104.9125869253476
 20
114.7811166267194
 10
104.9318148642406
 20
114.7667333532809
 10
104.952399309461
 20
114.7542233504848
 10
104.9742433676996
 20
114.7437050434867
 10
104.9972070819543
 20
114.7353076233655
 10
105.0211720270697
 20
114.7291495152765
 10
105.04601977789
 20
114.7253706762219
 10
105.0716103774135
 20
114.7240787654341
  0
HATCH
  5
91
330
1F
100
AcDbEntity
  8
ISS138金台
  6
Continuous
 62
   250
420
  2367521
370
    13
100
AcDbHatch
 10
0.0
 20
0.0
 30
0.0
210
0.0
220
0.0
230
1.0
  2
SOLID
 70
     1
 71
     0
 91
        1
 92
        3
 72
     0
 73
     1
 93
       67
 10
142.5716464353132
 20
95.08358969408518
 10
142.5971939711437
 20
95.08488160487306
 10
142.6219986582712
 20
95.08866044392764
 10
142.64594207154
 20
95.09481855201658
 10
142.6689273176412
 20
95.10321597213786
 10
142.690782141803
 20
95.11374504505915
 10
142.7113988847931
 20
95.12626581377845
 10
142.7306591214559
 20
95.14065985314018
 10
142.7484336607126
 20
95.15678720614233
 10
142.7645825455612
 20
95.17454021355258
 10
142.7789981167694
 20
95.19378968429211
 10
142.7915296514119
 20
95.2144171932054
 10
142.8020802561797
 20
95.23628278329043
 10
142.8105099740707
 20
95.25927879531486
 10
142.8166788480828
 20
95.28326527227668
 10
142.8204792189838
 20
95.30811302309706
 10
142.8217711297718
 20
95.33371438854374
 10
142.8217711297718
 20
95.33371438854374
 10
142.8204684530606
 20
95.35925115845102
 10
142.8166896140061
 20
95.38404507965525
 10
142.8104992081474
 20
95.4079777270009
 10
142.8020802561797
 20
95.4309306753324
 10
142.7915404173352
 20
95.45275320172449
 10
142.7789981167694
 20
95.47334841286809
 10
142.7645825455612
 20
95.4925871176844
 10
142.7484336607126
 20
95.51031859324817
 10
142.7306591214559
 20
95.5264351803271
 10
142.7113988847931
 20
95.5408184537656
 10
142.690782141803
 20
95.55332845656166
 10
142.668916551718
 20
95.56384676355972
 10
142.6459528374633
 20
95.572244183681
 10
142.6219986582712
 20
95.57840229176995
 10
142.5971832052205
 20
95.58218113082452
 10
142.5716464353132
 20
95.5834730416124
 10
142.5716464353132
 20
95.5834730416124
 10
142.5460988994827
 20
95.58218113082452
 10
142.5213049782785
 20
95.57839152584671
 10
142.4973507990863
 20
95.572244183681
 10
142.4743763189084
 20
95.56384676355972
 10
142.4525107288234
 20
95.55331769063842
 10
142.4318939858333
 20
95.5408184537656
 10
142.4126337491705
 20
95.52644594625033
 10
142.3948592099138
 20
95.51031859324817
 10
142.3786995591419
 20
95.49257635176117
 10
142.364294753857
 20
95.47334841286809
 10
142.3517524532912
 20
95.45276396764771
 10
142.3412018485235
 20
95.4309306753324
 10
142.3327828965557
 20
95.40798849292413
 10
142.3266140225435
 20
95.38404507965525
 10
142.3228136516425
 20
95.35925115845102
 10
142.3215217408546
 20
95.33371438854374
 10
142.3215217408546
 20
95.33371438854374
 10
142.3228136516425
 20
95.30810225717383
 10
142.3266140225435
 20
95.28326527227668
 10
142.332793662479
 20
95.25927879531486
 10
142.3412126144467
 20
95.23628278329043
 10
142.3517524532912
 20
95.2144171932054
 10
142.3642839879338
 20
95.19380045021535
 10
142.3786995591419
 20
95.17455097947581
 10
142.3948592099138
 20
95.15678720614233
 10
142.4126229832473
 20
95.14064908721694
 10
142.4318939858333
 20
95.12626581377845
 10
142.4525107288234
 20
95.11374504505915
 10
142.4743763189084
 20
95.1032267380611
 10
142.4973507990863
 20
95.09481855201658
 10
142.5212942123552
 20
95.08867120985087
 10
142.5461096654059
 20
95.08488160487306
 97
        0
 75
     1
 76
     1
 98
        0
  0
LWPOLYLINE
  5
92
330
1F
100
AcDbEntity
  8
ISS138金台
  6
Continuous
 62
   250
420
  2367521
370
    13
100
AcDbPolyline
 90
       68
 70
     0
 43
0.0
 10
142.5716464353132
 20
95.08358969408518
 10
142.5971939711437
 20
95.08488160487306
 10
142.6219986582712
 20
95.08866044392764
 10
142.64594207154
 20
95.09481855201658
 10
142.6689273176412
 20
95.10321597213786
 10
142.690782141803
 20
95.11374504505915
 10
142.7113988847931
 20
95.12626581377845
 10
142.7306591214559
 20
95.14065985314018
 10
142.7484336607126
 20
95.15678720614233
 10
142.7645825455612
 20
95.17454021355258
 10
142.7789981167694
 20
95.19378968429211
 10
142.7915296514119
 20
95.2144171932054
 10
142.8020802561797
 20
95.23628278329043
 10
142.8105099740707
 20
95.25927879531486
 10
142.8166788480828
 20
95.28326527227668
 10
142.8204792189838
 20
95.30811302309706
 10
142.8217711297718
 20
95.33371438854374
 10
142.8217711297718
 20
95.33371438854374
 10
142.8204684530606
 20
95.35925115845102
 10
142.8166896140061
 20
95.38404507965525
 10
142.8104992081474
 20
95.4079777270009
 10
142.8020802561797
 20
95.4309306753324
 10
142.7915404173352
 20
95.45275320172449
 10
142.7789981167694
 20
95.47334841286809
 10
142.7645825455612
 20
95.4925871176844
 10
142.7484336607126
 20
95.51031859324817
 10
142.7306591214559
 20
95.5264351803271
 10
142.7113988847931
 20
95.5408184537656
 10
142.690782141803
 20
95.55332845656166
 10
142.668916551718
 20
95.56384676355972
 10
142.6459528374633
 20
95.572244183681
 10
142.6219986582712
 20
95.57840229176995
 10
142.5971832052205
 20
95.58218113082452
 10
142.5716464353132
 20
95.5834730416124
 10
142.5716464353132
 20
95.5834730416124
 10
142.5460988994827
 20
95.58218113082452
 10
142.5213049782785
 20
95.57839152584671
 10
142.4973507990863
 20
95.572244183681
 10
142.4743763189084
 20
95.56384676355972
 10
142.4525107288234
 20
95.55331769063842
 10
142.4318939858333
 20
95.5408184537656
 10
142.4126337491705
 20
95.52644594625033
 10
142.3948592099138
 20
95.51031859324817
 10
142.3786995591419
 20
95.49257635176117
 10
142.364294753857
 20
95.47334841286809
 10
142.3517524532912
 20
95.45276396764771
 10
142.3412018485235
 20
95.4309306753324
 10
142.3327828965557
 20
95.40798849292413
 10
142.3266140225435
 20
95.38404507965525
 10
142.3228136516425
 20
95.35925115845102
 10
142.3215217408546
 20
95.33371438854374
 10
142.3215217408546
 20
95.33371438854374
 10
142.3228136516425
 20
95.30810225717383
 10
142.3266140225435
 20
95.28326527227668
 10
142.332793662479
 20
95.25927879531486
 10
142.3412126144467
 20
95.23628278329043
 10
142.3517524532912
 20
95.2144171932054
 10
142.3642839879338
 20
95.19380045021535
 10
142.3786995591419
 20
95.17455097947581
 10
142.3948592099138
 20
95.15678720614233
 10
142.4126229832473
 20
95.14064908721694
 10
142.4318939858333
 20
95.12626581377845
 10
142.4525107288234
 20
95.11374504505915
 10
142.4743763189084
 20
95.1032267380611
 10
142.4973507990863
 20
95.09481855201658
 10
142.5212942123552
 20
95.08867120985087
 10
142.5461096654059
 20
95.08488160487306
 10
142.5716464353132
 20
95.08358969408518
  0
TEXT
  5
93
330
1F
100
AcDbEntity
  8
ISS138金台
  6
Continuous
 62
   250
420
  2367521
100
AcDbText
 10
96.20546021760094
 20
106.4241655934765
 30
0.0
 40
2.150533301035563
  1
3
 50
90.00000250447816
 41
0.8120040893554685
  7
MS Gothic
100
AcDbText
  0
TEXT
  5
94
330
1F
100
AcDbEntity
  8
ISS138金台
  6
Continuous
 62
   250
420
  2367521
100
AcDbText
 10
101.9879162200313
 20
116.4302870839934
 30
0.0
 40
2.150533301035563
  1
2.5
 41
0.7473347981770833
  7
MS Gothic
100
AcDbText
  0
LINE
  5
95
330
1F
100
AcDbEntity
  8
ISS138金台
  6
Continuous
 62
   250
420
  2367521
370
    13
100
AcDbLine
 10
140.0718959540569
 20
110.4761038400829
 30
0.0
 11
140.0718959540569
 21
115.4813107419088
 31
0.0
  0
LINE
  5
96
330
1F
100
AcDbEntity
  8
ISS138金台
  6
Continuous
 62
   250
420
  2367521
370
    13
100
AcDbLine
 10
142.5720017107799
 20
114.9740204391977
 30
0.0
 11
140.3216330752791
 21
114.9740204391977
 31
0.0
  0
LINE
  5
97
330
1F
100
AcDbEntity
  8
ISS138金台
  6
Continuous
 62
   250
420
  2367521
370
    13
100
AcDbLine
 10
142.5720017107799
 20
115.4811277212139
 30
0.0
 11
142.5720017107799
 21
110.475920819388
 31
0.0
  0
HATCH
  5
98
330
1F
100
AcDbEntity
  8
ISS138金台
  6
Continuous
 62
   250
420
  2367521
370
    13
100
AcDbHatch
 10
0.0
 20
0.0
 30
0.0
210
0.0
220
0.0
230
1.0
  2
SOLID
 70
     1
 71
     0
 91
        1
 92
        3
 72
     0
 73
     1
 93
       67
 10
140.0718959540569
 20
114.7240787654341
 10
140.0974219580409
 20
114.7253599102987
 10
140.1222266451684
 20
114.7291602811998
 10
140.1461700584372
 20
114.7353183892887
 10
140.1691014749223
 20
114.7437050434867
 10
140.1909455331608
 20
114.7542233504848
 10
140.2115299783812
 20
114.7667441192041
 10
140.2307579172743
 20
114.7811058607961
 10
140.2485001587613
 20
114.7972332137983
 10
140.2646275117634
 20
114.8149754552853
 10
140.2790107852019
 20
114.8342033941784
 10
140.291520787998
 20
114.854798605322
 10
140.3020390949961
 20
114.8766318976373
 10
140.3104365151173
 20
114.8995740800456
 10
140.316583857283
 20
114.9235067273912
 10
140.3203734622609
 20
114.9483114145187
 10
140.3216653730487
 20
114.973848184426
 10
140.3216653730487
 20
114.973848184426
 10
140.3203734622609
 20
114.9994387839494
 10
140.316583857283
 20
115.024297300693
 10
140.3104365151173
 20
115.0482837776548
 10
140.3020390949961
 20
115.071269023756
 10
140.2915100220748
 20
115.0931346138411
 10
140.2790107852019
 20
115.1137621227544
 10
140.2646275117634
 20
115.1330115934939
 10
140.2485001587613
 20
115.1507646009041
 10
140.2307686831975
 20
115.1669027198295
 10
140.2115407443044
 20
115.181285993268
 10
140.1909455331608
 20
115.1938067619873
 10
140.1691122408455
 20
115.2043250689854
 10
140.1461700584372
 20
115.2127332550299
 10
140.1222266451684
 20
115.2188913631188
 10
140.0974327239641
 20
115.2226702021734
 10
140.0718959540569
 20
115.2239621129613
 10
140.0718959540569
 20
115.2239621129613
 10
140.0462945886102
 20
115.2226702021734
 10
140.0214468377898
 20
115.2188805971956
 10
139.997460360828
 20
115.2127332550299
 10
139.9744751147268
 20
115.2043250689854
 10
139.9525987587185
 20
115.1938067619873
 10
139.9319712498052
 20
115.181285993268
 10
139.9127217790657
 20
115.1668919539063
 10
139.8949795375786
 20
115.1507646009041
 10
139.8788414186533
 20
115.1330115934939
 10
139.8644473792916
 20
115.1137621227544
 10
139.8519373764955
 20
115.0931346138411
 10
139.8414083035742
 20
115.071269023756
 10
139.8330001175297
 20
115.0482837776548
 10
139.8268420094408
 20
115.024297300693
 10
139.8230631703862
 20
114.9994495498726
 10
139.8217712595983
 20
114.973848184426
 10
139.8217712595983
 20
114.973848184426
 10
139.8230524044629
 20
114.9483114145187
 10
139.8268312435175
 20
114.9235174933144
 10
139.8330001175297
 20
114.8995848459688
 10
139.8414083035742
 20
114.8766211317141
 10
139.8519373764955
 20
114.8547878393987
 10
139.8644473792916
 20
114.8341926282552
 10
139.8788414186533
 20
114.8149754552853
 10
139.8949795375786
 20
114.7972332137983
 10
139.9127325449889
 20
114.7811166267194
 10
139.9319927816517
 20
114.7667333532809
 10
139.9526095246418
 20
114.7542233504848
 10
139.9744751147268
 20
114.7437050434867
 10
139.997460360828
 20
114.7353076233655
 10
140.0214468377898
 20
114.7291495152765
 10
140.0462945886102
 20
114.7253706762219
 97
        0
 75
     1
 76
     1
 98
        0
  0
LWPOLYLINE
  5
99
330
1F
100
AcDbEntity
  8
ISS138金台
  6
Continuous
 62
   250
420
  2367521
370
    13
100
AcDbPolyline
 90
       68
 70
     0
 43
0.0
 10
140.0718959540569
 20
114.7240787654341
 10
140.0974219580409
 20
114.7253599102987
 10
140.1222266451684
 20
114.7291602811998
 10
140.1461700584372
 20
114.7353183892887
 10
140.1691014749223
 20
114.7437050434867
 10
140.1909455331608
 20
114.7542233504848
 10
140.2115299783812
 20
114.7667441192041
 10
140.2307579172743
 20
114.7811058607961
 10
140.2485001587613
 20
114.7972332137983
 10
140.2646275117634
 20
114.8149754552853
 10
140.2790107852019
 20
114.8342033941784
 10
140.291520787998
 20
114.854798605322
 10
140.3020390949961
 20
114.8766318976373
 10
140.3104365151173
 20
114.8995740800456
 10
140.316583857283
 20
114.9235067273912
 10
140.3203734622609
 20
114.9483114145187
 10
140.3216653730487
 20
114.973848184426
 10
140.3216653730487
 20
114.973848184426
 10
140.3203734622609
 20
114.9994387839494
 10
140.316583857283
 20
115.024297300693
 10
140.3104365151173
 20
115.0482837776548
 10
140.3020390949961
 20
115.071269023756
 10
140.2915100220748
 20
115.0931346138411
 10
140.2790107852019
 20
115.1137621227544
 10
140.2646275117634
 20
115.1330115934939
 10
140.2485001587613
 20
115.1507646009041
 10
140.2307686831975
 20
115.1669027198295
 10
140.2115407443044
 20
115.181285993268
 10
140.1909455331608
 20
115.1938067619873
 10
140.1691122408455
 20
115.2043250689854
 10
140.1461700584372
 20
115.2127332550299
 10
140.1222266451684
 20
115.2188913631188
 10
140.0974327239641
 20
115.2226702021734
 10
140.0718959540569
 20
115.2239621129613
 10
140.0718959540569
 20
115.2239621129613
 10
140.0462945886102
 20
115.2226702021734
 10
140.0214468377898
 20
115.2188805971956
 10
139.997460360828
 20
115.2127332550299
 10
139.9744751147268
 20
115.2043250689854
 10
139.9525987587185
 20
115.1938067619873
 10
139.9319712498052
 20
115.181285993268
 10
139.9127217790657
 20
115.1668919539063
 10
139.8949795375786
 20
115.1507646009041
 10
139.8788414186533
 20
115.1330115934939
 10
139.8644473792916
 20
115.1137621227544
 10
139.8519373764955
 20
115.0931346138411
 10
139.8414083035742
 20
115.071269023756
 10
139.8330001175297
 20
115.0482837776548
 10
139.8268420094408
 20
115.024297300693
 10
139.8230631703862
 20
114.9994495498726
 10
139.8217712595983
 20
114.973848184426
 10
139.8217712595983
 20
114.973848184426
 10
139.8230524044629
 20
114.9483114145187
 10
139.8268312435175
 20
114.9235174933144
 10
139.8330001175297
 20
114.8995848459688
 10
139.8414083035742
 20
114.8766211317141
 10
139.8519373764955
 20
114.8547878393987
 10
139.8644473792916
 20
114.8341926282552
 10
139.8788414186533
 20
114.8149754552853
 10
139.8949795375786
 20
114.7972332137983
 10
139.9127325449889
 20
114.7811166267194
 10
139.9319927816517
 20
114.7667333532809
 10
139.9526095246418
 20
114.7542233504848
 10
139.9744751147268
 20
114.7437050434867
 10
139.997460360828
 20
114.7353076233655
 10
140.0214468377898
 20
114.7291495152765
 10
140.0462945886102
 20
114.7253706762219
 10
140.0718959540569
 20
114.7240787654341
  0
HATCH
  5
9A
330
1F
100
AcDbEntity
  8
ISS138金台
  6
Continuous
 62
   250
420
  2367521
370
    13
100
AcDbHatch
 10
0.0
 20
0.0
 30
0.0
210
0.0
220
0.0
230
1.0
  2
SOLID
 70
     1
 71
     0
 91
        1
 92
        3
 72
     0
 73
     1
 93
       67
 10
142.5720017107799
 20
114.7240787654341
 10
142.5975384806871
 20
114.7253599102987
 10
142.6223324018914
 20
114.7291602811998
 10
142.646265049237
 20
114.7353183892887
 10
142.6692287634917
 20
114.7437050434867
 10
142.6910512898838
 20
114.7542233504848
 10
142.7116357351042
 20
114.7667441192041
 10
142.7308744399205
 20
114.7811058607961
 10
142.7486059154843
 20
114.7972332137983
 10
142.7647332684865
 20
114.8149754552853
 10
142.779116541925
 20
114.8342033941784
 10
142.7916157787978
 20
114.854798605322
 10
142.8021448517191
 20
114.8766318976373
 10
142.8105422718403
 20
114.8995740800456
 10
142.8166896140061
 20
114.9235067273912
 10
142.8204792189838
 20
114.9483114145187
 10
142.8217711297718
 20
114.973848184426
 10
142.8217711297718
 20
114.973848184426
 10
142.8204792189838
 20
114.9994387839494
 10
142.8167003799293
 20
115.024297300693
 10
142.8105315059171
 20
115.0482837776548
 10
142.8021340857958
 20
115.071269023756
 10
142.791626544721
 20
115.0931346138411
 10
142.7791057760017
 20
115.1137621227544
 10
142.7647332684865
 20
115.1330115934939
 10
142.7486059154843
 20
115.1507646009041
 10
142.7308744399205
 20
115.1669027198295
 10
142.7116465010274
 20
115.181285993268
 10
142.6910512898838
 20
115.1938067619873
 10
142.6692179975685
 20
115.2043250689854
 10
142.6462758151603
 20
115.2127332550299
 10
142.6223324018914
 20
115.2188913631188
 10
142.5975384806871
 20
115.2226702021734
 10
142.5720017107799
 20
115.2239621129613
 10
142.5720017107799
 20
115.2239621129613
 10
142.5464003453332
 20
115.2226702021734
 10
142.521563360436
 20
115.2188805971956
 10
142.4975553516277
 20
115.2127332550299
 10
142.4745808714498
 20
115.2043250689854
 10
142.4527152813648
 20
115.1938067619873
 10
142.4320877724515
 20
115.181285993268
 10
142.4128383017119
 20
115.1668919539063
 10
142.3950852943017
 20
115.1507646009041
 10
142.3789471753763
 20
115.1330115934939
 10
142.3645531360146
 20
115.1137621227544
 10
142.3520323672953
 20
115.0931346138411
 10
142.3415140602972
 20
115.071269023756
 10
142.3331166401759
 20
115.0482837776548
 10
142.3269477661638
 20
115.024297300693
 10
142.3231689271092
 20
114.9994495498726
 10
142.3218770163213
 20
114.973848184426
 10
142.3218770163213
 20
114.973848184426
 10
142.3231689271092
 20
114.9483114145187
 10
142.3269477661638
 20
114.9235174933144
 10
142.3331058742527
 20
114.8995848459688
 10
142.3415140602972
 20
114.8766211317141
 10
142.3520323672953
 20
114.8547878393987
 10
142.3645531360146
 20
114.8341926282552
 10
142.3789471753763
 20
114.8149754552853
 10
142.3950852943017
 20
114.7972332137983
 10
142.4128383017119
 20
114.7811166267194
 10
142.4320877724515
 20
114.7667333532809
 10
142.4527152813648
 20
114.7542233504848
 10
142.4745808714498
 20
114.7437050434867
 10
142.497566117551
 20
114.7353076233655
 10
142.5215525945128
 20
114.7291495152765
 10
142.5464003453332
 20
114.7253706762219
 97
        0
 75
     1
 76
     1
 98
        0
  0
LWPOLYLINE
  5
9B
330
1F
100
AcDbEntity
  8
ISS138金台
  6
Continuous
 62
   250
420
  2367521
370
    13
100
AcDbPolyline
 90
       68
 70
     0
 43
0.0
 10
142.5720017107799
 20
114.7240787654341
 10
142.5975384806871
 20
114.7253599102987
 10
142.6223324018914
 20
114.7291602811998
 10
142.646265049237
 20
114.7353183892887
 10
142.6692287634917
 20
114.7437050434867
 10
142.6910512898838
 20
114.7542233504848
 10
142.7116357351042
 20
114.7667441192041
 10
142.7308744399205
 20
114.7811058607961
 10
142.7486059154843
 20
114.7972332137983
 10
142.7647332684865
 20
114.8149754552853
 10
142.779116541925
 20
114.8342033941784
 10
142.7916157787978
 20
114.854798605322
 10
142.8021448517191
 20
114.8766318976373
 10
142.8105422718403
 20
114.8995740800456
 10
142.8166896140061
 20
114.9235067273912
 10
142.8204792189838
 20
114.9483114145187
 10
142.8217711297718
 20
114.973848184426
 10
142.8217711297718
 20
114.973848184426
 10
142.8204792189838
 20
114.9994387839494
 10
142.8167003799293
 20
115.024297300693
 10
142.8105315059171
 20
115.0482837776548
 10
142.8021340857958
 20
115.071269023756
 10
142.791626544721
 20
115.0931346138411
 10
142.7791057760017
 20
115.1137621227544
 10
142.7647332684865
 20
115.1330115934939
 10
142.7486059154843
 20
115.1507646009041
 10
142.7308744399205
 20
115.1669027198295
 10
142.7116465010274
 20
115.181285993268
 10
142.6910512898838
 20
115.1938067619873
 10
142.6692179975685
 20
115.2043250689854
 10
142.6462758151603
 20
115.2127332550299
 10
142.6223324018914
 20
115.2188913631188
 10
142.5975384806871
 20
115.2226702021734
 10
142.5720017107799
 20
115.2239621129613
 10
142.5720017107799
 20
115.2239621129613
 10
142.5464003453332
 20
115.2226702021734
 10
142.521563360436
 20
115.2188805971956
 10
142.4975553516277
 20
115.2127332550299
 10
142.4745808714498
 20
115.2043250689854
 10
142.4527152813648
 20
115.1938067619873
 10
142.4320877724515
 20
115.181285993268
 10
142.4128383017119
 20
115.1668919539063
 10
142.3950852943017
 20
115.1507646009041
 10
142.3789471753763
 20
115.1330115934939
 10
142.3645531360146
 20
115.1137621227544
 10
142.3520323672953
 20
115.0931346138411
 10
142.3415140602972
 20
115.071269023756
 10
142.3331166401759
 20
115.0482837776548
 10
142.3269477661638
 20
115.024297300693
 10
142.3231689271092
 20
114.9994495498726
 10
142.3218770163213
 20
114.973848184426
 10
142.3218770163213
 20
114.973848184426
 10
142.3231689271092
 20
114.9483114145187
 10
142.3269477661638
 20
114.9235174933144
 10
142.3331058742527
 20
114.8995848459688
 10
142.3415140602972
 20
114.8766211317141
 10
142.3520323672953
 20
114.8547878393987
 10
142.3645531360146
 20
114.8341926282552
 10
142.3789471753763
 20
114.8149754552853
 10
142.3950852943017
 20
114.7972332137983
 10
142.4128383017119
 20
114.7811166267194
 10
142.4320877724515
 20
114.7667333532809
 10
142.4527152813648
 20
114.7542233504848
 10
142.4745808714498
 20
114.7437050434867
 10
142.497566117551
 20
114.7353076233655
 10
142.5215525945128
 20
114.7291495152765
 10
142.5464003453332
 20
114.7253706762219
 10
142.5720017107799
 20
114.7240787654341
  0
TEXT
  5
9C
330
1F
100
AcDbEntity
  8
ISS138金台
  6
Continuous
 62
   250
420
  2367521
100
AcDbText
 10
139.4875754706179
 20
116.4302870839934
 30
0.0
 40
2.150533301035563
  1
2.5
 41
0.7473347981770833
  7
MS Gothic
100
AcDbText
  0
TEXT
  5
9D
330
1F
100
AcDbEntity
  8
ISS138金台
  6
Continuous
 62
   250
420
  2367521
100
AcDbText
 10
120.8778374213863
 20
96.39251391352217
 30
0.0
 40
2.150533301035563
  1
40
 41
0.976001739501953
  7
MS Gothic
100
AcDbText
  0
LINE
  5
9E
330
1F
100
AcDbEntity
  8
ISS138金台
  6
Continuous
 62
   250
420
  2367521
370
    13
100
AcDbLine
 10
101.5715656708643
 20
108.7706308771441
 30
0.0
 11
96.56635876903843
 21
108.7706308771441
 31
0.0
  0
LINE
  5
9F
330
1F
100
AcDbEntity
  8
ISS138金台
  6
Continuous
 62
   250
420
  2367521
370
    13
100
AcDbLine
 10
101.5715656708643
 20
105.7706417728938
 30
0.0
 11
96.56635876903843
 21
105.7706417728938
 31
0.0
  0
HATCH
  5
A0
330
1F
100
AcDbEntity
  8
ISS138金台
  6
Continuous
 62
   250
420
  2367521
370
    13
100
AcDbHatch
 10
0.0
 20
0.0
 30
0.0
210
0.0
220
0.0
230
1.0
  2
SOLID
 70
     1
 71
     0
 91
        1
 92
        3
 72
     0
 73
     1
 93
       67
 10
97.07364907174957
 20
105.5205278443585
 10
97.04811230184228
 20
105.5218197551464
 10
97.02329684879159
 20
105.5256093601242
 10
96.99934266959949
 20
105.5317567022899
 10
96.97637895534476
 20
105.5401648883344
 10
96.95451336525971
 20
105.5506831953325
 10
96.93389662226966
 20
105.5632039640518
 10
96.91462561968365
 20
105.5775872374903
 10
96.89686184635016
 20
105.5937253564156
 10
96.88070219557832
 20
105.6114783638259
 10
96.86629739029337
 20
105.6307386004887
 10
96.8537550897276
 20
105.6513553434787
 10
96.84320448495984
 20
105.6732209335638
 10
96.8347855329921
 20
105.6962169455882
 10
96.82861665897994
 20
105.7201926566268
 10
96.82481628807889
 20
105.7450511733704
 10
96.823524377291
 20
105.770652538817
 10
96.823524377291
 20
105.770652538817
 10
96.82481628807889
 20
105.7961893087243
 10
96.82861665897994
 20
105.8209832299286
 10
96.83479629891534
 20
105.8449266431974
 10
96.84321525088308
 20
105.8678688256057
 10
96.8537550897276
 20
105.889702117921
 10
96.86629739029337
 20
105.9102865631414
 10
96.88070219557832
 20
105.9295145020345
 10
96.89686184635016
 20
105.9472567435215
 10
96.91462561968365
 20
105.9633733306004
 10
96.93389662226966
 20
105.9777566040389
 10
96.95451336525971
 20
105.990266606835
 10
96.97637895534476
 20
106.000784913833
 10
96.99934266959949
 20
106.0091823339543
 10
97.02329684879159
 20
106.0153404420432
 10
97.04811230184228
 20
106.0191192810978
 10
97.07364907174957
 20
106.0204111918857
 10
97.07364907174957
 20
106.0204111918857
 10
97.09918584165683
 20
106.0191300470211
 10
97.12400129470754
 20
106.0153404420432
 10
97.14795547389966
 20
106.0091823339543
 10
97.17091918815439
 20
106.000784913833
 10
97.19277401231616
 20
105.990266606835
 10
97.21341228715269
 20
105.9777566040389
 10
97.23266175789226
 20
105.9633733306004
 10
97.25043629714895
 20
105.9472567435215
 10
97.26658518199757
 20
105.9295145020345
 10
97.28100075320577
 20
105.9102973290646
 10
97.29354305377151
 20
105.889702117921
 10
97.30408289261605
 20
105.8678688256057
 10
97.31251261050703
 20
105.8449266431974
 10
97.3186814845192
 20
105.8209832299286
 10
97.32248185542025
 20
105.7961893087243
 10
97.32377376620812
 20
105.770652538817
 10
97.32377376620812
 20
105.770652538817
 10
97.32248185542025
 20
105.7450619392936
 10
97.3186814845192
 20
105.7201926566268
 10
97.31251261050703
 20
105.6962061796649
 10
97.30409365853929
 20
105.6732209335638
 10
97.29354305377151
 20
105.6513553434787
 10
97.28100075320577
 20
105.6307386004887
 10
97.26658518199757
 20
105.6114783638259
 10
97.25043629714895
 20
105.5937253564156
 10
97.23266175789226
 20
105.5775872374903
 10
97.21340152122947
 20
105.5632039640518
 10
97.1927847782394
 20
105.5506831953325
 10
97.17091918815439
 20
105.5401648883344
 10
97.14795547389966
 20
105.5317567022899
 10
97.12400129470754
 20
105.525598594201
 10
97.09918584165683
 20
105.5218197551464
 97
        0
 75
     1
 76
     1
 98
        0
  0
LWPOLYLINE
  5
A1
330
1F
100
AcDbEntity
  8
ISS138金台
  6
Continuous
 62
   250
420
  2367521
370
    13
100
AcDbPolyline
 90
       68
 70
     0
 43
0.0
 10
97.07364907174957
 20
105.5205278443585
 10
97.04811230184228
 20
105.5218197551464
 10
97.02329684879159
 20
105.5256093601242
 10
96.99934266959949
 20
105.5317567022899
 10
96.97637895534476
 20
105.5401648883344
 10
96.95451336525971
 20
105.5506831953325
 10
96.93389662226966
 20
105.5632039640518
 10
96.91462561968365
 20
105.5775872374903
 10
96.89686184635016
 20
105.5937253564156
 10
96.88070219557832
 20
105.6114783638259
 10
96.86629739029337
 20
105.6307386004887
 10
96.8537550897276
 20
105.6513553434787
 10
96.84320448495984
 20
105.6732209335638
 10
96.8347855329921
 20
105.6962169455882
 10
96.82861665897994
 20
105.7201926566268
 10
96.82481628807889
 20
105.7450511733704
 10
96.823524377291
 20
105.770652538817
 10
96.823524377291
 20
105.770652538817
 10
96.82481628807889
 20
105.7961893087243
 10
96.82861665897994
 20
105.8209832299286
 10
96.83479629891534
 20
105.8449266431974
 10
96.84321525088308
 20
105.8678688256057
 10
96.8537550897276
 20
105.889702117921
 10
96.86629739029337
 20
105.9102865631414
 10
96.88070219557832
 20
105.9295145020345
 10
96.89686184635016
 20
105.9472567435215
 10
96.91462561968365
 20
105.9633733306004
 10
96.93389662226966
 20
105.9777566040389
 10
96.95451336525971
 20
105.990266606835
 10
96.97637895534476
 20
106.000784913833
 10
96.99934266959949
 20
106.0091823339543
 10
97.02329684879159
 20
106.0153404420432
 10
97.04811230184228
 20
106.0191192810978
 10
97.07364907174957
 20
106.0204111918857
 10
97.07364907174957
 20
106.0204111918857
 10
97.09918584165683
 20
106.0191300470211
 10
97.12400129470754
 20
106.0153404420432
 10
97.14795547389966
 20
106.0091823339543
 10
97.17091918815439
 20
106.000784913833
 10
97.19277401231616
 20
105.990266606835
 10
97.21341228715269
 20
105.9777566040389
 10
97.23266175789226
 20
105.9633733306004
 10
97.25043629714895
 20
105.9472567435215
 10
97.26658518199757
 20
105.9295145020345
 10
97.28100075320577
 20
105.9102973290646
 10
97.29354305377151
 20
105.889702117921
 10
97.30408289261605
 20
105.8678688256057
 10
97.31251261050703
 20
105.8449266431974
 10
97.3186814845192
 20
105.8209832299286
 10
97.32248185542025
 20
105.7961893087243
 10
97.32377376620812
 20
105.770652538817
 10
97.32377376620812
 20
105.770652538817
 10
97.32248185542025
 20
105.7450619392936
 10
97.3186814845192
 20
105.7201926566268
 10
97.31251261050703
 20
105.6962061796649
 10
97.30409365853929
 20
105.6732209335638
 10
97.29354305377151
 20
105.6513553434787
 10
97.28100075320577
 20
105.6307386004887
 10
97.26658518199757
 20
105.6114783638259
 10
97.25043629714895
 20
105.5937253564156
 10
97.23266175789226
 20
105.5775872374903
 10
97.21340152122947
 20
105.5632039640518
 10
97.1927847782394
 20
105.5506831953325
 10
97.17091918815439
 20
105.5401648883344
 10
97.14795547389966
 20
105.5317567022899
 10
97.12400129470754
 20
105.525598594201
 10
97.09918584165683
 20
105.5218197551464
 10
97.07364907174957
 20
105.5205278443585
  0
HATCH
  5
A2
330
1F
100
AcDbEntity
  8
ISS138金台
  6
Continuous
 62
   250
420
  2367521
370
    13
100
AcDbHatch
 10
0.0
 20
0.0
 30
0.0
210
0.0
220
0.0
230
1.0
  2
SOLID
 70
     1
 71
     0
 91
        1
 92
        3
 72
     0
 73
     1
 93
       67
 10
97.07364907174957
 20
108.5208722240754
 10
97.04811230184228
 20
108.5221641348633
 10
97.02332914656128
 20
108.5259537398411
 10
96.99940726513887
 20
108.53211184793
 10
96.97648661457707
 20
108.5405092680513
 10
96.95467485410822
 20
108.5510275750494
 10
96.93412270665755
 20
108.5635375778454
 10
96.91491629961092
 20
108.5779423831304
 10
96.89721712181685
 20
108.5940697361326
 10
96.88113283250763
 20
108.6118227435428
 10
96.86678185683883
 20
108.6310829802056
 10
96.85430415181246
 20
108.6516997231956
 10
96.84380737666086
 20
108.6735653132807
 10
96.83543148838604
 20
108.6965613253051
 10
96.82929491214358
 20
108.7205478022669
 10
96.825516073089
 20
108.7453955530873
 10
96.82423492822434
 20
108.770996918534
 10
96.82423492822434
 20
108.770996918534
 10
96.825516073089
 20
108.7965336884412
 10
96.82929491214358
 20
108.8213276096455
 10
96.83543148838604
 20
108.8452710229143
 10
96.84380737666086
 20
108.8682132053226
 10
96.85430415181246
 20
108.8900357317147
 10
96.86678185683883
 20
108.9106417087815
 10
96.8811220665844
 20
108.9298696476746
 10
96.89721712181685
 20
108.9476011232384
 10
96.91491629961092
 20
108.9637177103173
 10
96.93412270665755
 20
108.9781009837558
 10
96.95468562003144
 20
108.9906109865519
 10
96.97648661457707
 20
109.0011292935499
 10
96.99940726513887
 20
109.0095267136712
 10
97.02332914656128
 20
109.0156848217602
 10
97.04812306776552
 20
109.0194636608147
 10
97.07364907174957
 20
109.0207555716026
 10
97.07364907174957
 20
109.0207555716026
 10
97.0993042668124
 20
109.019474426738
 10
97.12420584724896
 20
109.0156740558369
 10
97.14822462198046
 20
109.0095374795944
 10
97.1712206340049
 20
109.0011400594732
 10
97.19309699001315
 20
108.9906109865519
 10
97.21372449892644
 20
108.9781009837558
 10
97.23296320374276
 20
108.9637177103173
 10
97.25070544522977
 20
108.9476011232384
 10
97.26682203230868
 20
108.9298588817514
 10
97.28118377390072
 20
108.9106417087815
 10
97.29368301077355
 20
108.890046497638
 10
97.30419055184838
 20
108.8682132053226
 10
97.31257720604643
 20
108.8452710229143
 10
97.3187137822889
 20
108.8213276096455
 10
97.32249262134347
 20
108.7965336884412
 10
97.32377376620812
 20
108.770996918534
 10
97.32377376620812
 20
108.770996918534
 10
97.32248185542025
 20
108.7454063190105
 10
97.3187137822889
 20
108.7205478022669
 10
97.31257720604643
 20
108.6965613253051
 10
97.30419055184838
 20
108.6735760792039
 10
97.29368301077355
 20
108.6516997231956
 10
97.28119453982396
 20
108.6310722142823
 10
97.26682203230868
 20
108.6118227435428
 10
97.25070544522977
 20
108.5940697361326
 10
97.23296320374276
 20
108.5779316172072
 10
97.2137137330032
 20
108.5635483437687
 10
97.19309699001315
 20
108.5510275750494
 10
97.1712206340049
 20
108.5405092680513
 10
97.14821385605723
 20
108.5321010820068
 10
97.12420584724896
 20
108.5259537398411
 10
97.0993042668124
 20
108.5221641348633
 97
        0
 75
     1
 76
     1
 98
        0
  0
LWPOLYLINE
  5
A3
330
1F
100
AcDbEntity
  8
ISS138金台
  6
Continuous
 62
   250
420
  2367521
370
    13
100
AcDbPolyline
 90
       68
 70
     0
 43
0.0
 10
97.07364907174957
 20
108.5208722240754
 10
97.04811230184228
 20
108.5221641348633
 10
97.02332914656128
 20
108.5259537398411
 10
96.99940726513887
 20
108.53211184793
 10
96.97648661457707
 20
108.5405092680513
 10
96.95467485410822
 20
108.5510275750494
 10
96.93412270665755
 20
108.5635375778454
 10
96.91491629961092
 20
108.5779423831304
 10
96.89721712181685
 20
108.5940697361326
 10
96.88113283250763
 20
108.6118227435428
 10
96.86678185683883
 20
108.6310829802056
 10
96.85430415181246
 20
108.6516997231956
 10
96.84380737666086
 20
108.6735653132807
 10
96.83543148838604
 20
108.6965613253051
 10
96.82929491214358
 20
108.7205478022669
 10
96.825516073089
 20
108.7453955530873
 10
96.82423492822434
 20
108.770996918534
 10
96.82423492822434
 20
108.770996918534
 10
96.825516073089
 20
108.7965336884412
 10
96.82929491214358
 20
108.8213276096455
 10
96.83543148838604
 20
108.8452710229143
 10
96.84380737666086
 20
108.8682132053226
 10
96.85430415181246
 20
108.8900357317147
 10
96.86678185683883
 20
108.9106417087815
 10
96.8811220665844
 20
108.9298696476746
 10
96.89721712181685
 20
108.9476011232384
 10
96.91491629961092
 20
108.9637177103173
 10
96.93412270665755
 20
108.9781009837558
 10
96.95468562003144
 20
108.9906109865519
 10
96.97648661457707
 20
109.0011292935499
 10
96.99940726513887
 20
109.0095267136712
 10
97.02332914656128
 20
109.0156848217602
 10
97.04812306776552
 20
109.0194636608147
 10
97.07364907174957
 20
109.0207555716026
 10
97.07364907174957
 20
109.0207555716026
 10
97.0993042668124
 20
109.019474426738
 10
97.12420584724896
 20
109.0156740558369
 10
97.14822462198046
 20
109.0095374795944
 10
97.1712206340049
 20
109.0011400594732
 10
97.19309699001315
 20
108.9906109865519
 10
97.21372449892644
 20
108.9781009837558
 10
97.23296320374276
 20
108.9637177103173
 10
97.25070544522977
 20
108.9476011232384
 10
97.26682203230868
 20
108.9298588817514
 10
97.28118377390072
 20
108.9106417087815
 10
97.29368301077355
 20
108.890046497638
 10
97.30419055184838
 20
108.8682132053226
 10
97.31257720604643
 20
108.8452710229143
 10
97.3187137822889
 20
108.8213276096455
 10
97.32249262134347
 20
108.7965336884412
 10
97.32377376620812
 20
108.770996918534
 10
97.32377376620812
 20
108.770996918534
 10
97.32248185542025
 20
108.7454063190105
 10
97.3187137822889
 20
108.7205478022669
 10
97.31257720604643
 20
108.6965613253051
 10
97.30419055184838
 20
108.6735760792039
 10
97.29368301077355
 20
108.6516997231956
 10
97.28119453982396
 20
108.6310722142823
 10
97.26682203230868
 20
108.6118227435428
 10
97.25070544522977
 20
108.5940697361326
 10
97.23296320374276
 20
108.5779316172072
 10
97.2137137330032
 20
108.5635483437687
 10
97.19309699001315
 20
108.5510275750494
 10
97.1712206340049
 20
108.5405092680513
 10
97.14821385605723
 20
108.5321010820068
 10
97.12420584724896
 20
108.5259537398411
 10
97.0993042668124
 20
108.5221641348633
 10
97.07364907174957
 20
108.5208722240754
  0
LINE
  5
A4
330
1F
100
AcDbEntity
  8
ISS138金台
  6
Continuous
 62
   250
420
  2367521
370
    13
100
AcDbLine
 10
97.07364907174957
 20
105.7706417728938
 30
0.0
 11
97.07364907174957
 21
108.7706631749138
 31
0.0
  0
LINE
  5
A5
330
1F
100
AcDbEntity
  8
ISS138金台
  6
UserDefined01
 62
   140
420
    44526
370
    13
100
AcDbLine
 10
122.5718554420059
 20
100.8165945382684
 30
0.0
 11
142.5715280101576
 21
100.8165945382684
 31
0.0
  0
TEXT
  5
A6
330
1F
100
AcDbEntity
  8
ISS138金台
  6
Continuous
 62
   140
420
    44526
100
AcDbText
 10
131.3051185385201
 20
101.605747649382
 30
0.0
 40
1.881716638406118
  1
20
 41
1.064251491001674
  7
MS Gothic
100
AcDbText
  0
HATCH
  5
A7
330
1F
100
AcDbEntity
  8
ISS138金台
  6
Continuous
 62
   140
420
    44526
370
    13
100
AcDbHatch
 10
0.0
 20
0.0
 30
0.0
210
0.0
220
0.0
230
1.0
  2
SOLID
 70
     1
 71
     0
 91
        1
 92
        3
 72
     0
 73
     1
 93
        3
 10
121.705758449805
 20
108.7418535643438
 10
123.4378986045906
 20
108.7411430134105
 10
122.5725336951695
 20
107.2425480313056
 97
        0
 75
     1
 76
     1
 98
        0
  0
LWPOLYLINE
  5
A8
330
1F
100
AcDbEntity
  8
ISS138金台
  6
Continuous
 62
   140
420
    44526
370
    13
100
AcDbPolyline
 90
        4
 70
     0
 43
0.0
 10
121.705758449805
 20
108.7418535643438
 10
123.4378986045906
 20
108.7411430134105
 10
122.5725336951695
 20
107.2425480313056
 10
121.705758449805
 20
108.7418535643438
  0
TEXT
  5
A9
330
1F
100
AcDbEntity
  8
ISS138金台
  6
Continuous
 62
   140
420
    44526
100
AcDbText
 10
106.3907481851574
 20
111.4401678053676
 30
0.0
 40
1.612899975776672
  1
↓表面はエンボス加工
 41
0.9702999114990235
  7
MS Gothic
100
AcDbText
  0
ENDSEC
  0
SECTION
  2
OBJECTS
  0
DICTIONARY
  5
C
330
0
100
AcDbDictionary
281
     1
  3
ACAD_DETAILVIEWSTYLE
350
B1
  3
ACAD_GROUP
350
D
  3
ACAD_LAYOUT
350
1A
  3
ACAD_MATERIAL
350
43
  3
ACAD_MLEADERSTYLE
350
5B
  3
ACAD_MLINESTYLE
350
17
  3
ACAD_PLOTSETTINGS
350
19
  3
ACAD_PLOTSTYLENAME
350
E
  3
ACAD_SCALELIST
350
47
  3
ACAD_SECTIONVIEWSTYLE
350
B2
  3
ACAD_TABLESTYLE
350
59
  3
ACAD_VISUALSTYLE
350
2A
  3
ACDB_RECOMPOSE_DATA
350
AE
  3
AcDbVariableDictionary
350
AA
  0
SUN
  5
5D
330
29
100
AcDbSun
 90
        1
290
     0
 63
     7
421
 16777215
 40
1.0
291
     1
 91
  2455826
 92
 54000000
292
     0
 70
     2
 71
   256
280
     1
  0
DICTIONARY
  5
B1
102
{ACAD_REACTORS
330
C
102
}
330
C
100
AcDbDictionary
281
     1
  0
DICTIONARY
  5
D
102
{ACAD_REACTORS
330
C
102
}
330
C
100
AcDbDictionary
281
     1
  0
DICTIONARY
  5
1A
102
{ACAD_REACTORS
330
C
102
}
330
C
100
AcDbDictionary
281
     1
  3
Layout1
350
1E
  3
Layout2
350
26
  3
Model
350
22
  0
DICTIONARY
  5
43
102
{ACAD_REACTORS
330
C
102
}
330
C
100
AcDbDictionary
281
     1
  3
ByBlock
350
45
  3
ByLayer
350
44
  3
Global
350
46
  0
DICTIONARY
  5
5B
102
{ACAD_REACTORS
330
C
102
}
330
C
100
AcDbDictionary
281
     1
  3
Standard
350
5C
  0
DICTIONARY
  5
17
102
{ACAD_REACTORS
330
C
102
}
330
C
100
AcDbDictionary
281
     1
  3
Standard
350
18
  0
DICTIONARY
  5
19
102
{ACAD_REACTORS
330
C
102
}
330
C
100
AcDbDictionary
281
     1
  0
ACDBDICTIONARYWDFLT
  5
E
102
{ACAD_REACTORS
330
C
102
}
330
C
100
AcDbDictionary
281
     1
  3
Normal
350
F
100
AcDbDictionaryWithDefault
340
F
  0
DICTIONARY
  5
47
102
{ACAD_REACTORS
330
C
102
}
330
C
100
AcDbDictionary
281
     1
  3
A0
350
48
  3
A1
350
49
  3
A2
350
4A
  3
A3
350
4B
  3
A4
350
4C
  3
A5
350
4D
  3
A6
350
4E
  3
A7
350
4F
  3
A8
350
50
  3
A9
350
51
  3
B0
350
52
  3
B1
350
53
  3
B2
350
54
  3
B3
350
55
  3
B4
350
56
  3
B5
350
57
  3
B6
350
58
  0
DICTIONARY
  5
B2
102
{ACAD_REACTORS
330
C
102
}
330
C
100
AcDbDictionary
281
     1
  0
DICTIONARY
  5
59
102
{ACAD_REACTORS
330
C
102
}
330
C
100
AcDbDictionary
281
     1
  3
Standard
350
5A
  0
DICTIONARY
  5
2A
102
{ACAD_REACTORS
330
C
102
}
330
C
100
AcDbDictionary
281
     1
  3
2dWireframe
350
2F
  3
Basic
350
32
  3
Brighten
350
36
  3
ColorChange
350
3A
  3
Conceptual
350
34
  3
Dim
350
35
  3
EdgeColorOff
350
3D
  3
Facepattern
350
39
  3
Flat
350
2B
  3
FlatWithEdges
350
2C
  3
Gouraud
350
2D
  3
GouraudWithEdges
350
2E
  3
Hidden
350
31
  3
JitterOff
350
3B
  3
Linepattern
350
38
  3
OverhangOff
350
3C
  3
Realistic
350
33
  3
Shaded
350
42
  3
Shaded with edges
350
41
  3
Shades of Gray
350
3E
  3
Sketchy
350
3F
  3
Thicken
350
37
  3
Wireframe
350
30
  3
X-Ray
350
40
  0
XRECORD
  5
AE
102
{ACAD_REACTORS
330
C
102
}
330
C
100
AcDbXrecord
280
     1
 90
        1
330
5A
  0
DICTIONARY
  5
AA
102
{ACAD_REACTORS
330
C
102
}
330
C
100
AcDbDictionary
281
     1
  3
CANNOSCALE
350
AB
  3
CENTEREXE
350
B3
  3
CENTERLTYPEFILE
350
B4
  3
CMLEADERSTYLE
350
B0
  3
CTABLESTYLE
350
AF
  0
LAYOUT
  5
1E
102
{ACAD_REACTORS
330
1A
102
}
330
1A
100
AcDbPlotSettings
  1

  2
none_device
  4

  6

 40
0.0
 41
0.0
 42
0.0
 43
0.0
 44
0.0
 45
0.0
 46
0.0
 47
0.0
 48
0.0
 49
0.0
140
0.0
141
0.0
142
1.0
143
1.0
 70
   688
 72
     1
 73
     0
 74
     5
  7

 75
    16
 76
     0
 77
     5
 78
   300
147
1.0
148
0.0
149
0.0
100
AcDbLayout
  1
Layout1
 70
     1
 71
     1
 10
0.0
 20
0.0
 11
420.0
 21
297.0
 12
0.0
 22
0.0
 32
0.0
 14
1.000000000000000E+20
 24
1.000000000000000E+20
 34
1.000000000000000E+20
 15
-1.000000000000000E+20
 25
-1.000000000000000E+20
 35
-1.000000000000000E+20
146
0.0
 13
0.0
 23
0.0
 33
0.0
 16
1.0
 26
0.0
 36
0.0
 17
0.0
 27
1.0
 37
0.0
 76
     0
330
1B
  0
LAYOUT
  5
26
102
{ACAD_REACTORS
330
1A
102
}
330
1A
100
AcDbPlotSettings
  1

  2
none_device
  4

  6

 40
0.0
 41
0.0
 42
0.0
 43
0.0
 44
0.0
 45
0.0
 46
0.0
 47
0.0
 48
0.0
 49
0.0
140
0.0
141
0.0
142
1.0
143
1.0
 70
   688
 72
     1
 73
     0
 74
     5
  7

 75
    16
 76
     0
 77
     5
 78
   300
147
1.0
148
0.0
149
0.0
100
AcDbLayout
  1
Layout2
 70
     1
 71
     2
 10
0.0
 20
0.0
 11
0.0
 21
0.0
 12
0.0
 22
0.0
 32
0.0
 14
0.0
 24
0.0
 34
0.0
 15
0.0
 25
0.0
 35
0.0
146
0.0
 13
0.0
 23
0.0
 33
0.0
 16
1.0
 26
0.0
 36
0.0
 17
0.0
 27
1.0
 37
0.0
 76
     0
330
23
  0
LAYOUT
  5
22
102
{ACAD_REACTORS
330
1A
102
}
330
1A
100
AcDbPlotSettings
  1

  2
none_device
  4
Letter_(8.50_x_11.00_Inches)
  6

 40
6.35
 41
6.35
 42
6.35000508
 43
6.35000508
 44
215.9
 45
279.4
 46
0.0
 47
0.0
 48
0.0
 49
0.0
140
0.0
141
0.0
142
1.0
143
1.0
 70
  1712
 72
     1
 73
     0
 74
     0
  7

 75
     0
 76
     0
 77
     5
 78
   300
147
1.0
148
0.0
149
0.0
100
AcDbLayout
  1
Model
 70
     1
 71
     0
 10
0.0
 20
0.0
 11
302.9997823349792
 21
216.0016055409748
 12
0.0
 22
0.0
 32
0.0
 14
0.0
 24
0.0
 34
0.0
 15
302.9997823349792
 25
216.0016055409748
 35
0.0
146
0.0
 13
0.0
 23
0.0
 33
0.0
 16
1.0
 26
0.0
 36
0.0
 17
0.0
 27
1.0
 37
0.0
 76
     0
330
1F
331
29
  0
MATERIAL
  5
45
102
{ACAD_REACTORS
330
43
102
}
330
43
100
AcDbMaterial
  1
ByBlock
 72
     1
 94
      127
  0
MATERIAL
  5
44
102
{ACAD_REACTORS
330
43
102
}
330
43
100
AcDbMaterial
  1
ByLayer
 72
     1
 94
      127
  0
MATERIAL
  5
46
102
{ACAD_REACTORS
330
43
102
}
330
43
100
AcDbMaterial
  1
Global
 72
     1
 94
      127
  0
MLEADERSTYLE
  5
5C
102
{ACAD_REACTORS
330
5B
102
}
330
5B
100
AcDbMLeaderStyle
179
     2
170
     2
171
     1
172
     0
 90
        2
 40
0.0
 41
0.0
173
     1
 91
-1056964608
340
14
 92
       -2
290
     1
 42
2.0
291
     1
 43
8.0
  3
Standard
341
0
 44
4.0
300

342
11
174
     1
178
     6
175
     1
176
     0
 93
-1056964608
 45
4.0
292
     0
297
     0
 46
4.0
343
0
 94
-1056964608
 47
1.0
 49
1.0
140
1.0
293
     1
141
0.0
294
     1
177
     0
142
1.0
295
     0
296
     0
143
3.75
271
     0
272
     9
273
     9
298
     0
  0
MLINESTYLE
  5
18
102
{ACAD_REACTORS
330
17
102
}
330
17
100
AcDbMlineStyle
  2
Standard
 70
     0
  3

 62
   256
 51
90.0
 52
90.0
 71
     2
 49
0.5
 62
   256
  6
BYLAYER
 49
-0.5
 62
   256
  6
BYLAYER
  0
ACDBPLACEHOLDER
  5
F
102
{ACAD_REACTORS
330
E
102
}
330
E
  0
SCALE
  5
48
102
{ACAD_REACTORS
330
47
102
}
330
47
100
AcDbScale
 70
     0
300
1:1
140
1.0
141
1.0
290
     1
  0
SCALE
  5
49
102
{ACAD_REACTORS
330
47
102
}
330
47
100
AcDbScale
 70
     0
300
1:2
140
1.0
141
2.0
290
     0
  0
SCALE
  5
4A
102
{ACAD_REACTORS
330
47
102
}
330
47
100
AcDbScale
 70
     0
300
1:4
140
1.0
141
4.0
290
     0
  0
SCALE
  5
4B
102
{ACAD_REACTORS
330
47
102
}
330
47
100
AcDbScale
 70
     0
300
1:5
140
1.0
141
5.0
290
     0
  0
SCALE
  5
4C
102
{ACAD_REACTORS
330
47
102
}
330
47
100
AcDbScale
 70
     0
300
1:8
140
1.0
141
8.0
290
     0
  0
SCALE
  5
4D
102
{ACAD_REACTORS
330
47
102
}
330
47
100
AcDbScale
 70
     0
300
1:10
140
1.0
141
10.0
290
     0
  0
SCALE
  5
4E
102
{ACAD_REACTORS
330
47
102
}
330
47
100
AcDbScale
 70
     0
300
1:16
140
1.0
141
16.0
290
     0
  0
SCALE
  5
4F
102
{ACAD_REACTORS
330
47
102
}
330
47
100
AcDbScale
 70
     0
300
1:20
140
1.0
141
20.0
290
     0
  0
SCALE
  5
50
102
{ACAD_REACTORS
330
47
102
}
330
47
100
AcDbScale
 70
     0
300
1:30
140
1.0
141
30.0
290
     0
  0
SCALE
  5
51
102
{ACAD_REACTORS
330
47
102
}
330
47
100
AcDbScale
 70
     0
300
1:40
140
1.0
141
40.0
290
     0
  0
SCALE
  5
52
102
{ACAD_REACTORS
330
47
102
}
330
47
100
AcDbScale
 70
     0
300
1:50
140
1.0
141
50.0
290
     0
  0
SCALE
  5
53
102
{ACAD_REACTORS
330
47
102
}
330
47
100
AcDbScale
 70
     0
300
1:100
140
1.0
141
100.0
290
     0
  0
SCALE
  5
54
102
{ACAD_REACTORS
330
47
102
}
330
47
100
AcDbScale
 70
     0
300
2:1
140
2.0
141
1.0
290
     0
  0
SCALE
  5
55
102
{ACAD_REACTORS
330
47
102
}
330
47
100
AcDbScale
 70
     0
300
4:1
140
4.0
141
1.0
290
     0
  0
SCALE
  5
56
102
{ACAD_REACTORS
330
47
102
}
330
47
100
AcDbScale
 70
     0
300
8:1
140
8.0
141
1.0
290
     0
  0
SCALE
  5
57
102
{ACAD_REACTORS
330
47
102
}
330
47
100
AcDbScale
 70
     0
300
10:1
140
10.0
141
1.0
290
     0
  0
SCALE
  5
58
102
{ACAD_REACTORS
330
47
102
}
330
47
100
AcDbScale
 70
     0
300
100:1
140
100.0
141
1.0
290
     0
  0
TABLESTYLE
  5
5A
102
{ACAD_REACTORS
330
59
102
}
102
{ACAD_XDICTIONARY
360
AC
102
}
330
59
100
AcDbTableStyle
  3
Standard
 70
     0
 71
     0
 40
0.06
 41
0.06
280
     0
281
     0
  7
Standard
140
4.5
170
     2
 62
     0
 63
   257
283
     0
 90
        4
 91
        0
  1

274
    -2
284
     1
 64
     0
275
    -2
285
     1
 65
     0
276
    -2
286
     1
 66
     0
277
    -2
287
     1
 67
     0
278
    -2
288
     1
 68
     0
279
    -2
289
     1
 69
     0
  7
Standard
140
6.0
170
     5
 62
     0
 63
   257
283
     0
 90
        4
 91
        0
  1

274
    -2
284
     1
 64
     0
275
    -2
285
     1
 65
     0
276
    -2
286
     1
 66
     0
277
    -2
287
     1
 67
     0
278
    -2
288
     1
 68
     0
279
    -2
289
     1
 69
     0
  7
Standard
140
4.5
170
     5
 62
     0
 63
   257
283
     0
 90
        4
 91
        0
  1

274
    -2
284
     1
 64
     0
275
    -2
285
     1
 65
     0
276
    -2
286
     1
 66
     0
277
    -2
287
     1
 67
     0
278
    -2
288
     1
 68
     0
279
    -2
289
     1
 69
     0
  0
VISUALSTYLE
  5
2F
102
{ACAD_REACTORS
330
2A
102
}
330
2A
100
AcDbVisualStyle
  2
2dWireframe
 70
     4
177
     3
291
     0
 70
    58
 90
        0
176
     1
 90
        2
176
     1
 90
        0
176
     1
 90
        0
176
     1
 40
0.6
176
     1
 40
30.0
176
     1
 62
     7
420
 16777215
176
     1
 90
        1
176
     1
 90
        4
176
     1
 62
     7
176
     1
 62
   257
176
     1
 90
        1
176
     1
 90
        1
176
     1
 40
1.0
176
     1
 90
        0
176
     1
 62
   257
176
     1
 40
1.0
176
     1
 90
        1
176
     1
 90
        6
176
     1
 90
        2
176
     1
 62
     7
176
     1
 90
        5
176
     1
 90
        0
176
     1
 90
        0
176
     1
290
     0
176
     1
 90
        1
176
     1
 40
0.0
176
     1
 90
        0
176
     1
290
     1
176
     1
290
     1
176
     1
290
     0
176
     1
290
     0
176
     1
290
     0
176
     1
290
     0
176
     1
290
     0
176
     1
290
     0
176
     1
290
     0
176
     1
 90
       50
176
     1
 40
0.0
176
     1
 40
1.0
176
     1
 90
        0
176
     1
 62
    18
420
        0
176
     1
 90
       50
176
     1
 90
        3
176
     1
 62
     5
420
      255
176
     1
290
     0
176
     1
 90
       50
176
     1
 90
       50
176
     1
 90
       50
176
     1
290
     0
176
     1
 90
       50
176
     1
 62
   256
176
     0
 40
1.0
176
     0
 90
        2
176
     1
  1
strokes_ogs.tif
176
     1
290
     0
176
     1
 40
1.0
176
     1
 40
1.0
176
     1
  0
VISUALSTYLE
  5
32
102
{ACAD_REACTORS
330
2A
102
}
330
2A
100
AcDbVisualStyle
  2
Basic
 70
     7
177
     3
291
     1
 70
    58
 90
        1
176
     1
 90
        0
176
     1
 90
        1
176
     1
 90
        0
176
     1
 40
0.6
176
     1
 40
30.0
176
     1
 62
     7
420
 16777215
176
     1
 90
        0
176
     1
 90
        4
176
     1
 62
     7
176
     1
 62
   257
176
     1
 90
        1
176
     1
 90
        1
176
     1
 40
1.0
176
     1
 90
        8
176
     1
 62
     7
176
     1
 40
1.0
176
     1
 90
        1
176
     1
 90
        6
176
     1
 90
        2
176
     1
 62
     7
176
     1
 90
        5
176
     1
 90
        0
176
     1
 90
        0
176
     1
290
     0
176
     1
 90
        1
176
     1
 40
0.0
176
     1
 90
        0
176
     1
290
     0
176
     1
290
     1
176
     1
290
     1
176
     1
290
     0
176
     1
290
     0
176
     1
290
     0
176
     1
290
     0
176
     1
290
     0
176
     1
290
     0
176
     1
 90
       50
176
     1
 40
0.0
176
     1
 40
1.0
176
     1
 90
        0
176
     1
 62
    18
420
        0
176
     1
 90
       50
176
     1
 90
        3
176
     1
 62
     5
420
      255
176
     1
290
     0
176
     1
 90
       50
176
     1
 90
       50
176
     1
 90
       50
176
     1
290
     0
176
     1
 90
       50
176
     1
 62
   256
176
     0
 40
1.0
176
     0
 90
        2
176
     1
  1
strokes_ogs.tif
176
     1
290
     0
176
     1
 40
1.0
176
     1
 40
1.0
176
     1
  0
VISUALSTYLE
  5
36
102
{ACAD_REACTORS
330
2A
102
}
330
2A
100
AcDbVisualStyle
  2
Brighten
 70
    12
177
     3
291
     1
 70
    58
 90
        2
176
     1
 90
        2
176
     1
 90
        0
176
     1
 90
        0
176
     1
 40
0.6
176
     1
 40
30.0
176
     1
 62
     7
420
 16777215
176
     1
 90
        1
176
     1
 90
        4
176
     1
 62
     7
176
     1
 62
   257
176
     1
 90
        1
176
     1
 90
        1
176
     1
 40
1.0
176
     1
 90
        8
176
     1
 62
     7
176
     1
 40
1.0
176
     1
 90
        1
176
     1
 90
        6
176
     1
 90
        2
176
     1
 62
     7
176
     1
 90
        5
176
     1
 90
        0
176
     1
 90
        0
176
     1
290
     0
176
     1
 90
        1
176
     1
 40
50.0
176
     1
 90
        0
176
     1
290
     0
176
     1
290
     1
176
     1
290
     1
176
     1
290
     0
176
     1
290
     0
176
     1
290
     0
176
     1
290
     0
176
     1
290
     0
176
     1
290
     0
176
     1
 90
       50
176
     1
 40
0.0
176
     1
 40
1.0
176
     1
 90
        0
176
     1
 62
    18
420
        0
176
     1
 90
       50
176
     1
 90
        3
176
     1
 62
     5
420
      255
176
     1
290
     0
176
     1
 90
       50
176
     1
 90
       50
176
     1
 90
       50
176
     1
290
     0
176
     1
 90
       50
176
     1
 62
   256
176
     0
 40
1.0
176
     0
 90
        2
176
     1
  1
strokes_ogs.tif
176
     1
290
     0
176
     1
 40
1.0
176
     1
 40
1.0
176
     1
  0
VISUALSTYLE
  5
3A
102
{ACAD_REACTORS
330
2A
102
}
330
2A
100
AcDbVisualStyle
  2
ColorChange
 70
    16
177
     3
291
     1
 70
    58
 90
        2
176
     1
 90
        2
176
     1
 90
        3
176
     1
 90
        0
176
     1
 40
0.6
176
     1
 40
30.0
176
     1
 62
     8
420
  8421504
176
     1
 90
        1
176
     1
 90
        4
176
     1
 62
     7
176
     1
 62
   257
176
     1
 90
        1
176
     1
 90
        1
176
     1
 40
1.0
176
     1
 90
        8
176
     1
 62
     8
420
  8421504
176
     1
 40
1.0
176
     1
 90
        1
176
     1
 90
        6
176
     1
 90
        2
176
     1
 62
     7
176
     1
 90
        5
176
     1
 90
        0
176
     1
 90
        0
176
     1
290
     0
176
     1
 90
        1
176
     1
 40
0.0
176
     1
 90
        0
176
     1
290
     0
176
     1
290
     1
176
     1
290
     1
176
     1
290
     0
176
     1
290
     0
176
     1
290
     0
176
     1
290
     0
176
     1
290
     0
176
     1
290
     0
176
     1
 90
       50
176
     1
 40
0.0
176
     1
 40
1.0
176
     1
 90
        0
176
     1
 62
    18
420
        0
176
     1
 90
       50
176
     1
 90
        3
176
     1
 62
     5
420
      255
176
     1
290
     0
176
     1
 90
       50
176
     1
 90
       50
176
     1
 90
       50
176
     1
290
     0
176
     1
 90
       50
176
     1
 62
   256
176
     0
 40
1.0
176
     0
 90
        2
176
     1
  1
strokes_ogs.tif
176
     1
290
     0
176
     1
 40
1.0
176
     1
 40
1.0
176
     1
  0
VISUALSTYLE
  5
34
102
{ACAD_REACTORS
330
2A
102
}
330
2A
100
AcDbVisualStyle
  2
Conceptual
 70
     9
177
     3
291
     0
 70
    58
 90
        3
176
     1
 90
        2
176
     1
 90
        0
176
     1
 90
        0
176
     1
 40
0.6
176
     1
 40
30.0
176
     1
 62
     7
420
 16777215
176
     1
 90
        2
176
     1
 90
        2
176
     1
 62
     7
176
     1
 62
   257
176
     1
 90
        1
176
     1
 90
        1
176
     1
 40
179.0
176
     1
 90
        8
176
     1
 62
     7
176
     1
 40
1.0
176
     1
 90
        1
176
     1
 90
        6
176
     1
 90
        2
176
     1
 62
     7
176
     1
 90
        3
176
     1
 90
        0
176
     1
 90
        0
176
     1
290
     0
176
     1
 90
        1
176
     1
 40
0.0
176
     1
 90
        0
176
     1
290
     0
176
     1
290
     1
176
     1
290
     1
176
     1
290
     0
176
     1
290
     0
176
     1
290
     0
176
     1
290
     0
176
     1
290
     0
176
     1
290
     0
176
     1
 90
       50
176
     1
 40
0.0
176
     1
 40
1.0
176
     1
 90
        0
176
     1
 62
    18
420
        0
176
     1
 90
       50
176
     1
 90
        3
176
     1
 62
     5
420
      255
176
     1
290
     0
176
     1
 90
       50
176
     1
 90
       50
176
     1
 90
       50
176
     1
290
     0
176
     1
 90
       50
176
     1
 62
   256
176
     0
 40
1.0
176
     0
 90
        2
176
     1
  1
strokes_ogs.tif
176
     1
290
     0
176
     1
 40
1.0
176
     1
 40
1.0
176
     1
  0
VISUALSTYLE
  5
35
102
{ACAD_REACTORS
330
2A
102
}
330
2A
100
AcDbVisualStyle
  2
Dim
 70
    11
177
     3
291
     1
 70
    58
 90
        2
176
     1
 90
        2
176
     1
 90
        0
176
     1
 90
        0
176
     1
 40
0.6
176
     1
 40
30.0
176
     1
 62
     7
420
 16777215
176
     1
 90
        1
176
     1
 90
        4
176
     1
 62
     7
176
     1
 62
   257
176
     1
 90
        1
176
     1
 90
        1
176
     1
 40
1.0
176
     1
 90
        8
176
     1
 62
     7
176
     1
 40
1.0
176
     1
 90
        1
176
     1
 90
        6
176
     1
 90
        2
176
     1
 62
     7
176
     1
 90
        5
176
     1
 90
        0
176
     1
 90
        0
176
     1
290
     0
176
     1
 90
        1
176
     1
 40
-50.0
176
     1
 90
        0
176
     1
290
     0
176
     1
290
     1
176
     1
290
     1
176
     1
290
     0
176
     1
290
     0
176
     1
290
     0
176
     1
290
     0
176
     1
290
     0
176
     1
290
     0
176
     1
 90
       50
176
     1
 40
0.0
176
     1
 40
1.0
176
     1
 90
        0
176
     1
 62
    18
420
        0
176
     1
 90
       50
176
     1
 90
        3
176
     1
 62
     5
420
      255
176
     1
290
     0
176
     1
 90
       50
176
     1
 90
       50
176
     1
 90
       50
176
     1
290
     0
176
     1
 90
       50
176
     1
 62
   256
176
     0
 40
1.0
176
     0
 90
        2
176
     1
  1
strokes_ogs.tif
176
     1
290
     0
176
     1
 40
1.0
176
     1
 40
1.0
176
     1
  0
VISUALSTYLE
  5
3D
102
{ACAD_REACTORS
330
2A
102
}
330
2A
100
AcDbVisualStyle
  2
EdgeColorOff
 70
    22
177
     3
291
     1
 70
    58
 90
        2
176
     0
 90
        2
176
     0
 90
        0
176
     0
 90
        0
176
     0
 40
0.6
176
     0
 40
30.0
176
     0
 62
     7
420
 16777215
176
     0
 90
        1
176
     0
 90
        4
176
     0
 62
     7
176
     0
 62
   257
176
     0
 90
        1
176
     0
 90
        1
176
     0
 40
1.0
176
     0
 90
        8
176
     2
 62
     7
176
     0
 40
1.0
176
     0
 90
        1
176
     0
 90
        6
176
     0
 90
        2
176
     0
 62
     7
176
     0
 90
        5
176
     0
 90
        0
176
     0
 90
        0
176
     0
290
     0
176
     0
 90
        1
176
     0
 40
0.0
176
     0
 90
        0
176
     0
290
     0
176
     0
290
     1
176
     0
290
     1
176
     0
290
     0
176
     0
290
     0
176
     0
290
     0
176
     0
290
     0
176
     0
290
     0
176
     0
290
     0
176
     0
 90
       50
176
     0
 40
0.0
176
     0
 40
1.0
176
     0
 90
        0
176
     0
 62
    18
420
        0
176
     0
 90
       50
176
     0
 90
        3
176
     0
 62
     5
420
      255
176
     0
290
     0
176
     0
 90
       50
176
     0
 90
       50
176
     0
 90
       50
176
     0
290
     0
176
     0
 90
       50
176
     0
 62
   256
176
     0
 40
1.0
176
     0
 90
        2
176
     0
  1
strokes_ogs.tif
176
     0
290
     0
176
     0
 40
1.0
176
     0
 40
1.0
176
     0
  0
VISUALSTYLE
  5
39
102
{ACAD_REACTORS
330
2A
102
}
330
2A
100
AcDbVisualStyle
  2
Facepattern
 70
    15
177
     3
291
     1
 70
    58
 90
        2
176
     1
 90
        2
176
     1
 90
        0
176
     1
 90
        0
176
     1
 40
0.6
176
     1
 40
30.0
176
     1
 62
     7
420
 16777215
176
     1
 90
        1
176
     1
 90
        4
176
     1
 62
     7
176
     1
 62
   257
176
     1
 90
        1
176
     1
 90
        1
176
     1
 40
1.0
176
     1
 90
        8
176
     1
 62
     7
176
     1
 40
1.0
176
     1
 90
        1
176
     1
 90
        6
176
     1
 90
        2
176
     1
 62
     7
176
     1
 90
        5
176
     1
 90
        0
176
     1
 90
        0
176
     1
290
     0
176
     1
 90
        1
176
     1
 40
0.0
176
     1
 90
        0
176
     1
290
     0
176
     1
290
     1
176
     1
290
     1
176
     1
290
     0
176
     1
290
     0
176
     1
290
     0
176
     1
290
     0
176
     1
290
     0
176
     1
290
     0
176
     1
 90
       50
176
     1
 40
0.0
176
     1
 40
1.0
176
     1
 90
        0
176
     1
 62
    18
420
        0
176
     1
 90
       50
176
     1
 90
        3
176
     1
 62
     5
420
      255
176
     1
290
     0
176
     1
 90
       50
176
     1
 90
       50
176
     1
 90
       50
176
     1
290
     0
176
     1
 90
       50
176
     1
 62
   256
176
     0
 40
1.0
176
     0
 90
        2
176
     1
  1
strokes_ogs.tif
176
     1
290
     0
176
     1
 40
1.0
176
     1
 40
1.0
176
     1
  0
VISUALSTYLE
  5
2B
102
{ACAD_REACTORS
330
2A
102
}
330
2A
100
AcDbVisualStyle
  2
Flat
 70
     0
177
     3
291
     1
 70
    58
 90
        2
176
     1
 90
        1
176
     1
 90
        1
176
     1
 90
        2
176
     1
 40
0.6
176
     1
 40
30.0
176
     1
 62
     7
420
 16777215
176
     1
 90
        0
176
     1
 90
        0
176
     1
 62
     7
176
     1
 62
   257
176
     1
 90
        1
176
     1
 90
        1
176
     1
 40
1.0
176
     1
 90
        8
176
     1
 62
     7
176
     1
 40
1.0
176
     1
 90
        1
176
     1
 90
        6
176
     1
 90
        2
176
     1
 62
     7
176
     1
 90
        5
176
     1
 90
        0
176
     1
 90
        0
176
     1
290
     0
176
     1
 90
       13
176
     1
 40
0.0
176
     1
 90
        0
176
     1
290
     0
176
     1
290
     1
176
     1
290
     1
176
     1
290
     0
176
     1
290
     0
176
     1
290
     0
176
     1
290
     0
176
     1
290
     0
176
     1
290
     0
176
     1
 90
       50
176
     1
 40
0.0
176
     1
 40
1.0
176
     1
 90
        0
176
     1
 62
    18
420
        0
176
     1
 90
       50
176
     1
 90
        3
176
     1
 62
     5
420
      255
176
     1
290
     0
176
     1
 90
       50
176
     1
 90
       50
176
     1
 90
       50
176
     1
290
     0
176
     1
 90
       50
176
     1
 62
   256
176
     0
 40
1.0
176
     0
 90
        2
176
     1
  1
strokes_ogs.tif
176
     1
290
     0
176
     1
 40
1.0
176
     1
 40
1.0
176
     1
  0
VISUALSTYLE
  5
2C
102
{ACAD_REACTORS
330
2A
102
}
330
2A
100
AcDbVisualStyle
  2
FlatWithEdges
 70
     1
177
     3
291
     1
 70
    58
 90
        2
176
     1
 90
        1
176
     1
 90
        1
176
     1
 90
        2
176
     1
 40
0.6
176
     1
 40
30.0
176
     1
 62
     7
420
 16777215
176
     1
 90
        1
176
     1
 90
        0
176
     1
 62
     7
176
     1
 62
   257
176
     1
 90
        1
176
     1
 90
        1
176
     1
 40
1.0
176
     1
 90
        0
176
     1
 62
   257
176
     1
 40
1.0
176
     1
 90
        1
176
     1
 90
        6
176
     1
 90
        2
176
     1
 62
     7
176
     1
 90
        5
176
     1
 90
        0
176
     1
 90
        0
176
     1
290
     0
176
     1
 90
       13
176
     1
 40
0.0
176
     1
 90
        0
176
     1
290
     0
176
     1
290
     1
176
     1
290
     1
176
     1
290
     0
176
     1
290
     0
176
     1
290
     0
176
     1
290
     0
176
     1
290
     0
176
     1
290
     0
176
     1
 90
       50
176
     1
 40
0.0
176
     1
 40
1.0
176
     1
 90
        0
176
     1
 62
    18
420
        0
176
     1
 90
       50
176
     1
 90
        3
176
     1
 62
     5
420
      255
176
     1
290
     0
176
     1
 90
       50
176
     1
 90
       50
176
     1
 90
       50
176
     1
290
     0
176
     1
 90
       50
176
     1
 62
   256
176
     0
 40
1.0
176
     0
 90
        2
176
     1
  1
strokes_ogs.tif
176
     1
290
     0
176
     1
 40
1.0
176
     1
 40
1.0
176
     1
  0
VISUALSTYLE
  5
2D
102
{ACAD_REACTORS
330
2A
102
}
330
2A
100
AcDbVisualStyle
  2
Gouraud
 70
     2
177
     3
291
     1
 70
    58
 90
        2
176
     1
 90
        2
176
     1
 90
        1
176
     1
 90
        2
176
     1
 40
0.6
176
     1
 40
30.0
176
     1
 62
     7
420
 16777215
176
     1
 90
        0
176
     1
 90
        0
176
     1
 62
     7
176
     1
 62
   257
176
     1
 90
        1
176
     1
 90
        1
176
     1
 40
1.0
176
     1
 90
        0
176
     1
 62
     7
176
     1
 40
1.0
176
     1
 90
        1
176
     1
 90
        6
176
     1
 90
        2
176
     1
 62
     7
176
     1
 90
        5
176
     1
 90
        0
176
     1
 90
        0
176
     1
290
     0
176
     1
 90
       13
176
     1
 40
0.0
176
     1
 90
        0
176
     1
290
     0
176
     1
290
     1
176
     1
290
     1
176
     1
290
     0
176
     1
290
     0
176
     1
290
     0
176
     1
290
     0
176
     1
290
     0
176
     1
290
     0
176
     1
 90
       50
176
     1
 40
0.0
176
     1
 40
1.0
176
     1
 90
        0
176
     1
 62
    18
420
        0
176
     1
 90
       50
176
     1
 90
        3
176
     1
 62
     5
420
      255
176
     1
290
     0
176
     1
 90
       50
176
     1
 90
       50
176
     1
 90
       50
176
     1
290
     0
176
     1
 90
       50
176
     1
 62
   256
176
     0
 40
1.0
176
     0
 90
        2
176
     1
  1
strokes_ogs.tif
176
     1
290
     0
176
     1
 40
1.0
176
     1
 40
1.0
176
     1
  0
VISUALSTYLE
  5
2E
102
{ACAD_REACTORS
330
2A
102
}
330
2A
100
AcDbVisualStyle
  2
GouraudWithEdges
 70
     3
177
     3
291
     1
 70
    58
 90
        2
176
     1
 90
        2
176
     1
 90
        1
176
     1
 90
        2
176
     1
 40
0.6
176
     1
 40
30.0
176
     1
 62
     7
420
 16777215
176
     1
 90
        1
176
     1
 90
        0
176
     1
 62
     7
176
     1
 62
   257
176
     1
 90
        1
176
     1
 90
        1
176
     1
 40
1.0
176
     1
 90
        0
176
     1
 62
   257
176
     1
 40
1.0
176
     1
 90
        1
176
     1
 90
        6
176
     1
 90
        2
176
     1
 62
     7
176
     1
 90
        5
176
     1
 90
        0
176
     1
 90
        0
176
     1
290
     0
176
     1
 90
       13
176
     1
 40
0.0
176
     1
 90
        0
176
     1
290
     0
176
     1
290
     1
176
     1
290
     1
176
     1
290
     0
176
     1
290
     0
176
     1
290
     0
176
     1
290
     0
176
     1
290
     0
176
     1
290
     0
176
     1
 90
       50
176
     1
 40
0.0
176
     1
 40
1.0
176
     1
 90
        0
176
     1
 62
    18
420
        0
176
     1
 90
       50
176
     1
 90
        3
176
     1
 62
     5
420
      255
176
     1
290
     0
176
     1
 90
       50
176
     1
 90
       50
176
     1
 90
       50
176
     1
290
     0
176
     1
 90
       50
176
     1
 62
   256
176
     0
 40
1.0
176
     0
 90
        2
176
     1
  1
strokes_ogs.tif
176
     1
290
     0
176
     1
 40
1.0
176
     1
 40
1.0
176
     1
  0
VISUALSTYLE
  5
31
102
{ACAD_REACTORS
330
2A
102
}
330
2A
100
AcDbVisualStyle
  2
Hidden
 70
     6
177
     3
291
     0
 70
    58
 90
        1
176
     1
 90
        2
176
     1
 90
        2
176
     1
 90
        0
176
     1
 40
0.6
176
     1
 40
30.0
176
     1
 62
     7
420
 16777215
176
     1
 90
        2
176
     1
 90
        2
176
     1
 62
     7
176
     1
 62
   257
176
     1
 90
        2
176
     1
 90
        1
176
     1
 40
40.0
176
     1
 90
        0
176
     1
 62
   257
176
     1
 40
1.0
176
     1
 90
        1
176
     1
 90
        6
176
     1
 90
        2
176
     1
 62
     7
176
     1
 90
        3
176
     1
 90
        0
176
     1
 90
        0
176
     1
290
     0
176
     1
 90
        1
176
     1
 40
0.0
176
     1
 90
        0
176
     1
290
     0
176
     1
290
     1
176
     1
290
     1
176
     1
290
     0
176
     1
290
     0
176
     1
290
     0
176
     1
290
     0
176
     1
290
     0
176
     1
290
     0
176
     1
 90
       50
176
     1
 40
0.0
176
     1
 40
1.0
176
     1
 90
        0
176
     1
 62
    18
420
        0
176
     1
 90
       50
176
     1
 90
        3
176
     1
 62
     5
420
      255
176
     1
290
     0
176
     1
 90
       50
176
     1
 90
       50
176
     1
 90
       50
176
     1
290
     0
176
     1
 90
       50
176
     1
 62
   256
176
     0
 40
1.0
176
     0
 90
        2
176
     1
  1
strokes_ogs.tif
176
     1
290
     0
176
     1
 40
1.0
176
     1
 40
1.0
176
     1
  0
VISUALSTYLE
  5
3B
102
{ACAD_REACTORS
330
2A
102
}
330
2A
100
AcDbVisualStyle
  2
JitterOff
 70
    20
177
     3
291
     1
 70
    58
 90
        2
176
     0
 90
        2
176
     0
 90
        0
176
     0
 90
        0
176
     0
 40
0.6
176
     0
 40
30.0
176
     0
 62
     7
420
 16777215
176
     0
 90
        1
176
     0
 90
        4
176
     0
 62
     7
176
     0
 62
   257
176
     0
 90
        1
176
     0
 90
        1
176
     0
 40
1.0
176
     0
 90
       10
176
     2
 62
     7
176
     0
 40
1.0
176
     0
 90
        1
176
     0
 90
        6
176
     0
 90
        2
176
     0
 62
     7
176
     0
 90
        5
176
     0
 90
        0
176
     0
 90
        0
176
     0
290
     0
176
     0
 90
        1
176
     0
 40
0.0
176
     0
 90
        0
176
     0
290
     0
176
     0
290
     1
176
     0
290
     1
176
     0
290
     0
176
     0
290
     0
176
     0
290
     0
176
     0
290
     0
176
     0
290
     0
176
     0
290
     0
176
     0
 90
       50
176
     0
 40
0.0
176
     0
 40
1.0
176
     0
 90
        0
176
     0
 62
    18
420
        0
176
     0
 90
       50
176
     0
 90
        3
176
     0
 62
     5
420
      255
176
     0
290
     0
176
     0
 90
       50
176
     0
 90
       50
176
     0
 90
       50
176
     0
290
     0
176
     0
 90
       50
176
     0
 62
   256
176
     0
 40
1.0
176
     0
 90
        2
176
     0
  1
strokes_ogs.tif
176
     0
290
     0
176
     0
 40
1.0
176
     0
 40
1.0
176
     0
  0
VISUALSTYLE
  5
38
102
{ACAD_REACTORS
330
2A
102
}
330
2A
100
AcDbVisualStyle
  2
Linepattern
 70
    14
177
     3
291
     1
 70
    58
 90
        2
176
     1
 90
        2
176
     1
 90
        0
176
     1
 90
        0
176
     1
 40
0.6
176
     1
 40
30.0
176
     1
 62
     7
420
 16777215
176
     1
 90
        1
176
     1
 90
        4
176
     1
 62
     7
176
     1
 62
   257
176
     1
 90
        7
176
     1
 90
        7
176
     1
 40
1.0
176
     1
 90
        8
176
     1
 62
     7
176
     1
 40
1.0
176
     1
 90
        1
176
     1
 90
        6
176
     1
 90
        2
176
     1
 62
     7
176
     1
 90
        5
176
     1
 90
        0
176
     1
 90
        0
176
     1
290
     0
176
     1
 90
        1
176
     1
 40
0.0
176
     1
 90
        0
176
     1
290
     0
176
     1
290
     1
176
     1
290
     1
176
     1
290
     0
176
     1
290
     0
176
     1
290
     0
176
     1
290
     0
176
     1
290
     0
176
     1
290
     0
176
     1
 90
       50
176
     1
 40
0.0
176
     1
 40
1.0
176
     1
 90
        0
176
     1
 62
    18
420
        0
176
     1
 90
       50
176
     1
 90
        3
176
     1
 62
     5
420
      255
176
     1
290
     0
176
     1
 90
       50
176
     1
 90
       50
176
     1
 90
       50
176
     1
290
     0
176
     1
 90
       50
176
     1
 62
   256
176
     0
 40
1.0
176
     0
 90
        2
176
     1
  1
strokes_ogs.tif
176
     1
290
     0
176
     1
 40
1.0
176
     1
 40
1.0
176
     1
  0
VISUALSTYLE
  5
3C
102
{ACAD_REACTORS
330
2A
102
}
330
2A
100
AcDbVisualStyle
  2
OverhangOff
 70
    21
177
     3
291
     1
 70
    58
 90
        2
176
     0
 90
        2
176
     0
 90
        0
176
     0
 90
        0
176
     0
 40
0.6
176
     0
 40
30.0
176
     0
 62
     7
420
 16777215
176
     0
 90
        1
176
     0
 90
        4
176
     0
 62
     7
176
     0
 62
   257
176
     0
 90
        1
176
     0
 90
        1
176
     0
 40
1.0
176
     0
 90
        9
176
     2
 62
     7
176
     0
 40
1.0
176
     0
 90
        1
176
     0
 90
        6
176
     0
 90
        2
176
     0
 62
     7
176
     0
 90
        5
176
     0
 90
        0
176
     0
 90
        0
176
     0
290
     0
176
     0
 90
        1
176
     0
 40
0.0
176
     0
 90
        0
176
     0
290
     0
176
     0
290
     1
176
     0
290
     1
176
     0
290
     0
176
     0
290
     0
176
     0
290
     0
176
     0
290
     0
176
     0
290
     0
176
     0
290
     0
176
     0
 90
       50
176
     0
 40
0.0
176
     0
 40
1.0
176
     0
 90
        0
176
     0
 62
    18
420
        0
176
     0
 90
       50
176
     0
 90
        3
176
     0
 62
     5
420
      255
176
     0
290
     0
176
     0
 90
       50
176
     0
 90
       50
176
     0
 90
       50
176
     0
290
     0
176
     0
 90
       50
176
     0
 62
   256
176
     0
 40
1.0
176
     0
 90
        2
176
     0
  1
strokes_ogs.tif
176
     0
290
     0
176
     0
 40
1.0
176
     0
 40
1.0
176
     0
  0
VISUALSTYLE
  5
33
102
{ACAD_REACTORS
330
2A
102
}
330
2A
100
AcDbVisualStyle
  2
Realistic
 70
     8
177
     3
291
     0
 70
    58
 90
        2
176
     1
 90
        3
176
     1
 90
        0
176
     1
 90
        2
176
     1
 40
0.6
176
     1
 40
30.0
176
     1
 62
     7
420
 16777215
176
     1
 90
        0
176
     1
 90
        0
176
     1
 62
     7
176
     1
 62
   257
176
     1
 90
        1
176
     1
 90
        1
176
     1
 40
1.0
176
     1
 90
        8
176
     1
 62
   257
176
     1
 40
1.0
176
     1
 90
        1
176
     1
 90
        6
176
     1
 90
        2
176
     1
 62
     7
176
     1
 90
        3
176
     1
 90
        0
176
     1
 90
        0
176
     1
290
     0
176
     1
 90
       13
176
     1
 40
0.0
176
     1
 90
        0
176
     1
290
     0
176
     1
290
     1
176
     1
290
     1
176
     1
290
     0
176
     1
290
     0
176
     1
290
     0
176
     1
290
     0
176
     1
290
     0
176
     1
290
     0
176
     1
 90
       50
176
     1
 40
0.0
176
     1
 40
1.0
176
     1
 90
        0
176
     1
 62
    18
420
        0
176
     1
 90
       50
176
     1
 90
        3
176
     1
 62
     5
420
      255
176
     1
290
     0
176
     1
 90
       50
176
     1
 90
       50
176
     1
 90
       50
176
     1
290
     0
176
     1
 90
       50
176
     1
 62
   256
176
     0
 40
1.0
176
     0
 90
        2
176
     1
  1
strokes_ogs.tif
176
     1
290
     0
176
     1
 40
1.0
176
     1
 40
1.0
176
     1
  0
VISUALSTYLE
  5
42
102
{ACAD_REACTORS
330
2A
102
}
330
2A
100
AcDbVisualStyle
  2
Shaded
 70
    27
177
     3
291
     0
 70
    58
 90
        2
176
     1
 90
        2
176
     1
 90
        1
176
     1
 90
        2
176
     1
 40
0.6
176
     1
 40
30.0
176
     1
 62
     7
420
 16777215
176
     1
 90
        0
176
     1
 90
        4
176
     1
 62
     7
176
     1
 62
   257
176
     1
 90
        1
176
     1
 90
        1
176
     1
 40
1.0
176
     1
 90
        8
176
     1
 62
   257
176
     1
 40
1.0
176
     1
 90
        1
176
     1
 90
        6
176
     1
 90
        2
176
     1
 62
     8
420
  7895160
176
     1
 90
        3
176
     1
 90
        0
176
     1
 90
        0
176
     1
290
     0
176
     1
 90
        5
176
     1
 40
0.0
176
     1
 90
        0
176
     1
290
     0
176
     1
290
     1
176
     1
290
     1
176
     1
290
     0
176
     1
290
     0
176
     1
290
     0
176
     1
290
     0
176
     1
290
     0
176
     1
290
     0
176
     1
 90
       50
176
     1
 40
0.0
176
     1
 40
1.0
176
     1
 90
        0
176
     1
 62
    18
420
        0
176
     1
 90
       50
176
     1
 90
        3
176
     1
 62
     5
420
      255
176
     1
290
     0
176
     1
 90
       50
176
     1
 90
       50
176
     1
 90
       50
176
     1
290
     0
176
     1
 90
       50
176
     1
 62
   256
176
     0
 40
1.0
176
     0
 90
        2
176
     1
  1
strokes_ogs.tif
176
     1
290
     0
176
     1
 40
1.0
176
     1
 40
1.0
176
     1
  0
VISUALSTYLE
  5
41
102
{ACAD_REACTORS
330
2A
102
}
330
2A
100
AcDbVisualStyle
  2
Shaded with edges
 70
    26
177
     3
291
     0
 70
    58
 90
        2
176
     1
 90
        2
176
     1
 90
        1
176
     1
 90
        2
176
     1
 40
0.6
176
     1
 40
30.0
176
     1
 62
     7
420
 16777215
176
     1
 90
        1
176
     1
 90
       10
176
     1
 62
     7
176
     1
 62
   257
176
     1
 90
        2
176
     1
 90
        1
176
     1
 40
1.0
176
     1
 90
        8
176
     1
 62
   257
176
     1
 40
1.0
176
     1
 90
        1
176
     1
 90
        6
176
     1
 90
        2
176
     1
 62
     7
176
     1
 90
        3
176
     1
 90
        0
176
     1
 90
        0
176
     1
290
     0
176
     1
 90
        5
176
     1
 40
0.0
176
     1
 90
        0
176
     1
290
     0
176
     1
290
     1
176
     1
290
     1
176
     1
290
     0
176
     1
290
     0
176
     1
290
     0
176
     1
290
     0
176
     1
290
     0
176
     1
290
     0
176
     1
 90
       50
176
     1
 40
0.0
176
     1
 40
1.0
176
     1
 90
        0
176
     1
 62
    18
420
        0
176
     1
 90
       50
176
     1
 90
        3
176
     1
 62
     5
420
      255
176
     1
290
     0
176
     1
 90
       50
176
     1
 90
       50
176
     1
 90
       50
176
     1
290
     0
176
     1
 90
       50
176
     1
 62
   256
176
     0
 40
1.0
176
     0
 90
        2
176
     1
  1
strokes_ogs.tif
176
     1
290
     0
176
     1
 40
1.0
176
     1
 40
1.0
176
     1
  0
VISUALSTYLE
  5
3E
102
{ACAD_REACTORS
330
2A
102
}
330
2A
100
AcDbVisualStyle
  2
Shades of Gray
 70
    23
177
     3
291
     0
 70
    58
 90
        2
176
     1
 90
        2
176
     1
 90
        3
176
     1
 90
        0
176
     1
 40
0.6
176
     1
 40
30.0
176
     1
 62
     7
420
 16777215
176
     1
 90
        2
176
     1
 90
        2
176
     1
 62
     7
176
     1
 62
     7
176
     1
 90
        1
176
     1
 90
        1
176
     1
 40
40.0
176
     1
 90
        8
176
     1
 62
     7
176
     1
 40
1.0
176
     1
 90
        1
176
     1
 90
        6
176
     1
 90
        2
176
     1
 62
     7
176
     1
 90
        3
176
     1
 90
        0
176
     1
 90
        0
176
     1
290
     0
176
     1
 90
        1
176
     1
 40
0.0
176
     1
 90
        0
176
     1
290
     0
176
     1
290
     1
176
     1
290
     1
176
     1
290
     0
176
     1
290
     0
176
     1
290
     0
176
     1
290
     0
176
     1
290
     0
176
     1
290
     0
176
     1
 90
       50
176
     1
 40
0.0
176
     1
 40
1.0
176
     1
 90
        0
176
     1
 62
    18
420
        0
176
     1
 90
       50
176
     1
 90
        3
176
     1
 62
     5
420
      255
176
     1
290
     0
176
     1
 90
       50
176
     1
 90
       50
176
     1
 90
       50
176
     1
290
     0
176
     1
 90
       50
176
     1
 62
   256
176
     0
 40
1.0
176
     0
 90
        2
176
     1
  1
strokes_ogs.tif
176
     1
290
     0
176
     1
 40
1.0
176
     1
 40
1.0
176
     1
  0
VISUALSTYLE
  5
3F
102
{ACAD_REACTORS
330
2A
102
}
330
2A
100
AcDbVisualStyle
  2
Sketchy
 70
    24
177
     3
291
     0
 70
    58
 90
        1
176
     1
 90
        2
176
     1
 90
        2
176
     1
 90
        0
176
     1
 40
0.6
176
     1
 40
30.0
176
     1
 62
     7
420
 16777215
176
     1
 90
        2
176
     1
 90
        2
176
     1
 62
     7
176
     1
 62
     7
176
     1
 90
        1
176
     1
 90
        1
176
     1
 40
40.0
176
     1
 90
       11
176
     1
 62
     7
176
     1
 40
1.0
176
     1
 90
        1
176
     1
 90
        6
176
     1
 90
        2
176
     1
 62
     7
176
     1
 90
        6
176
     1
 90
        0
176
     1
 90
        0
176
     1
290
     0
176
     1
 90
        1
176
     1
 40
0.0
176
     1
 90
        0
176
     1
290
     0
176
     1
290
     1
176
     1
290
     1
176
     1
290
     0
176
     1
290
     0
176
     1
290
     0
176
     1
290
     0
176
     1
290
     0
176
     1
290
     0
176
     1
 90
       50
176
     1
 40
0.0
176
     1
 40
1.0
176
     1
 90
        0
176
     1
 62
    18
420
        0
176
     1
 90
       50
176
     1
 90
        3
176
     1
 62
     5
420
      255
176
     1
290
     0
176
     1
 90
       50
176
     1
 90
       50
176
     1
 90
       50
176
     1
290
     0
176
     1
 90
       50
176
     1
 62
   256
176
     0
 40
1.0
176
     0
 90
        2
176
     1
  1
strokes_ogs.tif
176
     1
290
     0
176
     1
 40
1.0
176
     1
 40
1.0
176
     1
  0
VISUALSTYLE
  5
37
102
{ACAD_REACTORS
330
2A
102
}
330
2A
100
AcDbVisualStyle
  2
Thicken
 70
    13
177
     3
291
     1
 70
    58
 90
        2
176
     1
 90
        2
176
     1
 90
        0
176
     1
 90
        0
176
     1
 40
0.6
176
     1
 40
30.0
176
     1
 62
     7
420
 16777215
176
     1
 90
        1
176
     1
 90
        4
176
     1
 62
     7
176
     1
 62
   257
176
     1
 90
        1
176
     1
 90
        1
176
     1
 40
1.0
176
     1
 90
       12
176
     1
 62
     7
176
     1
 40
1.0
176
     1
 90
        1
176
     1
 90
        6
176
     1
 90
        2
176
     1
 62
     7
176
     1
 90
        5
176
     1
 90
        0
176
     1
 90
        0
176
     1
290
     0
176
     1
 90
        1
176
     1
 40
0.0
176
     1
 90
        0
176
     1
290
     0
176
     1
290
     1
176
     1
290
     1
176
     1
290
     0
176
     1
290
     0
176
     1
290
     0
176
     1
290
     0
176
     1
290
     0
176
     1
290
     0
176
     1
 90
       50
176
     1
 40
0.0
176
     1
 40
1.0
176
     1
 90
        0
176
     1
 62
    18
420
        0
176
     1
 90
       50
176
     1
 90
        3
176
     1
 62
     5
420
      255
176
     1
290
     0
176
     1
 90
       50
176
     1
 90
       50
176
     1
 90
       50
176
     1
290
     0
176
     1
 90
       50
176
     1
 62
   256
176
     0
 40
1.0
176
     0
 90
        2
176
     1
  1
strokes_ogs.tif
176
     1
290
     0
176
     1
 40
1.0
176
     1
 40
1.0
176
     1
  0
VISUALSTYLE
  5
30
102
{ACAD_REACTORS
330
2A
102
}
330
2A
100
AcDbVisualStyle
  2
Wireframe
 70
     5
177
     3
291
     0
 70
    58
 90
        0
176
     1
 90
        2
176
     1
 90
        0
176
     1
 90
        0
176
     1
 40
0.6
176
     1
 40
30.0
176
     1
 62
     7
420
 16777215
176
     1
 90
        1
176
     1
 90
        4
176
     1
 62
     7
176
     1
 62
   257
176
     1
 90
        1
176
     1
 90
        1
176
     1
 40
1.0
176
     1
 90
        0
176
     1
 62
   257
176
     1
 40
1.0
176
     1
 90
        1
176
     1
 90
        6
176
     1
 90
        2
176
     1
 62
     7
176
     1
 90
        3
176
     1
 90
        0
176
     1
 90
        0
176
     1
290
     0
176
     1
 90
        1
176
     1
 40
0.0
176
     1
 90
        0
176
     1
290
     0
176
     1
290
     1
176
     1
290
     1
176
     1
290
     0
176
     1
290
     0
176
     1
290
     0
176
     1
290
     0
176
     1
290
     0
176
     1
290
     0
176
     1
 90
       50
176
     1
 40
0.0
176
     1
 40
1.0
176
     1
 90
        0
176
     1
 62
    18
420
        0
176
     1
 90
       50
176
     1
 90
        3
176
     1
 62
     5
420
      255
176
     1
290
     0
176
     1
 90
       50
176
     1
 90
       50
176
     1
 90
       50
176
     1
290
     0
176
     1
 90
       50
176
     1
 62
   256
176
     0
 40
1.0
176
     0
 90
        2
176
     1
  1
strokes_ogs.tif
176
     1
290
     0
176
     1
 40
1.0
176
     1
 40
1.0
176
     1
  0
VISUALSTYLE
  5
40
102
{ACAD_REACTORS
330
2A
102
}
330
2A
100
AcDbVisualStyle
  2
X-Ray
 70
    25
177
     3
291
     0
 70
    58
 90
        2
176
     1
 90
        2
176
     1
 90
        1
176
     1
 90
        1
176
     1
 40
0.5
176
     1
 40
30.0
176
     1
 62
     7
420
 16777215
176
     1
 90
        1
176
     1
 90
        0
176
     1
 62
     7
176
     1
 62
   257
176
     1
 90
        1
176
     1
 90
        1
176
     1
 40
1.0
176
     1
 90
        8
176
     1
 62
     7
176
     1
 40
1.0
176
     1
 90
        1
176
     1
 90
        6
176
     1
 90
        2
176
     1
 62
     7
176
     1
 90
        3
176
     1
 90
        0
176
     1
 90
        0
176
     1
290
     0
176
     1
 90
       13
176
     1
 40
0.0
176
     1
 90
        0
176
     1
290
     0
176
     1
290
     1
176
     1
290
     1
176
     1
290
     0
176
     1
290
     0
176
     1
290
     0
176
     1
290
     0
176
     1
290
     0
176
     1
290
     0
176
     1
 90
       50
176
     1
 40
0.0
176
     1
 40
1.0
176
     1
 90
        0
176
     1
 62
    18
420
        0
176
     1
 90
       50
176
     1
 90
        3
176
     1
 62
     5
420
      255
176
     1
290
     0
176
     1
 90
       50
176
     1
 90
       50
176
     1
 90
       50
176
     1
290
     0
176
     1
 90
       50
176
     1
 62
   256
176
     0
 40
1.0
176
     0
 90
        2
176
     1
  1
strokes_ogs.tif
176
     1
290
     0
176
     1
 40
1.0
176
     1
 40
1.0
176
     1
  0
DICTIONARYVAR
  5
AB
102
{ACAD_REACTORS
330
AA
102
}
330
AA
100
DictionaryVariables
280
     0
  1
1:1
  0
DICTIONARYVAR
  5
B3
102
{ACAD_REACTORS
330
AA
102
}
330
AA
100
DictionaryVariables
280
     0
  1
3.500000
  0
DICTIONARYVAR
  5
B4
102
{ACAD_REACTORS
330
AA
102
}
330
AA
100
DictionaryVariables
280
     0
  1
acadiso.lin
  0
DICTIONARYVAR
  5
B0
102
{ACAD_REACTORS
330
AA
102
}
330
AA
100
DictionaryVariables
280
     0
  1
Standard
  0
DICTIONARYVAR
  5
AF
102
{ACAD_REACTORS
330
AA
102
}
330
AA
100
DictionaryVariables
280
     0
  1
Standard
  0
DICTIONARY
  5
AC
330
5A
100
AcDbDictionary
280
     1
281
     1
  3
ACAD_ROUNDTRIP_2008_TABLESTYLE_CELLSTYLEMAP
360
AD
  0
CELLSTYLEMAP
  5
AD
102
{ACAD_REACTORS
330
AC
102
}
330
AC
100
AcDbCellStyleMap
 90
        3
300
CELLSTYLE
  1
TABLEFORMAT_BEGIN
 90
        5
170
     1
 91
        0
 92
    32768
 62
   257
 93
        1
300
CONTENTFORMAT
  1
CONTENTFORMAT_BEGIN
 90
        0
 91
        0
 92
        4
 93
        0
300

 40
0.0
140
1.0
 94
        5
 62
     0
340
11
144
6.0
309
CONTENTFORMAT_END
171
     1
301
MARGIN
  1
CELLMARGIN_BEGIN
 40
1.5
 40
1.5
 40
1.5
 40
1.5
 40
1.5
 40
1.5
309
CELLMARGIN_END
 94
        6
 95
        1
302
GRIDFORMAT
  1
GRIDFORMAT_BEGIN
 90
        0
 91
        1
 62
     0
 92
       -2
340
14
 93
        0
 40
0.045
309
GRIDFORMAT_END
 95
        2
302
GRIDFORMAT
  1
GRIDFORMAT_BEGIN
 90
        0
 91
        1
 62
     0
 92
       -2
340
14
 93
        0
 40
0.045
309
GRIDFORMAT_END
 95
        4
302
GRIDFORMAT
  1
GRIDFORMAT_BEGIN
 90
        0
 91
        1
 62
     0
 92
       -2
340
14
 93
        0
 40
0.045
309
GRIDFORMAT_END
 95
        8
302
GRIDFORMAT
  1
GRIDFORMAT_BEGIN
 90
        0
 91
        1
 62
     0
 92
       -2
340
14
 93
        0
 40
0.045
309
GRIDFORMAT_END
 95
       16
302
GRIDFORMAT
  1
GRIDFORMAT_BEGIN
 90
        0
 91
        1
 62
     0
 92
       -2
340
14
 93
        0
 40
0.045
309
GRIDFORMAT_END
 95
       32
302
GRIDFORMAT
  1
GRIDFORMAT_BEGIN
 90
        0
 91
        1
 62
     0
 92
       -2
340
14
 93
        0
 40
0.045
309
GRIDFORMAT_END
309
TABLEFORMAT_END
  1
CELLSTYLE_BEGIN
 90
        1
 91
        1
300
_TITLE
309
CELLSTYLE_END
300
CELLSTYLE
  1
TABLEFORMAT_BEGIN
 90
        5
170
     1
 91
        0
 92
        0
 62
   257
 93
        1
300
CONTENTFORMAT
  1
CONTENTFORMAT_BEGIN
 90
        0
 91
        0
 92
        4
 93
        0
300

 40
0.0
140
1.0
 94
        5
 62
     0
340
11
144
4.5
309
CONTENTFORMAT_END
171
     1
301
MARGIN
  1
CELLMARGIN_BEGIN
 40
1.5
 40
1.5
 40
1.5
 40
1.5
 40
1.5
 40
1.5
309
CELLMARGIN_END
 94
        6
 95
        1
302
GRIDFORMAT
  1
GRIDFORMAT_BEGIN
 90
        0
 91
        1
 62
     0
 92
       -2
340
14
 93
        0
 40
0.045
309
GRIDFORMAT_END
 95
        2
302
GRIDFORMAT
  1
GRIDFORMAT_BEGIN
 90
        0
 91
        1
 62
     0
 92
       -2
340
14
 93
        0
 40
0.045
309
GRIDFORMAT_END
 95
        4
302
GRIDFORMAT
  1
GRIDFORMAT_BEGIN
 90
        0
 91
        1
 62
     0
 92
       -2
340
14
 93
        0
 40
0.045
309
GRIDFORMAT_END
 95
        8
302
GRIDFORMAT
  1
GRIDFORMAT_BEGIN
 90
        0
 91
        1
 62
     0
 92
       -2
340
14
 93
        0
 40
0.045
309
GRIDFORMAT_END
 95
       16
302
GRIDFORMAT
  1
GRIDFORMAT_BEGIN
 90
        0
 91
        1
 62
     0
 92
       -2
340
14
 93
        0
 40
0.045
309
GRIDFORMAT_END
 95
       32
302
GRIDFORMAT
  1
GRIDFORMAT_BEGIN
 90
        0
 91
        1
 62
     0
 92
       -2
340
14
 93
        0
 40
0.045
309
GRIDFORMAT_END
309
TABLEFORMAT_END
  1
CELLSTYLE_BEGIN
 90
        2
 91
        1
300
_HEADER
309
CELLSTYLE_END
300
CELLSTYLE
  1
TABLEFORMAT_BEGIN
 90
        5
170
     1
 91
        0
 92
        0
 62
   257
 93
        1
300
CONTENTFORMAT
  1
CONTENTFORMAT_BEGIN
 90
        0
 91
        0
 92
        4
 93
        0
300

 40
0.0
140
1.0
 94
        2
 62
     0
340
11
144
4.5
309
CONTENTFORMAT_END
171
     1
301
MARGIN
  1
CELLMARGIN_BEGIN
 40
1.5
 40
1.5
 40
1.5
 40
1.5
 40
1.5
 40
1.5
309
CELLMARGIN_END
 94
        6
 95
        1
302
GRIDFORMAT
  1
GRIDFORMAT_BEGIN
 90
        0
 91
        1
 62
     0
 92
       -2
340
14
 93
        0
 40
0.045
309
GRIDFORMAT_END
 95
        2
302
GRIDFORMAT
  1
GRIDFORMAT_BEGIN
 90
        0
 91
        1
 62
     0
 92
       -2
340
14
 93
        0
 40
0.045
309
GRIDFORMAT_END
 95
        4
302
GRIDFORMAT
  1
GRIDFORMAT_BEGIN
 90
        0
 91
        1
 62
     0
 92
       -2
340
14
 93
        0
 40
0.045
309
GRIDFORMAT_END
 95
        8
302
GRIDFORMAT
  1
GRIDFORMAT_BEGIN
 90
        0
 91
        1
 62
     0
 92
       -2
340
14
 93
        0
 40
0.045
309
GRIDFORMAT_END
 95
       16
302
GRIDFORMAT
  1
GRIDFORMAT_BEGIN
 90
        0
 91
        1
 62
     0
 92
       -2
340
14
 93
        0
 40
0.045
309
GRIDFORMAT_END
 95
       32
302
GRIDFORMAT
  1
GRIDFORMAT_BEGIN
 90
        0
 91
        1
 62
     0
 92
       -2
340
14
 93
        0
 40
0.045
309
GRIDFORMAT_END
309
TABLEFORMAT_END
  1
CELLSTYLE_BEGIN
 90
        3
 91
        2
300
_DATA
309
CELLSTYLE_END
  0
ENDSEC
  0
EOF
