  0
SECTION
  2
HEADER
  9
$ACADVER
  1
AC1027
  9
$ACADMAINTVER
 70
   105
  9
$DWGCODEPAGE
  3
ANSI_932
  9
$LASTSAVEDBY
  1
a.yasuda
  9
$REQUIREDVERSIONS
160
                 0
  9
$INSBASE
 10
0.0
 20
0.0
 30
0.0
  9
$EXTMIN
 10
0.0
 20
0.0
 30
0.0
  9
$EXTMAX
 10
302.9997823349792
 20
216.0016055409748
 30
0.0
  9
$LIMMIN
 10
0.0
 20
0.0
  9
$LIMMAX
 10
302.9997823349792
 20
216.0016055409748
  9
$ORTHOMODE
 70
     0
  9
$REGENMODE
 70
     1
  9
$FILLMODE
 70
     1
  9
$QTEXTMODE
 70
     0
  9
$MIRRTEXT
 70
     1
  9
$LTSCALE
 40
1.0
  9
$ATTMODE
 70
     1
  9
$TEXTSIZE
 40
2.5
  9
$TRACEWID
 40
1.0
  9
$TEXTSTYLE
  7
Standard
  9
$CLAYER
  8
0
  9
$CELTYPE
  6
ByLayer
  9
$CECOLOR
 62
   256
  9
$CELTSCALE
 40
1.0
  9
$DISPSILH
 70
     0
  9
$DIMSCALE
 40
1.0
  9
$DIMASZ
 40
2.5
  9
$DIMEXO
 40
0.625
  9
$DIMDLI
 40
3.75
  9
$DIMRND
 40
0.0
  9
$DIMDLE
 40
0.0
  9
$DIMEXE
 40
1.25
  9
$DIMTP
 40
0.0
  9
$DIMTM
 40
0.0
  9
$DIMTXT
 40
2.5
  9
$DIMCEN
 40
2.5
  9
$DIMTSZ
 40
0.0
  9
$DIMTOL
 70
     0
  9
$DIMLIM
 70
     0
  9
$DIMTIH
 70
     0
  9
$DIMTOH
 70
     0
  9
$DIMSE1
 70
     0
  9
$DIMSE2
 70
     0
  9
$DIMTAD
 70
     1
  9
$DIMZIN
 70
     8
  9
$DIMBLK
  1

  9
$DIMASO
 70
     1
  9
$DIMSHO
 70
     1
  9
$DIMPOST
  1

  9
$DIMAPOST
  1

  9
$DIMALT
 70
     0
  9
$DIMALTD
 70
     3
  9
$DIMALTF
 40
0.03937007874016
  9
$DIMLFAC
 40
1.0
  9
$DIMTOFL
 70
     1
  9
$DIMTVP
 40
0.0
  9
$DIMTIX
 70
     0
  9
$DIMSOXD
 70
     0
  9
$DIMSAH
 70
     0
  9
$DIMBLK1
  1

  9
$DIMBLK2
  1

  9
$DIMSTYLE
  2
ISO-25
  9
$DIMCLRD
 70
     0
  9
$DIMCLRE
 70
     0
  9
$DIMCLRT
 70
     0
  9
$DIMTFAC
 40
1.0
  9
$DIMGAP
 40
0.625
  9
$DIMJUST
 70
     0
  9
$DIMSD1
 70
     0
  9
$DIMSD2
 70
     0
  9
$DIMTOLJ
 70
     0
  9
$DIMTZIN
 70
     8
  9
$DIMALTZ
 70
     0
  9
$DIMALTTZ
 70
     0
  9
$DIMUPT
 70
     0
  9
$DIMDEC
 70
     2
  9
$DIMTDEC
 70
     2
  9
$DIMALTU
 70
     2
  9
$DIMALTTD
 70
     3
  9
$DIMTXSTY
  7
Standard
  9
$DIMAUNIT
 70
     0
  9
$DIMADEC
 70
     0
  9
$DIMALTRND
 40
0.0
  9
$DIMAZIN
 70
     0
  9
$DIMDSEP
 70
    44
  9
$DIMATFIT
 70
     3
  9
$DIMFRAC
 70
     0
  9
$DIMLDRBLK
  1

  9
$DIMLUNIT
 70
     2
  9
$DIMLWD
 70
    -2
  9
$DIMLWE
 70
    -2
  9
$DIMTMOVE
 70
     0
  9
$DIMFXL
 40
1.0
  9
$DIMFXLON
 70
     0
  9
$DIMJOGANG
 40
0.7853981633974483
  9
$DIMTFILL
 70
     0
  9
$DIMTFILLCLR
 70
     0
  9
$DIMARCSYM
 70
     0
  9
$DIMLTYPE
  6

  9
$DIMLTEX1
  6

  9
$DIMLTEX2
  6

  9
$DIMTXTDIRECTION
 70
     0
  9
$LUNITS
 70
     2
  9
$LUPREC
 70
     4
  9
$SKETCHINC
 40
1.0
  9
$FILLETRAD
 40
0.0
  9
$AUNITS
 70
     0
  9
$AUPREC
 70
     0
  9
$MENU
  1
.
  9
$ELEVATION
 40
0.0
  9
$PELEVATION
 40
0.0
  9
$THICKNESS
 40
0.0
  9
$LIMCHECK
 70
     0
  9
$CHAMFERA
 40
0.0
  9
$CHAMFERB
 40
0.0
  9
$CHAMFERC
 40
0.0
  9
$CHAMFERD
 40
0.0
  9
$SKPOLY
 70
     0
  9
$TDCREATE
 40
2459873.457584213
  9
$TDUCREATE
 40
2459873.082584213
  9
$TDUPDATE
 40
2459873.457584259
  9
$TDUUPDATE
 40
2459873.082584259
  9
$TDINDWG
 40
0.0000000116
  9
$TDUSRTIMER
 40
0.0000000116
  9
$USRTIMER
 70
     1
  9
$ANGBASE
 50
0.0
  9
$ANGDIR
 70
     0
  9
$PDMODE
 70
     0
  9
$PDSIZE
 40
0.0
  9
$PLINEWID
 40
0.0
  9
$SPLFRAME
 70
     0
  9
$SPLINETYPE
 70
     6
  9
$SPLINESEGS
 70
     8
  9
$HANDSEED
  5
AF
  9
$SURFTAB1
 70
     6
  9
$SURFTAB2
 70
     6
  9
$SURFTYPE
 70
     6
  9
$SURFU
 70
     6
  9
$SURFV
 70
     6
  9
$UCSBASE
  2

  9
$UCSNAME
  2

  9
$UCSORG
 10
0.0
 20
0.0
 30
0.0
  9
$UCSXDIR
 10
1.0
 20
0.0
 30
0.0
  9
$UCSYDIR
 10
0.0
 20
1.0
 30
0.0
  9
$UCSORTHOREF
  2

  9
$UCSORTHOVIEW
 70
     0
  9
$UCSORGTOP
 10
0.0
 20
0.0
 30
0.0
  9
$UCSORGBOTTOM
 10
0.0
 20
0.0
 30
0.0
  9
$UCSORGLEFT
 10
0.0
 20
0.0
 30
0.0
  9
$UCSORGRIGHT
 10
0.0
 20
0.0
 30
0.0
  9
$UCSORGFRONT
 10
0.0
 20
0.0
 30
0.0
  9
$UCSORGBACK
 10
0.0
 20
0.0
 30
0.0
  9
$PUCSBASE
  2

  9
$PUCSNAME
  2

  9
$PUCSORG
 10
0.0
 20
0.0
 30
0.0
  9
$PUCSXDIR
 10
1.0
 20
0.0
 30
0.0
  9
$PUCSYDIR
 10
0.0
 20
1.0
 30
0.0
  9
$PUCSORTHOREF
  2

  9
$PUCSORTHOVIEW
 70
     0
  9
$PUCSORGTOP
 10
0.0
 20
0.0
 30
0.0
  9
$PUCSORGBOTTOM
 10
0.0
 20
0.0
 30
0.0
  9
$PUCSORGLEFT
 10
0.0
 20
0.0
 30
0.0
  9
$PUCSORGRIGHT
 10
0.0
 20
0.0
 30
0.0
  9
$PUCSORGFRONT
 10
0.0
 20
0.0
 30
0.0
  9
$PUCSORGBACK
 10
0.0
 20
0.0
 30
0.0
  9
$USERI1
 70
     0
  9
$USERI2
 70
     0
  9
$USERI3
 70
     0
  9
$USERI4
 70
     0
  9
$USERI5
 70
     0
  9
$USERR1
 40
0.0
  9
$USERR2
 40
0.0
  9
$USERR3
 40
0.0
  9
$USERR4
 40
0.0
  9
$USERR5
 40
0.0
  9
$WORLDVIEW
 70
     1
  9
$SHADEDGE
 70
     3
  9
$SHADEDIF
 70
    70
  9
$TILEMODE
 70
     1
  9
$MAXACTVP
 70
    64
  9
$PINSBASE
 10
0.0
 20
0.0
 30
0.0
  9
$PLIMCHECK
 70
     0
  9
$PEXTMIN
 10
1.000000000000000E+20
 20
1.000000000000000E+20
 30
1.000000000000000E+20
  9
$PEXTMAX
 10
-1.000000000000000E+20
 20
-1.000000000000000E+20
 30
-1.000000000000000E+20
  9
$PLIMMIN
 10
0.0
 20
0.0
  9
$PLIMMAX
 10
420.0
 20
297.0
  9
$UNITMODE
 70
     0
  9
$VISRETAIN
 70
     1
  9
$PLINEGEN
 70
     0
  9
$PSLTSCALE
 70
     1
  9
$TREEDEPTH
 70
  3020
  9
$CMLSTYLE
  2
Standard
  9
$CMLJUST
 70
     0
  9
$CMLSCALE
 40
20.0
  9
$PROXYGRAPHICS
 70
     1
  9
$MEASUREMENT
 70
     1
  9
$CELWEIGHT
370
    -1
  9
$ENDCAPS
280
     0
  9
$JOINSTYLE
280
     0
  9
$LWDISPLAY
290
     0
  9
$INSUNITS
 70
     4
  9
$HYPERLINKBASE
  1

  9
$STYLESHEET
  1

  9
$XEDIT
290
     1
  9
$CEPSNTYPE
380
     0
  9
$PSTYLEMODE
290
     1
  9
$FINGERPRINTGUID
  2
{0d000eb6-e8df-484e-a619-99991464f85b}
  9
$VERSIONGUID
  2
{FAEB1C32-E019-11D5-929B-00C0DF256EC4}
  9
$EXTNAMES
290
     1
  9
$PSVPSCALE
 40
0.0
  9
$OLESTARTUP
290
     0
  9
$SORTENTS
280
   127
  9
$INDEXCTL
280
     0
  9
$HIDETEXT
280
     1
  9
$XCLIPFRAME
280
     2
  9
$HALOGAP
280
     0
  9
$OBSCOLOR
 70
   257
  9
$OBSLTYPE
280
     0
  9
$INTERSECTIONDISPLAY
280
     0
  9
$INTERSECTIONCOLOR
 70
   257
  9
$DIMASSOC
280
     2
  9
$PROJECTNAME
  1

  9
$CAMERADISPLAY
290
     0
  9
$LENSLENGTH
 40
50.0
  9
$CAMERAHEIGHT
 40
0.0
  9
$STEPSPERSEC
 40
2.0
  9
$STEPSIZE
 40
6.0
  9
$3DDWFPREC
 40
2.0
  9
$PSOLWIDTH
 40
5.0
  9
$PSOLHEIGHT
 40
80.0
  9
$LOFTANG1
 40
1.570796326794897
  9
$LOFTANG2
 40
1.570796326794897
  9
$LOFTMAG1
 40
0.0
  9
$LOFTMAG2
 40
0.0
  9
$LOFTPARAM
 70
     7
  9
$LOFTNORMALS
280
     1
  9
$LATITUDE
 40
37.795
  9
$LONGITUDE
 40
-122.394
  9
$NORTHDIRECTION
 40
0.0
  9
$TIMEZONE
 70
 -8000
  9
$LIGHTGLYPHDISPLAY
280
     1
  9
$TILEMODELIGHTSYNCH
280
     1
  9
$CMATERIAL
347
44
  9
$SOLIDHIST
280
     0
  9
$SHOWHIST
280
     1
  9
$DWFFRAME
280
     2
  9
$DGNFRAME
280
     2
  9
$REALWORLDSCALE
290
     1
  9
$INTERFERECOLOR
 62
   256
  9
$CSHADOW
280
     0
  9
$SHADOWPLANELOCATION
 40
0.0
  0
ENDSEC
  0
SECTION
  2
CLASSES
  0
CLASS
  1
ACDBDICTIONARYWDFLT
  2
AcDbDictionaryWithDefault
  3
ObjectDBX Classes
 90
        0
 91
        3
280
     0
281
     0
  0
CLASS
  1
VISUALSTYLE
  2
AcDbVisualStyle
  3
ObjectDBX Classes
 90
     4095
 91
        3
280
     0
281
     0
  0
CLASS
  1
MATERIAL
  2
AcDbMaterial
  3
ObjectDBX Classes
 90
     1153
 91
        3
280
     0
281
     0
  0
CLASS
  1
SCALE
  2
AcDbScale
  3
ObjectDBX Classes
 90
     1153
 91
        3
280
     0
281
     0
  0
CLASS
  1
TABLESTYLE
  2
AcDbTableStyle
  3
ObjectDBX Classes
 90
     4095
 91
        3
280
     0
281
     0
  0
CLASS
  1
MLEADERSTYLE
  2
AcDbMLeaderStyle
  3
ACDB_MLEADERSTYLE_CLASS
 90
     4095
 91
        3
280
     0
281
     0
  0
CLASS
  1
SUN
  2
AcDbSun
  3
SCENEOE
 90
     1153
 91
        3
280
     0
281
     0
  0
CLASS
  1
DICTIONARYVAR
  2
AcDbDictionaryVar
  3
ObjectDBX Classes
 90
        0
 91
        3
280
     0
281
     0
  0
CLASS
  1
CELLSTYLEMAP
  2
AcDbCellStyleMap
  3
ObjectDBX Classes
 90
     1152
 91
        3
280
     0
281
     0
  0
ENDSEC
  0
SECTION
  2
TABLES
  0
TABLE
  2
VPORT
  5
8
330
0
100
AcDbSymbolTable
 70
     1
  0
VPORT
  5
29
330
8
100
AcDbSymbolTableRecord
100
AcDbViewportTableRecord
  2
*Active
 70
     0
 10
0.0
 20
0.0
 11
1.0
 21
1.0
 12
151.4998911674896
 22
108.0008027704874
 13
0.0
 23
0.0
 14
10.0
 24
10.0
 15
10.0
 25
10.0
 16
0.0
 26
0.0
 36
1.0
 17
0.0
 27
0.0
 37
0.0
 40
237.6017660950723
 41
1.402766343222857
 42
50.0
 43
0.0
 44
0.0
 50
0.0
 51
0.0
 71
     0
 72
 10000
 73
     1
 74
     3
 75
     0
 76
     0
 77
     0
 78
     0
281
     0
 65
     1
110
0.0
120
0.0
130
0.0
111
1.0
121
0.0
131
0.0
112
0.0
122
1.0
132
0.0
 79
     0
146
0.0
348
2F
 60
     3
 61
     5
292
     1
282
     1
141
0.0
142
0.0
 63
   250
361
5D
  0
ENDTAB
  0
TABLE
  2
LTYPE
  5
5
330
0
100
AcDbSymbolTable
 70
     2
  0
LTYPE
  5
14
330
5
100
AcDbSymbolTableRecord
100
AcDbLinetypeTableRecord
  2
ByBlock
 70
     0
  3

 72
    65
 73
     0
 40
0.0
  0
LTYPE
  5
15
330
5
100
AcDbSymbolTableRecord
100
AcDbLinetypeTableRecord
  2
ByLayer
 70
     0
  3

 72
    65
 73
     0
 40
0.0
  0
LTYPE
  5
16
330
5
100
AcDbSymbolTableRecord
100
AcDbLinetypeTableRecord
  2
Continuous
 70
     0
  3
Solid line
 72
    65
 73
     0
 40
0.0
  0
LTYPE
  5
5F
330
5
100
AcDbSymbolTableRecord
100
AcDbLinetypeTableRecord
  2
UserDefined01
 70
     0
  3
----------------                
 72
    65
 73
     2
 40
0.7055555449591743
 49
0.3527777724795871
 74
     0
 49
-0.3527777724795871
 74
     0
  0
ENDTAB
  0
TABLE
  2
LAYER
  5
2
330
0
100
AcDbSymbolTable
 70
     3
  0
LAYER
  5
10
330
2
100
AcDbSymbolTableRecord
100
AcDbLayerTableRecord
  2
0
 70
     0
 62
     7
  6
Continuous
370
    -3
390
F
347
46
348
0
  0
LAYER
  5
60
330
2
100
AcDbSymbolTableRecord
100
AcDbLayerTableRecord
  2
外枠
 70
     0
 62
     7
  6
Continuous
370
    -3
390
F
347
46
348
0
  0
LAYER
  5
61
330
2
100
AcDbSymbolTableRecord
100
AcDbLayerTableRecord
  2
ISS138金台
 70
     0
 62
     7
  6
Continuous
370
    -3
390
F
347
46
348
0
  0
ENDTAB
  0
TABLE
  2
STYLE
  5
3
330
0
100
AcDbSymbolTable
 70
     2
  0
STYLE
  5
11
330
3
100
AcDbSymbolTableRecord
100
AcDbTextStyleTableRecord
  2
Standard
 70
     0
 40
0.0
 41
1.0
 50
0.0
 71
     0
 42
2.5
  3

  4

  0
STYLE
  5
5E
330
3
100
AcDbSymbolTableRecord
100
AcDbTextStyleTableRecord
  2
MS Gothic
 70
     0
 40
1.0
 41
1.0
 50
0.0
 71
     0
 42
2.5
  3
msgothic.ttc
  4

1001
ACAD
1000
MS Gothic
1071
    32817
  0
ENDTAB
  0
TABLE
  2
VIEW
  5
6
330
0
100
AcDbSymbolTable
 70
     0
  0
ENDTAB
  0
TABLE
  2
UCS
  5
7
330
0
100
AcDbSymbolTable
 70
     0
  0
ENDTAB
  0
TABLE
  2
APPID
  5
9
330
0
100
AcDbSymbolTable
 70
     1
  0
APPID
  5
12
330
9
100
AcDbSymbolTableRecord
100
AcDbRegAppTableRecord
  2
ACAD
 70
     0
  0
ENDTAB
  0
TABLE
  2
DIMSTYLE
  5
A
330
0
100
AcDbSymbolTable
 70
     1
100
AcDbDimStyleTable
  0
DIMSTYLE
105
27
330
A
100
AcDbSymbolTableRecord
100
AcDbDimStyleTableRecord
  2
ISO-25
 70
     0
 41
2.5
 42
0.625
 43
3.75
 44
1.25
 73
     0
 74
     0
 77
     1
 78
     8
140
2.5
141
2.5
143
0.03937007874016
147
0.625
171
     3
172
     1
178
     0
271
     2
272
     2
274
     3
278
    44
283
     0
284
     8
340
11
  0
ENDTAB
  0
TABLE
  2
BLOCK_RECORD
  5
1
330
0
100
AcDbSymbolTable
 70
     1
  0
BLOCK_RECORD
  5
1F
330
1
100
AcDbSymbolTableRecord
100
AcDbBlockTableRecord
  2
*Model_Space
340
22
 70
     0
280
     1
281
     0
  0
BLOCK_RECORD
  5
1B
330
1
100
AcDbSymbolTableRecord
100
AcDbBlockTableRecord
  2
*Paper_Space
340
1E
 70
     0
280
     1
281
     0
  0
BLOCK_RECORD
  5
23
330
1
100
AcDbSymbolTableRecord
100
AcDbBlockTableRecord
  2
*Paper_Space0
340
26
 70
     0
280
     1
281
     0
  0
ENDTAB
  0
ENDSEC
  0
SECTION
  2
BLOCKS
  0
BLOCK
  5
20
330
1F
100
AcDbEntity
  8
0
100
AcDbBlockBegin
  2
*Model_Space
 70
     0
 10
0.0
 20
0.0
 30
0.0
  3
*Model_Space
  1

  0
ENDBLK
  5
21
330
1F
100
AcDbEntity
  8
0
100
AcDbBlockEnd
  0
BLOCK
  5
1C
330
1B
100
AcDbEntity
 67
     1
  8
0
100
AcDbBlockBegin
  2
*Paper_Space
 70
     0
 10
0.0
 20
0.0
 30
0.0
  3
*Paper_Space
  1

  0
ENDBLK
  5
1D
330
1B
100
AcDbEntity
 67
     1
  8
0
100
AcDbBlockEnd
  0
BLOCK
  5
24
330
23
100
AcDbEntity
  8
0
100
AcDbBlockBegin
  2
*Paper_Space0
 70
     0
 10
0.0
 20
0.0
 30
0.0
  3
*Paper_Space0
  1

  0
ENDBLK
  5
25
330
23
100
AcDbEntity
  8
0
100
AcDbBlockEnd
  0
ENDSEC
  0
SECTION
  2
ENTITIES
  0
LWPOLYLINE
  5
62
330
1F
100
AcDbEntity
  8
外枠
  6
Continuous
 62
   250
420
  2367521
370
   100
100
AcDbPolyline
 90
        5
 70
     0
 43
0.0
 10
281.9999662644599
 20
13.29407825637392
 10
20.99981607051935
 20
13.29407825637392
 10
20.99981607051935
 20
193.0018900389566
 10
281.9999662644599
 20
193.0018900389566
 10
281.9999662644599
 20
13.29407825637392
  0
LINE
  5
63
330
1F
100
AcDbEntity
  8
外枠
  6
Continuous
 62
   250
420
  2367521
370
    25
100
AcDbLine
 10
223.3097080177524
 20
174.0786160074276
 30
0.0
 11
281.9999232007669
 21
174.0786160074276
 31
0.0
  0
LINE
  5
64
330
1F
100
AcDbEntity
  8
外枠
  6
Continuous
 62
   250
420
  2367521
370
    25
100
AcDbLine
 10
223.3097080177524
 20
50.37109023844297
 30
0.0
 11
281.9999232007669
 21
50.37109023844297
 31
0.0
  0
LINE
  5
65
330
1F
100
AcDbEntity
  8
外枠
  6
Continuous
 62
   250
420
  2367521
370
    25
100
AcDbLine
 10
223.3097080177524
 20
36.25997933925949
 30
0.0
 11
281.9999232007669
 21
36.25997933925949
 31
0.0
  0
LINE
  5
66
330
1F
100
AcDbEntity
  8
外枠
  6
Continuous
 62
   250
420
  2367521
370
    50
100
AcDbLine
 10
223.0158413772006
 20
193.3637327187979
 30
0.0
 11
223.0158413772006
 21
13.29396655992039
 31
0.0
  0
TEXT
  5
67
330
1F
100
AcDbEntity
  8
外枠
  6
Continuous
 62
   250
420
  2367521
100
AcDbText
 10
224.7190965599536
 20
186.6888051931772
 30
0.0
 40
2.688166626294454
  1
品名：
 41
0.974166170756022
  7
MS Gothic
100
AcDbText
  0
TEXT
  5
68
330
1F
100
AcDbEntity
  8
外枠
  6
Continuous
 62
   250
420
  2367521
100
AcDbText
 10
224.7190965599536
 20
168.1080059455944
 30
0.0
 40
2.688166626294454
  1
仕様：
 41
0.9978878657023111
  7
MS Gothic
100
AcDbText
  0
TEXT
  5
69
330
1F
100
AcDbEntity
  8
外枠
  6
Continuous
 62
   250
420
  2367521
100
AcDbText
 10
224.7190965599536
 20
44.16660664327048
 30
0.0
 40
2.688166626294454
  1
縮尺：
 41
0.9939999262491861
  7
MS Gothic
100
AcDbText
  0
TEXT
  5
6A
330
1F
100
AcDbEntity
  8
外枠
  6
Continuous
 62
   250
420
  2367521
100
AcDbText
 10
250.2379519709696
 20
40.59738467878129
 30
0.0
 40
2.150533301035563
  1
1/1
 41
1.000003814697266
  7
MS Gothic
100
AcDbText
  0
TEXT
  5
6B
330
1F
100
AcDbEntity
  8
外枠
  6
Continuous
 62
   250
420
  2367521
100
AcDbText
 10
232.7757967427735
 20
181.9845273775436
 30
0.0
 40
2.688166626294454
  1
フロアーレイ　LA-1
 41
1.006236521402994
  7
MS Gothic
100
AcDbText
  0
TEXT
  5
6C
330
1F
100
AcDbEntity
  8
外枠
  6
Continuous
 62
   250
420
  2367521
100
AcDbText
 10
226.1633020978884
 20
24.25683874973963
 30
0.0
 40
2.553758294979732
  1
ヤスダインテリアサプライ株式会社
 41
1.0194908945184
  7
MS Gothic
100
AcDbText
  0
TEXT
  5
6D
330
1F
100
AcDbEntity
  8
外枠
  6
Continuous
 62
   250
420
  2367521
100
AcDbText
 10
227.7635273953072
 20
161.7763665048245
 30
0.0
 40
2.150533301035563
  1
材質
 41
1.028502464294433
  7
MS Gothic
100
AcDbText
  0
TEXT
  5
6E
330
1F
100
AcDbEntity
  8
外枠
  6
Continuous
 62
   250
420
  2367521
100
AcDbText
 10
233.5984640006548
 20
156.9052368606422
 30
0.0
 40
2.016124969720841
  1
金台：
 41
1.494500562879774
  7
MS Gothic
100
AcDbText
  0
TEXT
  5
6F
330
1F
100
AcDbEntity
  8
外枠
  6
Continuous
 62
   250
420
  2367521
100
AcDbText
 10
244.4305115335576
 20
156.9052368606422
 30
0.0
 40
2.016124969720841
  1
アルミ押出形材（A6063S-T5）
 41
1.033106825086805
  7
MS Gothic
100
AcDbText
  0
TEXT
  5
70
330
1F
100
AcDbEntity
  8
外枠
  6
Continuous
 62
   250
420
  2367521
100
AcDbText
 10
233.5984640006548
 20
152.6719035908871
 30
0.0
 40
2.016124969720841
  1
                  シルバー仕上（アルマイト）
 41
0.7675306377988871
  7
MS Gothic
100
AcDbText
  0
TEXT
  5
71
330
1F
100
AcDbEntity
  8
外枠
  6
Continuous
 62
   250
420
  2367521
100
AcDbText
 10
227.2929488908186
 20
135.3178613140838
 30
0.0
 40
2.150533301035563
  1
タイヤカラー
 41
1.009722550710042
  7
MS Gothic
100
AcDbText
  0
TEXT
  5
72
330
1F
100
AcDbEntity
  8
外枠
  6
Continuous
 62
   250
420
  2367521
100
AcDbText
 10
232.3051967064384
 20
129.3182583626035
 30
0.0
 40
2.016124969720841
  1
IS-13  グレー
 41
0.90473398061899
  7
MS Gothic
100
AcDbText
  0
TEXT
  5
73
330
1F
100
AcDbEntity
  8
外枠
  6
Continuous
 62
   250
420
  2367521
100
AcDbText
 10
232.3051967064384
 20
124.0265917754097
 30
0.0
 40
2.016124969720841
  1
IS-19  ライトベージュ
 41
0.9467488606770831
  7
MS Gothic
100
AcDbText
  0
TEXT
  5
74
330
1F
100
AcDbEntity
  8
外枠
  6
Continuous
 62
   250
420
  2367521
100
AcDbText
 10
232.3051967064384
 20
118.7349251882159
 30
0.0
 40
2.016124969720841
  1
IS-16  ベージュ
 41
0.9228807915581594
  7
MS Gothic
100
AcDbText
  0
TEXT
  5
75
330
1F
100
AcDbEntity
  8
外枠
  6
Continuous
 62
   250
420
  2367521
100
AcDbText
 10
232.3051967064384
 20
113.4432586010221
 30
0.0
 40
2.016124969720841
  1
IS-21  チョコレート
 41
0.9285238701000545
  7
MS Gothic
100
AcDbText
  0
TEXT
  5
76
330
1F
100
AcDbEntity
  8
外枠
  6
Continuous
 62
   250
420
  2367521
100
AcDbText
 10
232.3051967064384
 20
108.1515920138282
 30
0.0
 40
2.016124969720841
  1
IS-12  ワインレッド
 41
0.9415448105126094
  7
MS Gothic
100
AcDbText
  0
TEXT
  5
77
330
1F
100
AcDbEntity
  8
外枠
  6
Continuous
 62
   250
420
  2367521
100
AcDbText
 10
233.5990022968165
 20
148.2624290511266
 30
0.0
 40
2.016124969720841
  1
タイヤ：
 41
1.121272277832031
  7
MS Gothic
100
AcDbText
  0
TEXT
  5
78
330
1F
100
AcDbEntity
  8
外枠
  6
Continuous
 62
   250
420
  2367521
100
AcDbText
 10
244.7062268275396
 20
148.2624290511266
 30
0.0
 40
2.016124969720841
  1
軟質塩ビ
 41
1.887001037597656
  7
MS Gothic
100
AcDbText
  0
HATCH
  5
79
330
1F
100
AcDbEntity
  8
ISS138金台
  6
Continuous
 62
   254
420
 13816532
370
    50
100
AcDbHatch
 10
0.0
 20
0.0
 30
0.0
210
0.0
220
0.0
230
1.0
  2
SOLID
 70
     1
 71
     0
 91
        1
 92
        3
 72
     0
 73
     1
 93
      282
 10
122.637129234564
 20
105.0726654378903
 10
122.2069121762737
 20
105.0334128817849
 10
121.840235596901
 20
104.9219425126365
 10
121.533945080939
 20
104.7476852791967
 10
121.2849077447269
 20
104.5200721302172
 10
121.0900122364506
 20
104.2485340144493
 10
120.946104140603
 20
103.9425018806449
 10
120.8500613394467
 20
103.6114066775554
 10
120.7987617152442
 20
103.2646793539324
 10
120.7890616184118
 20
102.9117508585275
 10
120.8178173993656
 20
102.5620521400924
 10
120.8819392381378
 20
102.2250141473786
 10
120.9782404214517
 20
101.9100678291377
 10
121.1036203634164
 20
101.6266441341213
 10
121.2549569462943
 20
101.384174011081
 10
121.4290849886553
 20
101.1920884087683
 10
121.6228931386852
 20
101.059818275935
 10
121.6228931386852
 20
99.27370854798534
 10
120.1676848272069
 20
99.27370854798534
 10
116.630734535817
 20
101.0492353733975
 10
116.630734535817
 20
103.0554866996034
 10
116.6332752936998
 20
103.1047838620846
 10
116.6407145466534
 20
103.1532412825537
 10
116.6527939125202
 20
103.2005144514672
 10
116.6692442432193
 20
103.2462803911282
 10
116.68979639067
 20
103.2902161238396
 10
116.7141812067914
 20
103.3319771400582
 10
116.7421618412724
 20
103.3712296961635
 10
116.7734260823393
 20
103.4076508144588
 10
116.8077478456043
 20
103.4408959854005
 10
116.8448472170631
 20
103.4706529972148
 10
116.8844550486352
 20
103.4965773403585
 10
116.9263021922395
 20
103.5183352712112
 10
116.9701410316419
 20
103.535603812076
 10
117.015680886915
 20
103.5480492193326
 10
117.0626849077477
 20
103.555337749361
 10
117.1108624142127
 20
103.5571356585408
 10
117.1108624142127
 20
103.5571356585408
 10
117.1607301706253
 20
103.5537228608761
 10
117.2090906977852
 20
103.545702248068
 10
117.255771740921
 20
103.533289138581
 10
117.3005149178749
 20
103.5166342553405
 10
117.3431156761055
 20
103.495952916811
 10
117.3833694630715
 20
103.4714173777643
 10
117.4210286625384
 20
103.4432106588954
 10
117.4559210197347
 20
103.4115157808992
 10
117.4877989184258
 20
103.3765265303939
 10
117.5164685719938
 20
103.3384259280744
 10
117.5416823642041
 20
103.2973969946357
 10
117.5632572743618
 20
103.2536227507727
 10
117.5809456862327
 20
103.2072862171804
 10
117.5945538131984
 20
103.1585704145538
 10
117.6038555708712
 20
103.1076798954342
 10
117.6086356407864
 20
103.0547761486701
 10
117.6086356407864
 20
103.0547761486701
 10
117.6141477934814
 20
102.9985780293969
 10
117.6250644396391
 20
102.9455343256308
 10
117.6409549423301
 20
102.8957096329112
 10
117.6613563668555
 20
102.8491577808543
 10
117.6858273103628
 20
102.8059541309227
 10
117.7139048381529
 20
102.7661417468092
 10
117.7451260155269
 20
102.7298175218231
 10
117.7790709714787
 20
102.6970245196571
 10
117.815266005386
 20
102.6678273358508
 10
117.8532589484732
 20
102.6422905659436
 10
117.8925976319644
 20
102.6205003373212
 10
117.9328298870839
 20
102.6024889477533
 10
117.9735143109792
 20
102.588342524626
 10
118.0141879689513
 20
102.5781256634784
 10
118.0543986922243
 20
102.5718921939268
 10
118.0937050779458
 20
102.5697067115107
 10
118.0937050779458
 20
102.5697067115107
 10
118.1312027885643
 20
102.571343131842
 10
118.1717472554576
 20
102.576672263842
 10
118.2145848639993
 20
102.5856941075108
 10
118.2589619995633
 20
102.5984517265412
 10
118.3041358134465
 20
102.61493435501
 10
118.3493311591762
 20
102.6351527588405
 10
118.3938159539725
 20
102.6591392358023
 10
118.436825817286
 20
102.6869153177419
 10
118.4776071344903
 20
102.7184810046593
 10
118.5154062909593
 20
102.753857828401
 10
118.5494696720667
 20
102.7930673208135
 10
118.5790328972628
 20
102.8361094818966
 10
118.6033531178449
 20
102.883005843497
 10
118.6216874851097
 20
102.933777937461
 10
118.6332608525845
 20
102.9884472956352
 10
118.6373303715663
 20
103.0470139180195
 10
118.6383961979664
 20
103.5606561154378
 10
118.634768081837
 20
103.7233399814027
 10
118.6243359022248
 20
103.879693484507
 10
118.6069597021277
 20
104.0291890945122
 10
118.5824995245437
 20
104.1712131537942
 10
118.5508584761636
 20
104.3051950684215
 10
118.5118643022158
 20
104.4305534785397
 10
118.465409343468
 20
104.5467070242942
 10
118.4113859406878
 20
104.6530743458303
 10
118.3496110731802
 20
104.749084849217
 10
118.2800093794827
 20
104.8341464086762
 10
118.2024086048235
 20
104.9076884302768
 10
118.1167010899703
 20
104.9691187882409
 10
118.022746877921
 20
105.0178668886373
 10
117.920416777597
 20
105.0533513716113
 10
117.8095923638426
 20
105.0749801113852
 10
117.6901229137325
 20
105.0821932799509
 10
115.134960225599
 20
105.0776069966539
 10
115.1406015693727
 20
108.07022144349
 10
116.639907102411
 20
108.07022144349
 10
116.6567450063465
 20
107.8028282081666
 10
116.7043303870337
 20
107.571091710589
 10
116.7782815137171
 20
107.3750011848339
 10
116.8741735919482
 20
107.2145566309013
 10
116.9876464228178
 20
107.0897688147145
 10
117.1142967437239
 20
107.0006377362733
 10
117.2497320579876
 20
106.947163395578
 10
117.3895598689301
 20
106.9293350267051
 10
117.5293876798726
 20
106.947163395578
 10
117.6648229941363
 20
107.0006377362733
 10
117.7914733150424
 20
107.0897688147145
 10
117.904946145912
 20
107.2145566309013
 10
118.0008489900663
 20
107.3749904189107
 10
118.0747893508265
 20
107.5710809446658
 10
118.1223747315137
 20
107.8028282081666
 10
118.1392126354492
 20
108.07022144349
 10
120.1235876056469
 20
108.07022144349
 10
120.1404255095824
 20
107.8028282081666
 10
120.1880108902697
 20
107.571091710589
 10
120.2619620169531
 20
107.3750011848339
 10
120.3578540951842
 20
107.2145566309013
 10
120.471337691977
 20
107.0897688147145
 10
120.5979772469598
 20
107.0006377362733
 10
120.7334125612235
 20
106.947163395578
 10
120.873240372166
 20
106.9293350267051
 10
121.0130681831086
 20
106.947163395578
 10
121.1485034973723
 20
107.0006377362733
 10
121.2751538182783
 20
107.0897688147145
 10
121.3886266491479
 20
107.2145566309013
 10
121.4845294933022
 20
107.3749904189107
 10
121.5584698540624
 20
107.5710809446658
 10
121.6060552347497
 20
107.8028282081666
 10
121.6228931386852
 20
108.07022144349
 10
122.637129234564
 20
108.07022144349
 10
123.6513653304428
 20
108.07022144349
 10
123.6677080019096
 20
107.8028282081666
 10
123.7138938125766
 20
107.571091710589
 10
123.7856702227671
 20
107.3750011848339
 10
123.8787416291113
 20
107.2145566309013
 10
123.988887789702
 20
107.0897688147145
 10
124.1118023352465
 20
107.0006377362733
 10
124.2432542579142
 20
106.947163395578
 10
124.3789694861819
 20
106.9293350267051
 10
124.5146847144497
 20
106.947163395578
 10
124.6461366371174
 20
107.0006377362733
 10
124.769061948585
 20
107.0897688147145
 10
124.8791973432526
 20
107.2145566309013
 10
124.97227951552
 20
107.3749904189107
 10
125.0440451597872
 20
107.5710809446658
 10
125.0902309704543
 20
107.8028282081666
 10
125.1065736419211
 20
108.07022144349
 10
127.1350458336787
 20
108.07022144349
 10
127.1518837376142
 20
107.8028282081666
 10
127.1994691183015
 20
107.571091710589
 10
127.2734202449849
 20
107.3750011848339
 10
127.3693123232159
 20
107.2145566309013
 10
127.4827959200088
 20
107.0897688147145
 10
127.6094354749916
 20
107.0006377362733
 10
127.7448707892553
 20
106.947163395578
 10
127.8846986001978
 20
106.9293350267051
 10
128.0245264111404
 20
106.947163395578
 10
128.1599617254041
 20
107.0006377362733
 10
128.2866120463102
 20
107.0897688147145
 10
128.4000848771797
 20
107.2145566309013
 10
128.495987721334
 20
107.3749904189107
 10
128.5699280820942
 20
107.5710809446658
 10
128.6175134627815
 20
107.8028282081666
 10
128.6343513667169
 20
108.07022144349
 10
130.1333016242885
 20
108.07022144349
 10
130.1389537339855
 20
105.078306781664
 10
127.5837802799288
 20
105.0832483404277
 10
127.4643108298187
 20
105.0759705763226
 10
127.3534864160643
 20
105.0542880069325
 10
127.2511563157402
 20
105.0187604602656
 10
127.1572128696142
 20
104.9699800620995
 10
127.0714945888378
 20
104.9085174063657
 10
126.9939045801018
 20
104.8349646188419
 10
126.9242921204811
 20
104.7498922934594
 10
126.8625172529735
 20
104.6538817900728
 10
126.80848308427
 20
104.5475144685366
 10
126.7620388914454
 20
104.4313609227821
 10
126.7230554834209
 20
104.3060240445104
 10
126.6914036691176
 20
104.1720744276528
 10
126.6669542574568
 20
104.0300826661405
 10
126.6495780573597
 20
103.8806408857514
 10
126.6391351118242
 20
103.7243304463401
 10
126.6355069956949
 20
103.5617219418378
 10
126.6365728220949
 20
103.0477244689529
 10
126.6406315751535
 20
102.9891470806453
 10
126.6522264744748
 20
102.9344669565479
 10
126.6705608417396
 20
102.8836517988909
 10
126.6948918282449
 20
102.8367016076744
 10
126.7244550534411
 20
102.7936163828983
 10
126.7585184345484
 20
102.7543422949465
 10
126.7963283569406
 20
102.7189008756654
 10
126.8371312059915
 20
102.6872705932086
 10
126.8801518352282
 20
102.6594299157296
 10
126.924658161871
 20
102.6353788432284
 10
126.9698858053703
 20
102.6150958438585
 10
127.0150919170232
 20
102.5985593857735
 10
127.0595121162801
 20
102.5857694689734
 10
127.1024035544381
 20
102.5767045616117
 10
127.1430018509475
 20
102.5713538977652
 10
127.1805533911821
 20
102.5697067115107
 10
127.1805533911821
 20
102.5697067115107
 10
127.219784415441
 20
102.5718814280036
 10
127.2599628409444
 20
102.5781148975552
 10
127.3005934352235
 20
102.588342524626
 10
127.3412347954258
 20
102.6024889477533
 10
127.3814347527756
 20
102.6205003373212
 10
127.4207519044204
 20
102.6422905659436
 10
127.4587340815843
 20
102.6678273358508
 10
127.4949291154917
 20
102.6970245196571
 10
127.5288633055202
 20
102.7298175218231
 10
127.5601060147407
 20
102.7661417468092
 10
127.5882050743773
 20
102.8059541309227
 10
127.6127083156542
 20
102.8491577808543
 10
127.6331420379494
 20
102.8957096329112
 10
127.6490756043333
 20
102.9455450915541
 10
127.6600568460304
 20
102.9985887953201
 10
127.6656228283415
 20
103.0547761486701
 10
127.6656228283415
 20
103.0547761486701
 10
127.6704028982567
 20
103.1076691295109
 10
127.6796938900063
 20
103.158581180477
 10
127.6932804851256
 20
103.2072754512572
 10
127.71094736515
 20
103.2536119848495
 10
127.7325007434613
 20
103.2973969946357
 10
127.7576822379019
 20
103.3384259280744
 10
127.7863088277768
 20
103.3765265303939
 10
127.8181651946215
 20
103.4115265468224
 10
127.8530037222016
 20
103.4432106588954
 10
127.8906629216686
 20
103.4714173777643
 10
127.9308736449416
 20
103.495952916811
 10
127.9734528713258
 20
103.5166450212637
 10
128.0181745164332
 20
103.5332783726578
 10
128.0648232617993
 20
103.545702248068
 10
128.1131837889592
 20
103.5537120949529
 10
128.1630407794485
 20
103.5571356585408
 10
128.1630407794485
 20
103.5571356585408
 10
128.2112182859136
 20
103.555337749361
 10
128.258211540823
 20
103.5480492193326
 10
128.3037621620194
 20
103.535603812076
 10
128.3476010014217
 20
103.5183352712112
 10
128.3894589109493
 20
103.4965773403585
 10
128.4290559765981
 20
103.4706422312916
 10
128.466155348057
 20
103.4408959854005
 10
128.5004663453987
 20
103.4076400485355
 10
128.5317413523888
 20
103.3712296961635
 10
128.5597112209467
 20
103.3319663741349
 10
128.5841068029913
 20
103.2902161238396
 10
128.604658950442
 20
103.2462803911282
 10
128.6211092811411
 20
103.2005144514672
 10
128.6331886470078
 20
103.1532412825537
 10
128.6406278999614
 20
103.1047838620846
 10
128.6431686578443
 20
103.0554866996034
 10
128.6431686578443
 20
101.0492353733975
 10
125.1065736419211
 20
99.27370854798534
 10
123.6513653304428
 20
99.27370854798534
 10
123.6513653304428
 20
101.059818275935
 10
123.8451734804726
 20
101.1920884087683
 10
124.0193015228336
 20
101.384174011081
 10
124.1706381057116
 20
101.6266441341213
 10
124.2960180476762
 20
101.9100678291377
 10
124.3923299969134
 20
102.2250141473786
 10
124.4564410697624
 20
102.5620521400924
 10
124.4851968507161
 20
102.9117508585275
 10
124.4754967538837
 20
103.2646793539324
 10
124.4241971296813
 20
103.6114066775554
 10
124.328154328525
 20
103.9425018806449
 10
124.1842569986006
 20
104.2485340144493
 10
123.989350724401
 20
104.5200721302172
 10
123.7403241541122
 20
104.7476852791967
 10
123.4340336381501
 20
104.9219425126365
 10
123.0673462928543
 20
105.0334128817849
 97
        0
 75
     1
 76
     1
 98
        0
  0
LWPOLYLINE
  5
7A
330
1F
100
AcDbEntity
  8
ISS138金台
  6
Continuous
 62
   254
420
 13816532
370
    50
100
AcDbPolyline
 90
      283
 70
     0
 43
0.0
 10
122.637129234564
 20
105.0726654378903
 10
122.2069121762737
 20
105.0334128817849
 10
121.840235596901
 20
104.9219425126365
 10
121.533945080939
 20
104.7476852791967
 10
121.2849077447269
 20
104.5200721302172
 10
121.0900122364506
 20
104.2485340144493
 10
120.946104140603
 20
103.9425018806449
 10
120.8500613394467
 20
103.6114066775554
 10
120.7987617152442
 20
103.2646793539324
 10
120.7890616184118
 20
102.9117508585275
 10
120.8178173993656
 20
102.5620521400924
 10
120.8819392381378
 20
102.2250141473786
 10
120.9782404214517
 20
101.9100678291377
 10
121.1036203634164
 20
101.6266441341213
 10
121.2549569462943
 20
101.384174011081
 10
121.4290849886553
 20
101.1920884087683
 10
121.6228931386852
 20
101.059818275935
 10
121.6228931386852
 20
99.27370854798534
 10
120.1676848272069
 20
99.27370854798534
 10
116.630734535817
 20
101.0492353733975
 10
116.630734535817
 20
103.0554866996034
 10
116.6332752936998
 20
103.1047838620846
 10
116.6407145466534
 20
103.1532412825537
 10
116.6527939125202
 20
103.2005144514672
 10
116.6692442432193
 20
103.2462803911282
 10
116.68979639067
 20
103.2902161238396
 10
116.7141812067914
 20
103.3319771400582
 10
116.7421618412724
 20
103.3712296961635
 10
116.7734260823393
 20
103.4076508144588
 10
116.8077478456043
 20
103.4408959854005
 10
116.8448472170631
 20
103.4706529972148
 10
116.8844550486352
 20
103.4965773403585
 10
116.9263021922395
 20
103.5183352712112
 10
116.9701410316419
 20
103.535603812076
 10
117.015680886915
 20
103.5480492193326
 10
117.0626849077477
 20
103.555337749361
 10
117.1108624142127
 20
103.5571356585408
 10
117.1108624142127
 20
103.5571356585408
 10
117.1607301706253
 20
103.5537228608761
 10
117.2090906977852
 20
103.545702248068
 10
117.255771740921
 20
103.533289138581
 10
117.3005149178749
 20
103.5166342553405
 10
117.3431156761055
 20
103.495952916811
 10
117.3833694630715
 20
103.4714173777643
 10
117.4210286625384
 20
103.4432106588954
 10
117.4559210197347
 20
103.4115157808992
 10
117.4877989184258
 20
103.3765265303939
 10
117.5164685719938
 20
103.3384259280744
 10
117.5416823642041
 20
103.2973969946357
 10
117.5632572743618
 20
103.2536227507727
 10
117.5809456862327
 20
103.2072862171804
 10
117.5945538131984
 20
103.1585704145538
 10
117.6038555708712
 20
103.1076798954342
 10
117.6086356407864
 20
103.0547761486701
 10
117.6086356407864
 20
103.0547761486701
 10
117.6141477934814
 20
102.9985780293969
 10
117.6250644396391
 20
102.9455343256308
 10
117.6409549423301
 20
102.8957096329112
 10
117.6613563668555
 20
102.8491577808543
 10
117.6858273103628
 20
102.8059541309227
 10
117.7139048381529
 20
102.7661417468092
 10
117.7451260155269
 20
102.7298175218231
 10
117.7790709714787
 20
102.6970245196571
 10
117.815266005386
 20
102.6678273358508
 10
117.8532589484732
 20
102.6422905659436
 10
117.8925976319644
 20
102.6205003373212
 10
117.9328298870839
 20
102.6024889477533
 10
117.9735143109792
 20
102.588342524626
 10
118.0141879689513
 20
102.5781256634784
 10
118.0543986922243
 20
102.5718921939268
 10
118.0937050779458
 20
102.5697067115107
 10
118.0937050779458
 20
102.5697067115107
 10
118.1312027885643
 20
102.571343131842
 10
118.1717472554576
 20
102.576672263842
 10
118.2145848639993
 20
102.5856941075108
 10
118.2589619995633
 20
102.5984517265412
 10
118.3041358134465
 20
102.61493435501
 10
118.3493311591762
 20
102.6351527588405
 10
118.3938159539725
 20
102.6591392358023
 10
118.436825817286
 20
102.6869153177419
 10
118.4776071344903
 20
102.7184810046593
 10
118.5154062909593
 20
102.753857828401
 10
118.5494696720667
 20
102.7930673208135
 10
118.5790328972628
 20
102.8361094818966
 10
118.6033531178449
 20
102.883005843497
 10
118.6216874851097
 20
102.933777937461
 10
118.6332608525845
 20
102.9884472956352
 10
118.6373303715663
 20
103.0470139180195
 10
118.6383961979664
 20
103.5606561154378
 10
118.634768081837
 20
103.7233399814027
 10
118.6243359022248
 20
103.879693484507
 10
118.6069597021277
 20
104.0291890945122
 10
118.5824995245437
 20
104.1712131537942
 10
118.5508584761636
 20
104.3051950684215
 10
118.5118643022158
 20
104.4305534785397
 10
118.465409343468
 20
104.5467070242942
 10
118.4113859406878
 20
104.6530743458303
 10
118.3496110731802
 20
104.749084849217
 10
118.2800093794827
 20
104.8341464086762
 10
118.2024086048235
 20
104.9076884302768
 10
118.1167010899703
 20
104.9691187882409
 10
118.022746877921
 20
105.0178668886373
 10
117.920416777597
 20
105.0533513716113
 10
117.8095923638426
 20
105.0749801113852
 10
117.6901229137325
 20
105.0821932799509
 10
115.134960225599
 20
105.0776069966539
 10
115.1406015693727
 20
108.07022144349
 10
116.639907102411
 20
108.07022144349
 10
116.6567450063465
 20
107.8028282081666
 10
116.7043303870337
 20
107.571091710589
 10
116.7782815137171
 20
107.3750011848339
 10
116.8741735919482
 20
107.2145566309013
 10
116.9876464228178
 20
107.0897688147145
 10
117.1142967437239
 20
107.0006377362733
 10
117.2497320579876
 20
106.947163395578
 10
117.3895598689301
 20
106.9293350267051
 10
117.5293876798726
 20
106.947163395578
 10
117.6648229941363
 20
107.0006377362733
 10
117.7914733150424
 20
107.0897688147145
 10
117.904946145912
 20
107.2145566309013
 10
118.0008489900663
 20
107.3749904189107
 10
118.0747893508265
 20
107.5710809446658
 10
118.1223747315137
 20
107.8028282081666
 10
118.1392126354492
 20
108.07022144349
 10
120.1235876056469
 20
108.07022144349
 10
120.1404255095824
 20
107.8028282081666
 10
120.1880108902697
 20
107.571091710589
 10
120.2619620169531
 20
107.3750011848339
 10
120.3578540951842
 20
107.2145566309013
 10
120.471337691977
 20
107.0897688147145
 10
120.5979772469598
 20
107.0006377362733
 10
120.7334125612235
 20
106.947163395578
 10
120.873240372166
 20
106.9293350267051
 10
121.0130681831086
 20
106.947163395578
 10
121.1485034973723
 20
107.0006377362733
 10
121.2751538182783
 20
107.0897688147145
 10
121.3886266491479
 20
107.2145566309013
 10
121.4845294933022
 20
107.3749904189107
 10
121.5584698540624
 20
107.5710809446658
 10
121.6060552347497
 20
107.8028282081666
 10
121.6228931386852
 20
108.07022144349
 10
122.637129234564
 20
108.07022144349
 10
123.6513653304428
 20
108.07022144349
 10
123.6677080019096
 20
107.8028282081666
 10
123.7138938125766
 20
107.571091710589
 10
123.7856702227671
 20
107.3750011848339
 10
123.8787416291113
 20
107.2145566309013
 10
123.988887789702
 20
107.0897688147145
 10
124.1118023352465
 20
107.0006377362733
 10
124.2432542579142
 20
106.947163395578
 10
124.3789694861819
 20
106.9293350267051
 10
124.5146847144497
 20
106.947163395578
 10
124.6461366371174
 20
107.0006377362733
 10
124.769061948585
 20
107.0897688147145
 10
124.8791973432526
 20
107.2145566309013
 10
124.97227951552
 20
107.3749904189107
 10
125.0440451597872
 20
107.5710809446658
 10
125.0902309704543
 20
107.8028282081666
 10
125.1065736419211
 20
108.07022144349
 10
127.1350458336787
 20
108.07022144349
 10
127.1518837376142
 20
107.8028282081666
 10
127.1994691183015
 20
107.571091710589
 10
127.2734202449849
 20
107.3750011848339
 10
127.3693123232159
 20
107.2145566309013
 10
127.4827959200088
 20
107.0897688147145
 10
127.6094354749916
 20
107.0006377362733
 10
127.7448707892553
 20
106.947163395578
 10
127.8846986001978
 20
106.9293350267051
 10
128.0245264111404
 20
106.947163395578
 10
128.1599617254041
 20
107.0006377362733
 10
128.2866120463102
 20
107.0897688147145
 10
128.4000848771797
 20
107.2145566309013
 10
128.495987721334
 20
107.3749904189107
 10
128.5699280820942
 20
107.5710809446658
 10
128.6175134627815
 20
107.8028282081666
 10
128.6343513667169
 20
108.07022144349
 10
130.1333016242885
 20
108.07022144349
 10
130.1389537339855
 20
105.078306781664
 10
127.5837802799288
 20
105.0832483404277
 10
127.4643108298187
 20
105.0759705763226
 10
127.3534864160643
 20
105.0542880069325
 10
127.2511563157402
 20
105.0187604602656
 10
127.1572128696142
 20
104.9699800620995
 10
127.0714945888378
 20
104.9085174063657
 10
126.9939045801018
 20
104.8349646188419
 10
126.9242921204811
 20
104.7498922934594
 10
126.8625172529735
 20
104.6538817900728
 10
126.80848308427
 20
104.5475144685366
 10
126.7620388914454
 20
104.4313609227821
 10
126.7230554834209
 20
104.3060240445104
 10
126.6914036691176
 20
104.1720744276528
 10
126.6669542574568
 20
104.0300826661405
 10
126.6495780573597
 20
103.8806408857514
 10
126.6391351118242
 20
103.7243304463401
 10
126.6355069956949
 20
103.5617219418378
 10
126.6365728220949
 20
103.0477244689529
 10
126.6406315751535
 20
102.9891470806453
 10
126.6522264744748
 20
102.9344669565479
 10
126.6705608417396
 20
102.8836517988909
 10
126.6948918282449
 20
102.8367016076744
 10
126.7244550534411
 20
102.7936163828983
 10
126.7585184345484
 20
102.7543422949465
 10
126.7963283569406
 20
102.7189008756654
 10
126.8371312059915
 20
102.6872705932086
 10
126.8801518352282
 20
102.6594299157296
 10
126.924658161871
 20
102.6353788432284
 10
126.9698858053703
 20
102.6150958438585
 10
127.0150919170232
 20
102.5985593857735
 10
127.0595121162801
 20
102.5857694689734
 10
127.1024035544381
 20
102.5767045616117
 10
127.1430018509475
 20
102.5713538977652
 10
127.1805533911821
 20
102.5697067115107
 10
127.1805533911821
 20
102.5697067115107
 10
127.219784415441
 20
102.5718814280036
 10
127.2599628409444
 20
102.5781148975552
 10
127.3005934352235
 20
102.588342524626
 10
127.3412347954258
 20
102.6024889477533
 10
127.3814347527756
 20
102.6205003373212
 10
127.4207519044204
 20
102.6422905659436
 10
127.4587340815843
 20
102.6678273358508
 10
127.4949291154917
 20
102.6970245196571
 10
127.5288633055202
 20
102.7298175218231
 10
127.5601060147407
 20
102.7661417468092
 10
127.5882050743773
 20
102.8059541309227
 10
127.6127083156542
 20
102.8491577808543
 10
127.6331420379494
 20
102.8957096329112
 10
127.6490756043333
 20
102.9455450915541
 10
127.6600568460304
 20
102.9985887953201
 10
127.6656228283415
 20
103.0547761486701
 10
127.6656228283415
 20
103.0547761486701
 10
127.6704028982567
 20
103.1076691295109
 10
127.6796938900063
 20
103.158581180477
 10
127.6932804851256
 20
103.2072754512572
 10
127.71094736515
 20
103.2536119848495
 10
127.7325007434613
 20
103.2973969946357
 10
127.7576822379019
 20
103.3384259280744
 10
127.7863088277768
 20
103.3765265303939
 10
127.8181651946215
 20
103.4115265468224
 10
127.8530037222016
 20
103.4432106588954
 10
127.8906629216686
 20
103.4714173777643
 10
127.9308736449416
 20
103.495952916811
 10
127.9734528713258
 20
103.5166450212637
 10
128.0181745164332
 20
103.5332783726578
 10
128.0648232617993
 20
103.545702248068
 10
128.1131837889592
 20
103.5537120949529
 10
128.1630407794485
 20
103.5571356585408
 10
128.1630407794485
 20
103.5571356585408
 10
128.2112182859136
 20
103.555337749361
 10
128.258211540823
 20
103.5480492193326
 10
128.3037621620194
 20
103.535603812076
 10
128.3476010014217
 20
103.5183352712112
 10
128.3894589109493
 20
103.4965773403585
 10
128.4290559765981
 20
103.4706422312916
 10
128.466155348057
 20
103.4408959854005
 10
128.5004663453987
 20
103.4076400485355
 10
128.5317413523888
 20
103.3712296961635
 10
128.5597112209467
 20
103.3319663741349
 10
128.5841068029913
 20
103.2902161238396
 10
128.604658950442
 20
103.2462803911282
 10
128.6211092811411
 20
103.2005144514672
 10
128.6331886470078
 20
103.1532412825537
 10
128.6406278999614
 20
103.1047838620846
 10
128.6431686578443
 20
103.0554866996034
 10
128.6431686578443
 20
101.0492353733975
 10
125.1065736419211
 20
99.27370854798534
 10
123.6513653304428
 20
99.27370854798534
 10
123.6513653304428
 20
101.059818275935
 10
123.8451734804726
 20
101.1920884087683
 10
124.0193015228336
 20
101.384174011081
 10
124.1706381057116
 20
101.6266441341213
 10
124.2960180476762
 20
101.9100678291377
 10
124.3923299969134
 20
102.2250141473786
 10
124.4564410697624
 20
102.5620521400924
 10
124.4851968507161
 20
102.9117508585275
 10
124.4754967538837
 20
103.2646793539324
 10
124.4241971296813
 20
103.6114066775554
 10
124.328154328525
 20
103.9425018806449
 10
124.1842569986006
 20
104.2485340144493
 10
123.989350724401
 20
104.5200721302172
 10
123.7403241541122
 20
104.7476852791967
 10
123.4340336381501
 20
104.9219425126365
 10
123.0673462928543
 20
105.0334128817849
 10
122.637129234564
 20
105.0726654378903
  0
LWPOLYLINE
  5
7B
330
1F
100
AcDbEntity
  8
ISS138金台
  6
Continuous
 62
   250
420
  2367521
370
    25
100
AcDbPolyline
 90
      283
 70
     0
 43
0.0
 10
122.637129234564
 20
105.0726654378903
 10
122.2069121762737
 20
105.0334128817849
 10
121.840235596901
 20
104.9219425126365
 10
121.533945080939
 20
104.7476852791967
 10
121.2849077447269
 20
104.5200721302172
 10
121.0900122364506
 20
104.2485340144493
 10
120.946104140603
 20
103.9425018806449
 10
120.8500613394467
 20
103.6114066775554
 10
120.7987617152442
 20
103.2646793539324
 10
120.7890616184118
 20
102.9117508585275
 10
120.8178173993656
 20
102.5620521400924
 10
120.8819392381378
 20
102.2250141473786
 10
120.9782404214517
 20
101.9100678291377
 10
121.1036203634164
 20
101.6266441341213
 10
121.2549569462943
 20
101.384174011081
 10
121.4290849886553
 20
101.1920884087683
 10
121.6228931386852
 20
101.059818275935
 10
121.6228931386852
 20
99.27370854798534
 10
120.1676848272069
 20
99.27370854798534
 10
116.630734535817
 20
101.0492353733975
 10
116.630734535817
 20
103.0554866996034
 10
116.6332752936998
 20
103.1047838620846
 10
116.6407145466534
 20
103.1532412825537
 10
116.6527939125202
 20
103.2005144514672
 10
116.6692442432193
 20
103.2462803911282
 10
116.68979639067
 20
103.2902161238396
 10
116.7141812067914
 20
103.3319771400582
 10
116.7421618412724
 20
103.3712296961635
 10
116.7734260823393
 20
103.4076508144588
 10
116.8077478456043
 20
103.4408959854005
 10
116.8448472170631
 20
103.4706529972148
 10
116.8844550486352
 20
103.4965773403585
 10
116.9263021922395
 20
103.5183352712112
 10
116.9701410316419
 20
103.535603812076
 10
117.015680886915
 20
103.5480492193326
 10
117.0626849077477
 20
103.555337749361
 10
117.1108624142127
 20
103.5571356585408
 10
117.1108624142127
 20
103.5571356585408
 10
117.1607301706253
 20
103.5537228608761
 10
117.2090906977852
 20
103.545702248068
 10
117.255771740921
 20
103.533289138581
 10
117.3005149178749
 20
103.5166342553405
 10
117.3431156761055
 20
103.495952916811
 10
117.3833694630715
 20
103.4714173777643
 10
117.4210286625384
 20
103.4432106588954
 10
117.4559210197347
 20
103.4115157808992
 10
117.4877989184258
 20
103.3765265303939
 10
117.5164685719938
 20
103.3384259280744
 10
117.5416823642041
 20
103.2973969946357
 10
117.5632572743618
 20
103.2536227507727
 10
117.5809456862327
 20
103.2072862171804
 10
117.5945538131984
 20
103.1585704145538
 10
117.6038555708712
 20
103.1076798954342
 10
117.6086356407864
 20
103.0547761486701
 10
117.6086356407864
 20
103.0547761486701
 10
117.6141477934814
 20
102.9985780293969
 10
117.6250644396391
 20
102.9455343256308
 10
117.6409549423301
 20
102.8957096329112
 10
117.6613563668555
 20
102.8491577808543
 10
117.6858273103628
 20
102.8059541309227
 10
117.7139048381529
 20
102.7661417468092
 10
117.7451260155269
 20
102.7298175218231
 10
117.7790709714787
 20
102.6970245196571
 10
117.815266005386
 20
102.6678273358508
 10
117.8532589484732
 20
102.6422905659436
 10
117.8925976319644
 20
102.6205003373212
 10
117.9328298870839
 20
102.6024889477533
 10
117.9735143109792
 20
102.588342524626
 10
118.0141879689513
 20
102.5781256634784
 10
118.0543986922243
 20
102.5718921939268
 10
118.0937050779458
 20
102.5697067115107
 10
118.0937050779458
 20
102.5697067115107
 10
118.1312027885643
 20
102.571343131842
 10
118.1717472554576
 20
102.576672263842
 10
118.2145848639993
 20
102.5856941075108
 10
118.2589619995633
 20
102.5984517265412
 10
118.3041358134465
 20
102.61493435501
 10
118.3493311591762
 20
102.6351527588405
 10
118.3938159539725
 20
102.6591392358023
 10
118.436825817286
 20
102.6869153177419
 10
118.4776071344903
 20
102.7184810046593
 10
118.5154062909593
 20
102.753857828401
 10
118.5494696720667
 20
102.7930673208135
 10
118.5790328972628
 20
102.8361094818966
 10
118.6033531178449
 20
102.883005843497
 10
118.6216874851097
 20
102.933777937461
 10
118.6332608525845
 20
102.9884472956352
 10
118.6373303715663
 20
103.0470139180195
 10
118.6383961979664
 20
103.5606561154378
 10
118.634768081837
 20
103.7233399814027
 10
118.6243359022248
 20
103.879693484507
 10
118.6069597021277
 20
104.0291890945122
 10
118.5824995245437
 20
104.1712131537942
 10
118.5508584761636
 20
104.3051950684215
 10
118.5118643022158
 20
104.4305534785397
 10
118.465409343468
 20
104.5467070242942
 10
118.4113859406878
 20
104.6530743458303
 10
118.3496110731802
 20
104.749084849217
 10
118.2800093794827
 20
104.8341464086762
 10
118.2024086048235
 20
104.9076884302768
 10
118.1167010899703
 20
104.9691187882409
 10
118.022746877921
 20
105.0178668886373
 10
117.920416777597
 20
105.0533513716113
 10
117.8095923638426
 20
105.0749801113852
 10
117.6901229137325
 20
105.0821932799509
 10
115.134960225599
 20
105.0776069966539
 10
115.1406015693727
 20
108.07022144349
 10
116.639907102411
 20
108.07022144349
 10
116.6567450063465
 20
107.8028282081666
 10
116.7043303870337
 20
107.571091710589
 10
116.7782815137171
 20
107.3750011848339
 10
116.8741735919482
 20
107.2145566309013
 10
116.9876464228178
 20
107.0897688147145
 10
117.1142967437239
 20
107.0006377362733
 10
117.2497320579876
 20
106.947163395578
 10
117.3895598689301
 20
106.9293350267051
 10
117.5293876798726
 20
106.947163395578
 10
117.6648229941363
 20
107.0006377362733
 10
117.7914733150424
 20
107.0897688147145
 10
117.904946145912
 20
107.2145566309013
 10
118.0008489900663
 20
107.3749904189107
 10
118.0747893508265
 20
107.5710809446658
 10
118.1223747315137
 20
107.8028282081666
 10
118.1392126354492
 20
108.07022144349
 10
120.1235876056469
 20
108.07022144349
 10
120.1404255095824
 20
107.8028282081666
 10
120.1880108902697
 20
107.571091710589
 10
120.2619620169531
 20
107.3750011848339
 10
120.3578540951842
 20
107.2145566309013
 10
120.471337691977
 20
107.0897688147145
 10
120.5979772469598
 20
107.0006377362733
 10
120.7334125612235
 20
106.947163395578
 10
120.873240372166
 20
106.9293350267051
 10
121.0130681831086
 20
106.947163395578
 10
121.1485034973723
 20
107.0006377362733
 10
121.2751538182783
 20
107.0897688147145
 10
121.3886266491479
 20
107.2145566309013
 10
121.4845294933022
 20
107.3749904189107
 10
121.5584698540624
 20
107.5710809446658
 10
121.6060552347497
 20
107.8028282081666
 10
121.6228931386852
 20
108.07022144349
 10
122.637129234564
 20
108.07022144349
 10
123.6513653304428
 20
108.07022144349
 10
123.6677080019096
 20
107.8028282081666
 10
123.7138938125766
 20
107.571091710589
 10
123.7856702227671
 20
107.3750011848339
 10
123.8787416291113
 20
107.2145566309013
 10
123.988887789702
 20
107.0897688147145
 10
124.1118023352465
 20
107.0006377362733
 10
124.2432542579142
 20
106.947163395578
 10
124.3789694861819
 20
106.9293350267051
 10
124.5146847144497
 20
106.947163395578
 10
124.6461366371174
 20
107.0006377362733
 10
124.769061948585
 20
107.0897688147145
 10
124.8791973432526
 20
107.2145566309013
 10
124.97227951552
 20
107.3749904189107
 10
125.0440451597872
 20
107.5710809446658
 10
125.0902309704543
 20
107.8028282081666
 10
125.1065736419211
 20
108.07022144349
 10
127.1350458336787
 20
108.07022144349
 10
127.1518837376142
 20
107.8028282081666
 10
127.1994691183015
 20
107.571091710589
 10
127.2734202449849
 20
107.3750011848339
 10
127.3693123232159
 20
107.2145566309013
 10
127.4827959200088
 20
107.0897688147145
 10
127.6094354749916
 20
107.0006377362733
 10
127.7448707892553
 20
106.947163395578
 10
127.8846986001978
 20
106.9293350267051
 10
128.0245264111404
 20
106.947163395578
 10
128.1599617254041
 20
107.0006377362733
 10
128.2866120463102
 20
107.0897688147145
 10
128.4000848771797
 20
107.2145566309013
 10
128.495987721334
 20
107.3749904189107
 10
128.5699280820942
 20
107.5710809446658
 10
128.6175134627815
 20
107.8028282081666
 10
128.6343513667169
 20
108.07022144349
 10
130.1333016242885
 20
108.07022144349
 10
130.1389537339855
 20
105.078306781664
 10
127.5837802799288
 20
105.0832483404277
 10
127.4643108298187
 20
105.0759705763226
 10
127.3534864160643
 20
105.0542880069325
 10
127.2511563157402
 20
105.0187604602656
 10
127.1572128696142
 20
104.9699800620995
 10
127.0714945888378
 20
104.9085174063657
 10
126.9939045801018
 20
104.8349646188419
 10
126.9242921204811
 20
104.7498922934594
 10
126.8625172529735
 20
104.6538817900728
 10
126.80848308427
 20
104.5475144685366
 10
126.7620388914454
 20
104.4313609227821
 10
126.7230554834209
 20
104.3060240445104
 10
126.6914036691176
 20
104.1720744276528
 10
126.6669542574568
 20
104.0300826661405
 10
126.6495780573597
 20
103.8806408857514
 10
126.6391351118242
 20
103.7243304463401
 10
126.6355069956949
 20
103.5617219418378
 10
126.6365728220949
 20
103.0477244689529
 10
126.6406315751535
 20
102.9891470806453
 10
126.6522264744748
 20
102.9344669565479
 10
126.6705608417396
 20
102.8836517988909
 10
126.6948918282449
 20
102.8367016076744
 10
126.7244550534411
 20
102.7936163828983
 10
126.7585184345484
 20
102.7543422949465
 10
126.7963283569406
 20
102.7189008756654
 10
126.8371312059915
 20
102.6872705932086
 10
126.8801518352282
 20
102.6594299157296
 10
126.924658161871
 20
102.6353788432284
 10
126.9698858053703
 20
102.6150958438585
 10
127.0150919170232
 20
102.5985593857735
 10
127.0595121162801
 20
102.5857694689734
 10
127.1024035544381
 20
102.5767045616117
 10
127.1430018509475
 20
102.5713538977652
 10
127.1805533911821
 20
102.5697067115107
 10
127.1805533911821
 20
102.5697067115107
 10
127.219784415441
 20
102.5718814280036
 10
127.2599628409444
 20
102.5781148975552
 10
127.3005934352235
 20
102.588342524626
 10
127.3412347954258
 20
102.6024889477533
 10
127.3814347527756
 20
102.6205003373212
 10
127.4207519044204
 20
102.6422905659436
 10
127.4587340815843
 20
102.6678273358508
 10
127.4949291154917
 20
102.6970245196571
 10
127.5288633055202
 20
102.7298175218231
 10
127.5601060147407
 20
102.7661417468092
 10
127.5882050743773
 20
102.8059541309227
 10
127.6127083156542
 20
102.8491577808543
 10
127.6331420379494
 20
102.8957096329112
 10
127.6490756043333
 20
102.9455450915541
 10
127.6600568460304
 20
102.9985887953201
 10
127.6656228283415
 20
103.0547761486701
 10
127.6656228283415
 20
103.0547761486701
 10
127.6704028982567
 20
103.1076691295109
 10
127.6796938900063
 20
103.158581180477
 10
127.6932804851256
 20
103.2072754512572
 10
127.71094736515
 20
103.2536119848495
 10
127.7325007434613
 20
103.2973969946357
 10
127.7576822379019
 20
103.3384259280744
 10
127.7863088277768
 20
103.3765265303939
 10
127.8181651946215
 20
103.4115265468224
 10
127.8530037222016
 20
103.4432106588954
 10
127.8906629216686
 20
103.4714173777643
 10
127.9308736449416
 20
103.495952916811
 10
127.9734528713258
 20
103.5166450212637
 10
128.0181745164332
 20
103.5332783726578
 10
128.0648232617993
 20
103.545702248068
 10
128.1131837889592
 20
103.5537120949529
 10
128.1630407794485
 20
103.5571356585408
 10
128.1630407794485
 20
103.5571356585408
 10
128.2112182859136
 20
103.555337749361
 10
128.258211540823
 20
103.5480492193326
 10
128.3037621620194
 20
103.535603812076
 10
128.3476010014217
 20
103.5183352712112
 10
128.3894589109493
 20
103.4965773403585
 10
128.4290559765981
 20
103.4706422312916
 10
128.466155348057
 20
103.4408959854005
 10
128.5004663453987
 20
103.4076400485355
 10
128.5317413523888
 20
103.3712296961635
 10
128.5597112209467
 20
103.3319663741349
 10
128.5841068029913
 20
103.2902161238396
 10
128.604658950442
 20
103.2462803911282
 10
128.6211092811411
 20
103.2005144514672
 10
128.6331886470078
 20
103.1532412825537
 10
128.6406278999614
 20
103.1047838620846
 10
128.6431686578443
 20
103.0554866996034
 10
128.6431686578443
 20
101.0492353733975
 10
125.1065736419211
 20
99.27370854798534
 10
123.6513653304428
 20
99.27370854798534
 10
123.6513653304428
 20
101.059818275935
 10
123.8451734804726
 20
101.1920884087683
 10
124.0193015228336
 20
101.384174011081
 10
124.1706381057116
 20
101.6266441341213
 10
124.2960180476762
 20
101.9100678291377
 10
124.3923299969134
 20
102.2250141473786
 10
124.4564410697624
 20
102.5620521400924
 10
124.4851968507161
 20
102.9117508585275
 10
124.4754967538837
 20
103.2646793539324
 10
124.4241971296813
 20
103.6114066775554
 10
124.328154328525
 20
103.9425018806449
 10
124.1842569986006
 20
104.2485340144493
 10
123.989350724401
 20
104.5200721302172
 10
123.7403241541122
 20
104.7476852791967
 10
123.4340336381501
 20
104.9219425126365
 10
123.0673462928543
 20
105.0334128817849
 10
122.637129234564
 20
105.0726654378903
  0
HATCH
  5
7C
330
1F
100
AcDbEntity
  8
ISS138金台
  6
Continuous
 62
     7
420
 16777215
370
    25
100
AcDbHatch
 10
0.0
 20
0.0
 30
0.0
210
0.0
220
0.0
230
1.0
  2
SOLID
 70
     1
 71
     0
 91
        1
 92
        3
 72
     0
 73
     1
 93
      362
 10
122.4531611383686
 20
98.03775902905828
 10
122.3710709737214
 20
98.03764060390273
 10
122.1390760939863
 20
98.03729609435928
 10
121.7786006863955
 20
98.03681162781382
 10
121.3110258744887
 20
98.03619797018959
 10
120.757754313652
 20
98.03550895110271
 10
120.140220957041
 20
98.03479840016936
 10
119.4798069281953
 20
98.03410938108249
 10
118.7979471802707
 20
98.03348495753502
 10
118.1160120708834
 20
98.03296819321986
 10
117.4554365531892
 20
98.0326129177532
 10
116.8376017507277
 20
98.0324514289047
 10
116.2839318507314
 20
98.03254832221378
 10
115.8158402745095
 20
98.03293589545015
 10
115.4547189115248
 20
98.0336787441532
 10
115.2219704171633
 20
98.03479840016936
 10
115.1390189786576
 20
98.03634869311483
 10
115.1390189786576
 20
98.03634869311483
 10
115.058576000265
 20
98.1543647435885
 10
114.9596479316824
 20
98.25619961144386
 10
114.8449693174108
 20
98.34193942406677
 10
114.7172424041815
 20
98.41169184068954
 10
114.5791802046491
 20
98.46554298869806
 10
114.4335172633146
 20
98.50360052732464
 10
114.2829342950629
 20
98.52596134987834
 10
114.130165844395
 20
98.53271158374505
 10
113.9779141580423
 20
98.52393735631065
 10
113.8289030145825
 20
98.49976785865388
 10
113.6858238948237
 20
98.46026768631418
 10
113.5514221091904
 20
98.40554449852385
 10
113.4283783725671
 20
98.33569518859198
 10
113.3194379953784
 20
98.25081664982767
 10
113.227281692509
 20
98.15100577554
 10
113.1546440084599
 20
98.03634869311483
 10
113.1546440084599
 20
98.03634869311483
 10
113.1424354515144
 20
98.03466920909058
 10
113.1097178108111
 20
98.03320504353097
 10
113.0594517152389
 20
98.03196696235923
 10
112.9945439640708
 20
98.03093343372893
 10
112.9179121225025
 20
98.03012598948649
 10
112.8325275853462
 20
98.02955539555518
 10
112.7412863859515
 20
98.02920012008852
 10
112.6471383872841
 20
98.02907092900972
 10
112.5529796226935
 20
98.02916782231881
 10
112.4617814869917
 20
98.02950156593903
 10
112.3764507794517
 20
98.03005062802387
 10
112.2999265971157
 20
98.03083654041984
 10
112.2351265051798
 20
98.03185930312692
 10
112.1849896006865
 20
98.03311891614511
 10
112.1524334488317
 20
98.03461537947442
 10
112.1404079125811
 20
98.03634869311483
 10
112.1404079125811
 20
98.03634869311483
 10
112.0713875787381
 20
98.15172709239656
 10
111.9819227566768
 20
98.25352966248224
 10
111.8748987138234
 20
98.34137959605869
 10
111.7531468879881
 20
98.41486778804311
 10
111.6195094829042
 20
98.47361743112236
 10
111.4768287023051
 20
98.51725171798333
 10
111.3279359840009
 20
98.54536154354315
 10
111.1756950635714
 20
98.55758086641194
 10
111.0229373788267
 20
98.55350058150685
 10
110.872494367577
 20
98.532754647438
 10
110.7272297654021
 20
98.49493395912253
 10
110.5899642441889
 20
98.43967247517058
 10
110.4635615395172
 20
98.36657185642252
 10
110.3508638551203
 20
98.27523376371877
 10
110.2546918628852
 20
98.16529215566939
 10
110.1779092983917
 20
98.03634869311483
 10
110.1779092983917
 20
98.03634869311483
 10
110.1645918513532
 20
98.03264521552288
 10
110.1305930657852
 20
98.02970611848045
 10
110.0788843365
 20
98.0274668064481
 10
110.0124047605398
 20
98.02588421573293
 10
109.9341149667938
 20
98.02487221894908
 10
109.8470078819203
 20
98.02440928425008
 10
109.754022602962
 20
98.02440928425008
 10
109.6581412906542
 20
98.02483992117939
 10
109.5622922761161
 20
98.02561506765213
 10
109.4694792519294
 20
98.02671319182183
 10
109.3826305492136
 20
98.02803740037942
 10
109.3047283287039
 20
98.02955539555518
 10
109.2387332192892
 20
98.03120258180974
 10
109.1876058498585
 20
98.03292512952693
 10
109.1543068493007
 20
98.03465844316734
 10
109.1417968465046
 20
98.03634869311483
 10
109.1417968465046
 20
98.03634869311483
 10
109.0507171359584
 20
98.15075815930564
 10
108.9443821121919
 20
98.24991231227614
 10
108.825149512393
 20
98.33382191794954
 10
108.6953124782101
 20
98.40246544447938
 10
108.5572072149848
 20
98.4558536577889
 10
108.4131591621351
 20
98.49399732380132
 10
108.2654937590794
 20
98.5168749106702
 10
108.1165364452358
 20
98.52450795024197
 10
107.9686126600225
 20
98.5168749106702
 10
107.8240478428577
 20
98.49399732380132
 10
107.6851674331596
 20
98.4558536577889
 10
107.5542968703464
 20
98.40246544447938
 10
107.4337615938364
 20
98.33382191794954
 10
107.3258870430477
 20
98.24991231227614
 10
107.2329986573984
 20
98.15075815930564
 10
107.1574218763069
 20
98.03634869311483
 10
107.1574218763069
 20
98.03634869311483
 10
107.1380862781815
 20
98.0347768683229
 10
107.0852148291872
 20
98.03360338269057
 10
107.0036629607017
 20
98.03280670437138
 10
106.898156913024
 20
98.03232223782592
 10
106.7735413516089
 20
98.0321176852845
 10
106.6346071122947
 20
98.03216074897742
 10
106.4861450309197
 20
98.03239759928854
 10
106.3329351773993
 20
98.03277440660167
 10
106.1798006853415
 20
98.03326963907037
 10
106.0315216246616
 20
98.03384023300168
 10
105.8928888311978
 20
98.03443235877947
 10
105.7687146726352
 20
98.03500295271078
 10
105.6637792188889
 20
98.03553048294917
 10
105.5828840717206
 20
98.03596111987846
 10
105.5308415988151
 20
98.0362410338825
 10
105.5124211041645
 20
98.03634869311483
 10
105.5124211041645
 20
98.03634869311483
 10
105.4069796520263
 20
98.0368008618906
 10
105.3243081275246
 20
98.04208693019771
 10
105.2626947488655
 20
98.05214230249678
 10
105.2204277342551
 20
98.06689161732518
 10
105.1957737700529
 20
98.08628104506676
 10
105.1870318403881
 20
98.11026752202855
 10
105.1924578656973
 20
98.13874338897827
 10
105.2103615960328
 20
98.17168711406944
 10
105.2389881859078
 20
98.20900180399298
 10
105.2766366194515
 20
98.25064439505594
 10
105.32159511487
 20
98.29655029171894
 10
105.372130358523
 20
98.34665489844257
 10
105.4265198026931
 20
98.40088285376422
 10
105.4830516655865
 20
98.45919109399094
 10
105.5400141654091
 20
98.52149349173689
 10
105.5956739885207
 20
98.58773621738591
 10
114.4606258580138
 20
107.4195290433232
 10
114.5100091478808
 20
107.4679864637922
 10
114.5625576191782
 20
107.517079073732
 10
114.6174315298938
 20
107.5651273891183
 10
114.6737157765529
 20
107.6104303940802
 10
114.7305275534503
 20
107.6512870727472
 10
114.7870378844972
 20
107.6859964092485
 10
114.8423209002956
 20
107.7128681536366
 10
114.8955153269869
 20
107.7301905241176
 10
114.9457491247894
 20
107.7362840366671
 10
114.9921287220746
 20
107.7294261435681
 10
115.0337713131375
 20
107.7079373607962
 10
115.0698263900429
 20
107.6701166724807
 10
115.0994003811623
 20
107.6142522968278
 10
115.1216104807908
 20
107.5386539838898
 10
115.1355738832232
 20
107.4416207177961
 10
115.140429314601
 20
107.3214622485991
 10
115.140429314601
 20
105.0506275930335
 10
117.6991232255548
 20
105.0495725325567
 10
117.8186034415881
 20
105.0423701299143
 10
117.9294386212657
 20
105.0207090923707
 10
118.031779487513
 20
104.9852246093966
 10
118.1257552314087
 20
104.9364549771538
 10
118.2114842781084
 20
104.87499232142
 10
118.2891173505373
 20
104.8014395338962
 10
118.3587621079278
 20
104.7163564425904
 10
118.4205477413586
 20
104.6203351732806
 10
118.4746357396782
 20
104.5139463198979
 10
118.5211014643493
 20
104.3977820082202
 10
118.5601171701435
 20
104.272423598102
 10
118.5918012822165
 20
104.1384416834747
 10
118.6162722257238
 20
103.9964391560392
 10
118.6336699576673
 20
103.8469758438037
 10
118.644123669126
 20
103.6906546384691
 10
118.6477517852553
 20
103.5280353680436
 10
118.6463306833887
 20
103.0140378951587
 10
118.642314994023
 20
102.9554712727743
 10
118.6308062220875
 20
102.9008126805234
 10
118.6125149185157
 20
102.8500405865594
 10
118.5882269957033
 20
102.8031334590357
 10
118.5586853023536
 20
102.7600697661061
 10
118.5246434530927
 20
102.7208495077705
 10
118.486855062547
 20
102.6854619181055
 10
118.4460845112658
 20
102.6538531674952
 10
118.4030746479524
 20
102.6260447877859
 10
118.3585790872328
 20
102.6020152471311
 10
118.3133622096567
 20
102.5817322477613
 10
118.2681560980038
 20
102.565185023753
 10
118.2237358987469
 20
102.55235204326
 10
118.1808552265122
 20
102.5432333062822
 10
118.1402569300028
 20
102.5377965150498
 10
118.1027053897681
 20
102.5360309036397
 10
118.1027053897681
 20
102.5360309036397
 10
118.063463599586
 20
102.538270215672
 10
118.0233067059291
 20
102.5445575148398
 10
117.9826653457268
 20
102.5548282056035
 10
117.9420347514477
 20
102.5690176924238
 10
117.9018240281746
 20
102.5870398479149
 10
117.8625068765298
 20
102.6088623743069
 10
117.8245139334427
 20
102.6343991442142
 10
117.7883296654585
 20
102.6636070939437
 10
117.75439547543
 20
102.6963893301864
 10
117.7231527662095
 20
102.7327135551726
 10
117.6950537065729
 20
102.7724936415163
 10
117.670550465296
 20
102.8156757596015
 10
117.6501167430009
 20
102.8621953138888
 10
117.6341831766169
 20
102.9119769429154
 10
117.6232019349199
 20
102.9649668170653
 10
117.6176359526087
 20
103.0211003407991
 10
117.6176359526087
 20
103.0211003407991
 10
117.6128666486168
 20
103.0740040875632
 10
117.603564890944
 20
103.1248946066828
 10
117.5899567639782
 20
103.1736104093094
 10
117.5722683521073
 20
103.2199469429017
 10
117.5506934419496
 20
103.2637319526879
 10
117.5254796497393
 20
103.3047716520499
 10
117.4968422939411
 20
103.3428830202926
 10
117.4649751611731
 20
103.3778938026444
 10
117.4301043358234
 20
103.4095994465638
 10
117.3924559022796
 20
103.4378276972792
 10
117.3522344130834
 20
103.4623847681723
 10
117.3096659526224
 20
103.4831091703947
 10
117.2649550734382
 20
103.499796351405
 10
117.2183386258419
 20
103.5122632905081
 10
117.1700211623748
 20
103.5203269670092
 10
117.1202180015017
 20
103.5238043602132
 10
117.1202180015017
 20
103.5238043602132
 10
117.0719866654205
 20
103.521941855494
 10
117.0249180490484
 20
103.514621027696
 10
116.9793351300824
 20
103.5021540885929
 10
116.9354639929103
 20
103.4848640158816
 10
116.8935630196898
 20
103.4630953191057
 10
116.8539336562713
 20
103.437170975962
 10
116.8168127529659
 20
103.4074247300709
 10
116.7824802237778
 20
103.3741795591292
 10
116.7511944508644
 20
103.3377799726804
 10
116.7232138163834
 20
103.2985489484215
 10
116.6988074684155
 20
103.2568094640495
 10
116.6782445550416
 20
103.2129060291077
 10
116.6617942243425
 20
103.16715085537
 10
116.6497148584757
 20
103.1198884523797
 10
116.6422756055221
 20
103.0714525637571
 10
116.6397348476393
 20
103.0221554012759
 10
116.6397348476393
 20
100.7509762361668
 10
116.6471633346696
 20
100.6140121608041
 10
116.6691581158335
 20
100.4767574055141
 10
116.7052993201247
 20
100.3404608173918
 10
116.7551778424604
 20
100.2063820094554
 10
116.8183845777579
 20
100.0757805947231
 10
116.8944781231645
 20
99.94991618621296
 10
116.9830386076743
 20
99.83004839694331
 10
117.0836569262044
 20
99.71742607400907
 10
117.1959132077488
 20
99.61330883042845
 10
117.3193983472245
 20
99.51895627921962
 10
117.4536709417791
 20
99.43562803340077
 10
117.598332652253
 20
99.36459447191334
 10
117.7529528417169
 20
99.30708291000579
 10
117.9171116391646
 20
99.26437449254283
 10
118.0903999395135
 20
99.23772883254262
 10
118.2723871058341
 20
99.22838401117689
 10
127.0918314178238
 20
99.22873928664356
 10
127.2402934991987
 20
99.2363292625224
 10
127.3875390312484
 20
99.25829174591652
 10
127.5324483579566
 20
99.29412073843397
 10
127.6737726322285
 20
99.34321334837377
 10
127.8103168365851
 20
99.40499898180457
 10
127.9409182513175
 20
99.47896087441121
 10
128.064349561177
 20
99.56449613449271
 10
128.1794049827618
 20
99.66107723181065
 10
128.2849110304394
 20
99.76810127466402
 10
128.3796403889614
 20
99.88505149873768
 10
128.4624195726954
 20
100.0113357782539
 10
128.5320427982394
 20
100.1464158170509
 10
128.5873150481146
 20
100.2897102552743
 10
128.6270197729957
 20
100.4406700308391
 10
128.6499834872504
 20
100.5987245498141
 10
128.6549896415535
 20
100.7633247501144
 10
128.6440622294726
 20
103.0337933642901
 10
128.6434485718484
 20
103.0811095968966
 10
128.6369674860624
 20
103.127822937802
 10
128.6249850135048
 20
103.173588877463
 10
128.6079102592582
 20
103.2180736722593
 10
128.5861092647125
 20
103.260911280801
 10
128.5599803690275
 20
103.301767959468
 10
128.5298788476696
 20
103.3402884327936
 10
128.4962030397987
 20
103.3761281912343
 10
128.4593297527277
 20
103.4089319593234
 10
128.419646559693
 20
103.4383552275176
 10
128.3775195020846
 20
103.4640642521966
 10
128.3333576849853
 20
103.4856929919705
 10
128.2875163838617
 20
103.5028969372959
 10
128.2403939378734
 20
103.5153315786293
 10
128.1923671543336
 20
103.5226524064274
 10
128.1438236064787
 20
103.5245149111466
 10
128.1438236064787
 20
103.5245149111466
 10
128.0939666159894
 20
103.5210913475587
 10
128.045584556983
 20
103.5130707347505
 10
127.9989142797705
 20
103.5006360934171
 10
127.9541603368933
 20
103.4839704442533
 10
127.9115595786627
 20
103.4632568079542
 10
127.8713057916967
 20
103.438699737061
 10
127.83361429446
 20
103.4104822522689
 10
127.7987111713406
 20
103.3787658424262
 10
127.766811740803
 20
103.3437658259977
 10
127.7381313213118
 20
103.3056436918317
 10
127.7128744654086
 20
103.264614758393
 10
127.6912780234044
 20
103.2208512804532
 10
127.6735465478406
 20
103.1745362787074
 10
127.6598953571819
 20
103.1258527738505
 10
127.6505397698929
 20
103.0749945525006
 10
127.6456951044383
 20
103.0221554012759
 10
127.6456951044383
 20
103.0221554012759
 10
127.640258313206
 20
102.9659572820027
 10
127.6293847307413
 20
102.9129243441599
 10
127.6135265258199
 20
102.8630996514403
 10
127.5931681649874
 20
102.8165370334601
 10
127.5687295192499
 20
102.7733226176052
 10
127.5406842892294
 20
102.733520999415
 10
127.5094523459322
 20
102.6971967744288
 10
127.4755289218269
 20
102.6644037722629
 10
127.4393231219963
 20
102.6352065884566
 10
127.4013301789091
 20
102.6096698185494
 10
127.3619591976482
 20
102.5878688240037
 10
127.321694644759
 20
102.5698682003592
 10
127.280977923094
 20
102.5557217772318
 10
127.240261201429
 20
102.5455049160842
 10
127.1999858826166
 20
102.5392714465327
 10
127.1606256672789
 20
102.5370859641165
 10
127.1606256672789
 20
102.5370859641165
 10
127.1232033181231
 20
102.538733150371
 10
127.0827449786157
 20
102.5441161119872
 10
127.0400473270759
 20
102.5532671467348
 10
126.995907041823
 20
102.5662293183066
 10
126.9510885034065
 20
102.5830779881653
 10
126.9063991560688
 20
102.6038346881574
 10
126.8626033803594
 20
102.6285640138222
 10
126.8205086205206
 20
102.6572874970063
 10
126.7808792571021
 20
102.6900912650955
 10
126.7445227343463
 20
102.7269860840129
 10
126.7122034328026
 20
102.7680473152213
 10
126.6847180307903
 20
102.8133072564904
 10
126.6628632066285
 20
102.8628197374362
 10
126.64741410679
 20
102.9166278217518
 10
126.6391458777475
 20
102.9747853390533
 10
126.6388659637434
 20
103.0373245871103
 10
126.6381661787333
 20
103.5506222749852
 10
126.6382092424262
 20
103.7097426203602
 10
126.645982239
 20
103.8636737907372
 10
126.6615174662244
 20
104.0116621714899
 10
126.6847718604064
 20
104.1529433820688
 10
126.7157669533925
 20
104.2867745737709
 10
126.754470447413
 20
104.4124021319698
 10
126.800882342468
 20
104.529050910193
 10
126.854991872634
 20
104.6359780597373
 10
126.9167882719881
 20
104.7324299659764
 10
126.9862930723765
 20
104.8176422483609
 10
127.0634524441832
 20
104.8908612922646
 10
127.1482986851778
 20
104.951333483061
 10
127.2407994975907
 20
104.998305206124
 10
127.3409548814218
 20
105.0310120809041
 10
127.4487648366711
 20
105.0487112586982
 10
127.5642078314922
 20
105.0506275930335
 10
130.1285430862198
 20
105.0509828685002
 10
130.1334846449835
 20
98.03916936500173
 10
122.791480275947
 20
98.03916936500173
 10
122.6369569797923
 20
98.23743460724978
 97
        0
 75
     1
 76
     1
 98
        0
  0
LWPOLYLINE
  5
7D
330
1F
100
AcDbEntity
  8
ISS138金台
  6
Continuous
 62
     7
420
 16777215
370
    25
100
AcDbPolyline
 90
      363
 70
     0
 43
0.0
 10
122.4531611383686
 20
98.03775902905828
 10
122.3710709737214
 20
98.03764060390273
 10
122.1390760939863
 20
98.03729609435928
 10
121.7786006863955
 20
98.03681162781382
 10
121.3110258744887
 20
98.03619797018959
 10
120.757754313652
 20
98.03550895110271
 10
120.140220957041
 20
98.03479840016936
 10
119.4798069281953
 20
98.03410938108249
 10
118.7979471802707
 20
98.03348495753502
 10
118.1160120708834
 20
98.03296819321986
 10
117.4554365531892
 20
98.0326129177532
 10
116.8376017507277
 20
98.0324514289047
 10
116.2839318507314
 20
98.03254832221378
 10
115.8158402745095
 20
98.03293589545015
 10
115.4547189115248
 20
98.0336787441532
 10
115.2219704171633
 20
98.03479840016936
 10
115.1390189786576
 20
98.03634869311483
 10
115.1390189786576
 20
98.03634869311483
 10
115.058576000265
 20
98.1543647435885
 10
114.9596479316824
 20
98.25619961144386
 10
114.8449693174108
 20
98.34193942406677
 10
114.7172424041815
 20
98.41169184068954
 10
114.5791802046491
 20
98.46554298869806
 10
114.4335172633146
 20
98.50360052732464
 10
114.2829342950629
 20
98.52596134987834
 10
114.130165844395
 20
98.53271158374505
 10
113.9779141580423
 20
98.52393735631065
 10
113.8289030145825
 20
98.49976785865388
 10
113.6858238948237
 20
98.46026768631418
 10
113.5514221091904
 20
98.40554449852385
 10
113.4283783725671
 20
98.33569518859198
 10
113.3194379953784
 20
98.25081664982767
 10
113.227281692509
 20
98.15100577554
 10
113.1546440084599
 20
98.03634869311483
 10
113.1546440084599
 20
98.03634869311483
 10
113.1424354515144
 20
98.03466920909058
 10
113.1097178108111
 20
98.03320504353097
 10
113.0594517152389
 20
98.03196696235923
 10
112.9945439640708
 20
98.03093343372893
 10
112.9179121225025
 20
98.03012598948649
 10
112.8325275853462
 20
98.02955539555518
 10
112.7412863859515
 20
98.02920012008852
 10
112.6471383872841
 20
98.02907092900972
 10
112.5529796226935
 20
98.02916782231881
 10
112.4617814869917
 20
98.02950156593903
 10
112.3764507794517
 20
98.03005062802387
 10
112.2999265971157
 20
98.03083654041984
 10
112.2351265051798
 20
98.03185930312692
 10
112.1849896006865
 20
98.03311891614511
 10
112.1524334488317
 20
98.03461537947442
 10
112.1404079125811
 20
98.03634869311483
 10
112.1404079125811
 20
98.03634869311483
 10
112.0713875787381
 20
98.15172709239656
 10
111.9819227566768
 20
98.25352966248224
 10
111.8748987138234
 20
98.34137959605869
 10
111.7531468879881
 20
98.41486778804311
 10
111.6195094829042
 20
98.47361743112236
 10
111.4768287023051
 20
98.51725171798333
 10
111.3279359840009
 20
98.54536154354315
 10
111.1756950635714
 20
98.55758086641194
 10
111.0229373788267
 20
98.55350058150685
 10
110.872494367577
 20
98.532754647438
 10
110.7272297654021
 20
98.49493395912253
 10
110.5899642441889
 20
98.43967247517058
 10
110.4635615395172
 20
98.36657185642252
 10
110.3508638551203
 20
98.27523376371877
 10
110.2546918628852
 20
98.16529215566939
 10
110.1779092983917
 20
98.03634869311483
 10
110.1779092983917
 20
98.03634869311483
 10
110.1645918513532
 20
98.03264521552288
 10
110.1305930657852
 20
98.02970611848045
 10
110.0788843365
 20
98.0274668064481
 10
110.0124047605398
 20
98.02588421573293
 10
109.9341149667938
 20
98.02487221894908
 10
109.8470078819203
 20
98.02440928425008
 10
109.754022602962
 20
98.02440928425008
 10
109.6581412906542
 20
98.02483992117939
 10
109.5622922761161
 20
98.02561506765213
 10
109.4694792519294
 20
98.02671319182183
 10
109.3826305492136
 20
98.02803740037942
 10
109.3047283287039
 20
98.02955539555518
 10
109.2387332192892
 20
98.03120258180974
 10
109.1876058498585
 20
98.03292512952693
 10
109.1543068493007
 20
98.03465844316734
 10
109.1417968465046
 20
98.03634869311483
 10
109.1417968465046
 20
98.03634869311483
 10
109.0507171359584
 20
98.15075815930564
 10
108.9443821121919
 20
98.24991231227614
 10
108.825149512393
 20
98.33382191794954
 10
108.6953124782101
 20
98.40246544447938
 10
108.5572072149848
 20
98.4558536577889
 10
108.4131591621351
 20
98.49399732380132
 10
108.2654937590794
 20
98.5168749106702
 10
108.1165364452358
 20
98.52450795024197
 10
107.9686126600225
 20
98.5168749106702
 10
107.8240478428577
 20
98.49399732380132
 10
107.6851674331596
 20
98.4558536577889
 10
107.5542968703464
 20
98.40246544447938
 10
107.4337615938364
 20
98.33382191794954
 10
107.3258870430477
 20
98.24991231227614
 10
107.2329986573984
 20
98.15075815930564
 10
107.1574218763069
 20
98.03634869311483
 10
107.1574218763069
 20
98.03634869311483
 10
107.1380862781815
 20
98.0347768683229
 10
107.0852148291872
 20
98.03360338269057
 10
107.0036629607017
 20
98.03280670437138
 10
106.898156913024
 20
98.03232223782592
 10
106.7735413516089
 20
98.0321176852845
 10
106.6346071122947
 20
98.03216074897742
 10
106.4861450309197
 20
98.03239759928854
 10
106.3329351773993
 20
98.03277440660167
 10
106.1798006853415
 20
98.03326963907037
 10
106.0315216246616
 20
98.03384023300168
 10
105.8928888311978
 20
98.03443235877947
 10
105.7687146726352
 20
98.03500295271078
 10
105.6637792188889
 20
98.03553048294917
 10
105.5828840717206
 20
98.03596111987846
 10
105.5308415988151
 20
98.0362410338825
 10
105.5124211041645
 20
98.03634869311483
 10
105.5124211041645
 20
98.03634869311483
 10
105.4069796520263
 20
98.0368008618906
 10
105.3243081275246
 20
98.04208693019771
 10
105.2626947488655
 20
98.05214230249678
 10
105.2204277342551
 20
98.06689161732518
 10
105.1957737700529
 20
98.08628104506676
 10
105.1870318403881
 20
98.11026752202855
 10
105.1924578656973
 20
98.13874338897827
 10
105.2103615960328
 20
98.17168711406944
 10
105.2389881859078
 20
98.20900180399298
 10
105.2766366194515
 20
98.25064439505594
 10
105.32159511487
 20
98.29655029171894
 10
105.372130358523
 20
98.34665489844257
 10
105.4265198026931
 20
98.40088285376422
 10
105.4830516655865
 20
98.45919109399094
 10
105.5400141654091
 20
98.52149349173689
 10
105.5956739885207
 20
98.58773621738591
 10
114.4606258580138
 20
107.4195290433232
 10
114.5100091478808
 20
107.4679864637922
 10
114.5625576191782
 20
107.517079073732
 10
114.6174315298938
 20
107.5651273891183
 10
114.6737157765529
 20
107.6104303940802
 10
114.7305275534503
 20
107.6512870727472
 10
114.7870378844972
 20
107.6859964092485
 10
114.8423209002956
 20
107.7128681536366
 10
114.8955153269869
 20
107.7301905241176
 10
114.9457491247894
 20
107.7362840366671
 10
114.9921287220746
 20
107.7294261435681
 10
115.0337713131375
 20
107.7079373607962
 10
115.0698263900429
 20
107.6701166724807
 10
115.0994003811623
 20
107.6142522968278
 10
115.1216104807908
 20
107.5386539838898
 10
115.1355738832232
 20
107.4416207177961
 10
115.140429314601
 20
107.3214622485991
 10
115.140429314601
 20
105.0506275930335
 10
117.6991232255548
 20
105.0495725325567
 10
117.8186034415881
 20
105.0423701299143
 10
117.9294386212657
 20
105.0207090923707
 10
118.031779487513
 20
104.9852246093966
 10
118.1257552314087
 20
104.9364549771538
 10
118.2114842781084
 20
104.87499232142
 10
118.2891173505373
 20
104.8014395338962
 10
118.3587621079278
 20
104.7163564425904
 10
118.4205477413586
 20
104.6203351732806
 10
118.4746357396782
 20
104.5139463198979
 10
118.5211014643493
 20
104.3977820082202
 10
118.5601171701435
 20
104.272423598102
 10
118.5918012822165
 20
104.1384416834747
 10
118.6162722257238
 20
103.9964391560392
 10
118.6336699576673
 20
103.8469758438037
 10
118.644123669126
 20
103.6906546384691
 10
118.6477517852553
 20
103.5280353680436
 10
118.6463306833887
 20
103.0140378951587
 10
118.642314994023
 20
102.9554712727743
 10
118.6308062220875
 20
102.9008126805234
 10
118.6125149185157
 20
102.8500405865594
 10
118.5882269957033
 20
102.8031334590357
 10
118.5586853023536
 20
102.7600697661061
 10
118.5246434530927
 20
102.7208495077705
 10
118.486855062547
 20
102.6854619181055
 10
118.4460845112658
 20
102.6538531674952
 10
118.4030746479524
 20
102.6260447877859
 10
118.3585790872328
 20
102.6020152471311
 10
118.3133622096567
 20
102.5817322477613
 10
118.2681560980038
 20
102.565185023753
 10
118.2237358987469
 20
102.55235204326
 10
118.1808552265122
 20
102.5432333062822
 10
118.1402569300028
 20
102.5377965150498
 10
118.1027053897681
 20
102.5360309036397
 10
118.1027053897681
 20
102.5360309036397
 10
118.063463599586
 20
102.538270215672
 10
118.0233067059291
 20
102.5445575148398
 10
117.9826653457268
 20
102.5548282056035
 10
117.9420347514477
 20
102.5690176924238
 10
117.9018240281746
 20
102.5870398479149
 10
117.8625068765298
 20
102.6088623743069
 10
117.8245139334427
 20
102.6343991442142
 10
117.7883296654585
 20
102.6636070939437
 10
117.75439547543
 20
102.6963893301864
 10
117.7231527662095
 20
102.7327135551726
 10
117.6950537065729
 20
102.7724936415163
 10
117.670550465296
 20
102.8156757596015
 10
117.6501167430009
 20
102.8621953138888
 10
117.6341831766169
 20
102.9119769429154
 10
117.6232019349199
 20
102.9649668170653
 10
117.6176359526087
 20
103.0211003407991
 10
117.6176359526087
 20
103.0211003407991
 10
117.6128666486168
 20
103.0740040875632
 10
117.603564890944
 20
103.1248946066828
 10
117.5899567639782
 20
103.1736104093094
 10
117.5722683521073
 20
103.2199469429017
 10
117.5506934419496
 20
103.2637319526879
 10
117.5254796497393
 20
103.3047716520499
 10
117.4968422939411
 20
103.3428830202926
 10
117.4649751611731
 20
103.3778938026444
 10
117.4301043358234
 20
103.4095994465638
 10
117.3924559022796
 20
103.4378276972792
 10
117.3522344130834
 20
103.4623847681723
 10
117.3096659526224
 20
103.4831091703947
 10
117.2649550734382
 20
103.499796351405
 10
117.2183386258419
 20
103.5122632905081
 10
117.1700211623748
 20
103.5203269670092
 10
117.1202180015017
 20
103.5238043602132
 10
117.1202180015017
 20
103.5238043602132
 10
117.0719866654205
 20
103.521941855494
 10
117.0249180490484
 20
103.514621027696
 10
116.9793351300824
 20
103.5021540885929
 10
116.9354639929103
 20
103.4848640158816
 10
116.8935630196898
 20
103.4630953191057
 10
116.8539336562713
 20
103.437170975962
 10
116.8168127529659
 20
103.4074247300709
 10
116.7824802237778
 20
103.3741795591292
 10
116.7511944508644
 20
103.3377799726804
 10
116.7232138163834
 20
103.2985489484215
 10
116.6988074684155
 20
103.2568094640495
 10
116.6782445550416
 20
103.2129060291077
 10
116.6617942243425
 20
103.16715085537
 10
116.6497148584757
 20
103.1198884523797
 10
116.6422756055221
 20
103.0714525637571
 10
116.6397348476393
 20
103.0221554012759
 10
116.6397348476393
 20
100.7509762361668
 10
116.6471633346696
 20
100.6140121608041
 10
116.6691581158335
 20
100.4767574055141
 10
116.7052993201247
 20
100.3404608173918
 10
116.7551778424604
 20
100.2063820094554
 10
116.8183845777579
 20
100.0757805947231
 10
116.8944781231645
 20
99.94991618621296
 10
116.9830386076743
 20
99.83004839694331
 10
117.0836569262044
 20
99.71742607400907
 10
117.1959132077488
 20
99.61330883042845
 10
117.3193983472245
 20
99.51895627921962
 10
117.4536709417791
 20
99.43562803340077
 10
117.598332652253
 20
99.36459447191334
 10
117.7529528417169
 20
99.30708291000579
 10
117.9171116391646
 20
99.26437449254283
 10
118.0903999395135
 20
99.23772883254262
 10
118.2723871058341
 20
99.22838401117689
 10
127.0918314178238
 20
99.22873928664356
 10
127.2402934991987
 20
99.2363292625224
 10
127.3875390312484
 20
99.25829174591652
 10
127.5324483579566
 20
99.29412073843397
 10
127.6737726322285
 20
99.34321334837377
 10
127.8103168365851
 20
99.40499898180457
 10
127.9409182513175
 20
99.47896087441121
 10
128.064349561177
 20
99.56449613449271
 10
128.1794049827618
 20
99.66107723181065
 10
128.2849110304394
 20
99.76810127466402
 10
128.3796403889614
 20
99.88505149873768
 10
128.4624195726954
 20
100.0113357782539
 10
128.5320427982394
 20
100.1464158170509
 10
128.5873150481146
 20
100.2897102552743
 10
128.6270197729957
 20
100.4406700308391
 10
128.6499834872504
 20
100.5987245498141
 10
128.6549896415535
 20
100.7633247501144
 10
128.6440622294726
 20
103.0337933642901
 10
128.6434485718484
 20
103.0811095968966
 10
128.6369674860624
 20
103.127822937802
 10
128.6249850135048
 20
103.173588877463
 10
128.6079102592582
 20
103.2180736722593
 10
128.5861092647125
 20
103.260911280801
 10
128.5599803690275
 20
103.301767959468
 10
128.5298788476696
 20
103.3402884327936
 10
128.4962030397987
 20
103.3761281912343
 10
128.4593297527277
 20
103.4089319593234
 10
128.419646559693
 20
103.4383552275176
 10
128.3775195020846
 20
103.4640642521966
 10
128.3333576849853
 20
103.4856929919705
 10
128.2875163838617
 20
103.5028969372959
 10
128.2403939378734
 20
103.5153315786293
 10
128.1923671543336
 20
103.5226524064274
 10
128.1438236064787
 20
103.5245149111466
 10
128.1438236064787
 20
103.5245149111466
 10
128.0939666159894
 20
103.5210913475587
 10
128.045584556983
 20
103.5130707347505
 10
127.9989142797705
 20
103.5006360934171
 10
127.9541603368933
 20
103.4839704442533
 10
127.9115595786627
 20
103.4632568079542
 10
127.8713057916967
 20
103.438699737061
 10
127.83361429446
 20
103.4104822522689
 10
127.7987111713406
 20
103.3787658424262
 10
127.766811740803
 20
103.3437658259977
 10
127.7381313213118
 20
103.3056436918317
 10
127.7128744654086
 20
103.264614758393
 10
127.6912780234044
 20
103.2208512804532
 10
127.6735465478406
 20
103.1745362787074
 10
127.6598953571819
 20
103.1258527738505
 10
127.6505397698929
 20
103.0749945525006
 10
127.6456951044383
 20
103.0221554012759
 10
127.6456951044383
 20
103.0221554012759
 10
127.640258313206
 20
102.9659572820027
 10
127.6293847307413
 20
102.9129243441599
 10
127.6135265258199
 20
102.8630996514403
 10
127.5931681649874
 20
102.8165370334601
 10
127.5687295192499
 20
102.7733226176052
 10
127.5406842892294
 20
102.733520999415
 10
127.5094523459322
 20
102.6971967744288
 10
127.4755289218269
 20
102.6644037722629
 10
127.4393231219963
 20
102.6352065884566
 10
127.4013301789091
 20
102.6096698185494
 10
127.3619591976482
 20
102.5878688240037
 10
127.321694644759
 20
102.5698682003592
 10
127.280977923094
 20
102.5557217772318
 10
127.240261201429
 20
102.5455049160842
 10
127.1999858826166
 20
102.5392714465327
 10
127.1606256672789
 20
102.5370859641165
 10
127.1606256672789
 20
102.5370859641165
 10
127.1232033181231
 20
102.538733150371
 10
127.0827449786157
 20
102.5441161119872
 10
127.0400473270759
 20
102.5532671467348
 10
126.995907041823
 20
102.5662293183066
 10
126.9510885034065
 20
102.5830779881653
 10
126.9063991560688
 20
102.6038346881574
 10
126.8626033803594
 20
102.6285640138222
 10
126.8205086205206
 20
102.6572874970063
 10
126.7808792571021
 20
102.6900912650955
 10
126.7445227343463
 20
102.7269860840129
 10
126.7122034328026
 20
102.7680473152213
 10
126.6847180307903
 20
102.8133072564904
 10
126.6628632066285
 20
102.8628197374362
 10
126.64741410679
 20
102.9166278217518
 10
126.6391458777475
 20
102.9747853390533
 10
126.6388659637434
 20
103.0373245871103
 10
126.6381661787333
 20
103.5506222749852
 10
126.6382092424262
 20
103.7097426203602
 10
126.645982239
 20
103.8636737907372
 10
126.6615174662244
 20
104.0116621714899
 10
126.6847718604064
 20
104.1529433820688
 10
126.7157669533925
 20
104.2867745737709
 10
126.754470447413
 20
104.4124021319698
 10
126.800882342468
 20
104.529050910193
 10
126.854991872634
 20
104.6359780597373
 10
126.9167882719881
 20
104.7324299659764
 10
126.9862930723765
 20
104.8176422483609
 10
127.0634524441832
 20
104.8908612922646
 10
127.1482986851778
 20
104.951333483061
 10
127.2407994975907
 20
104.998305206124
 10
127.3409548814218
 20
105.0310120809041
 10
127.4487648366711
 20
105.0487112586982
 10
127.5642078314922
 20
105.0506275930335
 10
130.1285430862198
 20
105.0509828685002
 10
130.1334846449835
 20
98.03916936500173
 10
122.791480275947
 20
98.03916936500173
 10
122.6369569797923
 20
98.23743460724978
 10
122.4531611383686
 20
98.03775902905828
  0
LWPOLYLINE
  5
7E
330
1F
100
AcDbEntity
  8
ISS138金台
  6
Continuous
 62
   250
420
  2367521
370
    25
100
AcDbPolyline
 90
      363
 70
     0
 43
0.0
 10
122.4531611383686
 20
98.03775902905828
 10
122.3710709737214
 20
98.03764060390273
 10
122.1390760939863
 20
98.03729609435928
 10
121.7786006863955
 20
98.03681162781382
 10
121.3110258744887
 20
98.03619797018959
 10
120.757754313652
 20
98.03550895110271
 10
120.140220957041
 20
98.03479840016936
 10
119.4798069281953
 20
98.03410938108249
 10
118.7979471802707
 20
98.03348495753502
 10
118.1160120708834
 20
98.03296819321986
 10
117.4554365531892
 20
98.0326129177532
 10
116.8376017507277
 20
98.0324514289047
 10
116.2839318507314
 20
98.03254832221378
 10
115.8158402745095
 20
98.03293589545015
 10
115.4547189115248
 20
98.0336787441532
 10
115.2219704171633
 20
98.03479840016936
 10
115.1390189786576
 20
98.03634869311483
 10
115.1390189786576
 20
98.03634869311483
 10
115.058576000265
 20
98.1543647435885
 10
114.9596479316824
 20
98.25619961144386
 10
114.8449693174108
 20
98.34193942406677
 10
114.7172424041815
 20
98.41169184068954
 10
114.5791802046491
 20
98.46554298869806
 10
114.4335172633146
 20
98.50360052732464
 10
114.2829342950629
 20
98.52596134987834
 10
114.130165844395
 20
98.53271158374505
 10
113.9779141580423
 20
98.52393735631065
 10
113.8289030145825
 20
98.49976785865388
 10
113.6858238948237
 20
98.46026768631418
 10
113.5514221091904
 20
98.40554449852385
 10
113.4283783725671
 20
98.33569518859198
 10
113.3194379953784
 20
98.25081664982767
 10
113.227281692509
 20
98.15100577554
 10
113.1546440084599
 20
98.03634869311483
 10
113.1546440084599
 20
98.03634869311483
 10
113.1424354515144
 20
98.03466920909058
 10
113.1097178108111
 20
98.03320504353097
 10
113.0594517152389
 20
98.03196696235923
 10
112.9945439640708
 20
98.03093343372893
 10
112.9179121225025
 20
98.03012598948649
 10
112.8325275853462
 20
98.02955539555518
 10
112.7412863859515
 20
98.02920012008852
 10
112.6471383872841
 20
98.02907092900972
 10
112.5529796226935
 20
98.02916782231881
 10
112.4617814869917
 20
98.02950156593903
 10
112.3764507794517
 20
98.03005062802387
 10
112.2999265971157
 20
98.03083654041984
 10
112.2351265051798
 20
98.03185930312692
 10
112.1849896006865
 20
98.03311891614511
 10
112.1524334488317
 20
98.03461537947442
 10
112.1404079125811
 20
98.03634869311483
 10
112.1404079125811
 20
98.03634869311483
 10
112.0713875787381
 20
98.15172709239656
 10
111.9819227566768
 20
98.25352966248224
 10
111.8748987138234
 20
98.34137959605869
 10
111.7531468879881
 20
98.41486778804311
 10
111.6195094829042
 20
98.47361743112236
 10
111.4768287023051
 20
98.51725171798333
 10
111.3279359840009
 20
98.54536154354315
 10
111.1756950635714
 20
98.55758086641194
 10
111.0229373788267
 20
98.55350058150685
 10
110.872494367577
 20
98.532754647438
 10
110.7272297654021
 20
98.49493395912253
 10
110.5899642441889
 20
98.43967247517058
 10
110.4635615395172
 20
98.36657185642252
 10
110.3508638551203
 20
98.27523376371877
 10
110.2546918628852
 20
98.16529215566939
 10
110.1779092983917
 20
98.03634869311483
 10
110.1779092983917
 20
98.03634869311483
 10
110.1645918513532
 20
98.03264521552288
 10
110.1305930657852
 20
98.02970611848045
 10
110.0788843365
 20
98.0274668064481
 10
110.0124047605398
 20
98.02588421573293
 10
109.9341149667938
 20
98.02487221894908
 10
109.8470078819203
 20
98.02440928425008
 10
109.754022602962
 20
98.02440928425008
 10
109.6581412906542
 20
98.02483992117939
 10
109.5622922761161
 20
98.02561506765213
 10
109.4694792519294
 20
98.02671319182183
 10
109.3826305492136
 20
98.02803740037942
 10
109.3047283287039
 20
98.02955539555518
 10
109.2387332192892
 20
98.03120258180974
 10
109.1876058498585
 20
98.03292512952693
 10
109.1543068493007
 20
98.03465844316734
 10
109.1417968465046
 20
98.03634869311483
 10
109.1417968465046
 20
98.03634869311483
 10
109.0507171359584
 20
98.15075815930564
 10
108.9443821121919
 20
98.24991231227614
 10
108.825149512393
 20
98.33382191794954
 10
108.6953124782101
 20
98.40246544447938
 10
108.5572072149848
 20
98.4558536577889
 10
108.4131591621351
 20
98.49399732380132
 10
108.2654937590794
 20
98.5168749106702
 10
108.1165364452358
 20
98.52450795024197
 10
107.9686126600225
 20
98.5168749106702
 10
107.8240478428577
 20
98.49399732380132
 10
107.6851674331596
 20
98.4558536577889
 10
107.5542968703464
 20
98.40246544447938
 10
107.4337615938364
 20
98.33382191794954
 10
107.3258870430477
 20
98.24991231227614
 10
107.2329986573984
 20
98.15075815930564
 10
107.1574218763069
 20
98.03634869311483
 10
107.1574218763069
 20
98.03634869311483
 10
107.1380862781815
 20
98.0347768683229
 10
107.0852148291872
 20
98.03360338269057
 10
107.0036629607017
 20
98.03280670437138
 10
106.898156913024
 20
98.03232223782592
 10
106.7735413516089
 20
98.0321176852845
 10
106.6346071122947
 20
98.03216074897742
 10
106.4861450309197
 20
98.03239759928854
 10
106.3329351773993
 20
98.03277440660167
 10
106.1798006853415
 20
98.03326963907037
 10
106.0315216246616
 20
98.03384023300168
 10
105.8928888311978
 20
98.03443235877947
 10
105.7687146726352
 20
98.03500295271078
 10
105.6637792188889
 20
98.03553048294917
 10
105.5828840717206
 20
98.03596111987846
 10
105.5308415988151
 20
98.0362410338825
 10
105.5124211041645
 20
98.03634869311483
 10
105.5124211041645
 20
98.03634869311483
 10
105.4069796520263
 20
98.0368008618906
 10
105.3243081275246
 20
98.04208693019771
 10
105.2626947488655
 20
98.05214230249678
 10
105.2204277342551
 20
98.06689161732518
 10
105.1957737700529
 20
98.08628104506676
 10
105.1870318403881
 20
98.11026752202855
 10
105.1924578656973
 20
98.13874338897827
 10
105.2103615960328
 20
98.17168711406944
 10
105.2389881859078
 20
98.20900180399298
 10
105.2766366194515
 20
98.25064439505594
 10
105.32159511487
 20
98.29655029171894
 10
105.372130358523
 20
98.34665489844257
 10
105.4265198026931
 20
98.40088285376422
 10
105.4830516655865
 20
98.45919109399094
 10
105.5400141654091
 20
98.52149349173689
 10
105.5956739885207
 20
98.58773621738591
 10
114.4606258580138
 20
107.4195290433232
 10
114.5100091478808
 20
107.4679864637922
 10
114.5625576191782
 20
107.517079073732
 10
114.6174315298938
 20
107.5651273891183
 10
114.6737157765529
 20
107.6104303940802
 10
114.7305275534503
 20
107.6512870727472
 10
114.7870378844972
 20
107.6859964092485
 10
114.8423209002956
 20
107.7128681536366
 10
114.8955153269869
 20
107.7301905241176
 10
114.9457491247894
 20
107.7362840366671
 10
114.9921287220746
 20
107.7294261435681
 10
115.0337713131375
 20
107.7079373607962
 10
115.0698263900429
 20
107.6701166724807
 10
115.0994003811623
 20
107.6142522968278
 10
115.1216104807908
 20
107.5386539838898
 10
115.1355738832232
 20
107.4416207177961
 10
115.140429314601
 20
107.3214622485991
 10
115.140429314601
 20
105.0506275930335
 10
117.6991232255548
 20
105.0495725325567
 10
117.8186034415881
 20
105.0423701299143
 10
117.9294386212657
 20
105.0207090923707
 10
118.031779487513
 20
104.9852246093966
 10
118.1257552314087
 20
104.9364549771538
 10
118.2114842781084
 20
104.87499232142
 10
118.2891173505373
 20
104.8014395338962
 10
118.3587621079278
 20
104.7163564425904
 10
118.4205477413586
 20
104.6203351732806
 10
118.4746357396782
 20
104.5139463198979
 10
118.5211014643493
 20
104.3977820082202
 10
118.5601171701435
 20
104.272423598102
 10
118.5918012822165
 20
104.1384416834747
 10
118.6162722257238
 20
103.9964391560392
 10
118.6336699576673
 20
103.8469758438037
 10
118.644123669126
 20
103.6906546384691
 10
118.6477517852553
 20
103.5280353680436
 10
118.6463306833887
 20
103.0140378951587
 10
118.642314994023
 20
102.9554712727743
 10
118.6308062220875
 20
102.9008126805234
 10
118.6125149185157
 20
102.8500405865594
 10
118.5882269957033
 20
102.8031334590357
 10
118.5586853023536
 20
102.7600697661061
 10
118.5246434530927
 20
102.7208495077705
 10
118.486855062547
 20
102.6854619181055
 10
118.4460845112658
 20
102.6538531674952
 10
118.4030746479524
 20
102.6260447877859
 10
118.3585790872328
 20
102.6020152471311
 10
118.3133622096567
 20
102.5817322477613
 10
118.2681560980038
 20
102.565185023753
 10
118.2237358987469
 20
102.55235204326
 10
118.1808552265122
 20
102.5432333062822
 10
118.1402569300028
 20
102.5377965150498
 10
118.1027053897681
 20
102.5360309036397
 10
118.1027053897681
 20
102.5360309036397
 10
118.063463599586
 20
102.538270215672
 10
118.0233067059291
 20
102.5445575148398
 10
117.9826653457268
 20
102.5548282056035
 10
117.9420347514477
 20
102.5690176924238
 10
117.9018240281746
 20
102.5870398479149
 10
117.8625068765298
 20
102.6088623743069
 10
117.8245139334427
 20
102.6343991442142
 10
117.7883296654585
 20
102.6636070939437
 10
117.75439547543
 20
102.6963893301864
 10
117.7231527662095
 20
102.7327135551726
 10
117.6950537065729
 20
102.7724936415163
 10
117.670550465296
 20
102.8156757596015
 10
117.6501167430009
 20
102.8621953138888
 10
117.6341831766169
 20
102.9119769429154
 10
117.6232019349199
 20
102.9649668170653
 10
117.6176359526087
 20
103.0211003407991
 10
117.6176359526087
 20
103.0211003407991
 10
117.6128666486168
 20
103.0740040875632
 10
117.603564890944
 20
103.1248946066828
 10
117.5899567639782
 20
103.1736104093094
 10
117.5722683521073
 20
103.2199469429017
 10
117.5506934419496
 20
103.2637319526879
 10
117.5254796497393
 20
103.3047716520499
 10
117.4968422939411
 20
103.3428830202926
 10
117.4649751611731
 20
103.3778938026444
 10
117.4301043358234
 20
103.4095994465638
 10
117.3924559022796
 20
103.4378276972792
 10
117.3522344130834
 20
103.4623847681723
 10
117.3096659526224
 20
103.4831091703947
 10
117.2649550734382
 20
103.499796351405
 10
117.2183386258419
 20
103.5122632905081
 10
117.1700211623748
 20
103.5203269670092
 10
117.1202180015017
 20
103.5238043602132
 10
117.1202180015017
 20
103.5238043602132
 10
117.0719866654205
 20
103.521941855494
 10
117.0249180490484
 20
103.514621027696
 10
116.9793351300824
 20
103.5021540885929
 10
116.9354639929103
 20
103.4848640158816
 10
116.8935630196898
 20
103.4630953191057
 10
116.8539336562713
 20
103.437170975962
 10
116.8168127529659
 20
103.4074247300709
 10
116.7824802237778
 20
103.3741795591292
 10
116.7511944508644
 20
103.3377799726804
 10
116.7232138163834
 20
103.2985489484215
 10
116.6988074684155
 20
103.2568094640495
 10
116.6782445550416
 20
103.2129060291077
 10
116.6617942243425
 20
103.16715085537
 10
116.6497148584757
 20
103.1198884523797
 10
116.6422756055221
 20
103.0714525637571
 10
116.6397348476393
 20
103.0221554012759
 10
116.6397348476393
 20
100.7509762361668
 10
116.6471633346696
 20
100.6140121608041
 10
116.6691581158335
 20
100.4767574055141
 10
116.7052993201247
 20
100.3404608173918
 10
116.7551778424604
 20
100.2063820094554
 10
116.8183845777579
 20
100.0757805947231
 10
116.8944781231645
 20
99.94991618621296
 10
116.9830386076743
 20
99.83004839694331
 10
117.0836569262044
 20
99.71742607400907
 10
117.1959132077488
 20
99.61330883042845
 10
117.3193983472245
 20
99.51895627921962
 10
117.4536709417791
 20
99.43562803340077
 10
117.598332652253
 20
99.36459447191334
 10
117.7529528417169
 20
99.30708291000579
 10
117.9171116391646
 20
99.26437449254283
 10
118.0903999395135
 20
99.23772883254262
 10
118.2723871058341
 20
99.22838401117689
 10
127.0918314178238
 20
99.22873928664356
 10
127.2402934991987
 20
99.2363292625224
 10
127.3875390312484
 20
99.25829174591652
 10
127.5324483579566
 20
99.29412073843397
 10
127.6737726322285
 20
99.34321334837377
 10
127.8103168365851
 20
99.40499898180457
 10
127.9409182513175
 20
99.47896087441121
 10
128.064349561177
 20
99.56449613449271
 10
128.1794049827618
 20
99.66107723181065
 10
128.2849110304394
 20
99.76810127466402
 10
128.3796403889614
 20
99.88505149873768
 10
128.4624195726954
 20
100.0113357782539
 10
128.5320427982394
 20
100.1464158170509
 10
128.5873150481146
 20
100.2897102552743
 10
128.6270197729957
 20
100.4406700308391
 10
128.6499834872504
 20
100.5987245498141
 10
128.6549896415535
 20
100.7633247501144
 10
128.6440622294726
 20
103.0337933642901
 10
128.6434485718484
 20
103.0811095968966
 10
128.6369674860624
 20
103.127822937802
 10
128.6249850135048
 20
103.173588877463
 10
128.6079102592582
 20
103.2180736722593
 10
128.5861092647125
 20
103.260911280801
 10
128.5599803690275
 20
103.301767959468
 10
128.5298788476696
 20
103.3402884327936
 10
128.4962030397987
 20
103.3761281912343
 10
128.4593297527277
 20
103.4089319593234
 10
128.419646559693
 20
103.4383552275176
 10
128.3775195020846
 20
103.4640642521966
 10
128.3333576849853
 20
103.4856929919705
 10
128.2875163838617
 20
103.5028969372959
 10
128.2403939378734
 20
103.5153315786293
 10
128.1923671543336
 20
103.5226524064274
 10
128.1438236064787
 20
103.5245149111466
 10
128.1438236064787
 20
103.5245149111466
 10
128.0939666159894
 20
103.5210913475587
 10
128.045584556983
 20
103.5130707347505
 10
127.9989142797705
 20
103.5006360934171
 10
127.9541603368933
 20
103.4839704442533
 10
127.9115595786627
 20
103.4632568079542
 10
127.8713057916967
 20
103.438699737061
 10
127.83361429446
 20
103.4104822522689
 10
127.7987111713406
 20
103.3787658424262
 10
127.766811740803
 20
103.3437658259977
 10
127.7381313213118
 20
103.3056436918317
 10
127.7128744654086
 20
103.264614758393
 10
127.6912780234044
 20
103.2208512804532
 10
127.6735465478406
 20
103.1745362787074
 10
127.6598953571819
 20
103.1258527738505
 10
127.6505397698929
 20
103.0749945525006
 10
127.6456951044383
 20
103.0221554012759
 10
127.6456951044383
 20
103.0221554012759
 10
127.640258313206
 20
102.9659572820027
 10
127.6293847307413
 20
102.9129243441599
 10
127.6135265258199
 20
102.8630996514403
 10
127.5931681649874
 20
102.8165370334601
 10
127.5687295192499
 20
102.7733226176052
 10
127.5406842892294
 20
102.733520999415
 10
127.5094523459322
 20
102.6971967744288
 10
127.4755289218269
 20
102.6644037722629
 10
127.4393231219963
 20
102.6352065884566
 10
127.4013301789091
 20
102.6096698185494
 10
127.3619591976482
 20
102.5878688240037
 10
127.321694644759
 20
102.5698682003592
 10
127.280977923094
 20
102.5557217772318
 10
127.240261201429
 20
102.5455049160842
 10
127.1999858826166
 20
102.5392714465327
 10
127.1606256672789
 20
102.5370859641165
 10
127.1606256672789
 20
102.5370859641165
 10
127.1232033181231
 20
102.538733150371
 10
127.0827449786157
 20
102.5441161119872
 10
127.0400473270759
 20
102.5532671467348
 10
126.995907041823
 20
102.5662293183066
 10
126.9510885034065
 20
102.5830779881653
 10
126.9063991560688
 20
102.6038346881574
 10
126.8626033803594
 20
102.6285640138222
 10
126.8205086205206
 20
102.6572874970063
 10
126.7808792571021
 20
102.6900912650955
 10
126.7445227343463
 20
102.7269860840129
 10
126.7122034328026
 20
102.7680473152213
 10
126.6847180307903
 20
102.8133072564904
 10
126.6628632066285
 20
102.8628197374362
 10
126.64741410679
 20
102.9166278217518
 10
126.6391458777475
 20
102.9747853390533
 10
126.6388659637434
 20
103.0373245871103
 10
126.6381661787333
 20
103.5506222749852
 10
126.6382092424262
 20
103.7097426203602
 10
126.645982239
 20
103.8636737907372
 10
126.6615174662244
 20
104.0116621714899
 10
126.6847718604064
 20
104.1529433820688
 10
126.7157669533925
 20
104.2867745737709
 10
126.754470447413
 20
104.4124021319698
 10
126.800882342468
 20
104.529050910193
 10
126.854991872634
 20
104.6359780597373
 10
126.9167882719881
 20
104.7324299659764
 10
126.9862930723765
 20
104.8176422483609
 10
127.0634524441832
 20
104.8908612922646
 10
127.1482986851778
 20
104.951333483061
 10
127.2407994975907
 20
104.998305206124
 10
127.3409548814218
 20
105.0310120809041
 10
127.4487648366711
 20
105.0487112586982
 10
127.5642078314922
 20
105.0506275930335
 10
130.1285430862198
 20
105.0509828685002
 10
130.1334846449835
 20
98.03916936500173
 10
122.791480275947
 20
98.03916936500173
 10
122.6369569797923
 20
98.23743460724978
 10
122.4531611383686
 20
98.03775902905828
  0
HATCH
  5
7F
330
1F
100
AcDbEntity
  8
ISS138金台
  6
Continuous
 62
     7
420
 16777215
370
    25
100
AcDbHatch
 10
0.0
 20
0.0
 30
0.0
210
0.0
220
0.0
230
1.0
  2
SOLID
 70
     1
 71
     0
 91
        1
 92
        3
 72
     0
 73
     1
 93
        4
 10
112.4286224434359
 20
103.0221554012759
 10
115.1407738241445
 20
103.0221554012759
 10
115.1407738241445
 20
100.0235443351994
 10
109.4300113773594
 20
100.0235443351994
 97
        0
 75
     1
 76
     1
 98
        0
  0
LWPOLYLINE
  5
80
330
1F
100
AcDbEntity
  8
ISS138金台
  6
Continuous
 62
     7
420
 16777215
370
    25
100
AcDbPolyline
 90
        5
 70
     0
 43
0.0
 10
112.4286224434359
 20
103.0221554012759
 10
115.1407738241445
 20
103.0221554012759
 10
115.1407738241445
 20
100.0235443351994
 10
109.4300113773594
 20
100.0235443351994
 10
112.4286224434359
 20
103.0221554012759
  0
LWPOLYLINE
  5
81
330
1F
100
AcDbEntity
  8
ISS138金台
  6
Continuous
 62
   250
420
  2367521
370
    25
100
AcDbPolyline
 90
        5
 70
     0
 43
0.0
 10
112.4286224434359
 20
103.0221554012759
 10
115.1407738241445
 20
103.0221554012759
 10
115.1407738241445
 20
100.0235443351994
 10
109.4300113773594
 20
100.0235443351994
 10
112.4286224434359
 20
103.0221554012759
  0
LINE
  5
82
330
1F
100
AcDbEntity
  8
ISS138金台
  6
Continuous
 62
   250
420
  2367521
370
    13
100
AcDbLine
 10
130.183955293097
 20
109.0524289177524
 30
0.0
 11
130.183955293097
 21
119.0406218558524
 31
0.0
  0
LINE
  5
83
330
1F
100
AcDbEntity
  8
ISS138金台
  6
Continuous
 62
   250
420
  2367521
370
    13
100
AcDbLine
 10
105.3792789315493
 20
118.5333315531413
 30
0.0
 11
130.1841490797152
 21
118.5333315531413
 31
0.0
  0
LINE
  5
84
330
1F
100
AcDbEntity
  8
ISS138金台
  6
Continuous
 62
   250
420
  2367521
370
    13
100
AcDbLine
 10
105.3792789315493
 20
119.0404388351574
 30
0.0
 11
105.3792789315493
 21
109.0522458970574
 31
0.0
  0
LINE
  5
85
330
1F
100
AcDbEntity
  8
ISS138金台
  6
Continuous
 62
   250
420
  2367521
370
    13
100
AcDbLine
 10
115.0586082980347
 20
109.0524289177524
 30
0.0
 11
115.0586082980347
 21
114.0354149540265
 31
0.0
  0
LINE
  5
86
330
1F
100
AcDbEntity
  8
ISS138金台
  6
Continuous
 62
   250
420
  2367521
370
    13
100
AcDbLine
 10
130.183955293097
 20
113.5503455168671
 30
0.0
 11
115.0586082980347
 21
113.5503455168671
 31
0.0
  0
LINE
  5
87
330
1F
100
AcDbEntity
  8
ISS138金台
  6
Continuous
 62
   250
420
  2367521
370
    13
100
AcDbLine
 10
131.3304938195789
 20
105.1057168222138
 30
0.0
 11
136.3357007214047
 21
105.1057168222138
 31
0.0
  0
LINE
  5
88
330
1F
100
AcDbEntity
  8
ISS138金台
  6
Continuous
 62
   250
420
  2367521
370
    13
100
AcDbLine
 10
135.8283996527704
 20
97.98402630620532
 30
0.0
 11
135.8283996527704
 21
105.1058998429087
 31
0.0
  0
LINE
  5
89
330
1F
100
AcDbEntity
  8
ISS138金台
  6
Continuous
 62
   250
420
  2367521
370
    13
100
AcDbLine
 10
131.3304938195789
 20
97.98402630620532
 30
0.0
 11
141.3405631136872
 21
97.98402630620532
 31
0.0
  0
LINE
  5
8A
330
1F
100
AcDbEntity
  8
ISS138金台
  6
Continuous
 62
   250
420
  2367521
370
    13
100
AcDbLine
 10
131.3304938195789
 20
108.1043278882902
 30
0.0
 11
141.3405631136872
 21
108.1043278882902
 31
0.0
  0
LINE
  5
8B
330
1F
100
AcDbEntity
  8
ISS138金台
  6
Continuous
 62
   250
420
  2367521
370
    13
100
AcDbLine
 10
140.8334450657478
 20
97.98402630620532
 30
0.0
 11
140.8334450657478
 21
108.1045109089852
 31
0.0
  0
TEXT
  5
8C
330
1F
100
AcDbEntity
  8
ISS138金台
  6
Continuous
 62
   250
420
  2367521
100
AcDbText
 10
139.7740318831451
 20
101.313355750664
 30
0.0
 40
2.150533301035563
  1
10
 50
90.00000250447816
 41
0.9978761672973631
  7
MS Gothic
100
AcDbText
  0
TEXT
  5
8D
330
1F
100
AcDbEntity
  8
ISS138金台
  6
Continuous
 62
   250
420
  2367521
100
AcDbText
 10
134.7899907863942
 20
101.0057302602211
 30
0.0
 40
2.150533301035563
  1
7
 50
90.00000250447816
 41
1.024999618530273
  7
MS Gothic
100
AcDbText
  0
TEXT
  5
8E
330
1F
100
AcDbEntity
  8
ISS138金台
  6
Continuous
 62
   250
420
  2367521
100
AcDbText
 10
121.1660734840876
 20
114.5876777909201
 30
0.0
 40
2.150533301035563
  1
15
 41
0.9618744850158689
  7
MS Gothic
100
AcDbText
  0
TEXT
  5
8F
330
1F
100
AcDbEntity
  8
ISS138金台
  6
Continuous
 62
   250
420
  2367521
100
AcDbText
 10
116.1397007771868
 20
119.5717188876711
 30
0.0
 40
2.150533301035563
  1
25
 41
0.9140014648437499
  7
MS Gothic
100
AcDbText
  0
HATCH
  5
90
330
1F
100
AcDbEntity
  8
ISS138金台
  6
Continuous
 62
   250
420
  2367521
370
    50
100
AcDbHatch
 10
0.0
 20
0.0
 30
0.0
210
0.0
220
0.0
230
1.0
  2
SOLID
 70
     1
 71
     0
 91
        1
 92
        3
 72
     0
 73
     1
 93
       67
 10
140.8334450657478
 20
107.8542139597549
 10
140.8590464311945
 20
107.8554951046196
 10
140.8838941820148
 20
107.8592847095974
 10
140.9078806589767
 20
107.8654428176863
 10
140.9308659050778
 20
107.8738510037308
 10
140.9527314951629
 20
107.8843693107289
 10
140.9733590040762
 20
107.8968900794482
 10
140.9926084748157
 20
107.9112841188099
 10
141.010361482226
 20
107.9274114718121
 10
141.0264996011513
 20
107.9451752451455
 10
141.0408828745898
 20
107.9644247158851
 10
141.0534144092324
 20
107.9850414588752
 10
141.0639327162305
 20
108.0069070489602
 10
141.0723301363517
 20
108.0299030609846
 10
141.0784882444406
 20
108.0538895379464
 10
141.0822778494185
 20
108.0787372887668
 10
141.0835697602063
 20
108.1043386542135
 10
141.0835697602063
 20
108.1043386542135
 10
141.0822778494185
 20
108.1298646581975
 10
141.0784990103639
 20
108.154669345325
 10
141.072340902275
 20
108.1786127585939
 10
141.0639327162305
 20
108.2015441750789
 10
141.0534144092324
 20
108.2233774673942
 10
141.0408936405131
 20
108.2439726785378
 10
141.0264996011513
 20
108.2632006174309
 10
141.010361482226
 20
108.2809428589179
 10
140.9926084748157
 20
108.2970594459969
 10
140.9733590040762
 20
108.3114427194353
 10
140.9527314951629
 20
108.3239527222314
 10
140.9308659050778
 20
108.3344710292295
 10
140.9078806589767
 20
108.3428684493507
 10
140.8838941820148
 20
108.3490265574397
 10
140.8590464311945
 20
108.3528053964943
 10
140.8334450657478
 20
108.3540973072821
 10
140.8334450657478
 20
108.3540973072821
 10
140.8079082958405
 20
108.3528161624175
 10
140.7831143746363
 20
108.3490157915164
 10
140.7591817272906
 20
108.3428684493507
 10
140.7362395448824
 20
108.3344710292295
 10
140.7143847207206
 20
108.3239634881546
 10
140.693789509577
 20
108.3114427194353
 10
140.6745723366071
 20
108.2970702119201
 10
140.6568300951201
 20
108.2809428589179
 10
140.6407135080412
 20
108.2632006174309
 10
140.6263302346027
 20
108.2439726785378
 10
140.6138202318066
 20
108.2233882333175
 10
140.6033019248086
 20
108.2015549410021
 10
140.5949045046873
 20
108.1786019926706
 10
140.5887463965984
 20
108.154669345325
 10
140.5849675575438
 20
108.1298754241208
 10
140.5836756467559
 20
108.1043386542135
 10
140.5836756467559
 20
108.1043386542135
 10
140.584978323467
 20
108.0787372887668
 10
140.5887571625216
 20
108.0538895379464
 10
140.5949045046873
 20
108.0299030609846
 10
140.6033019248086
 20
108.0069178148834
 10
140.6138309977298
 20
107.9850414588752
 10
140.6263302346027
 20
107.9644247158851
 10
140.6407135080412
 20
107.9451752451455
 10
140.6568300951201
 20
107.9274222377353
 10
140.6745723366071
 20
107.9112841188099
 10
140.6938002755002
 20
107.8968900794482
 10
140.7143954866438
 20
107.8843693107289
 10
140.7362287789591
 20
107.8738510037308
 10
140.7591709613674
 20
107.8654428176863
 10
140.7831143746363
 20
107.8592847095974
 10
140.8079082958405
 20
107.8555058705428
 97
        0
 75
     1
 76
     1
 98
        0
  0
LWPOLYLINE
  5
91
330
1F
100
AcDbEntity
  8
ISS138金台
  6
Continuous
 62
   250
420
  2367521
370
    50
100
AcDbPolyline
 90
       68
 70
     0
 43
0.0
 10
140.8334450657478
 20
107.8542139597549
 10
140.8590464311945
 20
107.8554951046196
 10
140.8838941820148
 20
107.8592847095974
 10
140.9078806589767
 20
107.8654428176863
 10
140.9308659050778
 20
107.8738510037308
 10
140.9527314951629
 20
107.8843693107289
 10
140.9733590040762
 20
107.8968900794482
 10
140.9926084748157
 20
107.9112841188099
 10
141.010361482226
 20
107.9274114718121
 10
141.0264996011513
 20
107.9451752451455
 10
141.0408828745898
 20
107.9644247158851
 10
141.0534144092324
 20
107.9850414588752
 10
141.0639327162305
 20
108.0069070489602
 10
141.0723301363517
 20
108.0299030609846
 10
141.0784882444406
 20
108.0538895379464
 10
141.0822778494185
 20
108.0787372887668
 10
141.0835697602063
 20
108.1043386542135
 10
141.0835697602063
 20
108.1043386542135
 10
141.0822778494185
 20
108.1298646581975
 10
141.0784990103639
 20
108.154669345325
 10
141.072340902275
 20
108.1786127585939
 10
141.0639327162305
 20
108.2015441750789
 10
141.0534144092324
 20
108.2233774673942
 10
141.0408936405131
 20
108.2439726785378
 10
141.0264996011513
 20
108.2632006174309
 10
141.010361482226
 20
108.2809428589179
 10
140.9926084748157
 20
108.2970594459969
 10
140.9733590040762
 20
108.3114427194353
 10
140.9527314951629
 20
108.3239527222314
 10
140.9308659050778
 20
108.3344710292295
 10
140.9078806589767
 20
108.3428684493507
 10
140.8838941820148
 20
108.3490265574397
 10
140.8590464311945
 20
108.3528053964943
 10
140.8334450657478
 20
108.3540973072821
 10
140.8334450657478
 20
108.3540973072821
 10
140.8079082958405
 20
108.3528161624175
 10
140.7831143746363
 20
108.3490157915164
 10
140.7591817272906
 20
108.3428684493507
 10
140.7362395448824
 20
108.3344710292295
 10
140.7143847207206
 20
108.3239634881546
 10
140.693789509577
 20
108.3114427194353
 10
140.6745723366071
 20
108.2970702119201
 10
140.6568300951201
 20
108.2809428589179
 10
140.6407135080412
 20
108.2632006174309
 10
140.6263302346027
 20
108.2439726785378
 10
140.6138202318066
 20
108.2233882333175
 10
140.6033019248086
 20
108.2015549410021
 10
140.5949045046873
 20
108.1786019926706
 10
140.5887463965984
 20
108.154669345325
 10
140.5849675575438
 20
108.1298754241208
 10
140.5836756467559
 20
108.1043386542135
 10
140.5836756467559
 20
108.1043386542135
 10
140.584978323467
 20
108.0787372887668
 10
140.5887571625216
 20
108.0538895379464
 10
140.5949045046873
 20
108.0299030609846
 10
140.6033019248086
 20
108.0069178148834
 10
140.6138309977298
 20
107.9850414588752
 10
140.6263302346027
 20
107.9644247158851
 10
140.6407135080412
 20
107.9451752451455
 10
140.6568300951201
 20
107.9274222377353
 10
140.6745723366071
 20
107.9112841188099
 10
140.6938002755002
 20
107.8968900794482
 10
140.7143954866438
 20
107.8843693107289
 10
140.7362287789591
 20
107.8738510037308
 10
140.7591709613674
 20
107.8654428176863
 10
140.7831143746363
 20
107.8592847095974
 10
140.8079082958405
 20
107.8555058705428
 10
140.8334450657478
 20
107.8542139597549
  0
HATCH
  5
92
330
1F
100
AcDbEntity
  8
ISS138金台
  6
Continuous
 62
   250
420
  2367521
370
    50
100
AcDbHatch
 10
0.0
 20
0.0
 30
0.0
210
0.0
220
0.0
230
1.0
  2
SOLID
 70
     1
 71
     0
 91
        1
 92
        3
 72
     0
 73
     1
 93
       67
 10
135.8287549282371
 20
104.8552476182118
 10
135.8543562936837
 20
104.8565287630764
 10
135.8791932785809
 20
104.8603291339775
 10
135.9031905214659
 20
104.8664764761431
 10
135.9261865334904
 20
104.8748738962644
 10
135.9480413576522
 20
104.8853922032625
 10
135.9686688665655
 20
104.897923737905
 10
135.987918337305
 20
104.9123177772668
 10
136.0056713447153
 20
104.9284451302689
 10
136.0218094636406
 20
104.9462089036024
 10
136.0361927370791
 20
104.9654583743419
 10
136.0487242717217
 20
104.986075117332
 10
136.0592425787197
 20
105.0079514733403
 10
136.0676507647642
 20
105.0309367194414
 10
136.0738088728532
 20
105.05491243048
 10
136.0775877119078
 20
105.0797709472237
 10
136.0788796226956
 20
105.1053723126703
 10
136.0788796226956
 20
105.1053723126703
 10
136.0775877119078
 20
105.1309629121938
 10
136.0738088728532
 20
105.1557998970909
 10
136.0676507647642
 20
105.1797756081295
 10
136.059253344643
 20
105.2027393223842
 10
136.0487135057984
 20
105.2245726146996
 10
136.0362035030024
 20
105.2451785917664
 10
136.0218094636406
 20
105.264384998813
 10
136.0056713447153
 20
105.2821164743768
 10
135.987918337305
 20
105.2982115296092
 10
135.9686688665655
 20
105.3125732712013
 10
135.9480413576522
 20
105.3250509762276
 10
135.9261757675671
 20
105.3355585173025
 10
135.9031905214659
 20
105.3439344055773
 10
135.8792040445041
 20
105.3500709818197
 10
135.8543562936837
 20
105.3538498208743
 10
135.8287549282371
 20
105.355130965739
 10
135.8287549282371
 20
105.355130965739
 10
135.8031750946369
 20
105.3538390549511
 10
135.77830581197
 20
105.3500709818197
 10
135.7543516327779
 20
105.3439236396541
 10
135.7313879185232
 20
105.3355477513792
 10
135.7095330943614
 20
105.3250509762276
 10
135.6889594150642
 20
105.312562505278
 10
135.6697422420944
 20
105.2982115296092
 10
135.6520107665306
 20
105.2821164743768
 10
135.6359157112982
 20
105.264384998813
 10
135.6215539697061
 20
105.2451678258432
 10
135.6090654987565
 20
105.2245726146996
 10
135.598568723605
 20
105.2027393223842
 10
135.5901928353301
 20
105.1797756081295
 10
135.5840454931644
 20
105.1558106630142
 10
135.5802774200331
 20
105.1309629121938
 10
135.5789855092452
 20
105.1053723126703
 10
135.5789855092452
 20
105.1053723126703
 10
135.5802666541098
 20
105.0797817131469
 10
135.5840454931644
 20
105.0549231964033
 10
135.5901820694069
 20
105.0309367194414
 10
135.598568723605
 20
105.007940707417
 10
135.6090547328333
 20
104.986075117332
 10
135.6215539697061
 20
104.9654583743419
 10
135.6359049453749
 20
104.9461981376792
 10
135.6520107665306
 20
104.9284451302689
 10
135.6697314761712
 20
104.9123177772668
 10
135.688948649141
 20
104.897923737905
 10
135.7095438602846
 20
104.8854029691857
 10
135.7313879185232
 20
104.8748846621877
 10
135.7543516327779
 20
104.8664764761431
 10
135.7783165778932
 20
104.8603183680542
 10
135.8031643287136
 20
104.8565395289996
 97
        0
 75
     1
 76
     1
 98
        0
  0
LWPOLYLINE
  5
93
330
1F
100
AcDbEntity
  8
ISS138金台
  6
Continuous
 62
   250
420
  2367521
370
    50
100
AcDbPolyline
 90
       68
 70
     0
 43
0.0
 10
135.8287549282371
 20
104.8552476182118
 10
135.8543562936837
 20
104.8565287630764
 10
135.8791932785809
 20
104.8603291339775
 10
135.9031905214659
 20
104.8664764761431
 10
135.9261865334904
 20
104.8748738962644
 10
135.9480413576522
 20
104.8853922032625
 10
135.9686688665655
 20
104.897923737905
 10
135.987918337305
 20
104.9123177772668
 10
136.0056713447153
 20
104.9284451302689
 10
136.0218094636406
 20
104.9462089036024
 10
136.0361927370791
 20
104.9654583743419
 10
136.0487242717217
 20
104.986075117332
 10
136.0592425787197
 20
105.0079514733403
 10
136.0676507647642
 20
105.0309367194414
 10
136.0738088728532
 20
105.05491243048
 10
136.0775877119078
 20
105.0797709472237
 10
136.0788796226956
 20
105.1053723126703
 10
136.0788796226956
 20
105.1053723126703
 10
136.0775877119078
 20
105.1309629121938
 10
136.0738088728532
 20
105.1557998970909
 10
136.0676507647642
 20
105.1797756081295
 10
136.059253344643
 20
105.2027393223842
 10
136.0487135057984
 20
105.2245726146996
 10
136.0362035030024
 20
105.2451785917664
 10
136.0218094636406
 20
105.264384998813
 10
136.0056713447153
 20
105.2821164743768
 10
135.987918337305
 20
105.2982115296092
 10
135.9686688665655
 20
105.3125732712013
 10
135.9480413576522
 20
105.3250509762276
 10
135.9261757675671
 20
105.3355585173025
 10
135.9031905214659
 20
105.3439344055773
 10
135.8792040445041
 20
105.3500709818197
 10
135.8543562936837
 20
105.3538498208743
 10
135.8287549282371
 20
105.355130965739
 10
135.8287549282371
 20
105.355130965739
 10
135.8031750946369
 20
105.3538390549511
 10
135.77830581197
 20
105.3500709818197
 10
135.7543516327779
 20
105.3439236396541
 10
135.7313879185232
 20
105.3355477513792
 10
135.7095330943614
 20
105.3250509762276
 10
135.6889594150642
 20
105.312562505278
 10
135.6697422420944
 20
105.2982115296092
 10
135.6520107665306
 20
105.2821164743768
 10
135.6359157112982
 20
105.264384998813
 10
135.6215539697061
 20
105.2451678258432
 10
135.6090654987565
 20
105.2245726146996
 10
135.598568723605
 20
105.2027393223842
 10
135.5901928353301
 20
105.1797756081295
 10
135.5840454931644
 20
105.1558106630142
 10
135.5802774200331
 20
105.1309629121938
 10
135.5789855092452
 20
105.1053723126703
 10
135.5789855092452
 20
105.1053723126703
 10
135.5802666541098
 20
105.0797817131469
 10
135.5840454931644
 20
105.0549231964033
 10
135.5901820694069
 20
105.0309367194414
 10
135.598568723605
 20
105.007940707417
 10
135.6090547328333
 20
104.986075117332
 10
135.6215539697061
 20
104.9654583743419
 10
135.6359049453749
 20
104.9461981376792
 10
135.6520107665306
 20
104.9284451302689
 10
135.6697314761712
 20
104.9123177772668
 10
135.688948649141
 20
104.897923737905
 10
135.7095438602846
 20
104.8854029691857
 10
135.7313879185232
 20
104.8748846621877
 10
135.7543516327779
 20
104.8664764761431
 10
135.7783165778932
 20
104.8603183680542
 10
135.8031643287136
 20
104.8565395289996
 10
135.8287549282371
 20
104.8552476182118
  0
HATCH
  5
94
330
1F
100
AcDbEntity
  8
ISS138金台
  6
Continuous
 62
   250
420
  2367521
370
    50
100
AcDbHatch
 10
0.0
 20
0.0
 30
0.0
210
0.0
220
0.0
230
1.0
  2
SOLID
 70
     1
 71
     0
 91
        1
 92
        3
 72
     0
 73
     1
 93
       67
 10
140.8337895752912
 20
97.73355710220332
 10
140.8593801748146
 20
97.73484901299122
 10
140.8842279256351
 20
97.73863861796903
 10
140.9082251685201
 20
97.74478596013472
 10
140.9312211805445
 20
97.753183380256
 10
140.9530760047063
 20
97.7637124531773
 10
140.9737035136196
 20
97.77622245597337
 10
140.9929529843592
 20
97.79062726125832
 10
141.0107059917694
 20
97.80675461426048
 10
141.0268333447715
 20
97.82450762167072
 10
141.0412273841333
 20
97.8437678583335
 10
141.0537481528526
 20
97.86438460132356
 10
141.0642772257739
 20
97.88625019140858
 10
141.0726854118184
 20
97.90924620343301
 10
141.0788435199073
 20
97.93323268039481
 10
141.0826223589619
 20
97.95808043121522
 10
141.0839142697498
 20
97.9836817966619
 10
141.0839142697498
 20
97.9836817966619
 10
141.0826331248851
 20
98.00928316210856
 10
141.0788435199073
 20
98.03410938108249
 10
141.0726746458951
 20
98.05808509212108
 10
141.0642879916971
 20
98.0810488063758
 10
141.0537589187758
 20
98.10288209869113
 10
141.0412381500565
 20
98.12347730983473
 10
141.0268441106948
 20
98.14270524872781
 10
141.0107059917694
 20
98.16041519244513
 10
140.9929529843592
 20
98.1765210136008
 10
140.9737035136196
 20
98.19088275519283
 10
140.9530867706296
 20
98.20337122614242
 10
140.9312104146213
 20
98.21386800129403
 10
140.9082251685201
 20
98.22224388956884
 10
140.8842386915583
 20
98.22838046581131
 10
140.8593909407379
 20
98.23215930486589
 10
140.8337895752912
 20
98.23344044973055
 10
140.8337895752912
 20
98.23344044973055
 10
140.8081882098446
 20
98.23215930486589
 10
140.7833404590241
 20
98.22838046581131
 10
140.759386279832
 20
98.22224388956884
 10
140.7364225655773
 20
98.2138572353708
 10
140.7145785073388
 20
98.20337122614242
 10
140.6939940621184
 20
98.1908719892696
 10
140.6747661232253
 20
98.1765210136008
 10
140.6570454135847
 20
98.16041519244513
 10
140.6409395924291
 20
98.14269448280457
 10
140.6265886167603
 20
98.12347730983473
 10
140.6141001458107
 20
98.10289286461435
 10
140.6036033706591
 20
98.0810488063758
 10
140.5952274823842
 20
98.05808509212108
 10
140.5890801402186
 20
98.03412014700572
 10
140.5853120670872
 20
98.00927239618532
 10
140.5840201562993
 20
97.9836817966619
 10
140.5840201562993
 20
97.9836817966619
 10
140.5853120670872
 20
97.95806966529199
 10
140.5890801402186
 20
97.93323268039481
 10
140.595216716461
 20
97.90924620343301
 10
140.6036033706591
 20
97.88625019140858
 10
140.6141001458107
 20
97.86438460132356
 10
140.6265886167603
 20
97.8437678583335
 10
140.6409395924291
 20
97.82450762167072
 10
140.6570454135847
 20
97.80675461426048
 10
140.6747661232253
 20
97.79061649533509
 10
140.6939832961951
 20
97.7762332218966
 10
140.714589273262
 20
97.7637124531773
 10
140.7364225655773
 20
97.75319414617924
 10
140.759386279832
 20
97.74478596013472
 10
140.7833512249474
 20
97.73863861796903
 10
140.8081989757678
 20
97.73484901299122
 97
        0
 75
     1
 76
     1
 98
        0
  0
LWPOLYLINE
  5
95
330
1F
100
AcDbEntity
  8
ISS138金台
  6
Continuous
 62
   250
420
  2367521
370
    50
100
AcDbPolyline
 90
       68
 70
     0
 43
0.0
 10
140.8337895752912
 20
97.73355710220332
 10
140.8593801748146
 20
97.73484901299122
 10
140.8842279256351
 20
97.73863861796903
 10
140.9082251685201
 20
97.74478596013472
 10
140.9312211805445
 20
97.753183380256
 10
140.9530760047063
 20
97.7637124531773
 10
140.9737035136196
 20
97.77622245597337
 10
140.9929529843592
 20
97.79062726125832
 10
141.0107059917694
 20
97.80675461426048
 10
141.0268333447715
 20
97.82450762167072
 10
141.0412273841333
 20
97.8437678583335
 10
141.0537481528526
 20
97.86438460132356
 10
141.0642772257739
 20
97.88625019140858
 10
141.0726854118184
 20
97.90924620343301
 10
141.0788435199073
 20
97.93323268039481
 10
141.0826223589619
 20
97.95808043121522
 10
141.0839142697498
 20
97.9836817966619
 10
141.0839142697498
 20
97.9836817966619
 10
141.0826331248851
 20
98.00928316210856
 10
141.0788435199073
 20
98.03410938108249
 10
141.0726746458951
 20
98.05808509212108
 10
141.0642879916971
 20
98.0810488063758
 10
141.0537589187758
 20
98.10288209869113
 10
141.0412381500565
 20
98.12347730983473
 10
141.0268441106948
 20
98.14270524872781
 10
141.0107059917694
 20
98.16041519244513
 10
140.9929529843592
 20
98.1765210136008
 10
140.9737035136196
 20
98.19088275519283
 10
140.9530867706296
 20
98.20337122614242
 10
140.9312104146213
 20
98.21386800129403
 10
140.9082251685201
 20
98.22224388956884
 10
140.8842386915583
 20
98.22838046581131
 10
140.8593909407379
 20
98.23215930486589
 10
140.8337895752912
 20
98.23344044973055
 10
140.8337895752912
 20
98.23344044973055
 10
140.8081882098446
 20
98.23215930486589
 10
140.7833404590241
 20
98.22838046581131
 10
140.759386279832
 20
98.22224388956884
 10
140.7364225655773
 20
98.2138572353708
 10
140.7145785073388
 20
98.20337122614242
 10
140.6939940621184
 20
98.1908719892696
 10
140.6747661232253
 20
98.1765210136008
 10
140.6570454135847
 20
98.16041519244513
 10
140.6409395924291
 20
98.14269448280457
 10
140.6265886167603
 20
98.12347730983473
 10
140.6141001458107
 20
98.10289286461435
 10
140.6036033706591
 20
98.0810488063758
 10
140.5952274823842
 20
98.05808509212108
 10
140.5890801402186
 20
98.03412014700572
 10
140.5853120670872
 20
98.00927239618532
 10
140.5840201562993
 20
97.9836817966619
 10
140.5840201562993
 20
97.9836817966619
 10
140.5853120670872
 20
97.95806966529199
 10
140.5890801402186
 20
97.93323268039481
 10
140.595216716461
 20
97.90924620343301
 10
140.6036033706591
 20
97.88625019140858
 10
140.6141001458107
 20
97.86438460132356
 10
140.6265886167603
 20
97.8437678583335
 10
140.6409395924291
 20
97.82450762167072
 10
140.6570454135847
 20
97.80675461426048
 10
140.6747661232253
 20
97.79061649533509
 10
140.6939832961951
 20
97.7762332218966
 10
140.714589273262
 20
97.7637124531773
 10
140.7364225655773
 20
97.75319414617924
 10
140.759386279832
 20
97.74478596013472
 10
140.7833512249474
 20
97.73863861796903
 10
140.8081989757678
 20
97.73484901299122
 10
140.8337895752912
 20
97.73355710220332
  0
HATCH
  5
96
330
1F
100
AcDbEntity
  8
ISS138金台
  6
Continuous
 62
   250
420
  2367521
370
    50
100
AcDbHatch
 10
0.0
 20
0.0
 30
0.0
210
0.0
220
0.0
230
1.0
  2
SOLID
 70
     1
 71
     0
 91
        1
 92
        3
 72
     0
 73
     1
 93
       67
 10
135.8287549282371
 20
97.73355710220332
 10
135.8543562936837
 20
97.73484901299122
 10
135.8791932785809
 20
97.73863861796903
 10
135.9031905214659
 20
97.74478596013472
 10
135.9261865334904
 20
97.753183380256
 10
135.9480413576522
 20
97.7637124531773
 10
135.9686688665655
 20
97.77622245597337
 10
135.987918337305
 20
97.79062726125832
 10
136.0056713447153
 20
97.80675461426048
 10
136.0218094636406
 20
97.82450762167072
 10
136.0361927370791
 20
97.8437678583335
 10
136.0487242717217
 20
97.86438460132356
 10
136.0592425787197
 20
97.88625019140858
 10
136.0676507647642
 20
97.90924620343301
 10
136.0738088728532
 20
97.93323268039481
 10
136.0775877119078
 20
97.95808043121522
 10
136.0788796226956
 20
97.9836817966619
 10
136.0788796226956
 20
97.9836817966619
 10
136.0775877119078
 20
98.00928316210856
 10
136.0738088728532
 20
98.03410938108249
 10
136.0676507647642
 20
98.05808509212108
 10
136.059253344643
 20
98.0810488063758
 10
136.0487135057984
 20
98.10288209869113
 10
136.0362035030024
 20
98.12347730983473
 10
136.0218094636406
 20
98.14270524872781
 10
136.0056713447153
 20
98.16041519244513
 10
135.987918337305
 20
98.1765210136008
 10
135.9686688665655
 20
98.19088275519283
 10
135.9480413576522
 20
98.20337122614242
 10
135.9261757675671
 20
98.21386800129403
 10
135.9031905214659
 20
98.22224388956884
 10
135.8792040445041
 20
98.22838046581131
 10
135.8543562936837
 20
98.23215930486589
 10
135.8287549282371
 20
98.23344044973055
 10
135.8287549282371
 20
98.23344044973055
 10
135.8031750946369
 20
98.23215930486589
 10
135.77830581197
 20
98.22838046581131
 10
135.7543516327779
 20
98.22224388956884
 10
135.7313879185232
 20
98.2138572353708
 10
135.7095330943614
 20
98.20337122614242
 10
135.6889594150642
 20
98.1908719892696
 10
135.6697422420944
 20
98.1765210136008
 10
135.6520107665306
 20
98.16041519244513
 10
135.6359157112982
 20
98.14269448280457
 10
135.6215539697061
 20
98.12347730983473
 10
135.6090654987565
 20
98.10289286461435
 10
135.598568723605
 20
98.0810488063758
 10
135.5901928353301
 20
98.05808509212108
 10
135.5840454931644
 20
98.03412014700572
 10
135.5802774200331
 20
98.00927239618532
 10
135.5789855092452
 20
97.9836817966619
 10
135.5789855092452
 20
97.9836817966619
 10
135.5802666541098
 20
97.95806966529199
 10
135.5840454931644
 20
97.93323268039481
 10
135.5901820694069
 20
97.90924620343301
 10
135.598568723605
 20
97.88625019140858
 10
135.6090547328333
 20
97.86438460132356
 10
135.6215539697061
 20
97.8437678583335
 10
135.6359049453749
 20
97.82450762167072
 10
135.6520107665306
 20
97.80675461426048
 10
135.6697314761712
 20
97.79061649533509
 10
135.688948649141
 20
97.7762332218966
 10
135.7095438602846
 20
97.7637124531773
 10
135.7313879185232
 20
97.75319414617924
 10
135.7543516327779
 20
97.74478596013472
 10
135.7783165778932
 20
97.73863861796903
 10
135.8031643287136
 20
97.73484901299122
 97
        0
 75
     1
 76
     1
 98
        0
  0
LWPOLYLINE
  5
97
330
1F
100
AcDbEntity
  8
ISS138金台
  6
Continuous
 62
   250
420
  2367521
370
    50
100
AcDbPolyline
 90
       68
 70
     0
 43
0.0
 10
135.8287549282371
 20
97.73355710220332
 10
135.8543562936837
 20
97.73484901299122
 10
135.8791932785809
 20
97.73863861796903
 10
135.9031905214659
 20
97.74478596013472
 10
135.9261865334904
 20
97.753183380256
 10
135.9480413576522
 20
97.7637124531773
 10
135.9686688665655
 20
97.77622245597337
 10
135.987918337305
 20
97.79062726125832
 10
136.0056713447153
 20
97.80675461426048
 10
136.0218094636406
 20
97.82450762167072
 10
136.0361927370791
 20
97.8437678583335
 10
136.0487242717217
 20
97.86438460132356
 10
136.0592425787197
 20
97.88625019140858
 10
136.0676507647642
 20
97.90924620343301
 10
136.0738088728532
 20
97.93323268039481
 10
136.0775877119078
 20
97.95808043121522
 10
136.0788796226956
 20
97.9836817966619
 10
136.0788796226956
 20
97.9836817966619
 10
136.0775877119078
 20
98.00928316210856
 10
136.0738088728532
 20
98.03410938108249
 10
136.0676507647642
 20
98.05808509212108
 10
136.059253344643
 20
98.0810488063758
 10
136.0487135057984
 20
98.10288209869113
 10
136.0362035030024
 20
98.12347730983473
 10
136.0218094636406
 20
98.14270524872781
 10
136.0056713447153
 20
98.16041519244513
 10
135.987918337305
 20
98.1765210136008
 10
135.9686688665655
 20
98.19088275519283
 10
135.9480413576522
 20
98.20337122614242
 10
135.9261757675671
 20
98.21386800129403
 10
135.9031905214659
 20
98.22224388956884
 10
135.8792040445041
 20
98.22838046581131
 10
135.8543562936837
 20
98.23215930486589
 10
135.8287549282371
 20
98.23344044973055
 10
135.8287549282371
 20
98.23344044973055
 10
135.8031750946369
 20
98.23215930486589
 10
135.77830581197
 20
98.22838046581131
 10
135.7543516327779
 20
98.22224388956884
 10
135.7313879185232
 20
98.2138572353708
 10
135.7095330943614
 20
98.20337122614242
 10
135.6889594150642
 20
98.1908719892696
 10
135.6697422420944
 20
98.1765210136008
 10
135.6520107665306
 20
98.16041519244513
 10
135.6359157112982
 20
98.14269448280457
 10
135.6215539697061
 20
98.12347730983473
 10
135.6090654987565
 20
98.10289286461435
 10
135.598568723605
 20
98.0810488063758
 10
135.5901928353301
 20
98.05808509212108
 10
135.5840454931644
 20
98.03412014700572
 10
135.5802774200331
 20
98.00927239618532
 10
135.5789855092452
 20
97.9836817966619
 10
135.5789855092452
 20
97.9836817966619
 10
135.5802666541098
 20
97.95806966529199
 10
135.5840454931644
 20
97.93323268039481
 10
135.5901820694069
 20
97.90924620343301
 10
135.598568723605
 20
97.88625019140858
 10
135.6090547328333
 20
97.86438460132356
 10
135.6215539697061
 20
97.8437678583335
 10
135.6359049453749
 20
97.82450762167072
 10
135.6520107665306
 20
97.80675461426048
 10
135.6697314761712
 20
97.79061649533509
 10
135.688948649141
 20
97.7762332218966
 10
135.7095438602846
 20
97.7637124531773
 10
135.7313879185232
 20
97.75319414617924
 10
135.7543516327779
 20
97.74478596013472
 10
135.7783165778932
 20
97.73863861796903
 10
135.8031643287136
 20
97.73484901299122
 10
135.8287549282371
 20
97.73355710220332
  0
HATCH
  5
98
330
1F
100
AcDbEntity
  8
ISS138金台
  6
Continuous
 62
   250
420
  2367521
370
    50
100
AcDbHatch
 10
0.0
 20
0.0
 30
0.0
210
0.0
220
0.0
230
1.0
  2
SOLID
 70
     1
 71
     0
 91
        1
 92
        3
 72
     0
 73
     1
 93
       67
 10
130.1843105685637
 20
113.3000485676368
 10
130.2099119340103
 20
113.3013404784247
 10
130.2347596848307
 20
113.3051193174793
 10
130.2587461617925
 20
113.3112881914915
 10
130.281742173817
 20
113.3196748456895
 10
130.3035969979788
 20
113.3302039186108
 10
130.3242245068921
 20
113.3427031554836
 10
130.3434739776316
 20
113.3570864289221
 10
130.3612269850419
 20
113.3732030160011
 10
130.3773651039672
 20
113.3909344915648
 10
130.3917483774057
 20
113.4101731963811
 10
130.4042799120483
 20
113.4307684075247
 10
130.4147982190463
 20
113.4525909339168
 10
130.4232064050909
 20
113.4755438822483
 10
130.4293645131798
 20
113.499476529594
 10
130.4331433522344
 20
113.5242812167214
 10
130.4344352630222
 20
113.5498179866287
 10
130.4344352630222
 20
113.5498179866287
 10
130.4331433522344
 20
113.5754301179986
 10
130.4293645131798
 20
113.6002671028958
 10
130.4232064050909
 20
113.6242535798576
 10
130.4148089849696
 20
113.6472388259588
 10
130.404269146125
 20
113.6690936501206
 10
130.391759143329
 20
113.6897319249571
 10
130.3773651039672
 20
113.7089706297734
 10
130.3612269850419
 20
113.7267344031069
 10
130.3434739776316
 20
113.7428725220323
 10
130.3242245068921
 20
113.7572557954708
 10
130.303607763902
 20
113.7697765641901
 10
130.2817314078937
 20
113.7802948711881
 10
130.2587461617925
 20
113.7887030572326
 10
130.2347596848307
 20
113.7948611653216
 10
130.2099119340103
 20
113.7986400043762
 10
130.1843105685637
 20
113.7999319151641
 10
130.1843105685637
 20
113.7999319151641
 10
130.1587307349635
 20
113.7986400043762
 10
130.1338722182198
 20
113.7948611653216
 10
130.1099072731045
 20
113.7887138231559
 10
130.0869435588498
 20
113.7802948711881
 10
130.065088734688
 20
113.7697765641901
 10
130.0445042894676
 20
113.7572557954708
 10
130.025297882421
 20
113.7428725220323
 10
130.0075664068572
 20
113.7267344031069
 10
129.9914713516248
 20
113.7089706297734
 10
129.9771096100328
 20
113.6897319249571
 10
129.9646211390831
 20
113.6691044160438
 10
129.9541243639316
 20
113.6472388259588
 10
129.9457484756567
 20
113.6242535798576
 10
129.939601133491
 20
113.6002671028958
 10
129.9358330603597
 20
113.5754193520754
 10
129.9345411495718
 20
113.5498179866287
 10
129.9345411495718
 20
113.5498179866287
 10
129.9358222944364
 20
113.5242812167214
 10
129.9396118994143
 20
113.499476529594
 10
129.9457377097335
 20
113.4755438822483
 10
129.9541243639316
 20
113.4526016998401
 10
129.9646103731599
 20
113.4307576416015
 10
129.9771096100328
 20
113.4101731963811
 10
129.9914605857015
 20
113.3909452574881
 10
130.0075664068572
 20
113.3732030160011
 10
130.0252871164978
 20
113.3570864289221
 10
130.0445042894676
 20
113.3427031554836
 10
130.0650995006112
 20
113.3301931526876
 10
130.0869435588498
 20
113.3196748456895
 10
130.1099072731045
 20
113.3112774255682
 10
130.1338722182198
 20
113.3051193174793
 10
130.1587199690402
 20
113.3013404784247
 97
        0
 75
     1
 76
     1
 98
        0
  0
LWPOLYLINE
  5
99
330
1F
100
AcDbEntity
  8
ISS138金台
  6
Continuous
 62
   250
420
  2367521
370
    50
100
AcDbPolyline
 90
       68
 70
     0
 43
0.0
 10
130.1843105685637
 20
113.3000485676368
 10
130.2099119340103
 20
113.3013404784247
 10
130.2347596848307
 20
113.3051193174793
 10
130.2587461617925
 20
113.3112881914915
 10
130.281742173817
 20
113.3196748456895
 10
130.3035969979788
 20
113.3302039186108
 10
130.3242245068921
 20
113.3427031554836
 10
130.3434739776316
 20
113.3570864289221
 10
130.3612269850419
 20
113.3732030160011
 10
130.3773651039672
 20
113.3909344915648
 10
130.3917483774057
 20
113.4101731963811
 10
130.4042799120483
 20
113.4307684075247
 10
130.4147982190463
 20
113.4525909339168
 10
130.4232064050909
 20
113.4755438822483
 10
130.4293645131798
 20
113.499476529594
 10
130.4331433522344
 20
113.5242812167214
 10
130.4344352630222
 20
113.5498179866287
 10
130.4344352630222
 20
113.5498179866287
 10
130.4331433522344
 20
113.5754301179986
 10
130.4293645131798
 20
113.6002671028958
 10
130.4232064050909
 20
113.6242535798576
 10
130.4148089849696
 20
113.6472388259588
 10
130.404269146125
 20
113.6690936501206
 10
130.391759143329
 20
113.6897319249571
 10
130.3773651039672
 20
113.7089706297734
 10
130.3612269850419
 20
113.7267344031069
 10
130.3434739776316
 20
113.7428725220323
 10
130.3242245068921
 20
113.7572557954708
 10
130.303607763902
 20
113.7697765641901
 10
130.2817314078937
 20
113.7802948711881
 10
130.2587461617925
 20
113.7887030572326
 10
130.2347596848307
 20
113.7948611653216
 10
130.2099119340103
 20
113.7986400043762
 10
130.1843105685637
 20
113.7999319151641
 10
130.1843105685637
 20
113.7999319151641
 10
130.1587307349635
 20
113.7986400043762
 10
130.1338722182198
 20
113.7948611653216
 10
130.1099072731045
 20
113.7887138231559
 10
130.0869435588498
 20
113.7802948711881
 10
130.065088734688
 20
113.7697765641901
 10
130.0445042894676
 20
113.7572557954708
 10
130.025297882421
 20
113.7428725220323
 10
130.0075664068572
 20
113.7267344031069
 10
129.9914713516248
 20
113.7089706297734
 10
129.9771096100328
 20
113.6897319249571
 10
129.9646211390831
 20
113.6691044160438
 10
129.9541243639316
 20
113.6472388259588
 10
129.9457484756567
 20
113.6242535798576
 10
129.939601133491
 20
113.6002671028958
 10
129.9358330603597
 20
113.5754193520754
 10
129.9345411495718
 20
113.5498179866287
 10
129.9345411495718
 20
113.5498179866287
 10
129.9358222944364
 20
113.5242812167214
 10
129.9396118994143
 20
113.499476529594
 10
129.9457377097335
 20
113.4755438822483
 10
129.9541243639316
 20
113.4526016998401
 10
129.9646103731599
 20
113.4307576416015
 10
129.9771096100328
 20
113.4101731963811
 10
129.9914605857015
 20
113.3909452574881
 10
130.0075664068572
 20
113.3732030160011
 10
130.0252871164978
 20
113.3570864289221
 10
130.0445042894676
 20
113.3427031554836
 10
130.0650995006112
 20
113.3301931526876
 10
130.0869435588498
 20
113.3196748456895
 10
130.1099072731045
 20
113.3112774255682
 10
130.1338722182198
 20
113.3051193174793
 10
130.1587199690402
 20
113.3013404784247
 10
130.1843105685637
 20
113.3000485676368
  0
HATCH
  5
9A
330
1F
100
AcDbEntity
  8
ISS138金台
  6
Continuous
 62
   250
420
  2367521
370
    50
100
AcDbHatch
 10
0.0
 20
0.0
 30
0.0
210
0.0
220
0.0
230
1.0
  2
SOLID
 70
     1
 71
     0
 91
        1
 92
        3
 72
     0
 73
     1
 93
       67
 10
115.0589635735014
 20
113.3000485676368
 10
115.0845541730248
 20
113.3013404784247
 10
115.1094019238452
 20
113.3051193174793
 10
115.1333668689606
 20
113.3112881914915
 10
115.1563305832153
 20
113.3196748456895
 10
115.1781638755306
 20
113.3302039186108
 10
115.1987590866742
 20
113.3427031554836
 10
115.2179762596441
 20
113.3570864289221
 10
115.2357077352078
 20
113.3732030160011
 10
115.2518027904403
 20
113.3909344915648
 10
115.2661645320323
 20
113.4101731963811
 10
115.2786530029819
 20
113.4307684075247
 10
115.2891497781335
 20
113.4525909339168
 10
115.2975364323316
 20
113.4755438822483
 10
115.3036730085741
 20
113.499476529594
 10
115.3074518476286
 20
113.5242812167214
 10
115.3087329924933
 20
113.5498179866287
 10
115.3087329924933
 20
113.5498179866287
 10
115.3074518476286
 20
113.5754301179986
 10
115.3036730085741
 20
113.6002671028958
 10
115.2975364323316
 20
113.6242535798576
 10
115.2891605440568
 20
113.6472388259588
 10
115.2786530029819
 20
113.6690936501206
 10
115.2661645320323
 20
113.6897319249571
 10
115.2518027904403
 20
113.7089706297734
 10
115.2357077352078
 20
113.7267344031069
 10
115.2179870255673
 20
113.7428725220323
 10
115.1987590866742
 20
113.7572557954708
 10
115.1781746414539
 20
113.7697765641901
 10
115.1563305832153
 20
113.7802948711881
 10
115.1333668689606
 20
113.7887030572326
 10
115.1094019238452
 20
113.7948611653216
 10
115.0845541730248
 20
113.7986400043762
 10
115.0589635735014
 20
113.7999319151641
 10
115.0589635735014
 20
113.7999319151641
 10
115.0333837399012
 20
113.7986400043762
 10
115.0085252231575
 20
113.7948611653216
 10
114.9845602780422
 20
113.7887138231559
 10
114.9615965637875
 20
113.7802948711881
 10
114.9397525055489
 20
113.7697765641901
 10
114.9191572944053
 20
113.7572557954708
 10
114.8999508873587
 20
113.7428725220323
 10
114.8822194117949
 20
113.7267344031069
 10
114.8661243565625
 20
113.7089706297734
 10
114.8517626149704
 20
113.6897319249571
 10
114.8392741440208
 20
113.6691044160438
 10
114.8287773688692
 20
113.6472388259588
 10
114.8204014805944
 20
113.6242535798576
 10
114.8142541384287
 20
113.6002671028958
 10
114.8104752993741
 20
113.5754193520754
 10
114.8091941545095
 20
113.5498179866287
 10
114.8091941545095
 20
113.5498179866287
 10
114.8104752993741
 20
113.5242812167214
 10
114.814264904352
 20
113.499476529594
 10
114.8203907146712
 20
113.4755438822483
 10
114.8287773688692
 20
113.4526016998401
 10
114.8392741440208
 20
113.4307576416015
 10
114.8517626149704
 20
113.4101731963811
 10
114.8661135906392
 20
113.3909452574881
 10
114.8822194117949
 20
113.3732030160011
 10
114.8999401214355
 20
113.3570864289221
 10
114.9191680603286
 20
113.3427031554836
 10
114.9397525055489
 20
113.3301931526876
 10
114.9615965637875
 20
113.3196748456895
 10
114.9845602780422
 20
113.3112774255682
 10
115.0085252231575
 20
113.3051193174793
 10
115.033372973978
 20
113.3013404784247
 97
        0
 75
     1
 76
     1
 98
        0
  0
LWPOLYLINE
  5
9B
330
1F
100
AcDbEntity
  8
ISS138金台
  6
Continuous
 62
   250
420
  2367521
370
    50
100
AcDbPolyline
 90
       68
 70
     0
 43
0.0
 10
115.0589635735014
 20
113.3000485676368
 10
115.0845541730248
 20
113.3013404784247
 10
115.1094019238452
 20
113.3051193174793
 10
115.1333668689606
 20
113.3112881914915
 10
115.1563305832153
 20
113.3196748456895
 10
115.1781638755306
 20
113.3302039186108
 10
115.1987590866742
 20
113.3427031554836
 10
115.2179762596441
 20
113.3570864289221
 10
115.2357077352078
 20
113.3732030160011
 10
115.2518027904403
 20
113.3909344915648
 10
115.2661645320323
 20
113.4101731963811
 10
115.2786530029819
 20
113.4307684075247
 10
115.2891497781335
 20
113.4525909339168
 10
115.2975364323316
 20
113.4755438822483
 10
115.3036730085741
 20
113.499476529594
 10
115.3074518476286
 20
113.5242812167214
 10
115.3087329924933
 20
113.5498179866287
 10
115.3087329924933
 20
113.5498179866287
 10
115.3074518476286
 20
113.5754301179986
 10
115.3036730085741
 20
113.6002671028958
 10
115.2975364323316
 20
113.6242535798576
 10
115.2891605440568
 20
113.6472388259588
 10
115.2786530029819
 20
113.6690936501206
 10
115.2661645320323
 20
113.6897319249571
 10
115.2518027904403
 20
113.7089706297734
 10
115.2357077352078
 20
113.7267344031069
 10
115.2179870255673
 20
113.7428725220323
 10
115.1987590866742
 20
113.7572557954708
 10
115.1781746414539
 20
113.7697765641901
 10
115.1563305832153
 20
113.7802948711881
 10
115.1333668689606
 20
113.7887030572326
 10
115.1094019238452
 20
113.7948611653216
 10
115.0845541730248
 20
113.7986400043762
 10
115.0589635735014
 20
113.7999319151641
 10
115.0589635735014
 20
113.7999319151641
 10
115.0333837399012
 20
113.7986400043762
 10
115.0085252231575
 20
113.7948611653216
 10
114.9845602780422
 20
113.7887138231559
 10
114.9615965637875
 20
113.7802948711881
 10
114.9397525055489
 20
113.7697765641901
 10
114.9191572944053
 20
113.7572557954708
 10
114.8999508873587
 20
113.7428725220323
 10
114.8822194117949
 20
113.7267344031069
 10
114.8661243565625
 20
113.7089706297734
 10
114.8517626149704
 20
113.6897319249571
 10
114.8392741440208
 20
113.6691044160438
 10
114.8287773688692
 20
113.6472388259588
 10
114.8204014805944
 20
113.6242535798576
 10
114.8142541384287
 20
113.6002671028958
 10
114.8104752993741
 20
113.5754193520754
 10
114.8091941545095
 20
113.5498179866287
 10
114.8091941545095
 20
113.5498179866287
 10
114.8104752993741
 20
113.5242812167214
 10
114.814264904352
 20
113.499476529594
 10
114.8203907146712
 20
113.4755438822483
 10
114.8287773688692
 20
113.4526016998401
 10
114.8392741440208
 20
113.4307576416015
 10
114.8517626149704
 20
113.4101731963811
 10
114.8661135906392
 20
113.3909452574881
 10
114.8822194117949
 20
113.3732030160011
 10
114.8999401214355
 20
113.3570864289221
 10
114.9191680603286
 20
113.3427031554836
 10
114.9397525055489
 20
113.3301931526876
 10
114.9615965637875
 20
113.3196748456895
 10
114.9845602780422
 20
113.3112774255682
 10
115.0085252231575
 20
113.3051193174793
 10
115.033372973978
 20
113.3013404784247
 10
115.0589635735014
 20
113.3000485676368
  0
HATCH
  5
9C
330
1F
100
AcDbEntity
  8
ISS138金台
  6
Continuous
 62
   250
420
  2367521
370
    50
100
AcDbHatch
 10
0.0
 20
0.0
 30
0.0
210
0.0
220
0.0
230
1.0
  2
SOLID
 70
     1
 71
     0
 91
        1
 92
        3
 72
     0
 73
     1
 93
       67
 10
130.1843105685637
 20
118.283034603911
 10
130.2099119340103
 20
118.2843265146989
 10
130.2347596848307
 20
118.2881053537535
 10
130.2587461617925
 20
118.2942742277656
 10
130.281742173817
 20
118.3026608819637
 10
130.3035969979788
 20
118.3131791889617
 10
130.3242245068921
 20
118.3256891917578
 10
130.3434739776316
 20
118.3400724651963
 10
130.3612269850419
 20
118.3561890522752
 10
130.3773651039672
 20
118.373920527839
 10
130.3917483774057
 20
118.3931592326553
 10
130.4042799120483
 20
118.4137544437989
 10
130.4147982190463
 20
118.435576970191
 10
130.4232064050909
 20
118.4585299185225
 10
130.4293645131798
 20
118.4824625658681
 10
130.4331433522344
 20
118.5072672529956
 10
130.4344352630222
 20
118.5328040229029
 10
130.4344352630222
 20
118.5328040229029
 10
130.4331433522344
 20
118.5584161542728
 10
130.4293645131798
 20
118.58325313917
 10
130.4232064050909
 20
118.6072396161318
 10
130.4148089849696
 20
118.630224862233
 10
130.404269146125
 20
118.6520796863948
 10
130.391759143329
 20
118.6727179612313
 10
130.3773651039672
 20
118.6919566660476
 10
130.3612269850419
 20
118.7097204393811
 10
130.3434739776316
 20
118.7258585583065
 10
130.3242245068921
 20
118.7402418317449
 10
130.303607763902
 20
118.7527626004642
 10
130.2817314078937
 20
118.7632809074623
 10
130.2587461617925
 20
118.7716890935068
 10
130.2347596848307
 20
118.7778472015958
 10
130.2099119340103
 20
118.7816260406503
 10
130.1843105685637
 20
118.7829179514382
 10
130.1843105685637
 20
118.7829179514382
 10
130.1587307349635
 20
118.7816260406503
 10
130.1338722182198
 20
118.7778472015958
 10
130.1099072731045
 20
118.77169985943
 10
130.0869435588498
 20
118.7632809074623
 10
130.065088734688
 20
118.7527626004642
 10
130.0445042894676
 20
118.7402418317449
 10
130.025297882421
 20
118.7258585583065
 10
130.0075664068572
 20
118.7097204393811
 10
129.9914713516248
 20
118.6919566660476
 10
129.9771096100328
 20
118.6727179612313
 10
129.9646211390831
 20
118.652090452318
 10
129.9541243639316
 20
118.630224862233
 10
129.9457484756567
 20
118.6072396161318
 10
129.939601133491
 20
118.58325313917
 10
129.9358330603597
 20
118.5584053883496
 10
129.9345411495718
 20
118.5328040229029
 10
129.9345411495718
 20
118.5328040229029
 10
129.9358222944364
 20
118.5072672529956
 10
129.9396118994143
 20
118.4824625658681
 10
129.9457377097335
 20
118.4585299185225
 10
129.9541243639316
 20
118.4355877361142
 10
129.9646103731599
 20
118.4137436778757
 10
129.9771096100328
 20
118.3931592326553
 10
129.9914605857015
 20
118.3739312937622
 10
130.0075664068572
 20
118.3561890522752
 10
130.0252871164978
 20
118.3400724651963
 10
130.0445042894676
 20
118.3256891917578
 10
130.0650995006112
 20
118.3131791889617
 10
130.0869435588498
 20
118.3026608819637
 10
130.1099072731045
 20
118.2942634618424
 10
130.1338722182198
 20
118.2881053537535
 10
130.1587199690402
 20
118.2843265146989
 97
        0
 75
     1
 76
     1
 98
        0
  0
LWPOLYLINE
  5
9D
330
1F
100
AcDbEntity
  8
ISS138金台
  6
Continuous
 62
   250
420
  2367521
370
    50
100
AcDbPolyline
 90
       68
 70
     0
 43
0.0
 10
130.1843105685637
 20
118.283034603911
 10
130.2099119340103
 20
118.2843265146989
 10
130.2347596848307
 20
118.2881053537535
 10
130.2587461617925
 20
118.2942742277656
 10
130.281742173817
 20
118.3026608819637
 10
130.3035969979788
 20
118.3131791889617
 10
130.3242245068921
 20
118.3256891917578
 10
130.3434739776316
 20
118.3400724651963
 10
130.3612269850419
 20
118.3561890522752
 10
130.3773651039672
 20
118.373920527839
 10
130.3917483774057
 20
118.3931592326553
 10
130.4042799120483
 20
118.4137544437989
 10
130.4147982190463
 20
118.435576970191
 10
130.4232064050909
 20
118.4585299185225
 10
130.4293645131798
 20
118.4824625658681
 10
130.4331433522344
 20
118.5072672529956
 10
130.4344352630222
 20
118.5328040229029
 10
130.4344352630222
 20
118.5328040229029
 10
130.4331433522344
 20
118.5584161542728
 10
130.4293645131798
 20
118.58325313917
 10
130.4232064050909
 20
118.6072396161318
 10
130.4148089849696
 20
118.630224862233
 10
130.404269146125
 20
118.6520796863948
 10
130.391759143329
 20
118.6727179612313
 10
130.3773651039672
 20
118.6919566660476
 10
130.3612269850419
 20
118.7097204393811
 10
130.3434739776316
 20
118.7258585583065
 10
130.3242245068921
 20
118.7402418317449
 10
130.303607763902
 20
118.7527626004642
 10
130.2817314078937
 20
118.7632809074623
 10
130.2587461617925
 20
118.7716890935068
 10
130.2347596848307
 20
118.7778472015958
 10
130.2099119340103
 20
118.7816260406503
 10
130.1843105685637
 20
118.7829179514382
 10
130.1843105685637
 20
118.7829179514382
 10
130.1587307349635
 20
118.7816260406503
 10
130.1338722182198
 20
118.7778472015958
 10
130.1099072731045
 20
118.77169985943
 10
130.0869435588498
 20
118.7632809074623
 10
130.065088734688
 20
118.7527626004642
 10
130.0445042894676
 20
118.7402418317449
 10
130.025297882421
 20
118.7258585583065
 10
130.0075664068572
 20
118.7097204393811
 10
129.9914713516248
 20
118.6919566660476
 10
129.9771096100328
 20
118.6727179612313
 10
129.9646211390831
 20
118.652090452318
 10
129.9541243639316
 20
118.630224862233
 10
129.9457484756567
 20
118.6072396161318
 10
129.939601133491
 20
118.58325313917
 10
129.9358330603597
 20
118.5584053883496
 10
129.9345411495718
 20
118.5328040229029
 10
129.9345411495718
 20
118.5328040229029
 10
129.9358222944364
 20
118.5072672529956
 10
129.9396118994143
 20
118.4824625658681
 10
129.9457377097335
 20
118.4585299185225
 10
129.9541243639316
 20
118.4355877361142
 10
129.9646103731599
 20
118.4137436778757
 10
129.9771096100328
 20
118.3931592326553
 10
129.9914605857015
 20
118.3739312937622
 10
130.0075664068572
 20
118.3561890522752
 10
130.0252871164978
 20
118.3400724651963
 10
130.0445042894676
 20
118.3256891917578
 10
130.0650995006112
 20
118.3131791889617
 10
130.0869435588498
 20
118.3026608819637
 10
130.1099072731045
 20
118.2942634618424
 10
130.1338722182198
 20
118.2881053537535
 10
130.1587199690402
 20
118.2843265146989
 10
130.1843105685637
 20
118.283034603911
  0
HATCH
  5
9E
330
1F
100
AcDbEntity
  8
ISS138金台
  6
Continuous
 62
   250
420
  2367521
370
    50
100
AcDbHatch
 10
0.0
 20
0.0
 30
0.0
210
0.0
220
0.0
230
1.0
  2
SOLID
 70
     1
 71
     0
 91
        1
 92
        3
 72
     0
 73
     1
 93
       67
 10
105.3796234410927
 20
118.283034603911
 10
105.4052140406162
 20
118.2843265146989
 10
105.4300617914366
 20
118.2881053537535
 10
105.4540267365519
 20
118.2942742277656
 10
105.4769904508066
 20
118.3026608819637
 10
105.4988345090452
 20
118.3131791889617
 10
105.5194189542656
 20
118.3256891917578
 10
105.5386468931586
 20
118.3400724651963
 10
105.5563676027992
 20
118.3561890522752
 10
105.5724734239549
 20
118.373920527839
 10
105.5868243996237
 20
118.3931592326553
 10
105.5993128705733
 20
118.4137544437989
 10
105.6098096457249
 20
118.435576970191
 10
105.6181962999229
 20
118.4585299185225
 10
105.6243328761654
 20
118.4824625658681
 10
105.62811171522
 20
118.5072672529956
 10
105.6293928600846
 20
118.5328040229029
 10
105.6293928600846
 20
118.5328040229029
 10
105.62811171522
 20
118.5584161542728
 10
105.6243328761654
 20
118.58325313917
 10
105.6181855339997
 20
118.6072396161318
 10
105.6098204116481
 20
118.630224862233
 10
105.5993128705733
 20
118.6520796863948
 10
105.5868243996237
 20
118.6727179612313
 10
105.5724734239549
 20
118.6919566660476
 10
105.5563676027992
 20
118.7097204393811
 10
105.5386468931586
 20
118.7258585583065
 10
105.5194189542656
 20
118.7402418317449
 10
105.4988345090452
 20
118.7527626004642
 10
105.4769904508066
 20
118.7632809074623
 10
105.4540267365519
 20
118.7716890935068
 10
105.4300617914366
 20
118.7778472015958
 10
105.4052140406162
 20
118.7816260406503
 10
105.3796234410927
 20
118.7829179514382
 10
105.3796234410927
 20
118.7829179514382
 10
105.3540220756461
 20
118.7816260406503
 10
105.3291850907489
 20
118.7778472015958
 10
105.3052201456335
 20
118.77169985943
 10
105.2822564313788
 20
118.7632809074623
 10
105.2604123731402
 20
118.7527626004642
 10
105.2398171619967
 20
118.7402418317449
 10
105.2205999890268
 20
118.7258585583065
 10
105.2028792793863
 20
118.7097204393811
 10
105.1867734582306
 20
118.6919566660476
 10
105.1724224825618
 20
118.6727179612313
 10
105.1599340116122
 20
118.652090452318
 10
105.1494372364606
 20
118.630224862233
 10
105.1410613481858
 20
118.6072396161318
 10
105.1349140060201
 20
118.58325313917
 10
105.1311351669655
 20
118.5584053883496
 10
105.1298540221008
 20
118.5328040229029
 10
105.1298540221008
 20
118.5328040229029
 10
105.1311459328887
 20
118.5072672529956
 10
105.1349247719433
 20
118.4824625658681
 10
105.1410505822625
 20
118.4585299185225
 10
105.1494372364606
 20
118.4355877361142
 10
105.1599340116122
 20
118.4137436778757
 10
105.1724224825618
 20
118.3931592326553
 10
105.1867734582306
 20
118.3739312937622
 10
105.2028792793863
 20
118.3561890522752
 10
105.2205999890268
 20
118.3400724651963
 10
105.2398279279199
 20
118.3256891917578
 10
105.2604123731402
 20
118.3131791889617
 10
105.2822564313788
 20
118.3026608819637
 10
105.3052201456335
 20
118.2942634618424
 10
105.3291850907489
 20
118.2881053537535
 10
105.3540328415693
 20
118.2843265146989
 97
        0
 75
     1
 76
     1
 98
        0
  0
LWPOLYLINE
  5
9F
330
1F
100
AcDbEntity
  8
ISS138金台
  6
Continuous
 62
   250
420
  2367521
370
    50
100
AcDbPolyline
 90
       68
 70
     0
 43
0.0
 10
105.3796234410927
 20
118.283034603911
 10
105.4052140406162
 20
118.2843265146989
 10
105.4300617914366
 20
118.2881053537535
 10
105.4540267365519
 20
118.2942742277656
 10
105.4769904508066
 20
118.3026608819637
 10
105.4988345090452
 20
118.3131791889617
 10
105.5194189542656
 20
118.3256891917578
 10
105.5386468931586
 20
118.3400724651963
 10
105.5563676027992
 20
118.3561890522752
 10
105.5724734239549
 20
118.373920527839
 10
105.5868243996237
 20
118.3931592326553
 10
105.5993128705733
 20
118.4137544437989
 10
105.6098096457249
 20
118.435576970191
 10
105.6181962999229
 20
118.4585299185225
 10
105.6243328761654
 20
118.4824625658681
 10
105.62811171522
 20
118.5072672529956
 10
105.6293928600846
 20
118.5328040229029
 10
105.6293928600846
 20
118.5328040229029
 10
105.62811171522
 20
118.5584161542728
 10
105.6243328761654
 20
118.58325313917
 10
105.6181855339997
 20
118.6072396161318
 10
105.6098204116481
 20
118.630224862233
 10
105.5993128705733
 20
118.6520796863948
 10
105.5868243996237
 20
118.6727179612313
 10
105.5724734239549
 20
118.6919566660476
 10
105.5563676027992
 20
118.7097204393811
 10
105.5386468931586
 20
118.7258585583065
 10
105.5194189542656
 20
118.7402418317449
 10
105.4988345090452
 20
118.7527626004642
 10
105.4769904508066
 20
118.7632809074623
 10
105.4540267365519
 20
118.7716890935068
 10
105.4300617914366
 20
118.7778472015958
 10
105.4052140406162
 20
118.7816260406503
 10
105.3796234410927
 20
118.7829179514382
 10
105.3796234410927
 20
118.7829179514382
 10
105.3540220756461
 20
118.7816260406503
 10
105.3291850907489
 20
118.7778472015958
 10
105.3052201456335
 20
118.77169985943
 10
105.2822564313788
 20
118.7632809074623
 10
105.2604123731402
 20
118.7527626004642
 10
105.2398171619967
 20
118.7402418317449
 10
105.2205999890268
 20
118.7258585583065
 10
105.2028792793863
 20
118.7097204393811
 10
105.1867734582306
 20
118.6919566660476
 10
105.1724224825618
 20
118.6727179612313
 10
105.1599340116122
 20
118.652090452318
 10
105.1494372364606
 20
118.630224862233
 10
105.1410613481858
 20
118.6072396161318
 10
105.1349140060201
 20
118.58325313917
 10
105.1311351669655
 20
118.5584053883496
 10
105.1298540221008
 20
118.5328040229029
 10
105.1298540221008
 20
118.5328040229029
 10
105.1311459328887
 20
118.5072672529956
 10
105.1349247719433
 20
118.4824625658681
 10
105.1410505822625
 20
118.4585299185225
 10
105.1494372364606
 20
118.4355877361142
 10
105.1599340116122
 20
118.4137436778757
 10
105.1724224825618
 20
118.3931592326553
 10
105.1867734582306
 20
118.3739312937622
 10
105.2028792793863
 20
118.3561890522752
 10
105.2205999890268
 20
118.3400724651963
 10
105.2398279279199
 20
118.3256891917578
 10
105.2604123731402
 20
118.3131791889617
 10
105.2822564313788
 20
118.3026608819637
 10
105.3052201456335
 20
118.2942634618424
 10
105.3291850907489
 20
118.2881053537535
 10
105.3540328415693
 20
118.2843265146989
 10
105.3796234410927
 20
118.283034603911
  0
LINE
  5
A0
330
1F
100
AcDbEntity
  8
ISS138金台
  6
UserDefined01
 62
   140
420
    44526
370
    13
100
AcDbLine
 10
122.6502098312913
 20
92.99865023497355
 30
0.0
 11
130.1763760831414
 21
92.99865023497355
 31
0.0
  0
TEXT
  5
A1
330
1F
100
AcDbEntity
  8
ISS138金台
  6
Continuous
 62
   140
420
    44526
100
AcDbText
 10
124.7678023355669
 20
93.78780334608716
 30
0.0
 40
1.881716638406118
  1
7.5
 41
0.8731679462251207
  7
MS Gothic
100
AcDbText
  0
HATCH
  5
A2
330
1F
100
AcDbEntity
  8
ISS138金台
  6
Continuous
 62
   140
420
    44526
370
    50
100
AcDbHatch
 10
0.0
 20
0.0
 30
0.0
210
0.0
220
0.0
230
1.0
  2
SOLID
 70
     1
 71
     0
 91
        1
 92
        3
 72
     0
 73
     1
 93
        3
 10
121.7844681145572
 20
102.1701725344327
 10
123.5162529938761
 20
102.1698172589661
 10
122.6515986353883
 20
100.6715775523278
 97
        0
 75
     1
 76
     1
 98
        0
  0
LWPOLYLINE
  5
A3
330
1F
100
AcDbEntity
  8
ISS138金台
  6
Continuous
 62
   140
420
    44526
370
    50
100
AcDbPolyline
 90
        4
 70
     0
 43
0.0
 10
121.7844681145572
 20
102.1701725344327
 10
123.5162529938761
 20
102.1698172589661
 10
122.6515986353883
 20
100.6715775523278
 10
121.7844681145572
 20
102.1701725344327
  0
ENDSEC
  0
SECTION
  2
OBJECTS
  0
DICTIONARY
  5
C
330
0
100
AcDbDictionary
281
     1
  3
ACAD_DETAILVIEWSTYLE
350
AB
  3
ACAD_GROUP
350
D
  3
ACAD_LAYOUT
350
1A
  3
ACAD_MATERIAL
350
43
  3
ACAD_MLEADERSTYLE
350
5B
  3
ACAD_MLINESTYLE
350
17
  3
ACAD_PLOTSETTINGS
350
19
  3
ACAD_PLOTSTYLENAME
350
E
  3
ACAD_SCALELIST
350
47
  3
ACAD_SECTIONVIEWSTYLE
350
AC
  3
ACAD_TABLESTYLE
350
59
  3
ACAD_VISUALSTYLE
350
2A
  3
ACDB_RECOMPOSE_DATA
350
A8
  3
AcDbVariableDictionary
350
A4
  0
SUN
  5
5D
330
29
100
AcDbSun
 90
        1
290
     0
 63
     7
421
 16777215
 40
1.0
291
     1
 91
  2455826
 92
 54000000
292
     0
 70
     2
 71
   256
280
     1
  0
DICTIONARY
  5
AB
102
{ACAD_REACTORS
330
C
102
}
330
C
100
AcDbDictionary
281
     1
  0
DICTIONARY
  5
D
102
{ACAD_REACTORS
330
C
102
}
330
C
100
AcDbDictionary
281
     1
  0
DICTIONARY
  5
1A
102
{ACAD_REACTORS
330
C
102
}
330
C
100
AcDbDictionary
281
     1
  3
Layout1
350
1E
  3
Layout2
350
26
  3
Model
350
22
  0
DICTIONARY
  5
43
102
{ACAD_REACTORS
330
C
102
}
330
C
100
AcDbDictionary
281
     1
  3
ByBlock
350
45
  3
ByLayer
350
44
  3
Global
350
46
  0
DICTIONARY
  5
5B
102
{ACAD_REACTORS
330
C
102
}
330
C
100
AcDbDictionary
281
     1
  3
Standard
350
5C
  0
DICTIONARY
  5
17
102
{ACAD_REACTORS
330
C
102
}
330
C
100
AcDbDictionary
281
     1
  3
Standard
350
18
  0
DICTIONARY
  5
19
102
{ACAD_REACTORS
330
C
102
}
330
C
100
AcDbDictionary
281
     1
  0
ACDBDICTIONARYWDFLT
  5
E
102
{ACAD_REACTORS
330
C
102
}
330
C
100
AcDbDictionary
281
     1
  3
Normal
350
F
100
AcDbDictionaryWithDefault
340
F
  0
DICTIONARY
  5
47
102
{ACAD_REACTORS
330
C
102
}
330
C
100
AcDbDictionary
281
     1
  3
A0
350
48
  3
A1
350
49
  3
A2
350
4A
  3
A3
350
4B
  3
A4
350
4C
  3
A5
350
4D
  3
A6
350
4E
  3
A7
350
4F
  3
A8
350
50
  3
A9
350
51
  3
B0
350
52
  3
B1
350
53
  3
B2
350
54
  3
B3
350
55
  3
B4
350
56
  3
B5
350
57
  3
B6
350
58
  0
DICTIONARY
  5
AC
102
{ACAD_REACTORS
330
C
102
}
330
C
100
AcDbDictionary
281
     1
  0
DICTIONARY
  5
59
102
{ACAD_REACTORS
330
C
102
}
330
C
100
AcDbDictionary
281
     1
  3
Standard
350
5A
  0
DICTIONARY
  5
2A
102
{ACAD_REACTORS
330
C
102
}
330
C
100
AcDbDictionary
281
     1
  3
2dWireframe
350
2F
  3
Basic
350
32
  3
Brighten
350
36
  3
ColorChange
350
3A
  3
Conceptual
350
34
  3
Dim
350
35
  3
EdgeColorOff
350
3D
  3
Facepattern
350
39
  3
Flat
350
2B
  3
FlatWithEdges
350
2C
  3
Gouraud
350
2D
  3
GouraudWithEdges
350
2E
  3
Hidden
350
31
  3
JitterOff
350
3B
  3
Linepattern
350
38
  3
OverhangOff
350
3C
  3
Realistic
350
33
  3
Shaded
350
42
  3
Shaded with edges
350
41
  3
Shades of Gray
350
3E
  3
Sketchy
350
3F
  3
Thicken
350
37
  3
Wireframe
350
30
  3
X-Ray
350
40
  0
XRECORD
  5
A8
102
{ACAD_REACTORS
330
C
102
}
330
C
100
AcDbXrecord
280
     1
 90
        1
330
5A
  0
DICTIONARY
  5
A4
102
{ACAD_REACTORS
330
C
102
}
330
C
100
AcDbDictionary
281
     1
  3
CANNOSCALE
350
A5
  3
CENTEREXE
350
AD
  3
CENTERLTYPEFILE
350
AE
  3
CMLEADERSTYLE
350
AA
  3
CTABLESTYLE
350
A9
  0
LAYOUT
  5
1E
102
{ACAD_REACTORS
330
1A
102
}
330
1A
100
AcDbPlotSettings
  1

  2
none_device
  4

  6

 40
0.0
 41
0.0
 42
0.0
 43
0.0
 44
0.0
 45
0.0
 46
0.0
 47
0.0
 48
0.0
 49
0.0
140
0.0
141
0.0
142
1.0
143
1.0
 70
   688
 72
     1
 73
     0
 74
     5
  7

 75
    16
 76
     0
 77
     5
 78
   300
147
1.0
148
0.0
149
0.0
100
AcDbLayout
  1
Layout1
 70
     1
 71
     1
 10
0.0
 20
0.0
 11
420.0
 21
297.0
 12
0.0
 22
0.0
 32
0.0
 14
1.000000000000000E+20
 24
1.000000000000000E+20
 34
1.000000000000000E+20
 15
-1.000000000000000E+20
 25
-1.000000000000000E+20
 35
-1.000000000000000E+20
146
0.0
 13
0.0
 23
0.0
 33
0.0
 16
1.0
 26
0.0
 36
0.0
 17
0.0
 27
1.0
 37
0.0
 76
     0
330
1B
  0
LAYOUT
  5
26
102
{ACAD_REACTORS
330
1A
102
}
330
1A
100
AcDbPlotSettings
  1

  2
none_device
  4

  6

 40
0.0
 41
0.0
 42
0.0
 43
0.0
 44
0.0
 45
0.0
 46
0.0
 47
0.0
 48
0.0
 49
0.0
140
0.0
141
0.0
142
1.0
143
1.0
 70
   688
 72
     1
 73
     0
 74
     5
  7

 75
    16
 76
     0
 77
     5
 78
   300
147
1.0
148
0.0
149
0.0
100
AcDbLayout
  1
Layout2
 70
     1
 71
     2
 10
0.0
 20
0.0
 11
0.0
 21
0.0
 12
0.0
 22
0.0
 32
0.0
 14
0.0
 24
0.0
 34
0.0
 15
0.0
 25
0.0
 35
0.0
146
0.0
 13
0.0
 23
0.0
 33
0.0
 16
1.0
 26
0.0
 36
0.0
 17
0.0
 27
1.0
 37
0.0
 76
     0
330
23
  0
LAYOUT
  5
22
102
{ACAD_REACTORS
330
1A
102
}
330
1A
100
AcDbPlotSettings
  1

  2
none_device
  4
Letter_(8.50_x_11.00_Inches)
  6

 40
6.35
 41
6.35
 42
6.35000508
 43
6.35000508
 44
215.9
 45
279.4
 46
0.0
 47
0.0
 48
0.0
 49
0.0
140
0.0
141
0.0
142
1.0
143
1.0
 70
  1712
 72
     1
 73
     0
 74
     0
  7

 75
     0
 76
     0
 77
     5
 78
   300
147
1.0
148
0.0
149
0.0
100
AcDbLayout
  1
Model
 70
     1
 71
     0
 10
0.0
 20
0.0
 11
302.9997823349792
 21
216.0016055409748
 12
0.0
 22
0.0
 32
0.0
 14
0.0
 24
0.0
 34
0.0
 15
302.9997823349792
 25
216.0016055409748
 35
0.0
146
0.0
 13
0.0
 23
0.0
 33
0.0
 16
1.0
 26
0.0
 36
0.0
 17
0.0
 27
1.0
 37
0.0
 76
     0
330
1F
331
29
  0
MATERIAL
  5
45
102
{ACAD_REACTORS
330
43
102
}
330
43
100
AcDbMaterial
  1
ByBlock
 72
     1
 94
      127
  0
MATERIAL
  5
44
102
{ACAD_REACTORS
330
43
102
}
330
43
100
AcDbMaterial
  1
ByLayer
 72
     1
 94
      127
  0
MATERIAL
  5
46
102
{ACAD_REACTORS
330
43
102
}
330
43
100
AcDbMaterial
  1
Global
 72
     1
 94
      127
  0
MLEADERSTYLE
  5
5C
102
{ACAD_REACTORS
330
5B
102
}
330
5B
100
AcDbMLeaderStyle
179
     2
170
     2
171
     1
172
     0
 90
        2
 40
0.0
 41
0.0
173
     1
 91
-1056964608
340
14
 92
       -2
290
     1
 42
2.0
291
     1
 43
8.0
  3
Standard
341
0
 44
4.0
300

342
11
174
     1
178
     6
175
     1
176
     0
 93
-1056964608
 45
4.0
292
     0
297
     0
 46
4.0
343
0
 94
-1056964608
 47
1.0
 49
1.0
140
1.0
293
     1
141
0.0
294
     1
177
     0
142
1.0
295
     0
296
     0
143
3.75
271
     0
272
     9
273
     9
298
     0
  0
MLINESTYLE
  5
18
102
{ACAD_REACTORS
330
17
102
}
330
17
100
AcDbMlineStyle
  2
Standard
 70
     0
  3

 62
   256
 51
90.0
 52
90.0
 71
     2
 49
0.5
 62
   256
  6
BYLAYER
 49
-0.5
 62
   256
  6
BYLAYER
  0
ACDBPLACEHOLDER
  5
F
102
{ACAD_REACTORS
330
E
102
}
330
E
  0
SCALE
  5
48
102
{ACAD_REACTORS
330
47
102
}
330
47
100
AcDbScale
 70
     0
300
1:1
140
1.0
141
1.0
290
     1
  0
SCALE
  5
49
102
{ACAD_REACTORS
330
47
102
}
330
47
100
AcDbScale
 70
     0
300
1:2
140
1.0
141
2.0
290
     0
  0
SCALE
  5
4A
102
{ACAD_REACTORS
330
47
102
}
330
47
100
AcDbScale
 70
     0
300
1:4
140
1.0
141
4.0
290
     0
  0
SCALE
  5
4B
102
{ACAD_REACTORS
330
47
102
}
330
47
100
AcDbScale
 70
     0
300
1:5
140
1.0
141
5.0
290
     0
  0
SCALE
  5
4C
102
{ACAD_REACTORS
330
47
102
}
330
47
100
AcDbScale
 70
     0
300
1:8
140
1.0
141
8.0
290
     0
  0
SCALE
  5
4D
102
{ACAD_REACTORS
330
47
102
}
330
47
100
AcDbScale
 70
     0
300
1:10
140
1.0
141
10.0
290
     0
  0
SCALE
  5
4E
102
{ACAD_REACTORS
330
47
102
}
330
47
100
AcDbScale
 70
     0
300
1:16
140
1.0
141
16.0
290
     0
  0
SCALE
  5
4F
102
{ACAD_REACTORS
330
47
102
}
330
47
100
AcDbScale
 70
     0
300
1:20
140
1.0
141
20.0
290
     0
  0
SCALE
  5
50
102
{ACAD_REACTORS
330
47
102
}
330
47
100
AcDbScale
 70
     0
300
1:30
140
1.0
141
30.0
290
     0
  0
SCALE
  5
51
102
{ACAD_REACTORS
330
47
102
}
330
47
100
AcDbScale
 70
     0
300
1:40
140
1.0
141
40.0
290
     0
  0
SCALE
  5
52
102
{ACAD_REACTORS
330
47
102
}
330
47
100
AcDbScale
 70
     0
300
1:50
140
1.0
141
50.0
290
     0
  0
SCALE
  5
53
102
{ACAD_REACTORS
330
47
102
}
330
47
100
AcDbScale
 70
     0
300
1:100
140
1.0
141
100.0
290
     0
  0
SCALE
  5
54
102
{ACAD_REACTORS
330
47
102
}
330
47
100
AcDbScale
 70
     0
300
2:1
140
2.0
141
1.0
290
     0
  0
SCALE
  5
55
102
{ACAD_REACTORS
330
47
102
}
330
47
100
AcDbScale
 70
     0
300
4:1
140
4.0
141
1.0
290
     0
  0
SCALE
  5
56
102
{ACAD_REACTORS
330
47
102
}
330
47
100
AcDbScale
 70
     0
300
8:1
140
8.0
141
1.0
290
     0
  0
SCALE
  5
57
102
{ACAD_REACTORS
330
47
102
}
330
47
100
AcDbScale
 70
     0
300
10:1
140
10.0
141
1.0
290
     0
  0
SCALE
  5
58
102
{ACAD_REACTORS
330
47
102
}
330
47
100
AcDbScale
 70
     0
300
100:1
140
100.0
141
1.0
290
     0
  0
TABLESTYLE
  5
5A
102
{ACAD_REACTORS
330
59
102
}
102
{ACAD_XDICTIONARY
360
A6
102
}
330
59
100
AcDbTableStyle
  3
Standard
 70
     0
 71
     0
 40
0.06
 41
0.06
280
     0
281
     0
  7
Standard
140
4.5
170
     2
 62
     0
 63
   257
283
     0
 90
        4
 91
        0
  1

274
    -2
284
     1
 64
     0
275
    -2
285
     1
 65
     0
276
    -2
286
     1
 66
     0
277
    -2
287
     1
 67
     0
278
    -2
288
     1
 68
     0
279
    -2
289
     1
 69
     0
  7
Standard
140
6.0
170
     5
 62
     0
 63
   257
283
     0
 90
        4
 91
        0
  1

274
    -2
284
     1
 64
     0
275
    -2
285
     1
 65
     0
276
    -2
286
     1
 66
     0
277
    -2
287
     1
 67
     0
278
    -2
288
     1
 68
     0
279
    -2
289
     1
 69
     0
  7
Standard
140
4.5
170
     5
 62
     0
 63
   257
283
     0
 90
        4
 91
        0
  1

274
    -2
284
     1
 64
     0
275
    -2
285
     1
 65
     0
276
    -2
286
     1
 66
     0
277
    -2
287
     1
 67
     0
278
    -2
288
     1
 68
     0
279
    -2
289
     1
 69
     0
  0
VISUALSTYLE
  5
2F
102
{ACAD_REACTORS
330
2A
102
}
330
2A
100
AcDbVisualStyle
  2
2dWireframe
 70
     4
177
     3
291
     0
 70
    58
 90
        0
176
     1
 90
        2
176
     1
 90
        0
176
     1
 90
        0
176
     1
 40
0.6
176
     1
 40
30.0
176
     1
 62
     7
420
 16777215
176
     1
 90
        1
176
     1
 90
        4
176
     1
 62
     7
176
     1
 62
   257
176
     1
 90
        1
176
     1
 90
        1
176
     1
 40
1.0
176
     1
 90
        0
176
     1
 62
   257
176
     1
 40
1.0
176
     1
 90
        1
176
     1
 90
        6
176
     1
 90
        2
176
     1
 62
     7
176
     1
 90
        5
176
     1
 90
        0
176
     1
 90
        0
176
     1
290
     0
176
     1
 90
        1
176
     1
 40
0.0
176
     1
 90
        0
176
     1
290
     1
176
     1
290
     1
176
     1
290
     0
176
     1
290
     0
176
     1
290
     0
176
     1
290
     0
176
     1
290
     0
176
     1
290
     0
176
     1
290
     0
176
     1
 90
       50
176
     1
 40
0.0
176
     1
 40
1.0
176
     1
 90
        0
176
     1
 62
    18
420
        0
176
     1
 90
       50
176
     1
 90
        3
176
     1
 62
     5
420
      255
176
     1
290
     0
176
     1
 90
       50
176
     1
 90
       50
176
     1
 90
       50
176
     1
290
     0
176
     1
 90
       50
176
     1
 62
   256
176
     0
 40
1.0
176
     0
 90
        2
176
     1
  1
strokes_ogs.tif
176
     1
290
     0
176
     1
 40
1.0
176
     1
 40
1.0
176
     1
  0
VISUALSTYLE
  5
32
102
{ACAD_REACTORS
330
2A
102
}
330
2A
100
AcDbVisualStyle
  2
Basic
 70
     7
177
     3
291
     1
 70
    58
 90
        1
176
     1
 90
        0
176
     1
 90
        1
176
     1
 90
        0
176
     1
 40
0.6
176
     1
 40
30.0
176
     1
 62
     7
420
 16777215
176
     1
 90
        0
176
     1
 90
        4
176
     1
 62
     7
176
     1
 62
   257
176
     1
 90
        1
176
     1
 90
        1
176
     1
 40
1.0
176
     1
 90
        8
176
     1
 62
     7
176
     1
 40
1.0
176
     1
 90
        1
176
     1
 90
        6
176
     1
 90
        2
176
     1
 62
     7
176
     1
 90
        5
176
     1
 90
        0
176
     1
 90
        0
176
     1
290
     0
176
     1
 90
        1
176
     1
 40
0.0
176
     1
 90
        0
176
     1
290
     0
176
     1
290
     1
176
     1
290
     1
176
     1
290
     0
176
     1
290
     0
176
     1
290
     0
176
     1
290
     0
176
     1
290
     0
176
     1
290
     0
176
     1
 90
       50
176
     1
 40
0.0
176
     1
 40
1.0
176
     1
 90
        0
176
     1
 62
    18
420
        0
176
     1
 90
       50
176
     1
 90
        3
176
     1
 62
     5
420
      255
176
     1
290
     0
176
     1
 90
       50
176
     1
 90
       50
176
     1
 90
       50
176
     1
290
     0
176
     1
 90
       50
176
     1
 62
   256
176
     0
 40
1.0
176
     0
 90
        2
176
     1
  1
strokes_ogs.tif
176
     1
290
     0
176
     1
 40
1.0
176
     1
 40
1.0
176
     1
  0
VISUALSTYLE
  5
36
102
{ACAD_REACTORS
330
2A
102
}
330
2A
100
AcDbVisualStyle
  2
Brighten
 70
    12
177
     3
291
     1
 70
    58
 90
        2
176
     1
 90
        2
176
     1
 90
        0
176
     1
 90
        0
176
     1
 40
0.6
176
     1
 40
30.0
176
     1
 62
     7
420
 16777215
176
     1
 90
        1
176
     1
 90
        4
176
     1
 62
     7
176
     1
 62
   257
176
     1
 90
        1
176
     1
 90
        1
176
     1
 40
1.0
176
     1
 90
        8
176
     1
 62
     7
176
     1
 40
1.0
176
     1
 90
        1
176
     1
 90
        6
176
     1
 90
        2
176
     1
 62
     7
176
     1
 90
        5
176
     1
 90
        0
176
     1
 90
        0
176
     1
290
     0
176
     1
 90
        1
176
     1
 40
50.0
176
     1
 90
        0
176
     1
290
     0
176
     1
290
     1
176
     1
290
     1
176
     1
290
     0
176
     1
290
     0
176
     1
290
     0
176
     1
290
     0
176
     1
290
     0
176
     1
290
     0
176
     1
 90
       50
176
     1
 40
0.0
176
     1
 40
1.0
176
     1
 90
        0
176
     1
 62
    18
420
        0
176
     1
 90
       50
176
     1
 90
        3
176
     1
 62
     5
420
      255
176
     1
290
     0
176
     1
 90
       50
176
     1
 90
       50
176
     1
 90
       50
176
     1
290
     0
176
     1
 90
       50
176
     1
 62
   256
176
     0
 40
1.0
176
     0
 90
        2
176
     1
  1
strokes_ogs.tif
176
     1
290
     0
176
     1
 40
1.0
176
     1
 40
1.0
176
     1
  0
VISUALSTYLE
  5
3A
102
{ACAD_REACTORS
330
2A
102
}
330
2A
100
AcDbVisualStyle
  2
ColorChange
 70
    16
177
     3
291
     1
 70
    58
 90
        2
176
     1
 90
        2
176
     1
 90
        3
176
     1
 90
        0
176
     1
 40
0.6
176
     1
 40
30.0
176
     1
 62
     8
420
  8421504
176
     1
 90
        1
176
     1
 90
        4
176
     1
 62
     7
176
     1
 62
   257
176
     1
 90
        1
176
     1
 90
        1
176
     1
 40
1.0
176
     1
 90
        8
176
     1
 62
     8
420
  8421504
176
     1
 40
1.0
176
     1
 90
        1
176
     1
 90
        6
176
     1
 90
        2
176
     1
 62
     7
176
     1
 90
        5
176
     1
 90
        0
176
     1
 90
        0
176
     1
290
     0
176
     1
 90
        1
176
     1
 40
0.0
176
     1
 90
        0
176
     1
290
     0
176
     1
290
     1
176
     1
290
     1
176
     1
290
     0
176
     1
290
     0
176
     1
290
     0
176
     1
290
     0
176
     1
290
     0
176
     1
290
     0
176
     1
 90
       50
176
     1
 40
0.0
176
     1
 40
1.0
176
     1
 90
        0
176
     1
 62
    18
420
        0
176
     1
 90
       50
176
     1
 90
        3
176
     1
 62
     5
420
      255
176
     1
290
     0
176
     1
 90
       50
176
     1
 90
       50
176
     1
 90
       50
176
     1
290
     0
176
     1
 90
       50
176
     1
 62
   256
176
     0
 40
1.0
176
     0
 90
        2
176
     1
  1
strokes_ogs.tif
176
     1
290
     0
176
     1
 40
1.0
176
     1
 40
1.0
176
     1
  0
VISUALSTYLE
  5
34
102
{ACAD_REACTORS
330
2A
102
}
330
2A
100
AcDbVisualStyle
  2
Conceptual
 70
     9
177
     3
291
     0
 70
    58
 90
        3
176
     1
 90
        2
176
     1
 90
        0
176
     1
 90
        0
176
     1
 40
0.6
176
     1
 40
30.0
176
     1
 62
     7
420
 16777215
176
     1
 90
        2
176
     1
 90
        2
176
     1
 62
     7
176
     1
 62
   257
176
     1
 90
        1
176
     1
 90
        1
176
     1
 40
179.0
176
     1
 90
        8
176
     1
 62
     7
176
     1
 40
1.0
176
     1
 90
        1
176
     1
 90
        6
176
     1
 90
        2
176
     1
 62
     7
176
     1
 90
        3
176
     1
 90
        0
176
     1
 90
        0
176
     1
290
     0
176
     1
 90
        1
176
     1
 40
0.0
176
     1
 90
        0
176
     1
290
     0
176
     1
290
     1
176
     1
290
     1
176
     1
290
     0
176
     1
290
     0
176
     1
290
     0
176
     1
290
     0
176
     1
290
     0
176
     1
290
     0
176
     1
 90
       50
176
     1
 40
0.0
176
     1
 40
1.0
176
     1
 90
        0
176
     1
 62
    18
420
        0
176
     1
 90
       50
176
     1
 90
        3
176
     1
 62
     5
420
      255
176
     1
290
     0
176
     1
 90
       50
176
     1
 90
       50
176
     1
 90
       50
176
     1
290
     0
176
     1
 90
       50
176
     1
 62
   256
176
     0
 40
1.0
176
     0
 90
        2
176
     1
  1
strokes_ogs.tif
176
     1
290
     0
176
     1
 40
1.0
176
     1
 40
1.0
176
     1
  0
VISUALSTYLE
  5
35
102
{ACAD_REACTORS
330
2A
102
}
330
2A
100
AcDbVisualStyle
  2
Dim
 70
    11
177
     3
291
     1
 70
    58
 90
        2
176
     1
 90
        2
176
     1
 90
        0
176
     1
 90
        0
176
     1
 40
0.6
176
     1
 40
30.0
176
     1
 62
     7
420
 16777215
176
     1
 90
        1
176
     1
 90
        4
176
     1
 62
     7
176
     1
 62
   257
176
     1
 90
        1
176
     1
 90
        1
176
     1
 40
1.0
176
     1
 90
        8
176
     1
 62
     7
176
     1
 40
1.0
176
     1
 90
        1
176
     1
 90
        6
176
     1
 90
        2
176
     1
 62
     7
176
     1
 90
        5
176
     1
 90
        0
176
     1
 90
        0
176
     1
290
     0
176
     1
 90
        1
176
     1
 40
-50.0
176
     1
 90
        0
176
     1
290
     0
176
     1
290
     1
176
     1
290
     1
176
     1
290
     0
176
     1
290
     0
176
     1
290
     0
176
     1
290
     0
176
     1
290
     0
176
     1
290
     0
176
     1
 90
       50
176
     1
 40
0.0
176
     1
 40
1.0
176
     1
 90
        0
176
     1
 62
    18
420
        0
176
     1
 90
       50
176
     1
 90
        3
176
     1
 62
     5
420
      255
176
     1
290
     0
176
     1
 90
       50
176
     1
 90
       50
176
     1
 90
       50
176
     1
290
     0
176
     1
 90
       50
176
     1
 62
   256
176
     0
 40
1.0
176
     0
 90
        2
176
     1
  1
strokes_ogs.tif
176
     1
290
     0
176
     1
 40
1.0
176
     1
 40
1.0
176
     1
  0
VISUALSTYLE
  5
3D
102
{ACAD_REACTORS
330
2A
102
}
330
2A
100
AcDbVisualStyle
  2
EdgeColorOff
 70
    22
177
     3
291
     1
 70
    58
 90
        2
176
     0
 90
        2
176
     0
 90
        0
176
     0
 90
        0
176
     0
 40
0.6
176
     0
 40
30.0
176
     0
 62
     7
420
 16777215
176
     0
 90
        1
176
     0
 90
        4
176
     0
 62
     7
176
     0
 62
   257
176
     0
 90
        1
176
     0
 90
        1
176
     0
 40
1.0
176
     0
 90
        8
176
     2
 62
     7
176
     0
 40
1.0
176
     0
 90
        1
176
     0
 90
        6
176
     0
 90
        2
176
     0
 62
     7
176
     0
 90
        5
176
     0
 90
        0
176
     0
 90
        0
176
     0
290
     0
176
     0
 90
        1
176
     0
 40
0.0
176
     0
 90
        0
176
     0
290
     0
176
     0
290
     1
176
     0
290
     1
176
     0
290
     0
176
     0
290
     0
176
     0
290
     0
176
     0
290
     0
176
     0
290
     0
176
     0
290
     0
176
     0
 90
       50
176
     0
 40
0.0
176
     0
 40
1.0
176
     0
 90
        0
176
     0
 62
    18
420
        0
176
     0
 90
       50
176
     0
 90
        3
176
     0
 62
     5
420
      255
176
     0
290
     0
176
     0
 90
       50
176
     0
 90
       50
176
     0
 90
       50
176
     0
290
     0
176
     0
 90
       50
176
     0
 62
   256
176
     0
 40
1.0
176
     0
 90
        2
176
     0
  1
strokes_ogs.tif
176
     0
290
     0
176
     0
 40
1.0
176
     0
 40
1.0
176
     0
  0
VISUALSTYLE
  5
39
102
{ACAD_REACTORS
330
2A
102
}
330
2A
100
AcDbVisualStyle
  2
Facepattern
 70
    15
177
     3
291
     1
 70
    58
 90
        2
176
     1
 90
        2
176
     1
 90
        0
176
     1
 90
        0
176
     1
 40
0.6
176
     1
 40
30.0
176
     1
 62
     7
420
 16777215
176
     1
 90
        1
176
     1
 90
        4
176
     1
 62
     7
176
     1
 62
   257
176
     1
 90
        1
176
     1
 90
        1
176
     1
 40
1.0
176
     1
 90
        8
176
     1
 62
     7
176
     1
 40
1.0
176
     1
 90
        1
176
     1
 90
        6
176
     1
 90
        2
176
     1
 62
     7
176
     1
 90
        5
176
     1
 90
        0
176
     1
 90
        0
176
     1
290
     0
176
     1
 90
        1
176
     1
 40
0.0
176
     1
 90
        0
176
     1
290
     0
176
     1
290
     1
176
     1
290
     1
176
     1
290
     0
176
     1
290
     0
176
     1
290
     0
176
     1
290
     0
176
     1
290
     0
176
     1
290
     0
176
     1
 90
       50
176
     1
 40
0.0
176
     1
 40
1.0
176
     1
 90
        0
176
     1
 62
    18
420
        0
176
     1
 90
       50
176
     1
 90
        3
176
     1
 62
     5
420
      255
176
     1
290
     0
176
     1
 90
       50
176
     1
 90
       50
176
     1
 90
       50
176
     1
290
     0
176
     1
 90
       50
176
     1
 62
   256
176
     0
 40
1.0
176
     0
 90
        2
176
     1
  1
strokes_ogs.tif
176
     1
290
     0
176
     1
 40
1.0
176
     1
 40
1.0
176
     1
  0
VISUALSTYLE
  5
2B
102
{ACAD_REACTORS
330
2A
102
}
330
2A
100
AcDbVisualStyle
  2
Flat
 70
     0
177
     3
291
     1
 70
    58
 90
        2
176
     1
 90
        1
176
     1
 90
        1
176
     1
 90
        2
176
     1
 40
0.6
176
     1
 40
30.0
176
     1
 62
     7
420
 16777215
176
     1
 90
        0
176
     1
 90
        0
176
     1
 62
     7
176
     1
 62
   257
176
     1
 90
        1
176
     1
 90
        1
176
     1
 40
1.0
176
     1
 90
        8
176
     1
 62
     7
176
     1
 40
1.0
176
     1
 90
        1
176
     1
 90
        6
176
     1
 90
        2
176
     1
 62
     7
176
     1
 90
        5
176
     1
 90
        0
176
     1
 90
        0
176
     1
290
     0
176
     1
 90
       13
176
     1
 40
0.0
176
     1
 90
        0
176
     1
290
     0
176
     1
290
     1
176
     1
290
     1
176
     1
290
     0
176
     1
290
     0
176
     1
290
     0
176
     1
290
     0
176
     1
290
     0
176
     1
290
     0
176
     1
 90
       50
176
     1
 40
0.0
176
     1
 40
1.0
176
     1
 90
        0
176
     1
 62
    18
420
        0
176
     1
 90
       50
176
     1
 90
        3
176
     1
 62
     5
420
      255
176
     1
290
     0
176
     1
 90
       50
176
     1
 90
       50
176
     1
 90
       50
176
     1
290
     0
176
     1
 90
       50
176
     1
 62
   256
176
     0
 40
1.0
176
     0
 90
        2
176
     1
  1
strokes_ogs.tif
176
     1
290
     0
176
     1
 40
1.0
176
     1
 40
1.0
176
     1
  0
VISUALSTYLE
  5
2C
102
{ACAD_REACTORS
330
2A
102
}
330
2A
100
AcDbVisualStyle
  2
FlatWithEdges
 70
     1
177
     3
291
     1
 70
    58
 90
        2
176
     1
 90
        1
176
     1
 90
        1
176
     1
 90
        2
176
     1
 40
0.6
176
     1
 40
30.0
176
     1
 62
     7
420
 16777215
176
     1
 90
        1
176
     1
 90
        0
176
     1
 62
     7
176
     1
 62
   257
176
     1
 90
        1
176
     1
 90
        1
176
     1
 40
1.0
176
     1
 90
        0
176
     1
 62
   257
176
     1
 40
1.0
176
     1
 90
        1
176
     1
 90
        6
176
     1
 90
        2
176
     1
 62
     7
176
     1
 90
        5
176
     1
 90
        0
176
     1
 90
        0
176
     1
290
     0
176
     1
 90
       13
176
     1
 40
0.0
176
     1
 90
        0
176
     1
290
     0
176
     1
290
     1
176
     1
290
     1
176
     1
290
     0
176
     1
290
     0
176
     1
290
     0
176
     1
290
     0
176
     1
290
     0
176
     1
290
     0
176
     1
 90
       50
176
     1
 40
0.0
176
     1
 40
1.0
176
     1
 90
        0
176
     1
 62
    18
420
        0
176
     1
 90
       50
176
     1
 90
        3
176
     1
 62
     5
420
      255
176
     1
290
     0
176
     1
 90
       50
176
     1
 90
       50
176
     1
 90
       50
176
     1
290
     0
176
     1
 90
       50
176
     1
 62
   256
176
     0
 40
1.0
176
     0
 90
        2
176
     1
  1
strokes_ogs.tif
176
     1
290
     0
176
     1
 40
1.0
176
     1
 40
1.0
176
     1
  0
VISUALSTYLE
  5
2D
102
{ACAD_REACTORS
330
2A
102
}
330
2A
100
AcDbVisualStyle
  2
Gouraud
 70
     2
177
     3
291
     1
 70
    58
 90
        2
176
     1
 90
        2
176
     1
 90
        1
176
     1
 90
        2
176
     1
 40
0.6
176
     1
 40
30.0
176
     1
 62
     7
420
 16777215
176
     1
 90
        0
176
     1
 90
        0
176
     1
 62
     7
176
     1
 62
   257
176
     1
 90
        1
176
     1
 90
        1
176
     1
 40
1.0
176
     1
 90
        0
176
     1
 62
     7
176
     1
 40
1.0
176
     1
 90
        1
176
     1
 90
        6
176
     1
 90
        2
176
     1
 62
     7
176
     1
 90
        5
176
     1
 90
        0
176
     1
 90
        0
176
     1
290
     0
176
     1
 90
       13
176
     1
 40
0.0
176
     1
 90
        0
176
     1
290
     0
176
     1
290
     1
176
     1
290
     1
176
     1
290
     0
176
     1
290
     0
176
     1
290
     0
176
     1
290
     0
176
     1
290
     0
176
     1
290
     0
176
     1
 90
       50
176
     1
 40
0.0
176
     1
 40
1.0
176
     1
 90
        0
176
     1
 62
    18
420
        0
176
     1
 90
       50
176
     1
 90
        3
176
     1
 62
     5
420
      255
176
     1
290
     0
176
     1
 90
       50
176
     1
 90
       50
176
     1
 90
       50
176
     1
290
     0
176
     1
 90
       50
176
     1
 62
   256
176
     0
 40
1.0
176
     0
 90
        2
176
     1
  1
strokes_ogs.tif
176
     1
290
     0
176
     1
 40
1.0
176
     1
 40
1.0
176
     1
  0
VISUALSTYLE
  5
2E
102
{ACAD_REACTORS
330
2A
102
}
330
2A
100
AcDbVisualStyle
  2
GouraudWithEdges
 70
     3
177
     3
291
     1
 70
    58
 90
        2
176
     1
 90
        2
176
     1
 90
        1
176
     1
 90
        2
176
     1
 40
0.6
176
     1
 40
30.0
176
     1
 62
     7
420
 16777215
176
     1
 90
        1
176
     1
 90
        0
176
     1
 62
     7
176
     1
 62
   257
176
     1
 90
        1
176
     1
 90
        1
176
     1
 40
1.0
176
     1
 90
        0
176
     1
 62
   257
176
     1
 40
1.0
176
     1
 90
        1
176
     1
 90
        6
176
     1
 90
        2
176
     1
 62
     7
176
     1
 90
        5
176
     1
 90
        0
176
     1
 90
        0
176
     1
290
     0
176
     1
 90
       13
176
     1
 40
0.0
176
     1
 90
        0
176
     1
290
     0
176
     1
290
     1
176
     1
290
     1
176
     1
290
     0
176
     1
290
     0
176
     1
290
     0
176
     1
290
     0
176
     1
290
     0
176
     1
290
     0
176
     1
 90
       50
176
     1
 40
0.0
176
     1
 40
1.0
176
     1
 90
        0
176
     1
 62
    18
420
        0
176
     1
 90
       50
176
     1
 90
        3
176
     1
 62
     5
420
      255
176
     1
290
     0
176
     1
 90
       50
176
     1
 90
       50
176
     1
 90
       50
176
     1
290
     0
176
     1
 90
       50
176
     1
 62
   256
176
     0
 40
1.0
176
     0
 90
        2
176
     1
  1
strokes_ogs.tif
176
     1
290
     0
176
     1
 40
1.0
176
     1
 40
1.0
176
     1
  0
VISUALSTYLE
  5
31
102
{ACAD_REACTORS
330
2A
102
}
330
2A
100
AcDbVisualStyle
  2
Hidden
 70
     6
177
     3
291
     0
 70
    58
 90
        1
176
     1
 90
        2
176
     1
 90
        2
176
     1
 90
        0
176
     1
 40
0.6
176
     1
 40
30.0
176
     1
 62
     7
420
 16777215
176
     1
 90
        2
176
     1
 90
        2
176
     1
 62
     7
176
     1
 62
   257
176
     1
 90
        2
176
     1
 90
        1
176
     1
 40
40.0
176
     1
 90
        0
176
     1
 62
   257
176
     1
 40
1.0
176
     1
 90
        1
176
     1
 90
        6
176
     1
 90
        2
176
     1
 62
     7
176
     1
 90
        3
176
     1
 90
        0
176
     1
 90
        0
176
     1
290
     0
176
     1
 90
        1
176
     1
 40
0.0
176
     1
 90
        0
176
     1
290
     0
176
     1
290
     1
176
     1
290
     1
176
     1
290
     0
176
     1
290
     0
176
     1
290
     0
176
     1
290
     0
176
     1
290
     0
176
     1
290
     0
176
     1
 90
       50
176
     1
 40
0.0
176
     1
 40
1.0
176
     1
 90
        0
176
     1
 62
    18
420
        0
176
     1
 90
       50
176
     1
 90
        3
176
     1
 62
     5
420
      255
176
     1
290
     0
176
     1
 90
       50
176
     1
 90
       50
176
     1
 90
       50
176
     1
290
     0
176
     1
 90
       50
176
     1
 62
   256
176
     0
 40
1.0
176
     0
 90
        2
176
     1
  1
strokes_ogs.tif
176
     1
290
     0
176
     1
 40
1.0
176
     1
 40
1.0
176
     1
  0
VISUALSTYLE
  5
3B
102
{ACAD_REACTORS
330
2A
102
}
330
2A
100
AcDbVisualStyle
  2
JitterOff
 70
    20
177
     3
291
     1
 70
    58
 90
        2
176
     0
 90
        2
176
     0
 90
        0
176
     0
 90
        0
176
     0
 40
0.6
176
     0
 40
30.0
176
     0
 62
     7
420
 16777215
176
     0
 90
        1
176
     0
 90
        4
176
     0
 62
     7
176
     0
 62
   257
176
     0
 90
        1
176
     0
 90
        1
176
     0
 40
1.0
176
     0
 90
       10
176
     2
 62
     7
176
     0
 40
1.0
176
     0
 90
        1
176
     0
 90
        6
176
     0
 90
        2
176
     0
 62
     7
176
     0
 90
        5
176
     0
 90
        0
176
     0
 90
        0
176
     0
290
     0
176
     0
 90
        1
176
     0
 40
0.0
176
     0
 90
        0
176
     0
290
     0
176
     0
290
     1
176
     0
290
     1
176
     0
290
     0
176
     0
290
     0
176
     0
290
     0
176
     0
290
     0
176
     0
290
     0
176
     0
290
     0
176
     0
 90
       50
176
     0
 40
0.0
176
     0
 40
1.0
176
     0
 90
        0
176
     0
 62
    18
420
        0
176
     0
 90
       50
176
     0
 90
        3
176
     0
 62
     5
420
      255
176
     0
290
     0
176
     0
 90
       50
176
     0
 90
       50
176
     0
 90
       50
176
     0
290
     0
176
     0
 90
       50
176
     0
 62
   256
176
     0
 40
1.0
176
     0
 90
        2
176
     0
  1
strokes_ogs.tif
176
     0
290
     0
176
     0
 40
1.0
176
     0
 40
1.0
176
     0
  0
VISUALSTYLE
  5
38
102
{ACAD_REACTORS
330
2A
102
}
330
2A
100
AcDbVisualStyle
  2
Linepattern
 70
    14
177
     3
291
     1
 70
    58
 90
        2
176
     1
 90
        2
176
     1
 90
        0
176
     1
 90
        0
176
     1
 40
0.6
176
     1
 40
30.0
176
     1
 62
     7
420
 16777215
176
     1
 90
        1
176
     1
 90
        4
176
     1
 62
     7
176
     1
 62
   257
176
     1
 90
        7
176
     1
 90
        7
176
     1
 40
1.0
176
     1
 90
        8
176
     1
 62
     7
176
     1
 40
1.0
176
     1
 90
        1
176
     1
 90
        6
176
     1
 90
        2
176
     1
 62
     7
176
     1
 90
        5
176
     1
 90
        0
176
     1
 90
        0
176
     1
290
     0
176
     1
 90
        1
176
     1
 40
0.0
176
     1
 90
        0
176
     1
290
     0
176
     1
290
     1
176
     1
290
     1
176
     1
290
     0
176
     1
290
     0
176
     1
290
     0
176
     1
290
     0
176
     1
290
     0
176
     1
290
     0
176
     1
 90
       50
176
     1
 40
0.0
176
     1
 40
1.0
176
     1
 90
        0
176
     1
 62
    18
420
        0
176
     1
 90
       50
176
     1
 90
        3
176
     1
 62
     5
420
      255
176
     1
290
     0
176
     1
 90
       50
176
     1
 90
       50
176
     1
 90
       50
176
     1
290
     0
176
     1
 90
       50
176
     1
 62
   256
176
     0
 40
1.0
176
     0
 90
        2
176
     1
  1
strokes_ogs.tif
176
     1
290
     0
176
     1
 40
1.0
176
     1
 40
1.0
176
     1
  0
VISUALSTYLE
  5
3C
102
{ACAD_REACTORS
330
2A
102
}
330
2A
100
AcDbVisualStyle
  2
OverhangOff
 70
    21
177
     3
291
     1
 70
    58
 90
        2
176
     0
 90
        2
176
     0
 90
        0
176
     0
 90
        0
176
     0
 40
0.6
176
     0
 40
30.0
176
     0
 62
     7
420
 16777215
176
     0
 90
        1
176
     0
 90
        4
176
     0
 62
     7
176
     0
 62
   257
176
     0
 90
        1
176
     0
 90
        1
176
     0
 40
1.0
176
     0
 90
        9
176
     2
 62
     7
176
     0
 40
1.0
176
     0
 90
        1
176
     0
 90
        6
176
     0
 90
        2
176
     0
 62
     7
176
     0
 90
        5
176
     0
 90
        0
176
     0
 90
        0
176
     0
290
     0
176
     0
 90
        1
176
     0
 40
0.0
176
     0
 90
        0
176
     0
290
     0
176
     0
290
     1
176
     0
290
     1
176
     0
290
     0
176
     0
290
     0
176
     0
290
     0
176
     0
290
     0
176
     0
290
     0
176
     0
290
     0
176
     0
 90
       50
176
     0
 40
0.0
176
     0
 40
1.0
176
     0
 90
        0
176
     0
 62
    18
420
        0
176
     0
 90
       50
176
     0
 90
        3
176
     0
 62
     5
420
      255
176
     0
290
     0
176
     0
 90
       50
176
     0
 90
       50
176
     0
 90
       50
176
     0
290
     0
176
     0
 90
       50
176
     0
 62
   256
176
     0
 40
1.0
176
     0
 90
        2
176
     0
  1
strokes_ogs.tif
176
     0
290
     0
176
     0
 40
1.0
176
     0
 40
1.0
176
     0
  0
VISUALSTYLE
  5
33
102
{ACAD_REACTORS
330
2A
102
}
330
2A
100
AcDbVisualStyle
  2
Realistic
 70
     8
177
     3
291
     0
 70
    58
 90
        2
176
     1
 90
        3
176
     1
 90
        0
176
     1
 90
        2
176
     1
 40
0.6
176
     1
 40
30.0
176
     1
 62
     7
420
 16777215
176
     1
 90
        0
176
     1
 90
        0
176
     1
 62
     7
176
     1
 62
   257
176
     1
 90
        1
176
     1
 90
        1
176
     1
 40
1.0
176
     1
 90
        8
176
     1
 62
   257
176
     1
 40
1.0
176
     1
 90
        1
176
     1
 90
        6
176
     1
 90
        2
176
     1
 62
     7
176
     1
 90
        3
176
     1
 90
        0
176
     1
 90
        0
176
     1
290
     0
176
     1
 90
       13
176
     1
 40
0.0
176
     1
 90
        0
176
     1
290
     0
176
     1
290
     1
176
     1
290
     1
176
     1
290
     0
176
     1
290
     0
176
     1
290
     0
176
     1
290
     0
176
     1
290
     0
176
     1
290
     0
176
     1
 90
       50
176
     1
 40
0.0
176
     1
 40
1.0
176
     1
 90
        0
176
     1
 62
    18
420
        0
176
     1
 90
       50
176
     1
 90
        3
176
     1
 62
     5
420
      255
176
     1
290
     0
176
     1
 90
       50
176
     1
 90
       50
176
     1
 90
       50
176
     1
290
     0
176
     1
 90
       50
176
     1
 62
   256
176
     0
 40
1.0
176
     0
 90
        2
176
     1
  1
strokes_ogs.tif
176
     1
290
     0
176
     1
 40
1.0
176
     1
 40
1.0
176
     1
  0
VISUALSTYLE
  5
42
102
{ACAD_REACTORS
330
2A
102
}
330
2A
100
AcDbVisualStyle
  2
Shaded
 70
    27
177
     3
291
     0
 70
    58
 90
        2
176
     1
 90
        2
176
     1
 90
        1
176
     1
 90
        2
176
     1
 40
0.6
176
     1
 40
30.0
176
     1
 62
     7
420
 16777215
176
     1
 90
        0
176
     1
 90
        4
176
     1
 62
     7
176
     1
 62
   257
176
     1
 90
        1
176
     1
 90
        1
176
     1
 40
1.0
176
     1
 90
        8
176
     1
 62
   257
176
     1
 40
1.0
176
     1
 90
        1
176
     1
 90
        6
176
     1
 90
        2
176
     1
 62
     8
420
  7895160
176
     1
 90
        3
176
     1
 90
        0
176
     1
 90
        0
176
     1
290
     0
176
     1
 90
        5
176
     1
 40
0.0
176
     1
 90
        0
176
     1
290
     0
176
     1
290
     1
176
     1
290
     1
176
     1
290
     0
176
     1
290
     0
176
     1
290
     0
176
     1
290
     0
176
     1
290
     0
176
     1
290
     0
176
     1
 90
       50
176
     1
 40
0.0
176
     1
 40
1.0
176
     1
 90
        0
176
     1
 62
    18
420
        0
176
     1
 90
       50
176
     1
 90
        3
176
     1
 62
     5
420
      255
176
     1
290
     0
176
     1
 90
       50
176
     1
 90
       50
176
     1
 90
       50
176
     1
290
     0
176
     1
 90
       50
176
     1
 62
   256
176
     0
 40
1.0
176
     0
 90
        2
176
     1
  1
strokes_ogs.tif
176
     1
290
     0
176
     1
 40
1.0
176
     1
 40
1.0
176
     1
  0
VISUALSTYLE
  5
41
102
{ACAD_REACTORS
330
2A
102
}
330
2A
100
AcDbVisualStyle
  2
Shaded with edges
 70
    26
177
     3
291
     0
 70
    58
 90
        2
176
     1
 90
        2
176
     1
 90
        1
176
     1
 90
        2
176
     1
 40
0.6
176
     1
 40
30.0
176
     1
 62
     7
420
 16777215
176
     1
 90
        1
176
     1
 90
       10
176
     1
 62
     7
176
     1
 62
   257
176
     1
 90
        2
176
     1
 90
        1
176
     1
 40
1.0
176
     1
 90
        8
176
     1
 62
   257
176
     1
 40
1.0
176
     1
 90
        1
176
     1
 90
        6
176
     1
 90
        2
176
     1
 62
     7
176
     1
 90
        3
176
     1
 90
        0
176
     1
 90
        0
176
     1
290
     0
176
     1
 90
        5
176
     1
 40
0.0
176
     1
 90
        0
176
     1
290
     0
176
     1
290
     1
176
     1
290
     1
176
     1
290
     0
176
     1
290
     0
176
     1
290
     0
176
     1
290
     0
176
     1
290
     0
176
     1
290
     0
176
     1
 90
       50
176
     1
 40
0.0
176
     1
 40
1.0
176
     1
 90
        0
176
     1
 62
    18
420
        0
176
     1
 90
       50
176
     1
 90
        3
176
     1
 62
     5
420
      255
176
     1
290
     0
176
     1
 90
       50
176
     1
 90
       50
176
     1
 90
       50
176
     1
290
     0
176
     1
 90
       50
176
     1
 62
   256
176
     0
 40
1.0
176
     0
 90
        2
176
     1
  1
strokes_ogs.tif
176
     1
290
     0
176
     1
 40
1.0
176
     1
 40
1.0
176
     1
  0
VISUALSTYLE
  5
3E
102
{ACAD_REACTORS
330
2A
102
}
330
2A
100
AcDbVisualStyle
  2
Shades of Gray
 70
    23
177
     3
291
     0
 70
    58
 90
        2
176
     1
 90
        2
176
     1
 90
        3
176
     1
 90
        0
176
     1
 40
0.6
176
     1
 40
30.0
176
     1
 62
     7
420
 16777215
176
     1
 90
        2
176
     1
 90
        2
176
     1
 62
     7
176
     1
 62
     7
176
     1
 90
        1
176
     1
 90
        1
176
     1
 40
40.0
176
     1
 90
        8
176
     1
 62
     7
176
     1
 40
1.0
176
     1
 90
        1
176
     1
 90
        6
176
     1
 90
        2
176
     1
 62
     7
176
     1
 90
        3
176
     1
 90
        0
176
     1
 90
        0
176
     1
290
     0
176
     1
 90
        1
176
     1
 40
0.0
176
     1
 90
        0
176
     1
290
     0
176
     1
290
     1
176
     1
290
     1
176
     1
290
     0
176
     1
290
     0
176
     1
290
     0
176
     1
290
     0
176
     1
290
     0
176
     1
290
     0
176
     1
 90
       50
176
     1
 40
0.0
176
     1
 40
1.0
176
     1
 90
        0
176
     1
 62
    18
420
        0
176
     1
 90
       50
176
     1
 90
        3
176
     1
 62
     5
420
      255
176
     1
290
     0
176
     1
 90
       50
176
     1
 90
       50
176
     1
 90
       50
176
     1
290
     0
176
     1
 90
       50
176
     1
 62
   256
176
     0
 40
1.0
176
     0
 90
        2
176
     1
  1
strokes_ogs.tif
176
     1
290
     0
176
     1
 40
1.0
176
     1
 40
1.0
176
     1
  0
VISUALSTYLE
  5
3F
102
{ACAD_REACTORS
330
2A
102
}
330
2A
100
AcDbVisualStyle
  2
Sketchy
 70
    24
177
     3
291
     0
 70
    58
 90
        1
176
     1
 90
        2
176
     1
 90
        2
176
     1
 90
        0
176
     1
 40
0.6
176
     1
 40
30.0
176
     1
 62
     7
420
 16777215
176
     1
 90
        2
176
     1
 90
        2
176
     1
 62
     7
176
     1
 62
     7
176
     1
 90
        1
176
     1
 90
        1
176
     1
 40
40.0
176
     1
 90
       11
176
     1
 62
     7
176
     1
 40
1.0
176
     1
 90
        1
176
     1
 90
        6
176
     1
 90
        2
176
     1
 62
     7
176
     1
 90
        6
176
     1
 90
        0
176
     1
 90
        0
176
     1
290
     0
176
     1
 90
        1
176
     1
 40
0.0
176
     1
 90
        0
176
     1
290
     0
176
     1
290
     1
176
     1
290
     1
176
     1
290
     0
176
     1
290
     0
176
     1
290
     0
176
     1
290
     0
176
     1
290
     0
176
     1
290
     0
176
     1
 90
       50
176
     1
 40
0.0
176
     1
 40
1.0
176
     1
 90
        0
176
     1
 62
    18
420
        0
176
     1
 90
       50
176
     1
 90
        3
176
     1
 62
     5
420
      255
176
     1
290
     0
176
     1
 90
       50
176
     1
 90
       50
176
     1
 90
       50
176
     1
290
     0
176
     1
 90
       50
176
     1
 62
   256
176
     0
 40
1.0
176
     0
 90
        2
176
     1
  1
strokes_ogs.tif
176
     1
290
     0
176
     1
 40
1.0
176
     1
 40
1.0
176
     1
  0
VISUALSTYLE
  5
37
102
{ACAD_REACTORS
330
2A
102
}
330
2A
100
AcDbVisualStyle
  2
Thicken
 70
    13
177
     3
291
     1
 70
    58
 90
        2
176
     1
 90
        2
176
     1
 90
        0
176
     1
 90
        0
176
     1
 40
0.6
176
     1
 40
30.0
176
     1
 62
     7
420
 16777215
176
     1
 90
        1
176
     1
 90
        4
176
     1
 62
     7
176
     1
 62
   257
176
     1
 90
        1
176
     1
 90
        1
176
     1
 40
1.0
176
     1
 90
       12
176
     1
 62
     7
176
     1
 40
1.0
176
     1
 90
        1
176
     1
 90
        6
176
     1
 90
        2
176
     1
 62
     7
176
     1
 90
        5
176
     1
 90
        0
176
     1
 90
        0
176
     1
290
     0
176
     1
 90
        1
176
     1
 40
0.0
176
     1
 90
        0
176
     1
290
     0
176
     1
290
     1
176
     1
290
     1
176
     1
290
     0
176
     1
290
     0
176
     1
290
     0
176
     1
290
     0
176
     1
290
     0
176
     1
290
     0
176
     1
 90
       50
176
     1
 40
0.0
176
     1
 40
1.0
176
     1
 90
        0
176
     1
 62
    18
420
        0
176
     1
 90
       50
176
     1
 90
        3
176
     1
 62
     5
420
      255
176
     1
290
     0
176
     1
 90
       50
176
     1
 90
       50
176
     1
 90
       50
176
     1
290
     0
176
     1
 90
       50
176
     1
 62
   256
176
     0
 40
1.0
176
     0
 90
        2
176
     1
  1
strokes_ogs.tif
176
     1
290
     0
176
     1
 40
1.0
176
     1
 40
1.0
176
     1
  0
VISUALSTYLE
  5
30
102
{ACAD_REACTORS
330
2A
102
}
330
2A
100
AcDbVisualStyle
  2
Wireframe
 70
     5
177
     3
291
     0
 70
    58
 90
        0
176
     1
 90
        2
176
     1
 90
        0
176
     1
 90
        0
176
     1
 40
0.6
176
     1
 40
30.0
176
     1
 62
     7
420
 16777215
176
     1
 90
        1
176
     1
 90
        4
176
     1
 62
     7
176
     1
 62
   257
176
     1
 90
        1
176
     1
 90
        1
176
     1
 40
1.0
176
     1
 90
        0
176
     1
 62
   257
176
     1
 40
1.0
176
     1
 90
        1
176
     1
 90
        6
176
     1
 90
        2
176
     1
 62
     7
176
     1
 90
        3
176
     1
 90
        0
176
     1
 90
        0
176
     1
290
     0
176
     1
 90
        1
176
     1
 40
0.0
176
     1
 90
        0
176
     1
290
     0
176
     1
290
     1
176
     1
290
     1
176
     1
290
     0
176
     1
290
     0
176
     1
290
     0
176
     1
290
     0
176
     1
290
     0
176
     1
290
     0
176
     1
 90
       50
176
     1
 40
0.0
176
     1
 40
1.0
176
     1
 90
        0
176
     1
 62
    18
420
        0
176
     1
 90
       50
176
     1
 90
        3
176
     1
 62
     5
420
      255
176
     1
290
     0
176
     1
 90
       50
176
     1
 90
       50
176
     1
 90
       50
176
     1
290
     0
176
     1
 90
       50
176
     1
 62
   256
176
     0
 40
1.0
176
     0
 90
        2
176
     1
  1
strokes_ogs.tif
176
     1
290
     0
176
     1
 40
1.0
176
     1
 40
1.0
176
     1
  0
VISUALSTYLE
  5
40
102
{ACAD_REACTORS
330
2A
102
}
330
2A
100
AcDbVisualStyle
  2
X-Ray
 70
    25
177
     3
291
     0
 70
    58
 90
        2
176
     1
 90
        2
176
     1
 90
        1
176
     1
 90
        1
176
     1
 40
0.5
176
     1
 40
30.0
176
     1
 62
     7
420
 16777215
176
     1
 90
        1
176
     1
 90
        0
176
     1
 62
     7
176
     1
 62
   257
176
     1
 90
        1
176
     1
 90
        1
176
     1
 40
1.0
176
     1
 90
        8
176
     1
 62
     7
176
     1
 40
1.0
176
     1
 90
        1
176
     1
 90
        6
176
     1
 90
        2
176
     1
 62
     7
176
     1
 90
        3
176
     1
 90
        0
176
     1
 90
        0
176
     1
290
     0
176
     1
 90
       13
176
     1
 40
0.0
176
     1
 90
        0
176
     1
290
     0
176
     1
290
     1
176
     1
290
     1
176
     1
290
     0
176
     1
290
     0
176
     1
290
     0
176
     1
290
     0
176
     1
290
     0
176
     1
290
     0
176
     1
 90
       50
176
     1
 40
0.0
176
     1
 40
1.0
176
     1
 90
        0
176
     1
 62
    18
420
        0
176
     1
 90
       50
176
     1
 90
        3
176
     1
 62
     5
420
      255
176
     1
290
     0
176
     1
 90
       50
176
     1
 90
       50
176
     1
 90
       50
176
     1
290
     0
176
     1
 90
       50
176
     1
 62
   256
176
     0
 40
1.0
176
     0
 90
        2
176
     1
  1
strokes_ogs.tif
176
     1
290
     0
176
     1
 40
1.0
176
     1
 40
1.0
176
     1
  0
DICTIONARYVAR
  5
A5
102
{ACAD_REACTORS
330
A4
102
}
330
A4
100
DictionaryVariables
280
     0
  1
1:1
  0
DICTIONARYVAR
  5
AD
102
{ACAD_REACTORS
330
A4
102
}
330
A4
100
DictionaryVariables
280
     0
  1
3.500000
  0
DICTIONARYVAR
  5
AE
102
{ACAD_REACTORS
330
A4
102
}
330
A4
100
DictionaryVariables
280
     0
  1
acadiso.lin
  0
DICTIONARYVAR
  5
AA
102
{ACAD_REACTORS
330
A4
102
}
330
A4
100
DictionaryVariables
280
     0
  1
Standard
  0
DICTIONARYVAR
  5
A9
102
{ACAD_REACTORS
330
A4
102
}
330
A4
100
DictionaryVariables
280
     0
  1
Standard
  0
DICTIONARY
  5
A6
330
5A
100
AcDbDictionary
280
     1
281
     1
  3
ACAD_ROUNDTRIP_2008_TABLESTYLE_CELLSTYLEMAP
360
A7
  0
CELLSTYLEMAP
  5
A7
102
{ACAD_REACTORS
330
A6
102
}
330
A6
100
AcDbCellStyleMap
 90
        3
300
CELLSTYLE
  1
TABLEFORMAT_BEGIN
 90
        5
170
     1
 91
        0
 92
    32768
 62
   257
 93
        1
300
CONTENTFORMAT
  1
CONTENTFORMAT_BEGIN
 90
        0
 91
        0
 92
        4
 93
        0
300

 40
0.0
140
1.0
 94
        5
 62
     0
340
11
144
6.0
309
CONTENTFORMAT_END
171
     1
301
MARGIN
  1
CELLMARGIN_BEGIN
 40
1.5
 40
1.5
 40
1.5
 40
1.5
 40
1.5
 40
1.5
309
CELLMARGIN_END
 94
        6
 95
        1
302
GRIDFORMAT
  1
GRIDFORMAT_BEGIN
 90
        0
 91
        1
 62
     0
 92
       -2
340
14
 93
        0
 40
0.045
309
GRIDFORMAT_END
 95
        2
302
GRIDFORMAT
  1
GRIDFORMAT_BEGIN
 90
        0
 91
        1
 62
     0
 92
       -2
340
14
 93
        0
 40
0.045
309
GRIDFORMAT_END
 95
        4
302
GRIDFORMAT
  1
GRIDFORMAT_BEGIN
 90
        0
 91
        1
 62
     0
 92
       -2
340
14
 93
        0
 40
0.045
309
GRIDFORMAT_END
 95
        8
302
GRIDFORMAT
  1
GRIDFORMAT_BEGIN
 90
        0
 91
        1
 62
     0
 92
       -2
340
14
 93
        0
 40
0.045
309
GRIDFORMAT_END
 95
       16
302
GRIDFORMAT
  1
GRIDFORMAT_BEGIN
 90
        0
 91
        1
 62
     0
 92
       -2
340
14
 93
        0
 40
0.045
309
GRIDFORMAT_END
 95
       32
302
GRIDFORMAT
  1
GRIDFORMAT_BEGIN
 90
        0
 91
        1
 62
     0
 92
       -2
340
14
 93
        0
 40
0.045
309
GRIDFORMAT_END
309
TABLEFORMAT_END
  1
CELLSTYLE_BEGIN
 90
        1
 91
        1
300
_TITLE
309
CELLSTYLE_END
300
CELLSTYLE
  1
TABLEFORMAT_BEGIN
 90
        5
170
     1
 91
        0
 92
        0
 62
   257
 93
        1
300
CONTENTFORMAT
  1
CONTENTFORMAT_BEGIN
 90
        0
 91
        0
 92
        4
 93
        0
300

 40
0.0
140
1.0
 94
        5
 62
     0
340
11
144
4.5
309
CONTENTFORMAT_END
171
     1
301
MARGIN
  1
CELLMARGIN_BEGIN
 40
1.5
 40
1.5
 40
1.5
 40
1.5
 40
1.5
 40
1.5
309
CELLMARGIN_END
 94
        6
 95
        1
302
GRIDFORMAT
  1
GRIDFORMAT_BEGIN
 90
        0
 91
        1
 62
     0
 92
       -2
340
14
 93
        0
 40
0.045
309
GRIDFORMAT_END
 95
        2
302
GRIDFORMAT
  1
GRIDFORMAT_BEGIN
 90
        0
 91
        1
 62
     0
 92
       -2
340
14
 93
        0
 40
0.045
309
GRIDFORMAT_END
 95
        4
302
GRIDFORMAT
  1
GRIDFORMAT_BEGIN
 90
        0
 91
        1
 62
     0
 92
       -2
340
14
 93
        0
 40
0.045
309
GRIDFORMAT_END
 95
        8
302
GRIDFORMAT
  1
GRIDFORMAT_BEGIN
 90
        0
 91
        1
 62
     0
 92
       -2
340
14
 93
        0
 40
0.045
309
GRIDFORMAT_END
 95
       16
302
GRIDFORMAT
  1
GRIDFORMAT_BEGIN
 90
        0
 91
        1
 62
     0
 92
       -2
340
14
 93
        0
 40
0.045
309
GRIDFORMAT_END
 95
       32
302
GRIDFORMAT
  1
GRIDFORMAT_BEGIN
 90
        0
 91
        1
 62
     0
 92
       -2
340
14
 93
        0
 40
0.045
309
GRIDFORMAT_END
309
TABLEFORMAT_END
  1
CELLSTYLE_BEGIN
 90
        2
 91
        1
300
_HEADER
309
CELLSTYLE_END
300
CELLSTYLE
  1
TABLEFORMAT_BEGIN
 90
        5
170
     1
 91
        0
 92
        0
 62
   257
 93
        1
300
CONTENTFORMAT
  1
CONTENTFORMAT_BEGIN
 90
        0
 91
        0
 92
        4
 93
        0
300

 40
0.0
140
1.0
 94
        2
 62
     0
340
11
144
4.5
309
CONTENTFORMAT_END
171
     1
301
MARGIN
  1
CELLMARGIN_BEGIN
 40
1.5
 40
1.5
 40
1.5
 40
1.5
 40
1.5
 40
1.5
309
CELLMARGIN_END
 94
        6
 95
        1
302
GRIDFORMAT
  1
GRIDFORMAT_BEGIN
 90
        0
 91
        1
 62
     0
 92
       -2
340
14
 93
        0
 40
0.045
309
GRIDFORMAT_END
 95
        2
302
GRIDFORMAT
  1
GRIDFORMAT_BEGIN
 90
        0
 91
        1
 62
     0
 92
       -2
340
14
 93
        0
 40
0.045
309
GRIDFORMAT_END
 95
        4
302
GRIDFORMAT
  1
GRIDFORMAT_BEGIN
 90
        0
 91
        1
 62
     0
 92
       -2
340
14
 93
        0
 40
0.045
309
GRIDFORMAT_END
 95
        8
302
GRIDFORMAT
  1
GRIDFORMAT_BEGIN
 90
        0
 91
        1
 62
     0
 92
       -2
340
14
 93
        0
 40
0.045
309
GRIDFORMAT_END
 95
       16
302
GRIDFORMAT
  1
GRIDFORMAT_BEGIN
 90
        0
 91
        1
 62
     0
 92
       -2
340
14
 93
        0
 40
0.045
309
GRIDFORMAT_END
 95
       32
302
GRIDFORMAT
  1
GRIDFORMAT_BEGIN
 90
        0
 91
        1
 62
     0
 92
       -2
340
14
 93
        0
 40
0.045
309
GRIDFORMAT_END
309
TABLEFORMAT_END
  1
CELLSTYLE_BEGIN
 90
        3
 91
        2
300
_DATA
309
CELLSTYLE_END
  0
ENDSEC
  0
EOF
