  0
SECTION
  2
HEADER
  9
$ACADVER
  1
AC1027
  9
$ACADMAINTVER
 70
   105
  9
$DWGCODEPAGE
  3
ANSI_932
  9
$LASTSAVEDBY
  1
a.yasuda
  9
$REQUIREDVERSIONS
160
                 0
  9
$INSBASE
 10
0.0
 20
0.0
 30
0.0
  9
$EXTMIN
 10
0.0
 20
0.0
 30
0.0
  9
$EXTMAX
 10
302.9997823349792
 20
216.0016055409748
 30
0.0
  9
$LIMMIN
 10
0.0
 20
0.0
  9
$LIMMAX
 10
302.9997823349792
 20
216.0016055409748
  9
$ORTHOMODE
 70
     0
  9
$REGENMODE
 70
     1
  9
$FILLMODE
 70
     1
  9
$QTEXTMODE
 70
     0
  9
$MIRRTEXT
 70
     1
  9
$LTSCALE
 40
1.0
  9
$ATTMODE
 70
     1
  9
$TEXTSIZE
 40
2.5
  9
$TRACEWID
 40
1.0
  9
$TEXTSTYLE
  7
Standard
  9
$CLAYER
  8
0
  9
$CELTYPE
  6
ByLayer
  9
$CECOLOR
 62
   256
  9
$CELTSCALE
 40
1.0
  9
$DISPSILH
 70
     0
  9
$DIMSCALE
 40
1.0
  9
$DIMASZ
 40
2.5
  9
$DIMEXO
 40
0.625
  9
$DIMDLI
 40
3.75
  9
$DIMRND
 40
0.0
  9
$DIMDLE
 40
0.0
  9
$DIMEXE
 40
1.25
  9
$DIMTP
 40
0.0
  9
$DIMTM
 40
0.0
  9
$DIMTXT
 40
2.5
  9
$DIMCEN
 40
2.5
  9
$DIMTSZ
 40
0.0
  9
$DIMTOL
 70
     0
  9
$DIMLIM
 70
     0
  9
$DIMTIH
 70
     0
  9
$DIMTOH
 70
     0
  9
$DIMSE1
 70
     0
  9
$DIMSE2
 70
     0
  9
$DIMTAD
 70
     1
  9
$DIMZIN
 70
     8
  9
$DIMBLK
  1

  9
$DIMASO
 70
     1
  9
$DIMSHO
 70
     1
  9
$DIMPOST
  1

  9
$DIMAPOST
  1

  9
$DIMALT
 70
     0
  9
$DIMALTD
 70
     3
  9
$DIMALTF
 40
0.03937007874016
  9
$DIMLFAC
 40
1.0
  9
$DIMTOFL
 70
     1
  9
$DIMTVP
 40
0.0
  9
$DIMTIX
 70
     0
  9
$DIMSOXD
 70
     0
  9
$DIMSAH
 70
     0
  9
$DIMBLK1
  1

  9
$DIMBLK2
  1

  9
$DIMSTYLE
  2
ISO-25
  9
$DIMCLRD
 70
     0
  9
$DIMCLRE
 70
     0
  9
$DIMCLRT
 70
     0
  9
$DIMTFAC
 40
1.0
  9
$DIMGAP
 40
0.625
  9
$DIMJUST
 70
     0
  9
$DIMSD1
 70
     0
  9
$DIMSD2
 70
     0
  9
$DIMTOLJ
 70
     0
  9
$DIMTZIN
 70
     8
  9
$DIMALTZ
 70
     0
  9
$DIMALTTZ
 70
     0
  9
$DIMUPT
 70
     0
  9
$DIMDEC
 70
     2
  9
$DIMTDEC
 70
     2
  9
$DIMALTU
 70
     2
  9
$DIMALTTD
 70
     3
  9
$DIMTXSTY
  7
Standard
  9
$DIMAUNIT
 70
     0
  9
$DIMADEC
 70
     0
  9
$DIMALTRND
 40
0.0
  9
$DIMAZIN
 70
     0
  9
$DIMDSEP
 70
    44
  9
$DIMATFIT
 70
     3
  9
$DIMFRAC
 70
     0
  9
$DIMLDRBLK
  1

  9
$DIMLUNIT
 70
     2
  9
$DIMLWD
 70
    -2
  9
$DIMLWE
 70
    -2
  9
$DIMTMOVE
 70
     0
  9
$DIMFXL
 40
1.0
  9
$DIMFXLON
 70
     0
  9
$DIMJOGANG
 40
0.7853981633974483
  9
$DIMTFILL
 70
     0
  9
$DIMTFILLCLR
 70
     0
  9
$DIMARCSYM
 70
     0
  9
$DIMLTYPE
  6

  9
$DIMLTEX1
  6

  9
$DIMLTEX2
  6

  9
$DIMTXTDIRECTION
 70
     0
  9
$LUNITS
 70
     2
  9
$LUPREC
 70
     4
  9
$SKETCHINC
 40
1.0
  9
$FILLETRAD
 40
0.0
  9
$AUNITS
 70
     0
  9
$AUPREC
 70
     0
  9
$MENU
  1
.
  9
$ELEVATION
 40
0.0
  9
$PELEVATION
 40
0.0
  9
$THICKNESS
 40
0.0
  9
$LIMCHECK
 70
     0
  9
$CHAMFERA
 40
0.0
  9
$CHAMFERB
 40
0.0
  9
$CHAMFERC
 40
0.0
  9
$CHAMFERD
 40
0.0
  9
$SKPOLY
 70
     0
  9
$TDCREATE
 40
2459873.457585498
  9
$TDUCREATE
 40
2459873.082585498
  9
$TDUPDATE
 40
2459873.457585544
  9
$TDUUPDATE
 40
2459873.082585544
  9
$TDINDWG
 40
0.0000000116
  9
$TDUSRTIMER
 40
0.0000000116
  9
$USRTIMER
 70
     1
  9
$ANGBASE
 50
0.0
  9
$ANGDIR
 70
     0
  9
$PDMODE
 70
     0
  9
$PDSIZE
 40
0.0
  9
$PLINEWID
 40
0.0
  9
$SPLFRAME
 70
     0
  9
$SPLINETYPE
 70
     6
  9
$SPLINESEGS
 70
     8
  9
$HANDSEED
  5
AB
  9
$SURFTAB1
 70
     6
  9
$SURFTAB2
 70
     6
  9
$SURFTYPE
 70
     6
  9
$SURFU
 70
     6
  9
$SURFV
 70
     6
  9
$UCSBASE
  2

  9
$UCSNAME
  2

  9
$UCSORG
 10
0.0
 20
0.0
 30
0.0
  9
$UCSXDIR
 10
1.0
 20
0.0
 30
0.0
  9
$UCSYDIR
 10
0.0
 20
1.0
 30
0.0
  9
$UCSORTHOREF
  2

  9
$UCSORTHOVIEW
 70
     0
  9
$UCSORGTOP
 10
0.0
 20
0.0
 30
0.0
  9
$UCSORGBOTTOM
 10
0.0
 20
0.0
 30
0.0
  9
$UCSORGLEFT
 10
0.0
 20
0.0
 30
0.0
  9
$UCSORGRIGHT
 10
0.0
 20
0.0
 30
0.0
  9
$UCSORGFRONT
 10
0.0
 20
0.0
 30
0.0
  9
$UCSORGBACK
 10
0.0
 20
0.0
 30
0.0
  9
$PUCSBASE
  2

  9
$PUCSNAME
  2

  9
$PUCSORG
 10
0.0
 20
0.0
 30
0.0
  9
$PUCSXDIR
 10
1.0
 20
0.0
 30
0.0
  9
$PUCSYDIR
 10
0.0
 20
1.0
 30
0.0
  9
$PUCSORTHOREF
  2

  9
$PUCSORTHOVIEW
 70
     0
  9
$PUCSORGTOP
 10
0.0
 20
0.0
 30
0.0
  9
$PUCSORGBOTTOM
 10
0.0
 20
0.0
 30
0.0
  9
$PUCSORGLEFT
 10
0.0
 20
0.0
 30
0.0
  9
$PUCSORGRIGHT
 10
0.0
 20
0.0
 30
0.0
  9
$PUCSORGFRONT
 10
0.0
 20
0.0
 30
0.0
  9
$PUCSORGBACK
 10
0.0
 20
0.0
 30
0.0
  9
$USERI1
 70
     0
  9
$USERI2
 70
     0
  9
$USERI3
 70
     0
  9
$USERI4
 70
     0
  9
$USERI5
 70
     0
  9
$USERR1
 40
0.0
  9
$USERR2
 40
0.0
  9
$USERR3
 40
0.0
  9
$USERR4
 40
0.0
  9
$USERR5
 40
0.0
  9
$WORLDVIEW
 70
     1
  9
$SHADEDGE
 70
     3
  9
$SHADEDIF
 70
    70
  9
$TILEMODE
 70
     1
  9
$MAXACTVP
 70
    64
  9
$PINSBASE
 10
0.0
 20
0.0
 30
0.0
  9
$PLIMCHECK
 70
     0
  9
$PEXTMIN
 10
1.000000000000000E+20
 20
1.000000000000000E+20
 30
1.000000000000000E+20
  9
$PEXTMAX
 10
-1.000000000000000E+20
 20
-1.000000000000000E+20
 30
-1.000000000000000E+20
  9
$PLIMMIN
 10
0.0
 20
0.0
  9
$PLIMMAX
 10
420.0
 20
297.0
  9
$UNITMODE
 70
     0
  9
$VISRETAIN
 70
     1
  9
$PLINEGEN
 70
     0
  9
$PSLTSCALE
 70
     1
  9
$TREEDEPTH
 70
  3020
  9
$CMLSTYLE
  2
Standard
  9
$CMLJUST
 70
     0
  9
$CMLSCALE
 40
20.0
  9
$PROXYGRAPHICS
 70
     1
  9
$MEASUREMENT
 70
     1
  9
$CELWEIGHT
370
    -1
  9
$ENDCAPS
280
     0
  9
$JOINSTYLE
280
     0
  9
$LWDISPLAY
290
     0
  9
$INSUNITS
 70
     4
  9
$HYPERLINKBASE
  1

  9
$STYLESHEET
  1

  9
$XEDIT
290
     1
  9
$CEPSNTYPE
380
     0
  9
$PSTYLEMODE
290
     1
  9
$FINGERPRINTGUID
  2
{3ce866b0-3536-4f59-a483-0897bb1677f3}
  9
$VERSIONGUID
  2
{FAEB1C32-E019-11D5-929B-00C0DF256EC4}
  9
$EXTNAMES
290
     1
  9
$PSVPSCALE
 40
0.0
  9
$OLESTARTUP
290
     0
  9
$SORTENTS
280
   127
  9
$INDEXCTL
280
     0
  9
$HIDETEXT
280
     1
  9
$XCLIPFRAME
280
     2
  9
$HALOGAP
280
     0
  9
$OBSCOLOR
 70
   257
  9
$OBSLTYPE
280
     0
  9
$INTERSECTIONDISPLAY
280
     0
  9
$INTERSECTIONCOLOR
 70
   257
  9
$DIMASSOC
280
     2
  9
$PROJECTNAME
  1

  9
$CAMERADISPLAY
290
     0
  9
$LENSLENGTH
 40
50.0
  9
$CAMERAHEIGHT
 40
0.0
  9
$STEPSPERSEC
 40
2.0
  9
$STEPSIZE
 40
6.0
  9
$3DDWFPREC
 40
2.0
  9
$PSOLWIDTH
 40
5.0
  9
$PSOLHEIGHT
 40
80.0
  9
$LOFTANG1
 40
1.570796326794897
  9
$LOFTANG2
 40
1.570796326794897
  9
$LOFTMAG1
 40
0.0
  9
$LOFTMAG2
 40
0.0
  9
$LOFTPARAM
 70
     7
  9
$LOFTNORMALS
280
     1
  9
$LATITUDE
 40
37.795
  9
$LONGITUDE
 40
-122.394
  9
$NORTHDIRECTION
 40
0.0
  9
$TIMEZONE
 70
 -8000
  9
$LIGHTGLYPHDISPLAY
280
     1
  9
$TILEMODELIGHTSYNCH
280
     1
  9
$CMATERIAL
347
44
  9
$SOLIDHIST
280
     0
  9
$SHOWHIST
280
     1
  9
$DWFFRAME
280
     2
  9
$DGNFRAME
280
     2
  9
$REALWORLDSCALE
290
     1
  9
$INTERFERECOLOR
 62
   256
  9
$CSHADOW
280
     0
  9
$SHADOWPLANELOCATION
 40
0.0
  0
ENDSEC
  0
SECTION
  2
CLASSES
  0
CLASS
  1
ACDBDICTIONARYWDFLT
  2
AcDbDictionaryWithDefault
  3
ObjectDBX Classes
 90
        0
 91
        3
280
     0
281
     0
  0
CLASS
  1
VISUALSTYLE
  2
AcDbVisualStyle
  3
ObjectDBX Classes
 90
     4095
 91
        3
280
     0
281
     0
  0
CLASS
  1
MATERIAL
  2
AcDbMaterial
  3
ObjectDBX Classes
 90
     1153
 91
        3
280
     0
281
     0
  0
CLASS
  1
SCALE
  2
AcDbScale
  3
ObjectDBX Classes
 90
     1153
 91
        3
280
     0
281
     0
  0
CLASS
  1
TABLESTYLE
  2
AcDbTableStyle
  3
ObjectDBX Classes
 90
     4095
 91
        3
280
     0
281
     0
  0
CLASS
  1
MLEADERSTYLE
  2
AcDbMLeaderStyle
  3
ACDB_MLEADERSTYLE_CLASS
 90
     4095
 91
        3
280
     0
281
     0
  0
CLASS
  1
SUN
  2
AcDbSun
  3
SCENEOE
 90
     1153
 91
        3
280
     0
281
     0
  0
CLASS
  1
DICTIONARYVAR
  2
AcDbDictionaryVar
  3
ObjectDBX Classes
 90
        0
 91
        3
280
     0
281
     0
  0
CLASS
  1
CELLSTYLEMAP
  2
AcDbCellStyleMap
  3
ObjectDBX Classes
 90
     1152
 91
        3
280
     0
281
     0
  0
ENDSEC
  0
SECTION
  2
TABLES
  0
TABLE
  2
VPORT
  5
8
330
0
100
AcDbSymbolTable
 70
     1
  0
VPORT
  5
29
330
8
100
AcDbSymbolTableRecord
100
AcDbViewportTableRecord
  2
*Active
 70
     0
 10
0.0
 20
0.0
 11
1.0
 21
1.0
 12
151.4998911674896
 22
108.0008027704874
 13
0.0
 23
0.0
 14
10.0
 24
10.0
 15
10.0
 25
10.0
 16
0.0
 26
0.0
 36
1.0
 17
0.0
 27
0.0
 37
0.0
 40
237.6017660950723
 41
1.402766343222857
 42
50.0
 43
0.0
 44
0.0
 50
0.0
 51
0.0
 71
     0
 72
 10000
 73
     1
 74
     3
 75
     0
 76
     0
 77
     0
 78
     0
281
     0
 65
     1
110
0.0
120
0.0
130
0.0
111
1.0
121
0.0
131
0.0
112
0.0
122
1.0
132
0.0
 79
     0
146
0.0
348
2F
 60
     3
 61
     5
292
     1
282
     1
141
0.0
142
0.0
 63
   250
361
5D
  0
ENDTAB
  0
TABLE
  2
LTYPE
  5
5
330
0
100
AcDbSymbolTable
 70
     2
  0
LTYPE
  5
14
330
5
100
AcDbSymbolTableRecord
100
AcDbLinetypeTableRecord
  2
ByBlock
 70
     0
  3

 72
    65
 73
     0
 40
0.0
  0
LTYPE
  5
15
330
5
100
AcDbSymbolTableRecord
100
AcDbLinetypeTableRecord
  2
ByLayer
 70
     0
  3

 72
    65
 73
     0
 40
0.0
  0
LTYPE
  5
16
330
5
100
AcDbSymbolTableRecord
100
AcDbLinetypeTableRecord
  2
Continuous
 70
     0
  3
Solid line
 72
    65
 73
     0
 40
0.0
  0
LTYPE
  5
5F
330
5
100
AcDbSymbolTableRecord
100
AcDbLinetypeTableRecord
  2
UserDefined01
 70
     0
  3
----------------                
 72
    65
 73
     2
 40
0.7055555449591743
 49
0.3527777724795871
 74
     0
 49
-0.3527777724795871
 74
     0
  0
ENDTAB
  0
TABLE
  2
LAYER
  5
2
330
0
100
AcDbSymbolTable
 70
     3
  0
LAYER
  5
10
330
2
100
AcDbSymbolTableRecord
100
AcDbLayerTableRecord
  2
0
 70
     0
 62
     7
  6
Continuous
370
    -3
390
F
347
46
348
0
  0
LAYER
  5
60
330
2
100
AcDbSymbolTableRecord
100
AcDbLayerTableRecord
  2
外枠
 70
     0
 62
     7
  6
Continuous
370
    -3
390
F
347
46
348
0
  0
LAYER
  5
61
330
2
100
AcDbSymbolTableRecord
100
AcDbLayerTableRecord
  2
ISS138金台
 70
     0
 62
     7
  6
Continuous
370
    -3
390
F
347
46
348
0
  0
ENDTAB
  0
TABLE
  2
STYLE
  5
3
330
0
100
AcDbSymbolTable
 70
     2
  0
STYLE
  5
11
330
3
100
AcDbSymbolTableRecord
100
AcDbTextStyleTableRecord
  2
Standard
 70
     0
 40
0.0
 41
1.0
 50
0.0
 71
     0
 42
2.5
  3

  4

  0
STYLE
  5
5E
330
3
100
AcDbSymbolTableRecord
100
AcDbTextStyleTableRecord
  2
MS Gothic
 70
     0
 40
1.0
 41
1.0
 50
0.0
 71
     0
 42
2.5
  3
msgothic.ttc
  4

1001
ACAD
1000
MS Gothic
1071
    32817
  0
ENDTAB
  0
TABLE
  2
VIEW
  5
6
330
0
100
AcDbSymbolTable
 70
     0
  0
ENDTAB
  0
TABLE
  2
UCS
  5
7
330
0
100
AcDbSymbolTable
 70
     0
  0
ENDTAB
  0
TABLE
  2
APPID
  5
9
330
0
100
AcDbSymbolTable
 70
     1
  0
APPID
  5
12
330
9
100
AcDbSymbolTableRecord
100
AcDbRegAppTableRecord
  2
ACAD
 70
     0
  0
ENDTAB
  0
TABLE
  2
DIMSTYLE
  5
A
330
0
100
AcDbSymbolTable
 70
     1
100
AcDbDimStyleTable
  0
DIMSTYLE
105
27
330
A
100
AcDbSymbolTableRecord
100
AcDbDimStyleTableRecord
  2
ISO-25
 70
     0
 41
2.5
 42
0.625
 43
3.75
 44
1.25
 73
     0
 74
     0
 77
     1
 78
     8
140
2.5
141
2.5
143
0.03937007874016
147
0.625
171
     3
172
     1
178
     0
271
     2
272
     2
274
     3
278
    44
283
     0
284
     8
340
11
  0
ENDTAB
  0
TABLE
  2
BLOCK_RECORD
  5
1
330
0
100
AcDbSymbolTable
 70
     1
  0
BLOCK_RECORD
  5
1F
330
1
100
AcDbSymbolTableRecord
100
AcDbBlockTableRecord
  2
*Model_Space
340
22
 70
     0
280
     1
281
     0
  0
BLOCK_RECORD
  5
1B
330
1
100
AcDbSymbolTableRecord
100
AcDbBlockTableRecord
  2
*Paper_Space
340
1E
 70
     0
280
     1
281
     0
  0
BLOCK_RECORD
  5
23
330
1
100
AcDbSymbolTableRecord
100
AcDbBlockTableRecord
  2
*Paper_Space0
340
26
 70
     0
280
     1
281
     0
  0
ENDTAB
  0
ENDSEC
  0
SECTION
  2
BLOCKS
  0
BLOCK
  5
20
330
1F
100
AcDbEntity
  8
0
100
AcDbBlockBegin
  2
*Model_Space
 70
     0
 10
0.0
 20
0.0
 30
0.0
  3
*Model_Space
  1

  0
ENDBLK
  5
21
330
1F
100
AcDbEntity
  8
0
100
AcDbBlockEnd
  0
BLOCK
  5
1C
330
1B
100
AcDbEntity
 67
     1
  8
0
100
AcDbBlockBegin
  2
*Paper_Space
 70
     0
 10
0.0
 20
0.0
 30
0.0
  3
*Paper_Space
  1

  0
ENDBLK
  5
1D
330
1B
100
AcDbEntity
 67
     1
  8
0
100
AcDbBlockEnd
  0
BLOCK
  5
24
330
23
100
AcDbEntity
  8
0
100
AcDbBlockBegin
  2
*Paper_Space0
 70
     0
 10
0.0
 20
0.0
 30
0.0
  3
*Paper_Space0
  1

  0
ENDBLK
  5
25
330
23
100
AcDbEntity
  8
0
100
AcDbBlockEnd
  0
ENDSEC
  0
SECTION
  2
ENTITIES
  0
LWPOLYLINE
  5
62
330
1F
100
AcDbEntity
  8
外枠
  6
Continuous
 62
   250
420
  2367521
370
   100
100
AcDbPolyline
 90
        5
 70
     0
 43
0.0
 10
281.9999662644599
 20
13.29407825637392
 10
20.99981607051935
 20
13.29407825637392
 10
20.99981607051935
 20
193.0018900389566
 10
281.9999662644599
 20
193.0018900389566
 10
281.9999662644599
 20
13.29407825637392
  0
LINE
  5
63
330
1F
100
AcDbEntity
  8
外枠
  6
Continuous
 62
   250
420
  2367521
370
    25
100
AcDbLine
 10
223.3097080177524
 20
174.0786160074276
 30
0.0
 11
281.9999232007669
 21
174.0786160074276
 31
0.0
  0
LINE
  5
64
330
1F
100
AcDbEntity
  8
外枠
  6
Continuous
 62
   250
420
  2367521
370
    25
100
AcDbLine
 10
223.3097080177524
 20
50.37109023844297
 30
0.0
 11
281.9999232007669
 21
50.37109023844297
 31
0.0
  0
LINE
  5
65
330
1F
100
AcDbEntity
  8
外枠
  6
Continuous
 62
   250
420
  2367521
370
    25
100
AcDbLine
 10
223.3097080177524
 20
36.25997933925949
 30
0.0
 11
281.9999232007669
 21
36.25997933925949
 31
0.0
  0
LINE
  5
66
330
1F
100
AcDbEntity
  8
外枠
  6
Continuous
 62
   250
420
  2367521
370
    50
100
AcDbLine
 10
223.0158413772006
 20
193.3637327187979
 30
0.0
 11
223.0158413772006
 21
13.29396655992039
 31
0.0
  0
TEXT
  5
67
330
1F
100
AcDbEntity
  8
外枠
  6
Continuous
 62
   250
420
  2367521
100
AcDbText
 10
224.7190965599536
 20
186.6888051931772
 30
0.0
 40
2.688166626294454
  1
品名：
 41
0.974166170756022
  7
MS Gothic
100
AcDbText
  0
TEXT
  5
68
330
1F
100
AcDbEntity
  8
外枠
  6
Continuous
 62
   250
420
  2367521
100
AcDbText
 10
224.7190965599536
 20
168.1080059455944
 30
0.0
 40
2.688166626294454
  1
仕様：
 41
0.9978878657023111
  7
MS Gothic
100
AcDbText
  0
TEXT
  5
69
330
1F
100
AcDbEntity
  8
外枠
  6
Continuous
 62
   250
420
  2367521
100
AcDbText
 10
224.7190965599536
 20
44.16660664327048
 30
0.0
 40
2.688166626294454
  1
縮尺：
 41
0.9939999262491861
  7
MS Gothic
100
AcDbText
  0
TEXT
  5
6A
330
1F
100
AcDbEntity
  8
外枠
  6
Continuous
 62
   250
420
  2367521
100
AcDbText
 10
250.2379519709696
 20
40.59738467878129
 30
0.0
 40
2.150533301035563
  1
1/1
 41
1.000003814697266
  7
MS Gothic
100
AcDbText
  0
TEXT
  5
6B
330
1F
100
AcDbEntity
  8
外枠
  6
Continuous
 62
   250
420
  2367521
100
AcDbText
 10
232.7757967427735
 20
181.9845273775436
 30
0.0
 40
2.688166626294454
  1
フロアーレイ　LB-1
 41
0.9994628058539495
  7
MS Gothic
100
AcDbText
  0
TEXT
  5
6C
330
1F
100
AcDbEntity
  8
外枠
  6
Continuous
 62
   250
420
  2367521
100
AcDbText
 10
226.1633020978884
 20
24.25683874973963
 30
0.0
 40
2.553758294979732
  1
ヤスダインテリアサプライ株式会社
 41
1.0194908945184
  7
MS Gothic
100
AcDbText
  0
TEXT
  5
6D
330
1F
100
AcDbEntity
  8
外枠
  6
Continuous
 62
   250
420
  2367521
100
AcDbText
 10
227.7635273953072
 20
161.7763665048245
 30
0.0
 40
2.150533301035563
  1
材質
 41
1.028502464294433
  7
MS Gothic
100
AcDbText
  0
TEXT
  5
6E
330
1F
100
AcDbEntity
  8
外枠
  6
Continuous
 62
   250
420
  2367521
100
AcDbText
 10
233.5984640006548
 20
156.9052368606422
 30
0.0
 40
2.016124969720841
  1
金台：
 41
1.494500562879774
  7
MS Gothic
100
AcDbText
  0
TEXT
  5
6F
330
1F
100
AcDbEntity
  8
外枠
  6
Continuous
 62
   250
420
  2367521
100
AcDbText
 10
244.4305115335576
 20
156.9052368606422
 30
0.0
 40
2.016124969720841
  1
アルミ押出形材（A6063S-T5）
 41
1.033106825086805
  7
MS Gothic
100
AcDbText
  0
TEXT
  5
70
330
1F
100
AcDbEntity
  8
外枠
  6
Continuous
 62
   250
420
  2367521
100
AcDbText
 10
233.5984640006548
 20
152.6719035908871
 30
0.0
 40
2.016124969720841
  1
                  シルバー仕上（アルマイト）
 41
0.7675306377988871
  7
MS Gothic
100
AcDbText
  0
TEXT
  5
71
330
1F
100
AcDbEntity
  8
外枠
  6
Continuous
 62
   250
420
  2367521
100
AcDbText
 10
227.6457266632982
 20
135.3178613140838
 30
0.0
 40
2.150533301035563
  1
タイヤカラー
 41
1.009722550710042
  7
MS Gothic
100
AcDbText
  0
TEXT
  5
72
330
1F
100
AcDbEntity
  8
外枠
  6
Continuous
 62
   250
420
  2367521
100
AcDbText
 10
232.657974478918
 20
129.3182583626035
 30
0.0
 40
2.016124969720841
  1
IS-13  グレー
 41
0.90473398061899
  7
MS Gothic
100
AcDbText
  0
TEXT
  5
73
330
1F
100
AcDbEntity
  8
外枠
  6
Continuous
 62
   250
420
  2367521
100
AcDbText
 10
232.657974478918
 20
124.0265917754097
 30
0.0
 40
2.016124969720841
  1
IS-19  ライトベージュ
 41
0.9467488606770831
  7
MS Gothic
100
AcDbText
  0
TEXT
  5
74
330
1F
100
AcDbEntity
  8
外枠
  6
Continuous
 62
   250
420
  2367521
100
AcDbText
 10
232.657974478918
 20
118.7349251882159
 30
0.0
 40
2.016124969720841
  1
IS-16  ベージュ
 41
0.9228807915581594
  7
MS Gothic
100
AcDbText
  0
TEXT
  5
75
330
1F
100
AcDbEntity
  8
外枠
  6
Continuous
 62
   250
420
  2367521
100
AcDbText
 10
232.657974478918
 20
113.4432586010221
 30
0.0
 40
2.016124969720841
  1
IS-21  チョコレート
 41
0.9285238701000545
  7
MS Gothic
100
AcDbText
  0
TEXT
  5
76
330
1F
100
AcDbEntity
  8
外枠
  6
Continuous
 62
   250
420
  2367521
100
AcDbText
 10
232.657974478918
 20
108.1515920138282
 30
0.0
 40
2.016124969720841
  1
IS-12  ワインレッド
 41
0.9415448105126094
  7
MS Gothic
100
AcDbText
  0
TEXT
  5
77
330
1F
100
AcDbEntity
  8
外枠
  6
Continuous
 62
   250
420
  2367521
100
AcDbText
 10
233.5972366854063
 20
148.2624290511266
 30
0.0
 40
2.016124969720841
  1
タイヤ：
 41
1.121272277832031
  7
MS Gothic
100
AcDbText
  0
TEXT
  5
78
330
1F
100
AcDbEntity
  8
外枠
  6
Continuous
 62
   250
420
  2367521
100
AcDbText
 10
244.7044612161294
 20
148.2624290511266
 30
0.0
 40
2.016124969720841
  1
軟質塩ビ
 41
1.887001037597656
  7
MS Gothic
100
AcDbText
  0
LWPOLYLINE
  5
79
330
1F
100
AcDbEntity
  8
ISS138金台
  6
Continuous
 62
   250
420
  2367521
370
    25
100
AcDbPolyline
 90
        5
 70
     0
 43
0.0
 10
111.8784299366437
 20
104.9190034155941
 10
114.5905813173522
 20
104.9190034155941
 10
114.5905813173522
 20
97.92942154357056
 10
104.778777265492
 20
97.92942154357056
 10
111.8784299366437
 20
104.9190034155941
  0
LWPOLYLINE
  5
7A
330
1F
100
AcDbEntity
  8
ISS138金台
  6
Continuous
 62
   250
420
  2367521
370
    25
100
AcDbPolyline
 90
      414
 70
     0
 43
0.0
 10
129.6003561265146
 20
106.9474756073517
 10
127.0148443007889
 20
106.9474756073517
 10
126.8953102551394
 20
106.9402086091698
 10
126.7844320117688
 20
106.9185045079333
 10
126.6820265499822
 20
106.8829554294199
 10
126.5880185083168
 20
106.8341534994074
 10
126.5022356320009
 20
106.7726693118271
 10
126.4245917936488
 20
106.6990734606103
 10
126.3549147384886
 20
106.6139796033814
 10
126.2931075732114
 20
106.5179260363018
 10
126.2390195748918
 20
106.4115264169959
 10
126.1925323183742
 20
106.295351339395
 10
126.1535058466567
 20
106.1699821633536
 10
126.1218217345837
 20
106.0360002487262
 10
126.0973507910765
 20
105.8939977212908
 10
126.0799530591329
 20
105.7445344090552
 10
126.0694993476742
 20
105.5882024377974
 10
126.0658712315449
 20
105.4255939332951
 10
126.0672815674884
 20
104.9115964604102
 10
126.0712864909308
 20
104.8530190721027
 10
126.0828060287895
 20
104.7983497139285
 10
126.1010973323613
 20
104.747556088118
 10
126.1253852551737
 20
104.7006381946711
 10
126.1549269485234
 20
104.6575637358183
 10
126.1889687977843
 20
104.6183327115593
 10
126.22675718833
 20
104.582923590048
 10
126.2675277396112
 20
104.5513256053608
 10
126.3105483688479
 20
104.5235172256515
 10
126.3550331636442
 20
104.49949845092
 10
126.4002608071435
 20
104.4792369833966
 10
126.4454561528732
 20
104.4627328230814
 10
126.4898763521301
 20
104.4499644381277
 10
126.5327570243648
 20
104.4409210626125
 10
126.5733553208742
 20
104.4355811646892
 10
126.6109176270321
 20
104.4339339784347
 10
126.6109176270321
 20
104.4339339784347
 10
126.6501594172142
 20
104.4361194608508
 10
126.6903163108711
 20
104.4423421644792
 10
126.7309469051502
 20
104.4525697915499
 10
126.7715882653526
 20
104.4667162146773
 10
126.8117989886256
 20
104.4847168383219
 10
126.8511161402704
 20
104.5065178328675
 10
126.8890983174343
 20
104.5320546027748
 10
126.9252825854185
 20
104.5612517865811
 10
126.9592275413702
 20
104.594044788747
 10
126.9904702505907
 20
104.6303797796564
 10
127.0185693102273
 20
104.6701813978466
 10
127.043061785581
 20
104.7133850477783
 10
127.0635062737993
 20
104.7599368998352
 10
127.0794398401833
 20
104.8097723584781
 10
127.0904210818804
 20
104.8628160622441
 10
127.0959870641915
 20
104.9190034155941
 10
127.0959870641915
 20
104.9190034155941
 10
127.1007671341067
 20
104.971853332742
 10
127.1100688917795
 20
105.0227007881686
 10
127.1236770187453
 20
105.0713842930256
 10
127.1413654306161
 20
105.1176992947714
 10
127.1629295748507
 20
105.1614627727112
 10
127.1881541329842
 20
105.2024917061499
 10
127.2168022547056
 20
105.2406138403158
 10
127.24869091932
 20
105.2756138567444
 10
127.2835832765163
 20
105.3073195006639
 10
127.3212640078297
 20
105.3355477513792
 10
127.3615070288724
 20
105.3601048222724
 10
127.4041077871031
 20
105.3808184585715
 10
127.448850964057
 20
105.397473341812
 10
127.4955212412695
 20
105.4099187490687
 10
127.5438925343527
 20
105.4179393618769
 10
127.5937602907652
 20
105.4213629254648
 10
127.5937602907652
 20
105.4213629254648
 10
127.6419377972302
 20
105.4195111866688
 10
127.6889310521397
 20
105.4121688270243
 10
127.7344924392593
 20
105.3997126538444
 10
127.7783205127384
 20
105.3824118152099
 10
127.8201676563428
 20
105.360643118434
 10
127.8597754879148
 20
105.3347295412136
 10
127.8968748593737
 20
105.3049832953224
 10
127.9311966226386
 20
105.2717381243807
 10
127.9624608637055
 20
105.235338537932
 10
127.9904414981866
 20
105.1961075136731
 10
128.014826314308
 20
105.154368029301
 10
128.0353784617586
 20
105.1104645943593
 10
128.0518287924577
 20
105.0647094206215
 10
128.0639081583245
 20
105.0174470176312
 10
128.0713474112781
 20
104.9690111290086
 10
128.073888169161
 20
104.9197139665274
 10
128.073888169161
 20
98.59157965197988
 10
128.0670841056781
 20
98.42977859172001
 10
128.0435067337991
 20
98.27559980510867
 10
128.004221879924
 20
98.1294523972287
 10
127.9502846045297
 20
97.99172394131651
 10
127.8827392021695
 20
97.8627697128387
 10
127.8026299673972
 20
97.74299881687816
 10
127.7110442584591
 20
97.6327988266712
 10
127.6089725402926
 20
97.53254654953102
 10
127.4975021711442
 20
97.44262955869394
 10
127.3776774455675
 20
97.36342466147309
 10
127.2505534240392
 20
97.29533019702811
 10
127.1171744011129
 20
97.23873373859533
 10
126.9785846713421
 20
97.1940120934879
 10
126.8358500611268
 20
97.16155283494219
 10
126.6900148650206
 20
97.14174353619455
 10
126.542123377577
 20
97.13496100455814
 10
117.7226790655873
 20
97.13460572909148
 10
117.5406273037273
 20
97.1416574088087
 10
117.3672851737623
 20
97.16197270594824
 10
117.2030833126216
 20
97.19485183550003
 10
117.0484200594648
 20
97.23963807614686
 10
116.9037260512212
 20
97.29564240880185
 10
116.7694211588969
 20
97.36218658030137
 10
116.6459252534979
 20
97.438603103405
 10
116.5336366741839
 20
97.52421372494913
 10
116.4329968238073
 20
97.61832942584684
 10
116.3444255733743
 20
97.72028271885776
 10
116.2683320279676
 20
97.829384584895
 10
116.2051252926701
 20
97.94497830264137
 10
116.1552467703344
 20
98.06637485301002
 10
116.11909480012
 20
98.19288521691406
 10
116.0971000189562
 20
98.32385267303633
 10
116.0896715319258
 20
98.45858820228992
 10
116.0896715319258
 20
104.9190034155941
 10
116.0922015238854
 20
104.9683005780753
 10
116.0996515427622
 20
105.0167364666979
 10
116.111730908629
 20
105.0639988696882
 10
116.1281920052513
 20
105.1097540434259
 10
116.148744152702
 20
105.1536574783677
 10
116.1731397347467
 20
105.1953969627397
 10
116.2011311351509
 20
105.2346279869986
 10
116.2324169080643
 20
105.2710275734474
 10
116.2667494372524
 20
105.3042727443891
 10
116.3038703405578
 20
105.3340189902802
 10
116.3435104698995
 20
105.3599433334239
 10
116.3853899112736
 20
105.3817120301998
 10
116.4292718143689
 20
105.399002102911
 10
116.4748654992582
 20
105.4114690420142
 10
116.5219125837838
 20
105.4188006357355
 10
116.5701546857882
 20
105.4206523745314
 10
116.5701546857882
 20
105.4206523745314
 10
116.6199578466613
 20
105.4171749813274
 10
116.6682860760516
 20
105.4091220707495
 10
116.7149240554944
 20
105.3966766634928
 10
116.7596564665251
 20
105.3800002484058
 10
116.8022572247557
 20
105.3593081439532
 10
116.8425110117217
 20
105.3347618389833
 10
116.8802025089584
 20
105.3065658860376
 10
116.9151271639243
 20
105.2748710080414
 10
116.9470373603852
 20
105.2398817575361
 10
116.975750077646
 20
105.2017811552166
 10
117.0010176994725
 20
105.1607414558546
 10
117.0226356733231
 20
105.1169456801452
 10
117.0403994466566
 20
105.0705983806296
 10
117.0540721691618
 20
105.0218502802333
 10
117.063438522374
 20
104.9709059314975
 10
117.0682831878286
 20
104.9179483551173
 10
117.0682831878286
 20
104.9179483551173
 10
117.0737307449842
 20
104.8618148313835
 10
117.0845935615257
 20
104.8088249572336
 10
117.1004410005238
 20
104.7590433282069
 10
117.1208101272795
 20
104.7125237739197
 10
117.1452380070938
 20
104.6693416558345
 10
117.1732940030375
 20
104.6295615694908
 10
117.2045151804115
 20
104.5932373445046
 10
117.23844937044
 20
104.5604551082619
 10
117.2746444043474
 20
104.5312471585324
 10
117.3126481133578
 20
104.5057103886251
 10
117.3520083286955
 20
104.483887862233
 10
117.3922836475079
 20
104.4658549408187
 10
117.4330003691729
 20
104.4516762199217
 10
117.4737170908379
 20
104.4414055291579
 10
117.5139924096503
 20
104.4351182299902
 10
117.553352624988
 20
104.4328789179579
 10
117.553352624988
 20
104.4328789179579
 10
117.5907857400671
 20
104.4346337634448
 10
117.6312763773442
 20
104.4400813206004
 10
117.674070922193
 20
104.449189291655
 10
117.7184157599873
 20
104.4620330380712
 10
117.7635465101775
 20
104.4785802620794
 10
117.808731089984
 20
104.4988740273726
 10
117.853205118857
 20
104.5229250998737
 10
117.8962042162473
 20
104.5507442455063
 10
117.9369855334517
 20
104.5823637620399
 10
117.9747954558439
 20
104.6177836494745
 10
118.0088803687977
 20
104.6570362055799
 10
118.0384758917636
 20
104.700121430356
 10
118.0628499419618
 20
104.7470716215725
 10
118.0812166069963
 20
104.7978975451527
 10
118.0928438040873
 20
104.8526099670198
 10
118.0969779186085
 20
104.9112411849435
 10
118.0980329790853
 20
105.4252386578284
 10
118.0943402674166
 20
105.5877933327146
 10
118.083843492265
 20
105.7440714743562
 10
118.0664026966285
 20
105.8934809569756
 10
118.0418886894283
 20
106.0354404207182
 10
118.0101830455088
 20
106.1693792716526
 10
117.9711458078681
 20
106.294705384001
 10
117.9246693172738
 20
106.4108481638323
 10
117.8705920848774
 20
106.5172262512917
 10
117.8087956855234
 20
106.6132367546783
 10
117.7391616940561
 20
106.6983090800608
 10
117.6615609193969
 20
106.7718511016614
 10
117.5758534045437
 20
106.833302991472
 10
117.4819099584177
 20
106.8820726237148
 10
117.3796121558634
 20
106.9175571066888
 10
117.2688200398786
 20
106.9392073783092
 10
117.149415185308
 20
106.9464205468749
 10
114.5903659988875
 20
106.9474756073517
 10
114.5903659988875
 20
109.2183102629173
 10
114.5858443111299
 20
109.3384794980375
 10
114.5728175440187
 20
109.4355450619009
 10
114.5520608440266
 20
109.5111864385318
 10
114.5243924213193
 20
109.5671261756474
 10
114.4905766564464
 20
109.6050329913487
 10
114.4514102277268
 20
109.6266186674297
 10
114.4077113453265
 20
109.6335626879146
 10
114.3602228579483
 20
109.6275768345974
 10
114.3097737416813
 20
109.6103405915023
 10
114.257139142998
 20
109.5835765063465
 10
114.2031157402178
 20
109.5489532972311
 10
114.1485002116598
 20
109.5081719800267
 10
114.0940677037967
 20
109.4629335706041
 10
114.040625660871
 20
109.414939084834
 10
113.9889492293555
 20
109.3658680067407
 10
113.9398458534924
 20
109.3174321181181
 10
101.0041907505931
 20
96.4957235467106
 10
100.9484770978654
 20
96.42953465067775
 10
100.8914715343498
 20
96.36727531662473
 10
100.8349073736867
 20
96.30901014009092
 10
100.7804748658236
 20
96.25480371661575
 10
100.7299288562475
 20
96.20472064173859
 10
100.6849595949057
 20
96.15883627692205
 10
100.6473003954387
 20
96.11719368585909
 10
100.6186415077941
 20
96.0798897618588
 10
100.6007377774586
 20
96.04697833453733
 10
100.5952794543797
 20
96.01851323351083
 10
100.603999852198
 20
95.99456982024195
 10
100.628599986784
 20
95.9752234561933
 10
100.6708024058551
 20
95.96052797098108
 10
100.7323296571283
 20
95.95055872606787
 10
100.8149042883209
 20
95.94538031699307
 10
100.9202273153035
 20
95.94504657337288
 10
100.9202273153035
 20
95.94504657337288
 10
100.9386478099542
 20
95.94494968006379
 10
100.9907225806294
 20
95.94465900013651
 10
101.0716392596441
 20
95.94423912913044
 10
101.1766177770834
 20
95.94371159889205
 10
101.3008457652621
 20
95.9431302390375
 10
101.4395216224188
 20
95.94253811325972
 10
101.5878652786382
 20
95.9419675193284
 10
101.7410536003121
 20
95.9414722868597
 10
101.8943065175255
 20
95.94108471362334
 10
102.0428116625933
 20
95.94085862923546
 10
102.1817781996773
 20
95.94082633146576
 10
102.3064152929389
 20
95.94103088400718
 10
102.4119105746932
 20
95.9415045846294
 10
102.4934624431787
 20
95.94231202887184
 10
102.5462908284802
 20
95.94347474858094
 10
102.5655833629126
 20
95.94504657337288
 10
102.5655833629126
 20
95.94504657337288
 10
102.6411601440042
 20
96.05933761440812
 10
102.7340485296534
 20
96.1583841081463
 10
102.8419230804421
 20
96.2421968205106
 10
102.9624583569522
 20
96.3107649855778
 10
103.0933289197653
 20
96.36409936927117
 10
103.2322093294634
 20
96.40219997159066
 10
103.3767741466282
 20
96.42505602661308
 10
103.5246979318415
 20
96.43266753433838
 10
103.6736552456851
 20
96.42505602661308
 10
103.8213206487409
 20
96.40218920566744
 10
103.9653687015905
 20
96.36409936927117
 10
104.1034739648158
 20
96.3107649855778
 10
104.2333109989987
 20
96.24218605458736
 10
104.3525543647209
 20
96.1583841081463
 10
104.4588786225641
 20
96.05933761440812
 10
104.5499583331103
 20
95.94504657337288
 10
105.5864260604641
 20
95.94504657337288
 10
105.6632086249576
 20
96.07387161077187
 10
105.7593590853463
 20
96.18370555958892
 10
105.8720460038199
 20
96.27494675898359
 10
105.9984271766451
 20
96.34797201626901
 10
106.1356604000887
 20
96.40317967060481
 10
106.2809034704171
 20
96.44095729522734
 10
106.4313034179738
 20
96.46168169744973
 10
106.5840288049488
 20
96.46574045050835
 10
106.7362481935318
 20
96.45354265948603
 10
106.8850978481431
 20
96.42544359984944
 10
107.0277570968958
 20
96.38186314260464
 10
107.1613729701332
 20
96.32316732914154
 10
107.2831032641221
 20
96.24974373269652
 10
107.390105775129
 20
96.16200145835238
 10
107.4795382994206
 20
96.06030654749904
 10
107.5485693991868
 20
95.94504657337288
 10
107.5485693991868
 20
95.94504657337288
 10
107.5607241265162
 20
95.94324866419305
 10
107.5933771716801
 20
95.94169837124758
 10
107.6436002035593
 20
95.9404064604597
 10
107.708486422881
 20
95.93934063405969
 10
107.7850644348331
 20
95.93852242389403
 10
107.8704489719894
 20
95.93795182996271
 10
107.9616686395376
 20
95.93759655449604
 10
108.055816638205
 20
95.93749966118695
 10
108.1499646368724
 20
95.93762885226573
 10
108.2411843044206
 20
95.93800565957886
 10
108.3265365438072
 20
95.93860855127988
 10
108.4030930239128
 20
95.93943752736878
 10
108.4679254136184
 20
95.94049258784557
 10
108.5181161477279
 20
95.94178449863344
 10
108.5507153632756
 20
95.94330249380923
 10
108.5628054950656
 20
95.94504657337288
 10
108.5628054950656
 20
95.94504657337288
 10
108.6355077746541
 20
96.05957446471925
 10
108.7277071412164
 20
96.15929921162105
 10
108.8367121139446
 20
96.24410238892273
 10
108.9597773824143
 20
96.31388710331521
 10
109.0942222317406
 20
96.36856722741263
 10
109.2373121174225
 20
96.40805663382909
 10
109.3863447927288
 20
96.43222613148586
 10
109.5385964790815
 20
96.44100035892026
 10
109.6913649297494
 20
96.43428242282324
 10
109.8419263661547
 20
96.41195389803923
 10
109.9875785415659
 20
96.37393942310558
 10
110.1256084433286
 20
96.32014210471324
 10
110.253292292865
 20
96.25044351770663
 10
110.3679278434437
 20
96.16475753469987
 10
110.4667913164869
 20
96.06299802830713
 10
110.5471804652633
 20
95.94504657337288
 10
110.5471804652633
 20
95.94504657337288
 10
110.5582908980392
 20
95.94469129790619
 10
110.5893721184111
 20
95.94427142690014
 10
110.6375711567226
 20
95.94381925812436
 10
110.7000135114706
 20
95.94335632342538
 10
110.7738677448449
 20
95.94287185687992
 10
110.8562701212658
 20
95.94240892218093
 10
110.9443999688463
 20
95.9419675193284
 10
111.0353720201601
 20
95.94155841424558
 10
111.1263656033205
 20
95.94120313877889
 10
111.2145385145939
 20
95.94093399069808
 10
111.2970054865542
 20
95.94072943815667
 10
111.3709458473143
 20
95.94063254484757
 10
111.4334958612946
 20
95.94064331077081
 10
111.4818240906849
 20
95.94078326777284
 10
111.5130560339821
 20
95.94107394770012
 10
111.5243710192994
 20
95.94151535055263
 10
111.5243710192994
 20
95.94151535055263
 10
111.6212750943143
 20
96.07343020791936
 10
111.729052751794
 20
96.18683844324954
 10
111.846207528409
 20
96.28195537500788
 10
111.9711998971373
 20
96.35897478981255
 10
112.1025226287262
 20
96.418058176512
 10
112.2386577280001
 20
96.45944238541739
 10
112.378087199783
 20
96.48327813945394
 10
112.5192930488993
 20
96.48978075708632
 10
112.6607572801731
 20
96.47913325900946
 10
112.8009511325056
 20
96.45155096368802
 10
112.938367376644
 20
96.4071953599705
 10
113.0714880174128
 20
96.34628176632154
 10
113.198795059636
 20
96.26898243751283
 10
113.3187597422148
 20
96.17551269200905
 10
113.4298748358964
 20
96.06605555050515
 10
113.5306223455053
 20
95.9408047996193
 10
113.5306223455053
 20
95.9408047996193
 10
113.542141883364
 20
95.94018037607182
 10
113.5738690591299
 20
95.9396420799102
 10
113.6229401372232
 20
95.93920067705767
 10
113.6864267865248
 20
95.93882386974454
 10
113.7614545055314
 20
95.9385439557405
 10
113.8451380268169
 20
95.93833940319908
 10
113.934592082955
 20
95.93824250988999
 10
114.0269421724426
 20
95.93821021212028
 10
114.1192707300838
 20
95.93827480765968
 10
114.2087140202986
 20
95.9384147646617
 10
114.2923760097377
 20
95.93865161497283
 10
114.3673821968979
 20
95.93897459266978
 10
114.4308257825065
 20
95.93938369775262
 10
114.4798322650604
 20
95.93988969614455
 10
114.5115163771334
 20
95.94048182192233
 10
114.5229820853759
 20
95.94116007508597
 10
114.5229820853759
 20
95.94116007508597
 10
114.6140725618453
 20
96.07704755812543
 10
114.7204291174583
 20
96.19390088889
 10
114.8397801424128
 20
96.2919246199211
 10
114.9698109632138
 20
96.37133406968334
 10
115.1082392041361
 20
96.43229072702525
 10
115.2527717235312
 20
96.47499914448821
 10
115.4011153797506
 20
96.4996746405369
 10
115.5509770311457
 20
96.506489469943
 10
115.7000635360681
 20
96.49563741932474
 10
115.8460709869461
 20
96.46732304122351
 10
115.9867170080543
 20
96.42174012225749
 10
116.1197084577442
 20
96.35907168312164
 10
116.2427521943674
 20
96.27952227635737
 10
116.3535443103521
 20
96.18328568858286
 10
116.4498024299731
 20
96.07054494049306
 10
116.5292334115818
 20
95.94151535055263
 10
116.5292334115818
 20
95.94151535055263
 10
116.5901470052308
 20
95.94108471362334
 10
116.7618204170948
 20
95.94085862923546
 10
117.0284169740989
 20
95.94079403369606
 10
117.3741215350149
 20
95.94088016108194
 10
117.7831081926908
 20
95.94108471362334
 10
118.2395510399753
 20
95.94139692539707
 10
118.7276241697166
 20
95.94178449863344
 10
119.2315232066095
 20
95.94222590148598
 10
119.7353791798095
 20
95.9426996021082
 10
120.2234092458578
 20
95.94318406865366
 10
120.6797659657564
 20
95.94365776927589
 10
121.0886341982768
 20
95.94409917212842
 10
121.4341988021907
 20
95.94447597944155
 10
121.7006123384999
 20
95.94477742529206
 10
121.8720704318993
 20
95.94497121191024
 10
121.9327364093139
 20
95.94504657337288
 10
122.0868936640788
 20
96.14365632516436
 10
122.2414169602335
 20
95.94504657337288
 10
129.6059974702883
 20
95.94504657337288
 10
129.6003561265146
 20
106.9474756073517
  0
HATCH
  5
7B
330
1F
100
AcDbEntity
  8
ISS138金台
  6
Continuous
 62
   254
420
 13816532
370
    25
100
AcDbHatch
 10
0.0
 20
0.0
 30
0.0
210
0.0
220
0.0
230
1.0
  2
SOLID
 70
     1
 71
     0
 91
        1
 92
        3
 72
     0
 73
     1
 93
      282
 10
122.0869367277717
 20
106.9254269965717
 10
121.6567304354046
 20
106.8861744404664
 10
121.2900430901088
 20
106.774704071318
 10
120.9837525741467
 20
106.6004576038015
 10
120.7347044720114
 20
106.3728336888986
 10
120.5398089637351
 20
106.1012955731308
 10
120.3959116338107
 20
105.7952526734031
 10
120.2998795985776
 20
105.4641682362368
 10
120.248569208452
 20
105.1174409126139
 10
120.2388691116196
 20
104.764512417209
 10
120.2676356584965
 20
104.4148136987739
 10
120.3317467313455
 20
104.0777757060601
 10
120.4280479146594
 20
103.7628293878192
 10
120.5534386225473
 20
103.4794056928028
 10
120.7047536735788
 20
103.2369355697625
 10
120.878892481863
 20
103.0448499674498
 10
121.0727006318929
 20
102.9125798346164
 10
121.0727006318929
 20
101.1264701066668
 10
119.6174923204146
 20
101.1264701066668
 10
116.0808973044914
 20
102.9016416566123
 10
116.0808973044914
 20
104.9078929828182
 10
116.083427296451
 20
104.9571793793762
 10
116.0908773153278
 20
105.0056475657685
 10
116.1029459152713
 20
105.0529315006053
 10
116.1194070118937
 20
105.098686674343
 10
116.1399591593444
 20
105.1426331729777
 10
116.164354741389
 20
105.1843941891962
 10
116.1923246099468
 20
105.2236575112248
 10
116.2235888510137
 20
105.2601001613665
 10
116.2579213802019
 20
105.2933668641547
 10
116.2950099857375
 20
105.3231454078155
 10
116.3346178173096
 20
105.3491020487288
 10
116.3764649609139
 20
105.3708922773512
 10
116.4203038003163
 20
105.388203881909
 10
116.4658436555894
 20
105.4006923528585
 10
116.5128476764221
 20
105.408034712503
 10
116.5610251828871
 20
105.4098972172223
 10
116.5610251828871
 20
105.4098972172223
 10
116.6108929392997
 20
105.4064198240182
 10
116.6592427005364
 20
105.3983669134403
 10
116.7058914459024
 20
105.3859215061837
 10
116.7506238569331
 20
105.3692558570199
 10
116.7932030833173
 20
105.3485745184905
 10
116.8334245725136
 20
105.3240282135205
 10
116.8710945379037
 20
105.2958322605749
 10
116.9059545973303
 20
105.2641481485019
 10
116.9378324960214
 20
105.229180429843
 10
116.9664806177429
 20
105.19110135937
 10
116.9916944099532
 20
105.1500831918545
 10
117.013269320111
 20
105.106330479838
 10
117.0309792638283
 20
105.0600154780922
 10
117.0446196885637
 20
105.011321207312
 10
117.0539645099295
 20
104.9604306881924
 10
117.0587984094608
 20
104.9075377073516
 10
117.0587984094608
 20
104.9075377073516
 10
117.0643105621558
 20
104.8512857584622
 10
117.0752164423902
 20
104.79818822508
 10
117.0911069450813
 20
104.7483097027442
 10
117.1115191355299
 20
104.7017147869944
 10
117.1359793131139
 20
104.6584896052162
 10
117.1640568409041
 20
104.6186556892563
 10
117.1952887842013
 20
104.5823206983469
 10
117.2292337401531
 20
104.5495169302578
 10
117.2654287740604
 20
104.5203305123747
 10
117.3034109512244
 20
104.4948045083907
 10
117.3427496347156
 20
104.4730250456915
 10
117.3829926557583
 20
104.4550567198166
 10
117.4236770796536
 20
104.4409425944589
 10
117.4643507376257
 20
104.4307687970043
 10
117.5045614608987
 20
104.4245891570689
 10
117.5438678466202
 20
104.4224682701921
 10
117.5438678466202
 20
104.4224682701921
 10
117.5813655572387
 20
104.4241154564467
 10
117.6218992582087
 20
104.42945535437
 10
117.6647368667505
 20
104.4385094958084
 10
117.7091247682377
 20
104.4512671148388
 10
117.7542878161977
 20
104.4677928070006
 10
117.7994939278506
 20
104.4880435086007
 10
117.8439679567236
 20
104.5120838151787
 10
117.8869885859604
 20
104.5399029608113
 10
117.9277699031647
 20
104.5715224773448
 10
117.9655582937105
 20
104.6069531307027
 10
117.9996216748178
 20
104.6462164527313
 10
118.029184900014
 20
104.6893124434306
 10
118.0535158865193
 20
104.7362841664936
 10
118.0718394878608
 20
104.7871208559971
 10
118.0834236212589
 20
104.8418548097106
 10
118.0874931402407
 20
104.9004860276343
 10
118.0885482007175
 20
105.4144835005193
 10
118.084909318665
 20
105.5770381754054
 10
118.074487904976
 20
105.7332840192773
 10
118.0571009389557
 20
105.8826935018967
 10
118.0326622932181
 20
106.0246314337928
 10
118.0010104789148
 20
106.1585487528807
 10
117.9620378368135
 20
106.2838533333828
 10
117.9156044099121
 20
106.3999745813675
 10
117.8615810071319
 20
106.5063311369805
 10
117.7998492033172
 20
106.6023201085207
 10
117.7302582755429
 20
106.6873924339032
 10
117.6526790327302
 20
106.7609344555037
 10
117.5670145815699
 20
106.8223971112376
 10
117.4731034332136
 20
106.8711775094036
 10
117.3708163965825
 20
106.9066942901473
 10
117.2600458124442
 20
106.9283876254606
 10
117.1406409578736
 20
106.9356546236425
 10
114.5854675038168
 20
106.9310683403455
 10
114.5904090625805
 20
109.9240380626482
 10
116.0897145956187
 20
109.9240380626482
 10
116.1065524995542
 20
109.6565909977087
 10
116.1541378802415
 20
109.4247899045917
 10
116.2280890069249
 20
109.2286563151437
 10
116.3239703192327
 20
109.0681794634414
 10
116.4374539160255
 20
108.9433701154081
 10
116.5641150028548
 20
108.8542067391973
 10
116.6995395511953
 20
108.8007323985019
 10
116.8393673621378
 20
108.7828932637058
 10
116.9791951730804
 20
108.8007216325786
 10
117.1146304873441
 20
108.8542175051205
 10
117.2412808082502
 20
108.9433701154081
 10
117.3547536391197
 20
109.0681794634414
 10
117.450656483274
 20
109.2286563151437
 10
117.5245968440342
 20
109.4247899045917
 10
117.5721822247215
 20
109.6565802317855
 10
117.589020128657
 20
109.9240380626482
 10
119.5733950988546
 20
109.9240380626482
 10
119.5902330027901
 20
109.6565909977087
 10
119.6378183834774
 20
109.4247899045917
 10
119.7117695101608
 20
109.2286563151437
 10
119.8076508224686
 20
109.0681794634414
 10
119.9211344192615
 20
108.9433701154081
 10
120.0477955060908
 20
108.8542067391973
 10
120.1832200544312
 20
108.8007323985019
 10
120.3230478653738
 20
108.7828932637058
 10
120.4628756763163
 20
108.8007216325786
 10
120.59831099058
 20
108.8542175051205
 10
120.7249613114861
 20
108.9433701154081
 10
120.8384341423557
 20
109.0681794634414
 10
120.93433698651
 20
109.2286563151437
 10
121.0082773472702
 20
109.4247899045917
 10
121.0558627279574
 20
109.6565802317855
 10
121.0727006318929
 20
109.9240380626482
 10
122.0869367277717
 20
109.9240380626482
 10
123.1011728236505
 20
109.9240380626482
 10
123.1175154951173
 20
109.6565909977087
 10
123.1637013057843
 20
109.4247899045917
 10
123.2354777159748
 20
109.2286563151437
 10
123.3285383563958
 20
109.0681794634414
 10
123.4386845169865
 20
108.9433701154081
 10
123.5616205943774
 20
108.8542067391973
 10
123.6930617511219
 20
108.8007323985019
 10
123.8287769793897
 20
108.7828932637058
 10
123.9644922076574
 20
108.8007216325786
 10
124.0959441303251
 20
108.8542175051205
 10
124.2188694417928
 20
108.9433701154081
 10
124.3290048364603
 20
109.0681794634414
 10
124.4220870087277
 20
109.2286563151437
 10
124.493852652995
 20
109.4247899045917
 10
124.540038463662
 20
109.6565802317855
 10
124.5563811351288
 20
109.9240380626482
 10
126.5848533268864
 20
109.9240380626482
 10
126.6016912308219
 20
109.6565909977087
 10
126.6492766115092
 20
109.4247899045917
 10
126.7232277381926
 20
109.2286563151437
 10
126.8191090505004
 20
109.0681794634414
 10
126.9325926472932
 20
108.9433701154081
 10
127.0592537341225
 20
108.8542067391973
 10
127.194678282463
 20
108.8007323985019
 10
127.3345060934056
 20
108.7828932637058
 10
127.4743339043481
 20
108.8007216325786
 10
127.6097692186118
 20
108.8542175051205
 10
127.7364195395179
 20
108.9433701154081
 10
127.8498923703875
 20
109.0681794634414
 10
127.9457952145418
 20
109.2286563151437
 10
128.0197355753019
 20
109.4247899045917
 10
128.0673209559892
 20
109.6565802317855
 10
128.0841588599247
 20
109.9240380626482
 10
129.6056852585146
 20
109.9240380626482
 10
129.610982092745
 20
106.9529446963538
 10
127.0561639141549
 20
106.9578862551174
 10
126.9364468478104
 20
106.9503716407012
 10
126.8249118831227
 20
106.9279677544546
 10
126.7214836586289
 20
106.8913636154644
 10
126.626108344713
 20
106.8411513495084
 10
126.5387213458356
 20
106.7780092097504
 10
126.4592473005339
 20
106.7025723856609
 10
126.3876216132687
 20
106.6155083644804
 10
126.3237904544237
 20
106.5174415697563
 10
126.2676892284596
 20
106.4090179568827
 10
126.2192318079906
 20
106.2908942471768
 10
126.1783751293236
 20
106.1637056301091
 10
126.1450330650728
 20
106.0280980610736
 10
126.1191625515453
 20
105.8847390273109
 10
126.1006882272785
 20
105.734242186445
 10
126.089545496733
 20
105.5772750257165
 10
126.0856697643693
 20
105.4144835005193
 10
126.0867355907693
 20
104.9004860276343
 10
126.0908051097512
 20
104.8418440437874
 10
126.102378477226
 20
104.7871208559971
 10
126.1207020785676
 20
104.7362841664936
 10
126.1450330650728
 20
104.6893124434306
 10
126.1746070561922
 20
104.6462164527313
 10
126.2086596713764
 20
104.6069531307027
 10
126.2464588278453
 20
104.5715224773448
 10
126.2872401450497
 20
104.5399029608113
 10
126.33023924244
 20
104.5120838151787
 10
126.3747348031595
 20
104.488054274524
 10
126.4199301488892
 20
104.4677820410773
 10
126.4651039627723
 20
104.4512671148388
 10
126.5094810983363
 20
104.4384987298852
 10
126.5523187068781
 20
104.42945535437
 10
126.5928631737713
 20
104.4241154564467
 10
126.6303608843898
 20
104.4224682701921
 10
126.6303608843898
 20
104.4224682701921
 10
126.6696672701113
 20
104.4245891570689
 10
126.7098779933844
 20
104.4307687970043
 10
126.7505516513564
 20
104.4409425944589
 10
126.7912360752517
 20
104.4550459538934
 10
126.8314683303712
 20
104.4730358116148
 10
126.8708070138625
 20
104.4948045083907
 10
126.9087999569496
 20
104.5203305123747
 10
126.944994990857
 20
104.5495169302578
 10
126.9789291808855
 20
104.5823206983469
 10
127.0101611241828
 20
104.6186556892563
 10
127.0382386519729
 20
104.658478839293
 10
127.0627095954802
 20
104.7017255529176
 10
127.0831110200056
 20
104.7483097027442
 10
127.0990015226966
 20
104.79818822508
 10
127.1099289347775
 20
104.8512857584622
 10
127.1154303215493
 20
104.9075377073516
 10
127.1154303215493
 20
104.9075377073516
 10
127.1202211573877
 20
104.9604306881924
 10
127.129501383214
 20
105.011321207312
 10
127.143120276103
 20
105.0600262440154
 10
127.1608086879739
 20
105.106330479838
 10
127.1823728322084
 20
105.1500939577778
 10
127.2075973903419
 20
105.19110135937
 10
127.2362562779866
 20
105.229180429843
 10
127.268144942601
 20
105.2641589144251
 10
127.303026533874
 20
105.2958322605749
 10
127.3407072651874
 20
105.3240282135205
 10
127.3809502862302
 20
105.3485637525672
 10
127.423561810384
 20
105.3692558570199
 10
127.4682942214147
 20
105.3859215061837
 10
127.5149644986272
 20
105.3983669134403
 10
127.5633357917104
 20
105.4064198240182
 10
127.6132035481229
 20
105.4098972172223
 10
127.6132035481229
 20
105.4098972172223
 10
127.6613918205112
 20
105.4080454784263
 10
127.7083743094974
 20
105.4006923528585
 10
127.7539249306938
 20
105.388203881909
 10
127.7977637700961
 20
105.3708922773512
 10
127.8396109137005
 20
105.3491020487288
 10
127.8792187452725
 20
105.3231454078155
 10
127.9163181167314
 20
105.2933776300779
 10
127.9506291140731
 20
105.2601001613665
 10
127.9819148869865
 20
105.2236575112248
 10
128.009873989621
 20
105.1843941891962
 10
128.0342695716657
 20
105.1426331729777
 10
128.0548217191164
 20
105.0986974402662
 10
128.0712720498155
 20
105.052920734682
 10
128.0833514156822
 20
105.0056475657685
 10
128.0907906686359
 20
104.9571901452994
 10
128.0933314265187
 20
104.9078929828182
 10
128.0933314265187
 20
102.9016416566123
 10
124.5563811351288
 20
101.1264701066668
 10
123.1011728236505
 20
101.1264701066668
 10
123.1011728236505
 20
102.9125798346164
 10
123.2949809736804
 20
103.0448499674498
 10
123.4691090160413
 20
103.2369355697625
 10
123.6204455989193
 20
103.479416458726
 10
123.7458147749607
 20
103.7628293878192
 10
123.8421267241978
 20
104.0777757060601
 10
123.9062485629701
 20
104.4148029328507
 10
123.9350043439238
 20
104.764512417209
 10
123.9253042470914
 20
105.1174409126139
 10
123.874004622889
 20
105.4641682362368
 10
123.7779618217327
 20
105.7952634393263
 10
123.6340644918083
 20
106.1012955731308
 10
123.4391582176088
 20
106.3728336888986
 10
123.1901316473199
 20
106.6004468378782
 10
122.8838411313579
 20
106.774704071318
 10
122.517153786062
 20
106.8861744404664
 97
        0
 75
     1
 76
     1
 98
        0
  0
LWPOLYLINE
  5
7C
330
1F
100
AcDbEntity
  8
ISS138金台
  6
Continuous
 62
   254
420
 13816532
370
    25
100
AcDbPolyline
 90
      283
 70
     0
 43
0.0
 10
122.0869367277717
 20
106.9254269965717
 10
121.6567304354046
 20
106.8861744404664
 10
121.2900430901088
 20
106.774704071318
 10
120.9837525741467
 20
106.6004576038015
 10
120.7347044720114
 20
106.3728336888986
 10
120.5398089637351
 20
106.1012955731308
 10
120.3959116338107
 20
105.7952526734031
 10
120.2998795985776
 20
105.4641682362368
 10
120.248569208452
 20
105.1174409126139
 10
120.2388691116196
 20
104.764512417209
 10
120.2676356584965
 20
104.4148136987739
 10
120.3317467313455
 20
104.0777757060601
 10
120.4280479146594
 20
103.7628293878192
 10
120.5534386225473
 20
103.4794056928028
 10
120.7047536735788
 20
103.2369355697625
 10
120.878892481863
 20
103.0448499674498
 10
121.0727006318929
 20
102.9125798346164
 10
121.0727006318929
 20
101.1264701066668
 10
119.6174923204146
 20
101.1264701066668
 10
116.0808973044914
 20
102.9016416566123
 10
116.0808973044914
 20
104.9078929828182
 10
116.083427296451
 20
104.9571793793762
 10
116.0908773153278
 20
105.0056475657685
 10
116.1029459152713
 20
105.0529315006053
 10
116.1194070118937
 20
105.098686674343
 10
116.1399591593444
 20
105.1426331729777
 10
116.164354741389
 20
105.1843941891962
 10
116.1923246099468
 20
105.2236575112248
 10
116.2235888510137
 20
105.2601001613665
 10
116.2579213802019
 20
105.2933668641547
 10
116.2950099857375
 20
105.3231454078155
 10
116.3346178173096
 20
105.3491020487288
 10
116.3764649609139
 20
105.3708922773512
 10
116.4203038003163
 20
105.388203881909
 10
116.4658436555894
 20
105.4006923528585
 10
116.5128476764221
 20
105.408034712503
 10
116.5610251828871
 20
105.4098972172223
 10
116.5610251828871
 20
105.4098972172223
 10
116.6108929392997
 20
105.4064198240182
 10
116.6592427005364
 20
105.3983669134403
 10
116.7058914459024
 20
105.3859215061837
 10
116.7506238569331
 20
105.3692558570199
 10
116.7932030833173
 20
105.3485745184905
 10
116.8334245725136
 20
105.3240282135205
 10
116.8710945379037
 20
105.2958322605749
 10
116.9059545973303
 20
105.2641481485019
 10
116.9378324960214
 20
105.229180429843
 10
116.9664806177429
 20
105.19110135937
 10
116.9916944099532
 20
105.1500831918545
 10
117.013269320111
 20
105.106330479838
 10
117.0309792638283
 20
105.0600154780922
 10
117.0446196885637
 20
105.011321207312
 10
117.0539645099295
 20
104.9604306881924
 10
117.0587984094608
 20
104.9075377073516
 10
117.0587984094608
 20
104.9075377073516
 10
117.0643105621558
 20
104.8512857584622
 10
117.0752164423902
 20
104.79818822508
 10
117.0911069450813
 20
104.7483097027442
 10
117.1115191355299
 20
104.7017147869944
 10
117.1359793131139
 20
104.6584896052162
 10
117.1640568409041
 20
104.6186556892563
 10
117.1952887842013
 20
104.5823206983469
 10
117.2292337401531
 20
104.5495169302578
 10
117.2654287740604
 20
104.5203305123747
 10
117.3034109512244
 20
104.4948045083907
 10
117.3427496347156
 20
104.4730250456915
 10
117.3829926557583
 20
104.4550567198166
 10
117.4236770796536
 20
104.4409425944589
 10
117.4643507376257
 20
104.4307687970043
 10
117.5045614608987
 20
104.4245891570689
 10
117.5438678466202
 20
104.4224682701921
 10
117.5438678466202
 20
104.4224682701921
 10
117.5813655572387
 20
104.4241154564467
 10
117.6218992582087
 20
104.42945535437
 10
117.6647368667505
 20
104.4385094958084
 10
117.7091247682377
 20
104.4512671148388
 10
117.7542878161977
 20
104.4677928070006
 10
117.7994939278506
 20
104.4880435086007
 10
117.8439679567236
 20
104.5120838151787
 10
117.8869885859604
 20
104.5399029608113
 10
117.9277699031647
 20
104.5715224773448
 10
117.9655582937105
 20
104.6069531307027
 10
117.9996216748178
 20
104.6462164527313
 10
118.029184900014
 20
104.6893124434306
 10
118.0535158865193
 20
104.7362841664936
 10
118.0718394878608
 20
104.7871208559971
 10
118.0834236212589
 20
104.8418548097106
 10
118.0874931402407
 20
104.9004860276343
 10
118.0885482007175
 20
105.4144835005193
 10
118.084909318665
 20
105.5770381754054
 10
118.074487904976
 20
105.7332840192773
 10
118.0571009389557
 20
105.8826935018967
 10
118.0326622932181
 20
106.0246314337928
 10
118.0010104789148
 20
106.1585487528807
 10
117.9620378368135
 20
106.2838533333828
 10
117.9156044099121
 20
106.3999745813675
 10
117.8615810071319
 20
106.5063311369805
 10
117.7998492033172
 20
106.6023201085207
 10
117.7302582755429
 20
106.6873924339032
 10
117.6526790327302
 20
106.7609344555037
 10
117.5670145815699
 20
106.8223971112376
 10
117.4731034332136
 20
106.8711775094036
 10
117.3708163965825
 20
106.9066942901473
 10
117.2600458124442
 20
106.9283876254606
 10
117.1406409578736
 20
106.9356546236425
 10
114.5854675038168
 20
106.9310683403455
 10
114.5904090625805
 20
109.9240380626482
 10
116.0897145956187
 20
109.9240380626482
 10
116.1065524995542
 20
109.6565909977087
 10
116.1541378802415
 20
109.4247899045917
 10
116.2280890069249
 20
109.2286563151437
 10
116.3239703192327
 20
109.0681794634414
 10
116.4374539160255
 20
108.9433701154081
 10
116.5641150028548
 20
108.8542067391973
 10
116.6995395511953
 20
108.8007323985019
 10
116.8393673621378
 20
108.7828932637058
 10
116.9791951730804
 20
108.8007216325786
 10
117.1146304873441
 20
108.8542175051205
 10
117.2412808082502
 20
108.9433701154081
 10
117.3547536391197
 20
109.0681794634414
 10
117.450656483274
 20
109.2286563151437
 10
117.5245968440342
 20
109.4247899045917
 10
117.5721822247215
 20
109.6565802317855
 10
117.589020128657
 20
109.9240380626482
 10
119.5733950988546
 20
109.9240380626482
 10
119.5902330027901
 20
109.6565909977087
 10
119.6378183834774
 20
109.4247899045917
 10
119.7117695101608
 20
109.2286563151437
 10
119.8076508224686
 20
109.0681794634414
 10
119.9211344192615
 20
108.9433701154081
 10
120.0477955060908
 20
108.8542067391973
 10
120.1832200544312
 20
108.8007323985019
 10
120.3230478653738
 20
108.7828932637058
 10
120.4628756763163
 20
108.8007216325786
 10
120.59831099058
 20
108.8542175051205
 10
120.7249613114861
 20
108.9433701154081
 10
120.8384341423557
 20
109.0681794634414
 10
120.93433698651
 20
109.2286563151437
 10
121.0082773472702
 20
109.4247899045917
 10
121.0558627279574
 20
109.6565802317855
 10
121.0727006318929
 20
109.9240380626482
 10
122.0869367277717
 20
109.9240380626482
 10
123.1011728236505
 20
109.9240380626482
 10
123.1175154951173
 20
109.6565909977087
 10
123.1637013057843
 20
109.4247899045917
 10
123.2354777159748
 20
109.2286563151437
 10
123.3285383563958
 20
109.0681794634414
 10
123.4386845169865
 20
108.9433701154081
 10
123.5616205943774
 20
108.8542067391973
 10
123.6930617511219
 20
108.8007323985019
 10
123.8287769793897
 20
108.7828932637058
 10
123.9644922076574
 20
108.8007216325786
 10
124.0959441303251
 20
108.8542175051205
 10
124.2188694417928
 20
108.9433701154081
 10
124.3290048364603
 20
109.0681794634414
 10
124.4220870087277
 20
109.2286563151437
 10
124.493852652995
 20
109.4247899045917
 10
124.540038463662
 20
109.6565802317855
 10
124.5563811351288
 20
109.9240380626482
 10
126.5848533268864
 20
109.9240380626482
 10
126.6016912308219
 20
109.6565909977087
 10
126.6492766115092
 20
109.4247899045917
 10
126.7232277381926
 20
109.2286563151437
 10
126.8191090505004
 20
109.0681794634414
 10
126.9325926472932
 20
108.9433701154081
 10
127.0592537341225
 20
108.8542067391973
 10
127.194678282463
 20
108.8007323985019
 10
127.3345060934056
 20
108.7828932637058
 10
127.4743339043481
 20
108.8007216325786
 10
127.6097692186118
 20
108.8542175051205
 10
127.7364195395179
 20
108.9433701154081
 10
127.8498923703875
 20
109.0681794634414
 10
127.9457952145418
 20
109.2286563151437
 10
128.0197355753019
 20
109.4247899045917
 10
128.0673209559892
 20
109.6565802317855
 10
128.0841588599247
 20
109.9240380626482
 10
129.6056852585146
 20
109.9240380626482
 10
129.610982092745
 20
106.9529446963538
 10
127.0561639141549
 20
106.9578862551174
 10
126.9364468478104
 20
106.9503716407012
 10
126.8249118831227
 20
106.9279677544546
 10
126.7214836586289
 20
106.8913636154644
 10
126.626108344713
 20
106.8411513495084
 10
126.5387213458356
 20
106.7780092097504
 10
126.4592473005339
 20
106.7025723856609
 10
126.3876216132687
 20
106.6155083644804
 10
126.3237904544237
 20
106.5174415697563
 10
126.2676892284596
 20
106.4090179568827
 10
126.2192318079906
 20
106.2908942471768
 10
126.1783751293236
 20
106.1637056301091
 10
126.1450330650728
 20
106.0280980610736
 10
126.1191625515453
 20
105.8847390273109
 10
126.1006882272785
 20
105.734242186445
 10
126.089545496733
 20
105.5772750257165
 10
126.0856697643693
 20
105.4144835005193
 10
126.0867355907693
 20
104.9004860276343
 10
126.0908051097512
 20
104.8418440437874
 10
126.102378477226
 20
104.7871208559971
 10
126.1207020785676
 20
104.7362841664936
 10
126.1450330650728
 20
104.6893124434306
 10
126.1746070561922
 20
104.6462164527313
 10
126.2086596713764
 20
104.6069531307027
 10
126.2464588278453
 20
104.5715224773448
 10
126.2872401450497
 20
104.5399029608113
 10
126.33023924244
 20
104.5120838151787
 10
126.3747348031595
 20
104.488054274524
 10
126.4199301488892
 20
104.4677820410773
 10
126.4651039627723
 20
104.4512671148388
 10
126.5094810983363
 20
104.4384987298852
 10
126.5523187068781
 20
104.42945535437
 10
126.5928631737713
 20
104.4241154564467
 10
126.6303608843898
 20
104.4224682701921
 10
126.6303608843898
 20
104.4224682701921
 10
126.6696672701113
 20
104.4245891570689
 10
126.7098779933844
 20
104.4307687970043
 10
126.7505516513564
 20
104.4409425944589
 10
126.7912360752517
 20
104.4550459538934
 10
126.8314683303712
 20
104.4730358116148
 10
126.8708070138625
 20
104.4948045083907
 10
126.9087999569496
 20
104.5203305123747
 10
126.944994990857
 20
104.5495169302578
 10
126.9789291808855
 20
104.5823206983469
 10
127.0101611241828
 20
104.6186556892563
 10
127.0382386519729
 20
104.658478839293
 10
127.0627095954802
 20
104.7017255529176
 10
127.0831110200056
 20
104.7483097027442
 10
127.0990015226966
 20
104.79818822508
 10
127.1099289347775
 20
104.8512857584622
 10
127.1154303215493
 20
104.9075377073516
 10
127.1154303215493
 20
104.9075377073516
 10
127.1202211573877
 20
104.9604306881924
 10
127.129501383214
 20
105.011321207312
 10
127.143120276103
 20
105.0600262440154
 10
127.1608086879739
 20
105.106330479838
 10
127.1823728322084
 20
105.1500939577778
 10
127.2075973903419
 20
105.19110135937
 10
127.2362562779866
 20
105.229180429843
 10
127.268144942601
 20
105.2641589144251
 10
127.303026533874
 20
105.2958322605749
 10
127.3407072651874
 20
105.3240282135205
 10
127.3809502862302
 20
105.3485637525672
 10
127.423561810384
 20
105.3692558570199
 10
127.4682942214147
 20
105.3859215061837
 10
127.5149644986272
 20
105.3983669134403
 10
127.5633357917104
 20
105.4064198240182
 10
127.6132035481229
 20
105.4098972172223
 10
127.6132035481229
 20
105.4098972172223
 10
127.6613918205112
 20
105.4080454784263
 10
127.7083743094974
 20
105.4006923528585
 10
127.7539249306938
 20
105.388203881909
 10
127.7977637700961
 20
105.3708922773512
 10
127.8396109137005
 20
105.3491020487288
 10
127.8792187452725
 20
105.3231454078155
 10
127.9163181167314
 20
105.2933776300779
 10
127.9506291140731
 20
105.2601001613665
 10
127.9819148869865
 20
105.2236575112248
 10
128.009873989621
 20
105.1843941891962
 10
128.0342695716657
 20
105.1426331729777
 10
128.0548217191164
 20
105.0986974402662
 10
128.0712720498155
 20
105.052920734682
 10
128.0833514156822
 20
105.0056475657685
 10
128.0907906686359
 20
104.9571901452994
 10
128.0933314265187
 20
104.9078929828182
 10
128.0933314265187
 20
102.9016416566123
 10
124.5563811351288
 20
101.1264701066668
 10
123.1011728236505
 20
101.1264701066668
 10
123.1011728236505
 20
102.9125798346164
 10
123.2949809736804
 20
103.0448499674498
 10
123.4691090160413
 20
103.2369355697625
 10
123.6204455989193
 20
103.479416458726
 10
123.7458147749607
 20
103.7628293878192
 10
123.8421267241978
 20
104.0777757060601
 10
123.9062485629701
 20
104.4148029328507
 10
123.9350043439238
 20
104.764512417209
 10
123.9253042470914
 20
105.1174409126139
 10
123.874004622889
 20
105.4641682362368
 10
123.7779618217327
 20
105.7952634393263
 10
123.6340644918083
 20
106.1012955731308
 10
123.4391582176088
 20
106.3728336888986
 10
123.1901316473199
 20
106.6004468378782
 10
122.8838411313579
 20
106.774704071318
 10
122.517153786062
 20
106.8861744404664
 10
122.0869367277717
 20
106.9254269965717
  0
LWPOLYLINE
  5
7D
330
1F
100
AcDbEntity
  8
ISS138金台
  6
Continuous
 62
   250
420
  2367521
370
    25
100
AcDbPolyline
 90
      283
 70
     0
 43
0.0
 10
122.0869367277717
 20
106.9254269965717
 10
121.6567304354046
 20
106.8861744404664
 10
121.2900430901088
 20
106.774704071318
 10
120.9837525741467
 20
106.6004576038015
 10
120.7347044720114
 20
106.3728336888986
 10
120.5398089637351
 20
106.1012955731308
 10
120.3959116338107
 20
105.7952526734031
 10
120.2998795985776
 20
105.4641682362368
 10
120.248569208452
 20
105.1174409126139
 10
120.2388691116196
 20
104.764512417209
 10
120.2676356584965
 20
104.4148136987739
 10
120.3317467313455
 20
104.0777757060601
 10
120.4280479146594
 20
103.7628293878192
 10
120.5534386225473
 20
103.4794056928028
 10
120.7047536735788
 20
103.2369355697625
 10
120.878892481863
 20
103.0448499674498
 10
121.0727006318929
 20
102.9125798346164
 10
121.0727006318929
 20
101.1264701066668
 10
119.6174923204146
 20
101.1264701066668
 10
116.0808973044914
 20
102.9016416566123
 10
116.0808973044914
 20
104.9078929828182
 10
116.083427296451
 20
104.9571793793762
 10
116.0908773153278
 20
105.0056475657685
 10
116.1029459152713
 20
105.0529315006053
 10
116.1194070118937
 20
105.098686674343
 10
116.1399591593444
 20
105.1426331729777
 10
116.164354741389
 20
105.1843941891962
 10
116.1923246099468
 20
105.2236575112248
 10
116.2235888510137
 20
105.2601001613665
 10
116.2579213802019
 20
105.2933668641547
 10
116.2950099857375
 20
105.3231454078155
 10
116.3346178173096
 20
105.3491020487288
 10
116.3764649609139
 20
105.3708922773512
 10
116.4203038003163
 20
105.388203881909
 10
116.4658436555894
 20
105.4006923528585
 10
116.5128476764221
 20
105.408034712503
 10
116.5610251828871
 20
105.4098972172223
 10
116.5610251828871
 20
105.4098972172223
 10
116.6108929392997
 20
105.4064198240182
 10
116.6592427005364
 20
105.3983669134403
 10
116.7058914459024
 20
105.3859215061837
 10
116.7506238569331
 20
105.3692558570199
 10
116.7932030833173
 20
105.3485745184905
 10
116.8334245725136
 20
105.3240282135205
 10
116.8710945379037
 20
105.2958322605749
 10
116.9059545973303
 20
105.2641481485019
 10
116.9378324960214
 20
105.229180429843
 10
116.9664806177429
 20
105.19110135937
 10
116.9916944099532
 20
105.1500831918545
 10
117.013269320111
 20
105.106330479838
 10
117.0309792638283
 20
105.0600154780922
 10
117.0446196885637
 20
105.011321207312
 10
117.0539645099295
 20
104.9604306881924
 10
117.0587984094608
 20
104.9075377073516
 10
117.0587984094608
 20
104.9075377073516
 10
117.0643105621558
 20
104.8512857584622
 10
117.0752164423902
 20
104.79818822508
 10
117.0911069450813
 20
104.7483097027442
 10
117.1115191355299
 20
104.7017147869944
 10
117.1359793131139
 20
104.6584896052162
 10
117.1640568409041
 20
104.6186556892563
 10
117.1952887842013
 20
104.5823206983469
 10
117.2292337401531
 20
104.5495169302578
 10
117.2654287740604
 20
104.5203305123747
 10
117.3034109512244
 20
104.4948045083907
 10
117.3427496347156
 20
104.4730250456915
 10
117.3829926557583
 20
104.4550567198166
 10
117.4236770796536
 20
104.4409425944589
 10
117.4643507376257
 20
104.4307687970043
 10
117.5045614608987
 20
104.4245891570689
 10
117.5438678466202
 20
104.4224682701921
 10
117.5438678466202
 20
104.4224682701921
 10
117.5813655572387
 20
104.4241154564467
 10
117.6218992582087
 20
104.42945535437
 10
117.6647368667505
 20
104.4385094958084
 10
117.7091247682377
 20
104.4512671148388
 10
117.7542878161977
 20
104.4677928070006
 10
117.7994939278506
 20
104.4880435086007
 10
117.8439679567236
 20
104.5120838151787
 10
117.8869885859604
 20
104.5399029608113
 10
117.9277699031647
 20
104.5715224773448
 10
117.9655582937105
 20
104.6069531307027
 10
117.9996216748178
 20
104.6462164527313
 10
118.029184900014
 20
104.6893124434306
 10
118.0535158865193
 20
104.7362841664936
 10
118.0718394878608
 20
104.7871208559971
 10
118.0834236212589
 20
104.8418548097106
 10
118.0874931402407
 20
104.9004860276343
 10
118.0885482007175
 20
105.4144835005193
 10
118.084909318665
 20
105.5770381754054
 10
118.074487904976
 20
105.7332840192773
 10
118.0571009389557
 20
105.8826935018967
 10
118.0326622932181
 20
106.0246314337928
 10
118.0010104789148
 20
106.1585487528807
 10
117.9620378368135
 20
106.2838533333828
 10
117.9156044099121
 20
106.3999745813675
 10
117.8615810071319
 20
106.5063311369805
 10
117.7998492033172
 20
106.6023201085207
 10
117.7302582755429
 20
106.6873924339032
 10
117.6526790327302
 20
106.7609344555037
 10
117.5670145815699
 20
106.8223971112376
 10
117.4731034332136
 20
106.8711775094036
 10
117.3708163965825
 20
106.9066942901473
 10
117.2600458124442
 20
106.9283876254606
 10
117.1406409578736
 20
106.9356546236425
 10
114.5854675038168
 20
106.9310683403455
 10
114.5904090625805
 20
109.9240380626482
 10
116.0897145956187
 20
109.9240380626482
 10
116.1065524995542
 20
109.6565909977087
 10
116.1541378802415
 20
109.4247899045917
 10
116.2280890069249
 20
109.2286563151437
 10
116.3239703192327
 20
109.0681794634414
 10
116.4374539160255
 20
108.9433701154081
 10
116.5641150028548
 20
108.8542067391973
 10
116.6995395511953
 20
108.8007323985019
 10
116.8393673621378
 20
108.7828932637058
 10
116.9791951730804
 20
108.8007216325786
 10
117.1146304873441
 20
108.8542175051205
 10
117.2412808082502
 20
108.9433701154081
 10
117.3547536391197
 20
109.0681794634414
 10
117.450656483274
 20
109.2286563151437
 10
117.5245968440342
 20
109.4247899045917
 10
117.5721822247215
 20
109.6565802317855
 10
117.589020128657
 20
109.9240380626482
 10
119.5733950988546
 20
109.9240380626482
 10
119.5902330027901
 20
109.6565909977087
 10
119.6378183834774
 20
109.4247899045917
 10
119.7117695101608
 20
109.2286563151437
 10
119.8076508224686
 20
109.0681794634414
 10
119.9211344192615
 20
108.9433701154081
 10
120.0477955060908
 20
108.8542067391973
 10
120.1832200544312
 20
108.8007323985019
 10
120.3230478653738
 20
108.7828932637058
 10
120.4628756763163
 20
108.8007216325786
 10
120.59831099058
 20
108.8542175051205
 10
120.7249613114861
 20
108.9433701154081
 10
120.8384341423557
 20
109.0681794634414
 10
120.93433698651
 20
109.2286563151437
 10
121.0082773472702
 20
109.4247899045917
 10
121.0558627279574
 20
109.6565802317855
 10
121.0727006318929
 20
109.9240380626482
 10
122.0869367277717
 20
109.9240380626482
 10
123.1011728236505
 20
109.9240380626482
 10
123.1175154951173
 20
109.6565909977087
 10
123.1637013057843
 20
109.4247899045917
 10
123.2354777159748
 20
109.2286563151437
 10
123.3285383563958
 20
109.0681794634414
 10
123.4386845169865
 20
108.9433701154081
 10
123.5616205943774
 20
108.8542067391973
 10
123.6930617511219
 20
108.8007323985019
 10
123.8287769793897
 20
108.7828932637058
 10
123.9644922076574
 20
108.8007216325786
 10
124.0959441303251
 20
108.8542175051205
 10
124.2188694417928
 20
108.9433701154081
 10
124.3290048364603
 20
109.0681794634414
 10
124.4220870087277
 20
109.2286563151437
 10
124.493852652995
 20
109.4247899045917
 10
124.540038463662
 20
109.6565802317855
 10
124.5563811351288
 20
109.9240380626482
 10
126.5848533268864
 20
109.9240380626482
 10
126.6016912308219
 20
109.6565909977087
 10
126.6492766115092
 20
109.4247899045917
 10
126.7232277381926
 20
109.2286563151437
 10
126.8191090505004
 20
109.0681794634414
 10
126.9325926472932
 20
108.9433701154081
 10
127.0592537341225
 20
108.8542067391973
 10
127.194678282463
 20
108.8007323985019
 10
127.3345060934056
 20
108.7828932637058
 10
127.4743339043481
 20
108.8007216325786
 10
127.6097692186118
 20
108.8542175051205
 10
127.7364195395179
 20
108.9433701154081
 10
127.8498923703875
 20
109.0681794634414
 10
127.9457952145418
 20
109.2286563151437
 10
128.0197355753019
 20
109.4247899045917
 10
128.0673209559892
 20
109.6565802317855
 10
128.0841588599247
 20
109.9240380626482
 10
129.6056852585146
 20
109.9240380626482
 10
129.610982092745
 20
106.9529446963538
 10
127.0561639141549
 20
106.9578862551174
 10
126.9364468478104
 20
106.9503716407012
 10
126.8249118831227
 20
106.9279677544546
 10
126.7214836586289
 20
106.8913636154644
 10
126.626108344713
 20
106.8411513495084
 10
126.5387213458356
 20
106.7780092097504
 10
126.4592473005339
 20
106.7025723856609
 10
126.3876216132687
 20
106.6155083644804
 10
126.3237904544237
 20
106.5174415697563
 10
126.2676892284596
 20
106.4090179568827
 10
126.2192318079906
 20
106.2908942471768
 10
126.1783751293236
 20
106.1637056301091
 10
126.1450330650728
 20
106.0280980610736
 10
126.1191625515453
 20
105.8847390273109
 10
126.1006882272785
 20
105.734242186445
 10
126.089545496733
 20
105.5772750257165
 10
126.0856697643693
 20
105.4144835005193
 10
126.0867355907693
 20
104.9004860276343
 10
126.0908051097512
 20
104.8418440437874
 10
126.102378477226
 20
104.7871208559971
 10
126.1207020785676
 20
104.7362841664936
 10
126.1450330650728
 20
104.6893124434306
 10
126.1746070561922
 20
104.6462164527313
 10
126.2086596713764
 20
104.6069531307027
 10
126.2464588278453
 20
104.5715224773448
 10
126.2872401450497
 20
104.5399029608113
 10
126.33023924244
 20
104.5120838151787
 10
126.3747348031595
 20
104.488054274524
 10
126.4199301488892
 20
104.4677820410773
 10
126.4651039627723
 20
104.4512671148388
 10
126.5094810983363
 20
104.4384987298852
 10
126.5523187068781
 20
104.42945535437
 10
126.5928631737713
 20
104.4241154564467
 10
126.6303608843898
 20
104.4224682701921
 10
126.6303608843898
 20
104.4224682701921
 10
126.6696672701113
 20
104.4245891570689
 10
126.7098779933844
 20
104.4307687970043
 10
126.7505516513564
 20
104.4409425944589
 10
126.7912360752517
 20
104.4550459538934
 10
126.8314683303712
 20
104.4730358116148
 10
126.8708070138625
 20
104.4948045083907
 10
126.9087999569496
 20
104.5203305123747
 10
126.944994990857
 20
104.5495169302578
 10
126.9789291808855
 20
104.5823206983469
 10
127.0101611241828
 20
104.6186556892563
 10
127.0382386519729
 20
104.658478839293
 10
127.0627095954802
 20
104.7017255529176
 10
127.0831110200056
 20
104.7483097027442
 10
127.0990015226966
 20
104.79818822508
 10
127.1099289347775
 20
104.8512857584622
 10
127.1154303215493
 20
104.9075377073516
 10
127.1154303215493
 20
104.9075377073516
 10
127.1202211573877
 20
104.9604306881924
 10
127.129501383214
 20
105.011321207312
 10
127.143120276103
 20
105.0600262440154
 10
127.1608086879739
 20
105.106330479838
 10
127.1823728322084
 20
105.1500939577778
 10
127.2075973903419
 20
105.19110135937
 10
127.2362562779866
 20
105.229180429843
 10
127.268144942601
 20
105.2641589144251
 10
127.303026533874
 20
105.2958322605749
 10
127.3407072651874
 20
105.3240282135205
 10
127.3809502862302
 20
105.3485637525672
 10
127.423561810384
 20
105.3692558570199
 10
127.4682942214147
 20
105.3859215061837
 10
127.5149644986272
 20
105.3983669134403
 10
127.5633357917104
 20
105.4064198240182
 10
127.6132035481229
 20
105.4098972172223
 10
127.6132035481229
 20
105.4098972172223
 10
127.6613918205112
 20
105.4080454784263
 10
127.7083743094974
 20
105.4006923528585
 10
127.7539249306938
 20
105.388203881909
 10
127.7977637700961
 20
105.3708922773512
 10
127.8396109137005
 20
105.3491020487288
 10
127.8792187452725
 20
105.3231454078155
 10
127.9163181167314
 20
105.2933776300779
 10
127.9506291140731
 20
105.2601001613665
 10
127.9819148869865
 20
105.2236575112248
 10
128.009873989621
 20
105.1843941891962
 10
128.0342695716657
 20
105.1426331729777
 10
128.0548217191164
 20
105.0986974402662
 10
128.0712720498155
 20
105.052920734682
 10
128.0833514156822
 20
105.0056475657685
 10
128.0907906686359
 20
104.9571901452994
 10
128.0933314265187
 20
104.9078929828182
 10
128.0933314265187
 20
102.9016416566123
 10
124.5563811351288
 20
101.1264701066668
 10
123.1011728236505
 20
101.1264701066668
 10
123.1011728236505
 20
102.9125798346164
 10
123.2949809736804
 20
103.0448499674498
 10
123.4691090160413
 20
103.2369355697625
 10
123.6204455989193
 20
103.479416458726
 10
123.7458147749607
 20
103.7628293878192
 10
123.8421267241978
 20
104.0777757060601
 10
123.9062485629701
 20
104.4148029328507
 10
123.9350043439238
 20
104.764512417209
 10
123.9253042470914
 20
105.1174409126139
 10
123.874004622889
 20
105.4641682362368
 10
123.7779618217327
 20
105.7952634393263
 10
123.6340644918083
 20
106.1012955731308
 10
123.4391582176088
 20
106.3728336888986
 10
123.1901316473199
 20
106.6004468378782
 10
122.8838411313579
 20
106.774704071318
 10
122.517153786062
 20
106.8861744404664
 10
122.0869367277717
 20
106.9254269965717
  0
LINE
  5
7E
330
1F
100
AcDbEntity
  8
ISS138金台
  6
Continuous
 62
   250
420
  2367521
370
    13
100
AcDbLine
 10
130.4971144680813
 20
110.0230953223096
 30
0.0
 11
140.4630865406297
 21
110.0230953223096
 31
0.0
  0
LINE
  5
7F
330
1F
100
AcDbEntity
  8
ISS138金台
  6
Continuous
 62
   250
420
  2367521
370
    13
100
AcDbLine
 10
130.4971144680813
 20
107.0243120014614
 30
0.0
 11
135.5241977259155
 21
107.0243120014614
 31
0.0
  0
LINE
  5
80
330
1F
100
AcDbEntity
  8
ISS138金台
  6
Continuous
 62
   250
420
  2367521
370
    13
100
AcDbLine
 10
130.4971144680813
 20
95.91181216835443
 30
0.0
 11
140.4630865406297
 21
95.91181216835443
 31
0.0
  0
LINE
  5
81
330
1F
100
AcDbEntity
  8
ISS138金台
  6
Continuous
 62
   250
420
  2367521
370
    13
100
AcDbLine
 10
134.9950310671961
 20
95.91181216835443
 30
0.0
 11
134.9950310671961
 21
107.0243120014614
 31
0.0
  0
LINE
  5
82
330
1F
100
AcDbEntity
  8
ISS138金台
  6
Continuous
 62
   250
420
  2367521
370
    13
100
AcDbLine
 10
139.9780171034702
 20
95.91181216835443
 30
0.0
 11
139.9780171034702
 21
110.0229230675379
 31
0.0
  0
LINE
  5
83
330
1F
100
AcDbEntity
  8
ISS138金台
  6
Continuous
 62
   250
420
  2367521
370
    13
100
AcDbLine
 10
129.6592672584423
 20
110.9050397535086
 30
0.0
 11
129.6592672584423
 21
120.8932326916086
 31
0.0
  0
LINE
  5
84
330
1F
100
AcDbEntity
  8
ISS138金台
  6
Continuous
 62
   250
420
  2367521
370
    13
100
AcDbLine
 10
114.53392026338
 20
115.9100744005627
 30
0.0
 11
114.53392026338
 21
110.9048674987369
 31
0.0
  0
LINE
  5
85
330
1F
100
AcDbEntity
  8
ISS138金台
  6
Continuous
 62
   250
420
  2367521
370
    13
100
AcDbLine
 10
129.6592672584423
 20
115.4029563526233
 30
0.0
 11
114.53392026338
 21
115.4029563526233
 31
0.0
  0
LINE
  5
86
330
1F
100
AcDbEntity
  8
ISS138金台
  6
Continuous
 62
   250
420
  2367521
370
    13
100
AcDbLine
 10
100.4889551965365
 20
120.8930604368369
 30
0.0
 11
100.4889551965365
 21
110.9048674987369
 31
0.0
  0
LINE
  5
87
330
1F
100
AcDbEntity
  8
ISS138金台
  6
Continuous
 62
   250
420
  2367521
370
    13
100
AcDbLine
 10
129.6592672584423
 20
120.4079909996775
 30
0.0
 11
100.4887829417647
 21
120.4079909996775
 31
0.0
  0
HATCH
  5
88
330
1F
100
AcDbEntity
  8
ISS138金台
  6
Continuous
 62
   250
420
  2367521
370
    13
100
AcDbHatch
 10
0.0
 20
0.0
 30
0.0
210
0.0
220
0.0
230
1.0
  2
SOLID
 70
     1
 71
     0
 91
        1
 92
        3
 72
     0
 73
     1
 93
       67
 10
114.5342755388467
 20
115.152659403393
 10
114.5598769042933
 20
115.1539513141809
 10
114.5847138891905
 20
115.1577301532355
 10
114.6086788343059
 20
115.1638882613245
 10
114.6316533144838
 20
115.1722856814457
 10
114.6534758408759
 20
115.1828039884438
 10
114.6740710520195
 20
115.1953139912399
 10
114.6932989909126
 20
115.2096972646784
 10
114.7110197005532
 20
115.2258138517573
 10
114.7271255217088
 20
115.243545327321
 10
114.7414764973776
 20
115.2627840321374
 10
114.7539649683272
 20
115.2833792432809
 10
114.7644617434788
 20
115.3052125355963
 10
114.7728483976769
 20
115.3281547180046
 10
114.7789849739193
 20
115.3520873653502
 10
114.7827638129739
 20
115.3768920524777
 10
114.7840449578386
 20
115.4024288223849
 10
114.7840449578386
 20
115.4024288223849
 10
114.7827530470507
 20
115.4280301878316
 10
114.7789849739193
 20
115.452877938652
 10
114.7728483976769
 20
115.4768644156138
 10
114.7644617434788
 20
115.499849661715
 10
114.7539649683272
 20
115.5217152518
 10
114.7414872633009
 20
115.5423427607133
 10
114.7271147557856
 20
115.5615814655296
 10
114.7110197005532
 20
115.5793452388631
 10
114.6932989909126
 20
115.5954833577885
 10
114.6740710520195
 20
115.609866631227
 10
114.6534866067992
 20
115.6223873999463
 10
114.6316425485606
 20
115.6329057069444
 10
114.6086788343059
 20
115.6413138929889
 10
114.5847138891905
 20
115.6474720010778
 10
114.5598661383701
 20
115.6512508401324
 10
114.5342755388467
 20
115.6525427509203
 10
114.5342755388467
 20
115.6525427509203
 10
114.5086849393232
 20
115.6512616060556
 10
114.4838371885028
 20
115.6474720010778
 10
114.4598830093107
 20
115.6413138929889
 10
114.436919295056
 20
115.6329057069444
 10
114.4150644708942
 20
115.6223873999463
 10
114.3944800256738
 20
115.609866631227
 10
114.3752520867808
 20
115.5954725918653
 10
114.3575313771402
 20
115.5793452388631
 10
114.3414255559845
 20
115.5615922314529
 10
114.3270745803157
 20
115.5423427607133
 10
114.3145861093661
 20
115.5217152518
 10
114.3040893342146
 20
115.499849661715
 10
114.2957026800165
 20
115.4768644156138
 10
114.289566103774
 20
115.452877938652
 10
114.2857872647194
 20
115.4280301878316
 10
114.2845061198548
 20
115.4024288223849
 10
114.2845061198548
 20
115.4024288223849
 10
114.2857872647194
 20
115.3768812865544
 10
114.2895768696973
 20
115.3520873653502
 10
114.2957026800165
 20
115.3281547180046
 10
114.3040893342146
 20
115.3052125355963
 10
114.3145861093661
 20
115.2833792432809
 10
114.3270745803157
 20
115.2627840321374
 10
114.3414255559845
 20
115.243545327321
 10
114.3575313771402
 20
115.2258138517573
 10
114.3752520867808
 20
115.2096972646784
 10
114.3944800256738
 20
115.1953139912399
 10
114.4150644708942
 20
115.1828039884438
 10
114.4369085291328
 20
115.1722856814457
 10
114.4598722433875
 20
115.1638882613245
 10
114.4838371885028
 20
115.1577301532355
 10
114.5086849393232
 20
115.1539513141809
 97
        0
 75
     1
 76
     1
 98
        0
  0
LWPOLYLINE
  5
89
330
1F
100
AcDbEntity
  8
ISS138金台
  6
Continuous
 62
   250
420
  2367521
370
    13
100
AcDbPolyline
 90
       68
 70
     0
 43
0.0
 10
114.5342755388467
 20
115.152659403393
 10
114.5598769042933
 20
115.1539513141809
 10
114.5847138891905
 20
115.1577301532355
 10
114.6086788343059
 20
115.1638882613245
 10
114.6316533144838
 20
115.1722856814457
 10
114.6534758408759
 20
115.1828039884438
 10
114.6740710520195
 20
115.1953139912399
 10
114.6932989909126
 20
115.2096972646784
 10
114.7110197005532
 20
115.2258138517573
 10
114.7271255217088
 20
115.243545327321
 10
114.7414764973776
 20
115.2627840321374
 10
114.7539649683272
 20
115.2833792432809
 10
114.7644617434788
 20
115.3052125355963
 10
114.7728483976769
 20
115.3281547180046
 10
114.7789849739193
 20
115.3520873653502
 10
114.7827638129739
 20
115.3768920524777
 10
114.7840449578386
 20
115.4024288223849
 10
114.7840449578386
 20
115.4024288223849
 10
114.7827530470507
 20
115.4280301878316
 10
114.7789849739193
 20
115.452877938652
 10
114.7728483976769
 20
115.4768644156138
 10
114.7644617434788
 20
115.499849661715
 10
114.7539649683272
 20
115.5217152518
 10
114.7414872633009
 20
115.5423427607133
 10
114.7271147557856
 20
115.5615814655296
 10
114.7110197005532
 20
115.5793452388631
 10
114.6932989909126
 20
115.5954833577885
 10
114.6740710520195
 20
115.609866631227
 10
114.6534866067992
 20
115.6223873999463
 10
114.6316425485606
 20
115.6329057069444
 10
114.6086788343059
 20
115.6413138929889
 10
114.5847138891905
 20
115.6474720010778
 10
114.5598661383701
 20
115.6512508401324
 10
114.5342755388467
 20
115.6525427509203
 10
114.5342755388467
 20
115.6525427509203
 10
114.5086849393232
 20
115.6512616060556
 10
114.4838371885028
 20
115.6474720010778
 10
114.4598830093107
 20
115.6413138929889
 10
114.436919295056
 20
115.6329057069444
 10
114.4150644708942
 20
115.6223873999463
 10
114.3944800256738
 20
115.609866631227
 10
114.3752520867808
 20
115.5954725918653
 10
114.3575313771402
 20
115.5793452388631
 10
114.3414255559845
 20
115.5615922314529
 10
114.3270745803157
 20
115.5423427607133
 10
114.3145861093661
 20
115.5217152518
 10
114.3040893342146
 20
115.499849661715
 10
114.2957026800165
 20
115.4768644156138
 10
114.289566103774
 20
115.452877938652
 10
114.2857872647194
 20
115.4280301878316
 10
114.2845061198548
 20
115.4024288223849
 10
114.2845061198548
 20
115.4024288223849
 10
114.2857872647194
 20
115.3768812865544
 10
114.2895768696973
 20
115.3520873653502
 10
114.2957026800165
 20
115.3281547180046
 10
114.3040893342146
 20
115.3052125355963
 10
114.3145861093661
 20
115.2833792432809
 10
114.3270745803157
 20
115.2627840321374
 10
114.3414255559845
 20
115.243545327321
 10
114.3575313771402
 20
115.2258138517573
 10
114.3752520867808
 20
115.2096972646784
 10
114.3944800256738
 20
115.1953139912399
 10
114.4150644708942
 20
115.1828039884438
 10
114.4369085291328
 20
115.1722856814457
 10
114.4598722433875
 20
115.1638882613245
 10
114.4838371885028
 20
115.1577301532355
 10
114.5086849393232
 20
115.1539513141809
 10
114.5342755388467
 20
115.152659403393
  0
HATCH
  5
8A
330
1F
100
AcDbEntity
  8
ISS138金台
  6
Continuous
 62
   250
420
  2367521
370
    13
100
AcDbHatch
 10
0.0
 20
0.0
 30
0.0
210
0.0
220
0.0
230
1.0
  2
SOLID
 70
     1
 71
     0
 91
        1
 92
        3
 72
     0
 73
     1
 93
       67
 10
129.6592672584423
 20
115.1530146788597
 10
129.6848578579658
 20
115.1543065896476
 10
129.7097056087862
 20
115.1580961946254
 10
129.7336705539015
 20
115.1642435367911
 10
129.7566342681562
 20
115.1726517228356
 10
129.7784675604715
 20
115.1831592639105
 10
129.7990627716152
 20
115.1956692667065
 10
129.818279944585
 20
115.210052540145
 10
129.8360114201488
 20
115.2261691272239
 10
129.8521064753812
 20
115.2439113687109
 10
129.8664789828965
 20
115.263139307604
 10
129.8789566879229
 20
115.2837237528244
 10
129.8894642289977
 20
115.3055570451397
 10
129.8978401172725
 20
115.3285099934712
 10
129.903976693515
 20
115.3524426408169
 10
129.9077555325696
 20
115.3772473279443
 10
129.9090366774342
 20
115.4027840978516
 10
129.9090366774342
 20
115.4027840978516
 10
129.9077555325696
 20
115.4283854632983
 10
129.9039659275917
 20
115.4532224481954
 10
129.8978401172725
 20
115.4772196910805
 10
129.8894642289977
 20
115.5002157031049
 10
129.8789674538461
 20
115.5220705272667
 10
129.8664682169733
 20
115.54269803618
 10
129.8521172413045
 20
115.5619475069195
 10
129.8360114201488
 20
115.5797005143298
 10
129.8182907105082
 20
115.5958386332552
 10
129.7990735375384
 20
115.6102219066937
 10
129.7784783263948
 20
115.622742675413
 10
129.7566342681562
 20
115.633260982411
 10
129.7336705539015
 20
115.6416691684556
 10
129.7097056087862
 20
115.6478165106212
 10
129.6848578579658
 20
115.6516061155991
 10
129.6592672584423
 20
115.6528980263869
 10
129.6592672584423
 20
115.6528980263869
 10
129.6336658929957
 20
115.6516061155991
 10
129.608807376252
 20
115.6478165106212
 10
129.5848316652134
 20
115.6416691684556
 10
129.561835653189
 20
115.6332717483343
 10
129.5399808290272
 20
115.622742675413
 10
129.5193640860372
 20
115.6102326726169
 10
129.5001038493744
 20
115.5958386332552
 10
129.4823508419641
 20
115.5797005143298
 10
129.4662019571155
 20
115.5619475069195
 10
129.4518294496003
 20
115.54269803618
 10
129.4392979149577
 20
115.5220705272667
 10
129.4287796079597
 20
115.5002049371817
 10
129.4203714219151
 20
115.4772196910805
 10
129.4142240797494
 20
115.4532332141187
 10
129.4104344747716
 20
115.4283854632983
 10
129.4091425639837
 20
115.4027840978516
 10
129.4091425639837
 20
115.4027840978516
 10
129.4104344747716
 20
115.3772365620211
 10
129.4142133138262
 20
115.3524534067401
 10
129.4203714219151
 20
115.3285099934712
 10
129.4287688420364
 20
115.3055570451397
 10
129.4392979149577
 20
115.2837237528244
 10
129.451818683677
 20
115.263139307604
 10
129.4662127230388
 20
115.2439113687109
 10
129.4823508419641
 20
115.2261691272239
 10
129.5001038493744
 20
115.210052540145
 10
129.5193533201139
 20
115.1956692667065
 10
129.5399808290272
 20
115.1831592639105
 10
129.5618464191122
 20
115.1726409569124
 10
129.5848316652134
 20
115.1642435367911
 10
129.6088181421753
 20
115.1580854287022
 10
129.6336658929957
 20
115.1543065896476
 97
        0
 75
     1
 76
     1
 98
        0
  0
LWPOLYLINE
  5
8B
330
1F
100
AcDbEntity
  8
ISS138金台
  6
Continuous
 62
   250
420
  2367521
370
    13
100
AcDbPolyline
 90
       68
 70
     0
 43
0.0
 10
129.6592672584423
 20
115.1530146788597
 10
129.6848578579658
 20
115.1543065896476
 10
129.7097056087862
 20
115.1580961946254
 10
129.7336705539015
 20
115.1642435367911
 10
129.7566342681562
 20
115.1726517228356
 10
129.7784675604715
 20
115.1831592639105
 10
129.7990627716152
 20
115.1956692667065
 10
129.818279944585
 20
115.210052540145
 10
129.8360114201488
 20
115.2261691272239
 10
129.8521064753812
 20
115.2439113687109
 10
129.8664789828965
 20
115.263139307604
 10
129.8789566879229
 20
115.2837237528244
 10
129.8894642289977
 20
115.3055570451397
 10
129.8978401172725
 20
115.3285099934712
 10
129.903976693515
 20
115.3524426408169
 10
129.9077555325696
 20
115.3772473279443
 10
129.9090366774342
 20
115.4027840978516
 10
129.9090366774342
 20
115.4027840978516
 10
129.9077555325696
 20
115.4283854632983
 10
129.9039659275917
 20
115.4532224481954
 10
129.8978401172725
 20
115.4772196910805
 10
129.8894642289977
 20
115.5002157031049
 10
129.8789674538461
 20
115.5220705272667
 10
129.8664682169733
 20
115.54269803618
 10
129.8521172413045
 20
115.5619475069195
 10
129.8360114201488
 20
115.5797005143298
 10
129.8182907105082
 20
115.5958386332552
 10
129.7990735375384
 20
115.6102219066937
 10
129.7784783263948
 20
115.622742675413
 10
129.7566342681562
 20
115.633260982411
 10
129.7336705539015
 20
115.6416691684556
 10
129.7097056087862
 20
115.6478165106212
 10
129.6848578579658
 20
115.6516061155991
 10
129.6592672584423
 20
115.6528980263869
 10
129.6592672584423
 20
115.6528980263869
 10
129.6336658929957
 20
115.6516061155991
 10
129.608807376252
 20
115.6478165106212
 10
129.5848316652134
 20
115.6416691684556
 10
129.561835653189
 20
115.6332717483343
 10
129.5399808290272
 20
115.622742675413
 10
129.5193640860372
 20
115.6102326726169
 10
129.5001038493744
 20
115.5958386332552
 10
129.4823508419641
 20
115.5797005143298
 10
129.4662019571155
 20
115.5619475069195
 10
129.4518294496003
 20
115.54269803618
 10
129.4392979149577
 20
115.5220705272667
 10
129.4287796079597
 20
115.5002049371817
 10
129.4203714219151
 20
115.4772196910805
 10
129.4142240797494
 20
115.4532332141187
 10
129.4104344747716
 20
115.4283854632983
 10
129.4091425639837
 20
115.4027840978516
 10
129.4091425639837
 20
115.4027840978516
 10
129.4104344747716
 20
115.3772365620211
 10
129.4142133138262
 20
115.3524534067401
 10
129.4203714219151
 20
115.3285099934712
 10
129.4287688420364
 20
115.3055570451397
 10
129.4392979149577
 20
115.2837237528244
 10
129.451818683677
 20
115.263139307604
 10
129.4662127230388
 20
115.2439113687109
 10
129.4823508419641
 20
115.2261691272239
 10
129.5001038493744
 20
115.210052540145
 10
129.5193533201139
 20
115.1956692667065
 10
129.5399808290272
 20
115.1831592639105
 10
129.5618464191122
 20
115.1726409569124
 10
129.5848316652134
 20
115.1642435367911
 10
129.6088181421753
 20
115.1580854287022
 10
129.6336658929957
 20
115.1543065896476
 10
129.6592672584423
 20
115.1530146788597
  0
HATCH
  5
8C
330
1F
100
AcDbEntity
  8
ISS138金台
  6
Continuous
 62
   250
420
  2367521
370
    13
100
AcDbHatch
 10
0.0
 20
0.0
 30
0.0
210
0.0
220
0.0
230
1.0
  2
SOLID
 70
     1
 71
     0
 91
        1
 92
        3
 72
     0
 73
     1
 93
       67
 10
129.659622533909
 20
120.1576940504472
 10
129.6851593038162
 20
120.1589859612351
 10
129.7099532250205
 20
120.1627648002897
 10
129.7338858723662
 20
120.1689336743018
 10
129.7568495866209
 20
120.1773203284999
 10
129.778672113013
 20
120.1878386354979
 10
129.7992673241566
 20
120.200348638294
 10
129.8184952630497
 20
120.2147319117325
 10
129.8362267386134
 20
120.2308484988114
 10
129.8523540916156
 20
120.2485799743752
 10
129.8667373650541
 20
120.2678186791915
 10
129.8792473678502
 20
120.2884138903351
 10
129.8897656748482
 20
120.3102471826504
 10
129.8981630949695
 20
120.3331893650587
 10
129.9043212030584
 20
120.3571220124043
 10
129.908100042113
 20
120.3819266995318
 10
129.9093919529009
 20
120.4074634694391
 10
129.9093919529009
 20
120.4074634694391
 10
129.908100042113
 20
120.4330648348857
 10
129.9043212030584
 20
120.4579125857062
 10
129.8981630949695
 20
120.4818990626679
 10
129.8897656748482
 20
120.5048843087691
 10
129.8792473678502
 20
120.5267498988542
 10
129.8667373650541
 20
120.5473774077675
 10
129.8523540916156
 20
120.566626878507
 10
129.8362267386134
 20
120.5843798859173
 10
129.8184952630497
 20
120.6005072389194
 10
129.7992673241566
 20
120.6149012782811
 10
129.778672113013
 20
120.6274220470004
 10
129.7568388206976
 20
120.6379403539985
 10
129.7338966382894
 20
120.646348540043
 10
129.7099532250205
 20
120.652506648132
 10
129.6851593038162
 20
120.6562854871865
 10
129.659622533909
 20
120.6575773979744
 10
129.659622533909
 20
120.6575773979744
 10
129.6340319343855
 20
120.6562854871865
 10
129.6091734176419
 20
120.652506648132
 10
129.5851869406801
 20
120.6463377741198
 10
129.5622016945789
 20
120.6379403539985
 10
129.5403361044939
 20
120.6274328129237
 10
129.5197085955806
 20
120.6149012782811
 10
129.500459124841
 20
120.6005180048426
 10
129.4827061174308
 20
120.5843798859173
 10
129.4665679985054
 20
120.566626878507
 10
129.4521847250669
 20
120.5473774077675
 10
129.4396531904244
 20
120.5267498988542
 10
129.4291348834263
 20
120.5048843087691
 10
129.4207266973818
 20
120.4818990626679
 10
129.4145685892929
 20
120.4579125857062
 10
129.4107897502383
 20
120.4330648348857
 10
129.4094978394504
 20
120.4074634694391
 10
129.4094978394504
 20
120.4074634694391
 10
129.4107789843151
 20
120.381937465455
 10
129.4145793552161
 20
120.3571220124043
 10
129.4207266973818
 20
120.3331893650587
 10
129.4291348834263
 20
120.3102471826504
 10
129.4396531904244
 20
120.2884031244119
 10
129.4521739591437
 20
120.2678186791915
 10
129.4665572325822
 20
120.2485907402984
 10
129.4827061174308
 20
120.2308484988114
 10
129.500459124841
 20
120.2147211458093
 10
129.5197085955806
 20
120.200348638294
 10
129.5403361044939
 20
120.1878386354979
 10
129.5622016945789
 20
120.1773203284999
 10
129.5851869406801
 20
120.1689229083786
 10
129.6091734176419
 20
120.1627648002897
 10
129.6340211684623
 20
120.1589859612351
 97
        0
 75
     1
 76
     1
 98
        0
  0
LWPOLYLINE
  5
8D
330
1F
100
AcDbEntity
  8
ISS138金台
  6
Continuous
 62
   250
420
  2367521
370
    13
100
AcDbPolyline
 90
       68
 70
     0
 43
0.0
 10
129.659622533909
 20
120.1576940504472
 10
129.6851593038162
 20
120.1589859612351
 10
129.7099532250205
 20
120.1627648002897
 10
129.7338858723662
 20
120.1689336743018
 10
129.7568495866209
 20
120.1773203284999
 10
129.778672113013
 20
120.1878386354979
 10
129.7992673241566
 20
120.200348638294
 10
129.8184952630497
 20
120.2147319117325
 10
129.8362267386134
 20
120.2308484988114
 10
129.8523540916156
 20
120.2485799743752
 10
129.8667373650541
 20
120.2678186791915
 10
129.8792473678502
 20
120.2884138903351
 10
129.8897656748482
 20
120.3102471826504
 10
129.8981630949695
 20
120.3331893650587
 10
129.9043212030584
 20
120.3571220124043
 10
129.908100042113
 20
120.3819266995318
 10
129.9093919529009
 20
120.4074634694391
 10
129.9093919529009
 20
120.4074634694391
 10
129.908100042113
 20
120.4330648348857
 10
129.9043212030584
 20
120.4579125857062
 10
129.8981630949695
 20
120.4818990626679
 10
129.8897656748482
 20
120.5048843087691
 10
129.8792473678502
 20
120.5267498988542
 10
129.8667373650541
 20
120.5473774077675
 10
129.8523540916156
 20
120.566626878507
 10
129.8362267386134
 20
120.5843798859173
 10
129.8184952630497
 20
120.6005072389194
 10
129.7992673241566
 20
120.6149012782811
 10
129.778672113013
 20
120.6274220470004
 10
129.7568388206976
 20
120.6379403539985
 10
129.7338966382894
 20
120.646348540043
 10
129.7099532250205
 20
120.652506648132
 10
129.6851593038162
 20
120.6562854871865
 10
129.659622533909
 20
120.6575773979744
 10
129.659622533909
 20
120.6575773979744
 10
129.6340319343855
 20
120.6562854871865
 10
129.6091734176419
 20
120.652506648132
 10
129.5851869406801
 20
120.6463377741198
 10
129.5622016945789
 20
120.6379403539985
 10
129.5403361044939
 20
120.6274328129237
 10
129.5197085955806
 20
120.6149012782811
 10
129.500459124841
 20
120.6005180048426
 10
129.4827061174308
 20
120.5843798859173
 10
129.4665679985054
 20
120.566626878507
 10
129.4521847250669
 20
120.5473774077675
 10
129.4396531904244
 20
120.5267498988542
 10
129.4291348834263
 20
120.5048843087691
 10
129.4207266973818
 20
120.4818990626679
 10
129.4145685892929
 20
120.4579125857062
 10
129.4107897502383
 20
120.4330648348857
 10
129.4094978394504
 20
120.4074634694391
 10
129.4094978394504
 20
120.4074634694391
 10
129.4107789843151
 20
120.381937465455
 10
129.4145793552161
 20
120.3571220124043
 10
129.4207266973818
 20
120.3331893650587
 10
129.4291348834263
 20
120.3102471826504
 10
129.4396531904244
 20
120.2884031244119
 10
129.4521739591437
 20
120.2678186791915
 10
129.4665572325822
 20
120.2485907402984
 10
129.4827061174308
 20
120.2308484988114
 10
129.500459124841
 20
120.2147211458093
 10
129.5197085955806
 20
120.200348638294
 10
129.5403361044939
 20
120.1878386354979
 10
129.5622016945789
 20
120.1773203284999
 10
129.5851869406801
 20
120.1689229083786
 10
129.6091734176419
 20
120.1627648002897
 10
129.6340211684623
 20
120.1589859612351
 10
129.659622533909
 20
120.1576940504472
  0
HATCH
  5
8E
330
1F
100
AcDbEntity
  8
ISS138金台
  6
Continuous
 62
   250
420
  2367521
370
    13
100
AcDbHatch
 10
0.0
 20
0.0
 30
0.0
210
0.0
220
0.0
230
1.0
  2
SOLID
 70
     1
 71
     0
 91
        1
 92
        3
 72
     0
 73
     1
 93
       67
 10
100.4893104720031
 20
120.1576940504472
 10
100.5148903056033
 20
120.1589859612351
 10
100.539748822347
 20
120.1627648002897
 10
100.5637137674623
 20
120.1689336743018
 10
100.5866882476403
 20
120.1773203284999
 10
100.6085215399556
 20
120.1878386354979
 10
100.629105985176
 20
120.200348638294
 10
100.648333924069
 20
120.2147319117325
 10
100.6660546337096
 20
120.2308484988114
 10
100.6821604548653
 20
120.2485799743752
 10
100.6965114305341
 20
120.2678186791915
 10
100.7089999014837
 20
120.2884138903351
 10
100.7194966766353
 20
120.3102471826504
 10
100.7278833308333
 20
120.3331893650587
 10
100.7340199070758
 20
120.3571220124043
 10
100.7377987461304
 20
120.3819266995318
 10
100.739079890995
 20
120.4074634694391
 10
100.739079890995
 20
120.4074634694391
 10
100.7377987461304
 20
120.4330648348857
 10
100.7340199070758
 20
120.4579125857062
 10
100.7278833308333
 20
120.4818990626679
 10
100.7194966766353
 20
120.5048843087691
 10
100.7090106674069
 20
120.5267498988542
 10
100.6965221964573
 20
120.5473774077675
 10
100.6821604548653
 20
120.566626878507
 10
100.6660546337096
 20
120.5843798859173
 10
100.648333924069
 20
120.6005072389194
 10
100.629105985176
 20
120.6149012782811
 10
100.6085215399556
 20
120.6274220470004
 10
100.586677481717
 20
120.6379403539985
 10
100.5637137674623
 20
120.646348540043
 10
100.539748822347
 20
120.652506648132
 10
100.5149010715266
 20
120.6562854871865
 10
100.4893104720031
 20
120.6575773979744
 10
100.4893104720031
 20
120.6575773979744
 10
100.4637198724797
 20
120.6562854871865
 10
100.4388721216593
 20
120.652506648132
 10
100.4149071765439
 20
120.6463377741198
 10
100.3919542282125
 20
120.6379403539985
 10
100.3701101699739
 20
120.6274328129237
 10
100.3495149588303
 20
120.6149012782811
 10
100.3302870199372
 20
120.6005180048426
 10
100.3125663102967
 20
120.5843798859173
 10
100.296460489141
 20
120.566626878507
 10
100.2821095134722
 20
120.5473774077675
 10
100.2696210425226
 20
120.5267498988542
 10
100.259124267371
 20
120.5048843087691
 10
100.2507376131729
 20
120.4818990626679
 10
100.2446010369305
 20
120.4579125857062
 10
100.2408221978759
 20
120.4330648348857
 10
100.2395410530112
 20
120.4074634694391
 10
100.2395410530112
 20
120.4074634694391
 10
100.2408221978759
 20
120.381937465455
 10
100.2446118028537
 20
120.3571220124043
 10
100.2507483790962
 20
120.3331893650587
 10
100.259124267371
 20
120.3102471826504
 10
100.2696210425226
 20
120.2884031244119
 10
100.2821095134722
 20
120.2678186791915
 10
100.2964712550642
 20
120.2485907402984
 10
100.3125663102967
 20
120.2308484988114
 10
100.3302870199372
 20
120.2147211458093
 10
100.3495149588303
 20
120.200348638294
 10
100.3700994040506
 20
120.1878386354979
 10
100.3919434622892
 20
120.1773203284999
 10
100.4149071765439
 20
120.1689229083786
 10
100.4388721216593
 20
120.1627648002897
 10
100.4637198724797
 20
120.1589859612351
 97
        0
 75
     1
 76
     1
 98
        0
  0
LWPOLYLINE
  5
8F
330
1F
100
AcDbEntity
  8
ISS138金台
  6
Continuous
 62
   250
420
  2367521
370
    13
100
AcDbPolyline
 90
       68
 70
     0
 43
0.0
 10
100.4893104720031
 20
120.1576940504472
 10
100.5148903056033
 20
120.1589859612351
 10
100.539748822347
 20
120.1627648002897
 10
100.5637137674623
 20
120.1689336743018
 10
100.5866882476403
 20
120.1773203284999
 10
100.6085215399556
 20
120.1878386354979
 10
100.629105985176
 20
120.200348638294
 10
100.648333924069
 20
120.2147319117325
 10
100.6660546337096
 20
120.2308484988114
 10
100.6821604548653
 20
120.2485799743752
 10
100.6965114305341
 20
120.2678186791915
 10
100.7089999014837
 20
120.2884138903351
 10
100.7194966766353
 20
120.3102471826504
 10
100.7278833308333
 20
120.3331893650587
 10
100.7340199070758
 20
120.3571220124043
 10
100.7377987461304
 20
120.3819266995318
 10
100.739079890995
 20
120.4074634694391
 10
100.739079890995
 20
120.4074634694391
 10
100.7377987461304
 20
120.4330648348857
 10
100.7340199070758
 20
120.4579125857062
 10
100.7278833308333
 20
120.4818990626679
 10
100.7194966766353
 20
120.5048843087691
 10
100.7090106674069
 20
120.5267498988542
 10
100.6965221964573
 20
120.5473774077675
 10
100.6821604548653
 20
120.566626878507
 10
100.6660546337096
 20
120.5843798859173
 10
100.648333924069
 20
120.6005072389194
 10
100.629105985176
 20
120.6149012782811
 10
100.6085215399556
 20
120.6274220470004
 10
100.586677481717
 20
120.6379403539985
 10
100.5637137674623
 20
120.646348540043
 10
100.539748822347
 20
120.652506648132
 10
100.5149010715266
 20
120.6562854871865
 10
100.4893104720031
 20
120.6575773979744
 10
100.4893104720031
 20
120.6575773979744
 10
100.4637198724797
 20
120.6562854871865
 10
100.4388721216593
 20
120.652506648132
 10
100.4149071765439
 20
120.6463377741198
 10
100.3919542282125
 20
120.6379403539985
 10
100.3701101699739
 20
120.6274328129237
 10
100.3495149588303
 20
120.6149012782811
 10
100.3302870199372
 20
120.6005180048426
 10
100.3125663102967
 20
120.5843798859173
 10
100.296460489141
 20
120.566626878507
 10
100.2821095134722
 20
120.5473774077675
 10
100.2696210425226
 20
120.5267498988542
 10
100.259124267371
 20
120.5048843087691
 10
100.2507376131729
 20
120.4818990626679
 10
100.2446010369305
 20
120.4579125857062
 10
100.2408221978759
 20
120.4330648348857
 10
100.2395410530112
 20
120.4074634694391
 10
100.2395410530112
 20
120.4074634694391
 10
100.2408221978759
 20
120.381937465455
 10
100.2446118028537
 20
120.3571220124043
 10
100.2507483790962
 20
120.3331893650587
 10
100.259124267371
 20
120.3102471826504
 10
100.2696210425226
 20
120.2884031244119
 10
100.2821095134722
 20
120.2678186791915
 10
100.2964712550642
 20
120.2485907402984
 10
100.3125663102967
 20
120.2308484988114
 10
100.3302870199372
 20
120.2147211458093
 10
100.3495149588303
 20
120.200348638294
 10
100.3700994040506
 20
120.1878386354979
 10
100.3919434622892
 20
120.1773203284999
 10
100.4149071765439
 20
120.1689229083786
 10
100.4388721216593
 20
120.1627648002897
 10
100.4637198724797
 20
120.1589859612351
 10
100.4893104720031
 20
120.1576940504472
  0
HATCH
  5
90
330
1F
100
AcDbEntity
  8
ISS138金台
  6
Continuous
 62
   250
420
  2367521
370
    13
100
AcDbHatch
 10
0.0
 20
0.0
 30
0.0
210
0.0
220
0.0
230
1.0
  2
SOLID
 70
     1
 71
     0
 91
        1
 92
        3
 72
     0
 73
     1
 93
       67
 10
134.9953863426628
 20
106.7741873070029
 10
135.02092311257
 20
106.7754792177907
 10
135.0457170337743
 20
106.7792580568453
 10
135.0696496811199
 20
106.7854161649342
 10
135.0926133953746
 20
106.7938243509788
 10
135.1144359217667
 20
106.8043426579768
 10
135.1350311329103
 20
106.8168634266961
 10
135.1542590718034
 20
106.8312574660579
 10
135.1719905473672
 20
106.84738481906
 10
135.1881179003693
 20
106.8651378264702
 10
135.2025011738078
 20
106.884398063133
 10
135.2150111766039
 20
106.9050148061231
 10
135.225529483602
 20
106.9268803962081
 10
135.2339269037232
 20
106.9498764082325
 10
135.2400850118122
 20
106.9738628851944
 10
135.2438638508667
 20
106.9987106360147
 10
135.2451557616546
 20
107.0243120014614
 10
135.2451557616546
 20
107.0243120014614
 10
135.2438638508667
 20
107.0498487713687
 10
135.2400850118122
 20
107.0746426925729
 10
135.2339269037232
 20
107.0985753399186
 10
135.225529483602
 20
107.1215282882501
 10
135.2150111766039
 20
107.1433615805654
 10
135.2025011738078
 20
107.163956791709
 10
135.1881179003693
 20
107.1831739646789
 10
135.1719905473672
 20
107.2009162061659
 10
135.1542590718034
 20
107.2170327932448
 10
135.1350311329103
 20
107.2314160666833
 10
135.1144359217667
 20
107.2439260694793
 10
135.0926026294514
 20
107.2544443764774
 10
135.0696604470431
 20
107.2628417965987
 10
135.0457170337743
 20
107.2689999046876
 10
135.02092311257
 20
107.2727787437422
 10
134.9953863426628
 20
107.2740706545301
 10
134.9953863426628
 20
107.2740706545301
 10
134.9697957431393
 20
107.2727787437422
 10
134.9449372263957
 20
107.2689999046876
 10
134.9209507494339
 20
107.2628417965987
 10
134.8979655033327
 20
107.2544443764774
 10
134.8760999132476
 20
107.2439260694793
 10
134.8554724043344
 20
107.2314160666833
 10
134.8362229335948
 20
107.2170327932448
 10
134.8184699261845
 20
107.2009162061659
 10
134.8023318072592
 20
107.1831739646789
 10
134.7879485338207
 20
107.163956791709
 10
134.7754277651014
 20
107.1433615805654
 10
134.7648986921801
 20
107.1215282882501
 10
134.7564905061356
 20
107.0985861058418
 10
134.7503323980466
 20
107.0746426925729
 10
134.746553558992
 20
107.0498487713687
 10
134.7452616482042
 20
107.0243120014614
 10
134.7452616482042
 20
107.0243120014614
 10
134.7465427930688
 20
106.9986998700915
 10
134.7503431639699
 20
106.9738521192711
 10
134.7564905061356
 20
106.9498764082325
 10
134.7648986921801
 20
106.9268911621314
 10
134.7754169991782
 20
106.9050148061231
 10
134.7879485338207
 20
106.884398063133
 10
134.8023210413359
 20
106.8651378264702
 10
134.8184699261845
 20
106.84738481906
 10
134.8362229335948
 20
106.8312467001346
 10
134.8554724043344
 20
106.8168634266961
 10
134.8760891473244
 20
106.8043426579768
 10
134.8979655033327
 20
106.7938243509788
 10
134.9209507494339
 20
106.7854161649342
 10
134.9449372263957
 20
106.7792580568453
 10
134.9697849772161
 20
106.7754792177907
 97
        0
 75
     1
 76
     1
 98
        0
  0
LWPOLYLINE
  5
91
330
1F
100
AcDbEntity
  8
ISS138金台
  6
Continuous
 62
   250
420
  2367521
370
    13
100
AcDbPolyline
 90
       68
 70
     0
 43
0.0
 10
134.9953863426628
 20
106.7741873070029
 10
135.02092311257
 20
106.7754792177907
 10
135.0457170337743
 20
106.7792580568453
 10
135.0696496811199
 20
106.7854161649342
 10
135.0926133953746
 20
106.7938243509788
 10
135.1144359217667
 20
106.8043426579768
 10
135.1350311329103
 20
106.8168634266961
 10
135.1542590718034
 20
106.8312574660579
 10
135.1719905473672
 20
106.84738481906
 10
135.1881179003693
 20
106.8651378264702
 10
135.2025011738078
 20
106.884398063133
 10
135.2150111766039
 20
106.9050148061231
 10
135.225529483602
 20
106.9268803962081
 10
135.2339269037232
 20
106.9498764082325
 10
135.2400850118122
 20
106.9738628851944
 10
135.2438638508667
 20
106.9987106360147
 10
135.2451557616546
 20
107.0243120014614
 10
135.2451557616546
 20
107.0243120014614
 10
135.2438638508667
 20
107.0498487713687
 10
135.2400850118122
 20
107.0746426925729
 10
135.2339269037232
 20
107.0985753399186
 10
135.225529483602
 20
107.1215282882501
 10
135.2150111766039
 20
107.1433615805654
 10
135.2025011738078
 20
107.163956791709
 10
135.1881179003693
 20
107.1831739646789
 10
135.1719905473672
 20
107.2009162061659
 10
135.1542590718034
 20
107.2170327932448
 10
135.1350311329103
 20
107.2314160666833
 10
135.1144359217667
 20
107.2439260694793
 10
135.0926026294514
 20
107.2544443764774
 10
135.0696604470431
 20
107.2628417965987
 10
135.0457170337743
 20
107.2689999046876
 10
135.02092311257
 20
107.2727787437422
 10
134.9953863426628
 20
107.2740706545301
 10
134.9953863426628
 20
107.2740706545301
 10
134.9697957431393
 20
107.2727787437422
 10
134.9449372263957
 20
107.2689999046876
 10
134.9209507494339
 20
107.2628417965987
 10
134.8979655033327
 20
107.2544443764774
 10
134.8760999132476
 20
107.2439260694793
 10
134.8554724043344
 20
107.2314160666833
 10
134.8362229335948
 20
107.2170327932448
 10
134.8184699261845
 20
107.2009162061659
 10
134.8023318072592
 20
107.1831739646789
 10
134.7879485338207
 20
107.163956791709
 10
134.7754277651014
 20
107.1433615805654
 10
134.7648986921801
 20
107.1215282882501
 10
134.7564905061356
 20
107.0985861058418
 10
134.7503323980466
 20
107.0746426925729
 10
134.746553558992
 20
107.0498487713687
 10
134.7452616482042
 20
107.0243120014614
 10
134.7452616482042
 20
107.0243120014614
 10
134.7465427930688
 20
106.9986998700915
 10
134.7503431639699
 20
106.9738521192711
 10
134.7564905061356
 20
106.9498764082325
 10
134.7648986921801
 20
106.9268911621314
 10
134.7754169991782
 20
106.9050148061231
 10
134.7879485338207
 20
106.884398063133
 10
134.8023210413359
 20
106.8651378264702
 10
134.8184699261845
 20
106.84738481906
 10
134.8362229335948
 20
106.8312467001346
 10
134.8554724043344
 20
106.8168634266961
 10
134.8760891473244
 20
106.8043426579768
 10
134.8979655033327
 20
106.7938243509788
 10
134.9209507494339
 20
106.7854161649342
 10
134.9449372263957
 20
106.7792580568453
 10
134.9697849772161
 20
106.7754792177907
 10
134.9953863426628
 20
106.7741873070029
  0
HATCH
  5
92
330
1F
100
AcDbEntity
  8
ISS138金台
  6
Continuous
 62
   250
420
  2367521
370
    13
100
AcDbHatch
 10
0.0
 20
0.0
 30
0.0
210
0.0
220
0.0
230
1.0
  2
SOLID
 70
     1
 71
     0
 91
        1
 92
        3
 72
     0
 73
     1
 93
       67
 10
139.9780171034702
 20
109.773153648546
 10
140.0036077029937
 20
109.7744455593339
 10
140.0284554538141
 20
109.7782351643117
 10
140.0524203989294
 20
109.7843825064774
 10
140.0753841131842
 20
109.7927906925219
 10
140.0972174054995
 20
109.8032982335968
 10
140.1178126166431
 20
109.8158082363928
 10
140.1370297896129
 20
109.8301915098313
 10
140.1547612651767
 20
109.8463080969102
 10
140.1708563204091
 20
109.864039572474
 10
140.1852288279244
 20
109.8832782772903
 10
140.1977065329508
 20
109.9038627225107
 10
140.2082140740256
 20
109.925696014826
 10
140.2165899623004
 20
109.9486489631575
 10
140.2227265385429
 20
109.9725816105032
 10
140.2265053775975
 20
109.9973862976306
 10
140.2277865224621
 20
110.0229230675379
 10
140.2277865224621
 20
110.0229230675379
 10
140.2265053775975
 20
110.0485244329846
 10
140.2227157726197
 20
110.0733614178817
 10
140.2165899623004
 20
110.0973586607668
 10
140.2082140740256
 20
110.1203546727912
 10
140.197717298874
 20
110.142209496953
 10
140.1852180620012
 20
110.1628370058663
 10
140.1708670863324
 20
110.1820864766058
 10
140.1547612651767
 20
110.1998394840161
 10
140.1370405555361
 20
110.2159776029415
 10
140.1178233825663
 20
110.23036087638
 10
140.0972281714227
 20
110.2428816450993
 10
140.0753841131842
 20
110.2533999520973
 10
140.0524203989294
 20
110.2618081381418
 10
140.0284554538141
 20
110.2679554803075
 10
140.0036077029937
 20
110.2717450852854
 10
139.9780171034702
 20
110.2730369960732
 10
139.9780171034702
 20
110.2730369960732
 10
139.9524157380236
 20
110.2717450852854
 10
139.9275572212799
 20
110.2679554803075
 10
139.9035815102414
 20
110.2618081381418
 10
139.8805854982169
 20
110.2534107180206
 10
139.8587306740552
 20
110.2428816450993
 10
139.8381031651418
 20
110.2303716423032
 10
139.8188536944023
 20
110.2159776029415
 10
139.8011006869921
 20
110.1998394840161
 10
139.7849518021434
 20
110.1820864766058
 10
139.7705792946282
 20
110.1628370058663
 10
139.7580477599857
 20
110.142209496953
 10
139.7475294529876
 20
110.120343906868
 10
139.7391212669431
 20
110.0973586607668
 10
139.7329631588541
 20
110.073372183805
 10
139.7291843197996
 20
110.0485244329846
 10
139.7278924090117
 20
110.0229230675379
 10
139.7278924090117
 20
110.0229230675379
 10
139.7291843197996
 20
109.9973755317074
 10
139.7329631588541
 20
109.9725923764264
 10
139.7391212669431
 20
109.9486489631575
 10
139.7475186870644
 20
109.925696014826
 10
139.7580477599857
 20
109.9038627225107
 10
139.7705685287049
 20
109.8832782772903
 10
139.7849625680667
 20
109.8640503383972
 10
139.8011006869921
 20
109.8463080969102
 10
139.8188536944023
 20
109.8301915098313
 10
139.8381031651418
 20
109.8158082363928
 10
139.8587306740552
 20
109.8032982335968
 10
139.8805962641402
 20
109.7927799265987
 10
139.9035815102414
 20
109.7843825064774
 10
139.9275679872032
 20
109.7782243983885
 10
139.9524157380236
 20
109.7744455593339
 97
        0
 75
     1
 76
     1
 98
        0
  0
LWPOLYLINE
  5
93
330
1F
100
AcDbEntity
  8
ISS138金台
  6
Continuous
 62
   250
420
  2367521
370
    13
100
AcDbPolyline
 90
       68
 70
     0
 43
0.0
 10
139.9780171034702
 20
109.773153648546
 10
140.0036077029937
 20
109.7744455593339
 10
140.0284554538141
 20
109.7782351643117
 10
140.0524203989294
 20
109.7843825064774
 10
140.0753841131842
 20
109.7927906925219
 10
140.0972174054995
 20
109.8032982335968
 10
140.1178126166431
 20
109.8158082363928
 10
140.1370297896129
 20
109.8301915098313
 10
140.1547612651767
 20
109.8463080969102
 10
140.1708563204091
 20
109.864039572474
 10
140.1852288279244
 20
109.8832782772903
 10
140.1977065329508
 20
109.9038627225107
 10
140.2082140740256
 20
109.925696014826
 10
140.2165899623004
 20
109.9486489631575
 10
140.2227265385429
 20
109.9725816105032
 10
140.2265053775975
 20
109.9973862976306
 10
140.2277865224621
 20
110.0229230675379
 10
140.2277865224621
 20
110.0229230675379
 10
140.2265053775975
 20
110.0485244329846
 10
140.2227157726197
 20
110.0733614178817
 10
140.2165899623004
 20
110.0973586607668
 10
140.2082140740256
 20
110.1203546727912
 10
140.197717298874
 20
110.142209496953
 10
140.1852180620012
 20
110.1628370058663
 10
140.1708670863324
 20
110.1820864766058
 10
140.1547612651767
 20
110.1998394840161
 10
140.1370405555361
 20
110.2159776029415
 10
140.1178233825663
 20
110.23036087638
 10
140.0972281714227
 20
110.2428816450993
 10
140.0753841131842
 20
110.2533999520973
 10
140.0524203989294
 20
110.2618081381418
 10
140.0284554538141
 20
110.2679554803075
 10
140.0036077029937
 20
110.2717450852854
 10
139.9780171034702
 20
110.2730369960732
 10
139.9780171034702
 20
110.2730369960732
 10
139.9524157380236
 20
110.2717450852854
 10
139.9275572212799
 20
110.2679554803075
 10
139.9035815102414
 20
110.2618081381418
 10
139.8805854982169
 20
110.2534107180206
 10
139.8587306740552
 20
110.2428816450993
 10
139.8381031651418
 20
110.2303716423032
 10
139.8188536944023
 20
110.2159776029415
 10
139.8011006869921
 20
110.1998394840161
 10
139.7849518021434
 20
110.1820864766058
 10
139.7705792946282
 20
110.1628370058663
 10
139.7580477599857
 20
110.142209496953
 10
139.7475294529876
 20
110.120343906868
 10
139.7391212669431
 20
110.0973586607668
 10
139.7329631588541
 20
110.073372183805
 10
139.7291843197996
 20
110.0485244329846
 10
139.7278924090117
 20
110.0229230675379
 10
139.7278924090117
 20
110.0229230675379
 10
139.7291843197996
 20
109.9973755317074
 10
139.7329631588541
 20
109.9725923764264
 10
139.7391212669431
 20
109.9486489631575
 10
139.7475186870644
 20
109.925696014826
 10
139.7580477599857
 20
109.9038627225107
 10
139.7705685287049
 20
109.8832782772903
 10
139.7849625680667
 20
109.8640503383972
 10
139.8011006869921
 20
109.8463080969102
 10
139.8188536944023
 20
109.8301915098313
 10
139.8381031651418
 20
109.8158082363928
 10
139.8587306740552
 20
109.8032982335968
 10
139.8805962641402
 20
109.7927799265987
 10
139.9035815102414
 20
109.7843825064774
 10
139.9275679872032
 20
109.7782243983885
 10
139.9524157380236
 20
109.7744455593339
 10
139.9780171034702
 20
109.773153648546
  0
HATCH
  5
94
330
1F
100
AcDbEntity
  8
ISS138金台
  6
Continuous
 62
   250
420
  2367521
370
    13
100
AcDbHatch
 10
0.0
 20
0.0
 30
0.0
210
0.0
220
0.0
230
1.0
  2
SOLID
 70
     1
 71
     0
 91
        1
 92
        3
 72
     0
 73
     1
 93
       67
 10
134.9950310671961
 20
95.66204274936253
 10
135.0206216667195
 20
95.66332389422718
 10
135.0454694175399
 20
95.66711349920499
 10
135.0694343626553
 20
95.67323930952423
 10
135.09239807691
 20
95.68162596372227
 10
135.1142313692253
 20
95.69211197295064
 10
135.1348265803689
 20
95.70461120982347
 10
135.1540437533388
 20
95.71896218549227
 10
135.1717752289025
 20
95.73506800664796
 10
135.187870284135
 20
95.7527887162885
 10
135.2022427916502
 20
95.77201665518159
 10
135.2147204966766
 20
95.79260110040195
 10
135.2252280377514
 20
95.81444515864051
 10
135.2336039260263
 20
95.83740887289524
 10
135.2397405022687
 20
95.86137381801058
 10
135.2435193413233
 20
95.88622156883099
 10
135.244800486188
 20
95.91181216835443
 10
135.244800486188
 20
95.91181216835443
 10
135.2435193413233
 20
95.93741353380109
 10
135.2397297363455
 20
95.96225051869826
 10
135.2336039260263
 20
95.98623699566006
 10
135.2252280377514
 20
96.00924377360772
 10
135.2147312625999
 20
96.03109859776951
 10
135.202232025727
 20
96.05172610668282
 10
135.1878810500582
 20
96.07097557742236
 10
135.1717752289025
 20
96.08872858483261
 10
135.154054519262
 20
96.10486670375798
 10
135.1348373462922
 20
96.11924997719649
 10
135.1142421351485
 20
96.13177074591577
 10
135.09239807691
 20
96.14228905291384
 10
135.0694343626553
 20
96.15069723895834
 10
135.0454694175399
 20
96.15684458112406
 10
135.0206216667195
 20
96.16063418610187
 10
134.9950310671961
 20
96.16192609688974
 10
134.9950310671961
 20
96.16192609688974
 10
134.9694297017494
 20
96.16063418610187
 10
134.9445711850058
 20
96.15684458112406
 10
134.9205954739672
 20
96.15069723895834
 10
134.8975994619428
 20
96.14229981883707
 10
134.875744637781
 20
96.13177074591577
 10
134.8551171288677
 20
96.11926074311972
 10
134.8358676581281
 20
96.10485593783474
 10
134.8181146507179
 20
96.08872858483261
 10
134.8019657658693
 20
96.07097557742236
 10
134.787593258354
 20
96.05172610668282
 10
134.7750617237115
 20
96.03109859776951
 10
134.7645434167134
 20
96.00923300768449
 10
134.7561352306689
 20
95.9862477615833
 10
134.7499878885032
 20
95.96226128462149
 10
134.7461982835254
 20
95.93741353380109
 10
134.7449063727375
 20
95.91181216835443
 10
134.7449063727375
 20
95.91181216835443
 10
134.7461982835254
 20
95.88621080290775
 10
134.74997712258
 20
95.86138458393381
 10
134.7561352306689
 20
95.83740887289524
 10
134.7645326507902
 20
95.81444515864051
 10
134.7750617237115
 20
95.79260110040195
 10
134.7875824924308
 20
95.77200588925835
 10
134.8019765317925
 20
95.7527887162885
 10
134.8181146507179
 20
95.73506800664796
 10
134.8358676581281
 20
95.71896218549227
 10
134.8551171288677
 20
95.70460044390023
 10
134.875744637781
 20
95.69212273887388
 10
134.897610227866
 20
95.68162596372227
 10
134.9205954739672
 20
95.67323930952423
 10
134.944581950929
 20
95.66710273328175
 10
134.9694297017494
 20
95.66332389422718
 97
        0
 75
     1
 76
     1
 98
        0
  0
LWPOLYLINE
  5
95
330
1F
100
AcDbEntity
  8
ISS138金台
  6
Continuous
 62
   250
420
  2367521
370
    13
100
AcDbPolyline
 90
       68
 70
     0
 43
0.0
 10
134.9950310671961
 20
95.66204274936253
 10
135.0206216667195
 20
95.66332389422718
 10
135.0454694175399
 20
95.66711349920499
 10
135.0694343626553
 20
95.67323930952423
 10
135.09239807691
 20
95.68162596372227
 10
135.1142313692253
 20
95.69211197295064
 10
135.1348265803689
 20
95.70461120982347
 10
135.1540437533388
 20
95.71896218549227
 10
135.1717752289025
 20
95.73506800664796
 10
135.187870284135
 20
95.7527887162885
 10
135.2022427916502
 20
95.77201665518159
 10
135.2147204966766
 20
95.79260110040195
 10
135.2252280377514
 20
95.81444515864051
 10
135.2336039260263
 20
95.83740887289524
 10
135.2397405022687
 20
95.86137381801058
 10
135.2435193413233
 20
95.88622156883099
 10
135.244800486188
 20
95.91181216835443
 10
135.244800486188
 20
95.91181216835443
 10
135.2435193413233
 20
95.93741353380109
 10
135.2397297363455
 20
95.96225051869826
 10
135.2336039260263
 20
95.98623699566006
 10
135.2252280377514
 20
96.00924377360772
 10
135.2147312625999
 20
96.03109859776951
 10
135.202232025727
 20
96.05172610668282
 10
135.1878810500582
 20
96.07097557742236
 10
135.1717752289025
 20
96.08872858483261
 10
135.154054519262
 20
96.10486670375798
 10
135.1348373462922
 20
96.11924997719649
 10
135.1142421351485
 20
96.13177074591577
 10
135.09239807691
 20
96.14228905291384
 10
135.0694343626553
 20
96.15069723895834
 10
135.0454694175399
 20
96.15684458112406
 10
135.0206216667195
 20
96.16063418610187
 10
134.9950310671961
 20
96.16192609688974
 10
134.9950310671961
 20
96.16192609688974
 10
134.9694297017494
 20
96.16063418610187
 10
134.9445711850058
 20
96.15684458112406
 10
134.9205954739672
 20
96.15069723895834
 10
134.8975994619428
 20
96.14229981883707
 10
134.875744637781
 20
96.13177074591577
 10
134.8551171288677
 20
96.11926074311972
 10
134.8358676581281
 20
96.10485593783474
 10
134.8181146507179
 20
96.08872858483261
 10
134.8019657658693
 20
96.07097557742236
 10
134.787593258354
 20
96.05172610668282
 10
134.7750617237115
 20
96.03109859776951
 10
134.7645434167134
 20
96.00923300768449
 10
134.7561352306689
 20
95.9862477615833
 10
134.7499878885032
 20
95.96226128462149
 10
134.7461982835254
 20
95.93741353380109
 10
134.7449063727375
 20
95.91181216835443
 10
134.7449063727375
 20
95.91181216835443
 10
134.7461982835254
 20
95.88621080290775
 10
134.74997712258
 20
95.86138458393381
 10
134.7561352306689
 20
95.83740887289524
 10
134.7645326507902
 20
95.81444515864051
 10
134.7750617237115
 20
95.79260110040195
 10
134.7875824924308
 20
95.77200588925835
 10
134.8019765317925
 20
95.7527887162885
 10
134.8181146507179
 20
95.73506800664796
 10
134.8358676581281
 20
95.71896218549227
 10
134.8551171288677
 20
95.70460044390023
 10
134.875744637781
 20
95.69212273887388
 10
134.897610227866
 20
95.68162596372227
 10
134.9205954739672
 20
95.67323930952423
 10
134.944581950929
 20
95.66710273328175
 10
134.9694297017494
 20
95.66332389422718
 10
134.9950310671961
 20
95.66204274936253
  0
HATCH
  5
96
330
1F
100
AcDbEntity
  8
ISS138金台
  6
Continuous
 62
   250
420
  2367521
370
    13
100
AcDbHatch
 10
0.0
 20
0.0
 30
0.0
210
0.0
220
0.0
230
1.0
  2
SOLID
 70
     1
 71
     0
 91
        1
 92
        3
 72
     0
 73
     1
 93
       67
 10
139.9780171034702
 20
95.66204274936253
 10
140.0036077029937
 20
95.66332389422718
 10
140.0284554538141
 20
95.66711349920499
 10
140.0524203989294
 20
95.67323930952423
 10
140.0753841131842
 20
95.68162596372227
 10
140.0972174054995
 20
95.69211197295064
 10
140.1178126166431
 20
95.70461120982347
 10
140.1370297896129
 20
95.71896218549227
 10
140.1547612651767
 20
95.73506800664796
 10
140.1708563204091
 20
95.7527887162885
 10
140.1852288279244
 20
95.77201665518159
 10
140.1977065329508
 20
95.79260110040195
 10
140.2082140740256
 20
95.81444515864051
 10
140.2165899623004
 20
95.83740887289524
 10
140.2227265385429
 20
95.86137381801058
 10
140.2265053775975
 20
95.88622156883099
 10
140.2277865224621
 20
95.91181216835443
 10
140.2277865224621
 20
95.91181216835443
 10
140.2265053775975
 20
95.93741353380109
 10
140.2227157726197
 20
95.96225051869826
 10
140.2165899623004
 20
95.98623699566006
 10
140.2082140740256
 20
96.00924377360772
 10
140.197717298874
 20
96.03109859776951
 10
140.1852180620012
 20
96.05172610668282
 10
140.1708670863324
 20
96.07097557742236
 10
140.1547612651767
 20
96.08872858483261
 10
140.1370405555361
 20
96.10486670375798
 10
140.1178233825663
 20
96.11924997719649
 10
140.0972281714227
 20
96.13177074591577
 10
140.0753841131842
 20
96.14228905291384
 10
140.0524203989294
 20
96.15069723895834
 10
140.0284554538141
 20
96.15684458112406
 10
140.0036077029937
 20
96.16063418610187
 10
139.9780171034702
 20
96.16192609688974
 10
139.9780171034702
 20
96.16192609688974
 10
139.9524157380236
 20
96.16063418610187
 10
139.9275572212799
 20
96.15684458112406
 10
139.9035815102414
 20
96.15069723895834
 10
139.8805854982169
 20
96.14229981883707
 10
139.8587306740552
 20
96.13177074591577
 10
139.8381031651418
 20
96.11926074311972
 10
139.8188536944023
 20
96.10485593783474
 10
139.8011006869921
 20
96.08872858483261
 10
139.7849518021434
 20
96.07097557742236
 10
139.7705792946282
 20
96.05172610668282
 10
139.7580477599857
 20
96.03109859776951
 10
139.7475294529876
 20
96.00923300768449
 10
139.7391212669431
 20
95.9862477615833
 10
139.7329631588541
 20
95.96226128462149
 10
139.7291843197996
 20
95.93741353380109
 10
139.7278924090117
 20
95.91181216835443
 10
139.7278924090117
 20
95.91181216835443
 10
139.7291843197996
 20
95.88621080290775
 10
139.7329631588541
 20
95.86138458393381
 10
139.7391212669431
 20
95.83740887289524
 10
139.7475186870644
 20
95.81444515864051
 10
139.7580477599857
 20
95.79260110040195
 10
139.7705685287049
 20
95.77200588925835
 10
139.7849625680667
 20
95.7527887162885
 10
139.8011006869921
 20
95.73506800664796
 10
139.8188536944023
 20
95.71896218549227
 10
139.8381031651418
 20
95.70460044390023
 10
139.8587306740552
 20
95.69212273887388
 10
139.8805962641402
 20
95.68162596372227
 10
139.9035815102414
 20
95.67323930952423
 10
139.9275679872032
 20
95.66710273328175
 10
139.9524157380236
 20
95.66332389422718
 97
        0
 75
     1
 76
     1
 98
        0
  0
LWPOLYLINE
  5
97
330
1F
100
AcDbEntity
  8
ISS138金台
  6
Continuous
 62
   250
420
  2367521
370
    13
100
AcDbPolyline
 90
       68
 70
     0
 43
0.0
 10
139.9780171034702
 20
95.66204274936253
 10
140.0036077029937
 20
95.66332389422718
 10
140.0284554538141
 20
95.66711349920499
 10
140.0524203989294
 20
95.67323930952423
 10
140.0753841131842
 20
95.68162596372227
 10
140.0972174054995
 20
95.69211197295064
 10
140.1178126166431
 20
95.70461120982347
 10
140.1370297896129
 20
95.71896218549227
 10
140.1547612651767
 20
95.73506800664796
 10
140.1708563204091
 20
95.7527887162885
 10
140.1852288279244
 20
95.77201665518159
 10
140.1977065329508
 20
95.79260110040195
 10
140.2082140740256
 20
95.81444515864051
 10
140.2165899623004
 20
95.83740887289524
 10
140.2227265385429
 20
95.86137381801058
 10
140.2265053775975
 20
95.88622156883099
 10
140.2277865224621
 20
95.91181216835443
 10
140.2277865224621
 20
95.91181216835443
 10
140.2265053775975
 20
95.93741353380109
 10
140.2227157726197
 20
95.96225051869826
 10
140.2165899623004
 20
95.98623699566006
 10
140.2082140740256
 20
96.00924377360772
 10
140.197717298874
 20
96.03109859776951
 10
140.1852180620012
 20
96.05172610668282
 10
140.1708670863324
 20
96.07097557742236
 10
140.1547612651767
 20
96.08872858483261
 10
140.1370405555361
 20
96.10486670375798
 10
140.1178233825663
 20
96.11924997719649
 10
140.0972281714227
 20
96.13177074591577
 10
140.0753841131842
 20
96.14228905291384
 10
140.0524203989294
 20
96.15069723895834
 10
140.0284554538141
 20
96.15684458112406
 10
140.0036077029937
 20
96.16063418610187
 10
139.9780171034702
 20
96.16192609688974
 10
139.9780171034702
 20
96.16192609688974
 10
139.9524157380236
 20
96.16063418610187
 10
139.9275572212799
 20
96.15684458112406
 10
139.9035815102414
 20
96.15069723895834
 10
139.8805854982169
 20
96.14229981883707
 10
139.8587306740552
 20
96.13177074591577
 10
139.8381031651418
 20
96.11926074311972
 10
139.8188536944023
 20
96.10485593783474
 10
139.8011006869921
 20
96.08872858483261
 10
139.7849518021434
 20
96.07097557742236
 10
139.7705792946282
 20
96.05172610668282
 10
139.7580477599857
 20
96.03109859776951
 10
139.7475294529876
 20
96.00923300768449
 10
139.7391212669431
 20
95.9862477615833
 10
139.7329631588541
 20
95.96226128462149
 10
139.7291843197996
 20
95.93741353380109
 10
139.7278924090117
 20
95.91181216835443
 10
139.7278924090117
 20
95.91181216835443
 10
139.7291843197996
 20
95.88621080290775
 10
139.7329631588541
 20
95.86138458393381
 10
139.7391212669431
 20
95.83740887289524
 10
139.7475186870644
 20
95.81444515864051
 10
139.7580477599857
 20
95.79260110040195
 10
139.7705685287049
 20
95.77200588925835
 10
139.7849625680667
 20
95.7527887162885
 10
139.8011006869921
 20
95.73506800664796
 10
139.8188536944023
 20
95.71896218549227
 10
139.8381031651418
 20
95.70460044390023
 10
139.8587306740552
 20
95.69212273887388
 10
139.8805962641402
 20
95.68162596372227
 10
139.9035815102414
 20
95.67323930952423
 10
139.9275679872032
 20
95.66710273328175
 10
139.9524157380236
 20
95.66332389422718
 10
139.9780171034702
 20
95.66204274936253
  0
TEXT
  5
98
330
1F
100
AcDbEntity
  8
ISS138金台
  6
Continuous
 62
   250
420
  2367521
100
AcDbText
 10
133.9797366379998
 20
99.96875653447546
 30
0.0
 40
2.150533301035563
  1
11
 50
90.00000250447816
 41
1.003749370574951
  7
MS Gothic
100
AcDbText
  0
TEXT
  5
99
330
1F
100
AcDbEntity
  8
ISS138金台
  6
Continuous
 62
   250
420
  2367521
100
AcDbText
 10
138.9186254527141
 20
101.3798676243938
 30
0.0
 40
2.150533301035563
  1
14
 50
90.00000250447816
 41
1.012501716613769
  7
MS Gothic
100
AcDbText
  0
TEXT
  5
9A
330
1F
100
AcDbEntity
  8
ISS138金台
  6
Continuous
 62
   250
420
  2367521
100
AcDbText
 10
120.531142395533
 20
116.4182507818196
 30
0.0
 40
2.150533301035563
  1
15
 41
0.9618744850158689
  7
MS Gothic
100
AcDbText
  0
TEXT
  5
9B
330
1F
100
AcDbEntity
  8
ISS138金台
  6
Continuous
 62
   250
420
  2367521
100
AcDbText
 10
113.9610116585674
 20
121.4897865366803
 30
0.0
 40
2.150533301035563
  1
30
 41
0.9490013122558593
  7
MS Gothic
100
AcDbText
  0
LINE
  5
9C
330
1F
100
AcDbEntity
  8
ISS138金台
  6
UserDefined01
 62
   140
420
    44526
370
    13
100
AcDbLine
 10
122.0724780928706
 20
90.03894183249739
 30
0.0
 11
129.5979337937873
 21
90.03894183249739
 31
0.0
  0
TEXT
  5
9D
330
1F
100
AcDbEntity
  8
ISS138金台
  6
Continuous
 62
   140
420
    44526
100
AcDbText
 10
124.1893815780592
 20
90.8281003265726
 30
0.0
 40
1.881716638406118
  1
7.5
 41
0.8731679462251207
  7
MS Gothic
100
AcDbText
  0
HATCH
  5
9E
330
1F
100
AcDbEntity
  8
ISS138金台
  6
Continuous
 62
   140
420
    44526
370
    25
100
AcDbHatch
 10
0.0
 20
0.0
 30
0.0
210
0.0
220
0.0
230
1.0
  2
SOLID
 70
     1
 71
     0
 91
        1
 92
        3
 72
     0
 73
     1
 93
        3
 10
121.2063595688232
 20
99.21080325853836
 10
122.9381444481421
 20
99.21009270760501
 10
122.0731348141878
 20
97.71185300096678
 97
        0
 75
     1
 76
     1
 98
        0
  0
LWPOLYLINE
  5
9F
330
1F
100
AcDbEntity
  8
ISS138金台
  6
Continuous
 62
   140
420
    44526
370
    25
100
AcDbPolyline
 90
        4
 70
     0
 43
0.0
 10
121.2063595688232
 20
99.21080325853836
 10
122.9381444481421
 20
99.21009270760501
 10
122.0731348141878
 20
97.71185300096678
 10
121.2063595688232
 20
99.21080325853836
  0
ENDSEC
  0
SECTION
  2
OBJECTS
  0
DICTIONARY
  5
C
330
0
100
AcDbDictionary
281
     1
  3
ACAD_DETAILVIEWSTYLE
350
A7
  3
ACAD_GROUP
350
D
  3
ACAD_LAYOUT
350
1A
  3
ACAD_MATERIAL
350
43
  3
ACAD_MLEADERSTYLE
350
5B
  3
ACAD_MLINESTYLE
350
17
  3
ACAD_PLOTSETTINGS
350
19
  3
ACAD_PLOTSTYLENAME
350
E
  3
ACAD_SCALELIST
350
47
  3
ACAD_SECTIONVIEWSTYLE
350
A8
  3
ACAD_TABLESTYLE
350
59
  3
ACAD_VISUALSTYLE
350
2A
  3
ACDB_RECOMPOSE_DATA
350
A4
  3
AcDbVariableDictionary
350
A0
  0
SUN
  5
5D
330
29
100
AcDbSun
 90
        1
290
     0
 63
     7
421
 16777215
 40
1.0
291
     1
 91
  2455826
 92
 54000000
292
     0
 70
     2
 71
   256
280
     1
  0
DICTIONARY
  5
A7
102
{ACAD_REACTORS
330
C
102
}
330
C
100
AcDbDictionary
281
     1
  0
DICTIONARY
  5
D
102
{ACAD_REACTORS
330
C
102
}
330
C
100
AcDbDictionary
281
     1
  0
DICTIONARY
  5
1A
102
{ACAD_REACTORS
330
C
102
}
330
C
100
AcDbDictionary
281
     1
  3
Layout1
350
1E
  3
Layout2
350
26
  3
Model
350
22
  0
DICTIONARY
  5
43
102
{ACAD_REACTORS
330
C
102
}
330
C
100
AcDbDictionary
281
     1
  3
ByBlock
350
45
  3
ByLayer
350
44
  3
Global
350
46
  0
DICTIONARY
  5
5B
102
{ACAD_REACTORS
330
C
102
}
330
C
100
AcDbDictionary
281
     1
  3
Standard
350
5C
  0
DICTIONARY
  5
17
102
{ACAD_REACTORS
330
C
102
}
330
C
100
AcDbDictionary
281
     1
  3
Standard
350
18
  0
DICTIONARY
  5
19
102
{ACAD_REACTORS
330
C
102
}
330
C
100
AcDbDictionary
281
     1
  0
ACDBDICTIONARYWDFLT
  5
E
102
{ACAD_REACTORS
330
C
102
}
330
C
100
AcDbDictionary
281
     1
  3
Normal
350
F
100
AcDbDictionaryWithDefault
340
F
  0
DICTIONARY
  5
47
102
{ACAD_REACTORS
330
C
102
}
330
C
100
AcDbDictionary
281
     1
  3
A0
350
48
  3
A1
350
49
  3
A2
350
4A
  3
A3
350
4B
  3
A4
350
4C
  3
A5
350
4D
  3
A6
350
4E
  3
A7
350
4F
  3
A8
350
50
  3
A9
350
51
  3
B0
350
52
  3
B1
350
53
  3
B2
350
54
  3
B3
350
55
  3
B4
350
56
  3
B5
350
57
  3
B6
350
58
  0
DICTIONARY
  5
A8
102
{ACAD_REACTORS
330
C
102
}
330
C
100
AcDbDictionary
281
     1
  0
DICTIONARY
  5
59
102
{ACAD_REACTORS
330
C
102
}
330
C
100
AcDbDictionary
281
     1
  3
Standard
350
5A
  0
DICTIONARY
  5
2A
102
{ACAD_REACTORS
330
C
102
}
330
C
100
AcDbDictionary
281
     1
  3
2dWireframe
350
2F
  3
Basic
350
32
  3
Brighten
350
36
  3
ColorChange
350
3A
  3
Conceptual
350
34
  3
Dim
350
35
  3
EdgeColorOff
350
3D
  3
Facepattern
350
39
  3
Flat
350
2B
  3
FlatWithEdges
350
2C
  3
Gouraud
350
2D
  3
GouraudWithEdges
350
2E
  3
Hidden
350
31
  3
JitterOff
350
3B
  3
Linepattern
350
38
  3
OverhangOff
350
3C
  3
Realistic
350
33
  3
Shaded
350
42
  3
Shaded with edges
350
41
  3
Shades of Gray
350
3E
  3
Sketchy
350
3F
  3
Thicken
350
37
  3
Wireframe
350
30
  3
X-Ray
350
40
  0
XRECORD
  5
A4
102
{ACAD_REACTORS
330
C
102
}
330
C
100
AcDbXrecord
280
     1
 90
        1
330
5A
  0
DICTIONARY
  5
A0
102
{ACAD_REACTORS
330
C
102
}
330
C
100
AcDbDictionary
281
     1
  3
CANNOSCALE
350
A1
  3
CENTEREXE
350
A9
  3
CENTERLTYPEFILE
350
AA
  3
CMLEADERSTYLE
350
A6
  3
CTABLESTYLE
350
A5
  0
LAYOUT
  5
1E
102
{ACAD_REACTORS
330
1A
102
}
330
1A
100
AcDbPlotSettings
  1

  2
none_device
  4

  6

 40
0.0
 41
0.0
 42
0.0
 43
0.0
 44
0.0
 45
0.0
 46
0.0
 47
0.0
 48
0.0
 49
0.0
140
0.0
141
0.0
142
1.0
143
1.0
 70
   688
 72
     1
 73
     0
 74
     5
  7

 75
    16
 76
     0
 77
     5
 78
   300
147
1.0
148
0.0
149
0.0
100
AcDbLayout
  1
Layout1
 70
     1
 71
     1
 10
0.0
 20
0.0
 11
420.0
 21
297.0
 12
0.0
 22
0.0
 32
0.0
 14
1.000000000000000E+20
 24
1.000000000000000E+20
 34
1.000000000000000E+20
 15
-1.000000000000000E+20
 25
-1.000000000000000E+20
 35
-1.000000000000000E+20
146
0.0
 13
0.0
 23
0.0
 33
0.0
 16
1.0
 26
0.0
 36
0.0
 17
0.0
 27
1.0
 37
0.0
 76
     0
330
1B
  0
LAYOUT
  5
26
102
{ACAD_REACTORS
330
1A
102
}
330
1A
100
AcDbPlotSettings
  1

  2
none_device
  4

  6

 40
0.0
 41
0.0
 42
0.0
 43
0.0
 44
0.0
 45
0.0
 46
0.0
 47
0.0
 48
0.0
 49
0.0
140
0.0
141
0.0
142
1.0
143
1.0
 70
   688
 72
     1
 73
     0
 74
     5
  7

 75
    16
 76
     0
 77
     5
 78
   300
147
1.0
148
0.0
149
0.0
100
AcDbLayout
  1
Layout2
 70
     1
 71
     2
 10
0.0
 20
0.0
 11
0.0
 21
0.0
 12
0.0
 22
0.0
 32
0.0
 14
0.0
 24
0.0
 34
0.0
 15
0.0
 25
0.0
 35
0.0
146
0.0
 13
0.0
 23
0.0
 33
0.0
 16
1.0
 26
0.0
 36
0.0
 17
0.0
 27
1.0
 37
0.0
 76
     0
330
23
  0
LAYOUT
  5
22
102
{ACAD_REACTORS
330
1A
102
}
330
1A
100
AcDbPlotSettings
  1

  2
none_device
  4
Letter_(8.50_x_11.00_Inches)
  6

 40
6.35
 41
6.35
 42
6.35000508
 43
6.35000508
 44
215.9
 45
279.4
 46
0.0
 47
0.0
 48
0.0
 49
0.0
140
0.0
141
0.0
142
1.0
143
1.0
 70
  1712
 72
     1
 73
     0
 74
     0
  7

 75
     0
 76
     0
 77
     5
 78
   300
147
1.0
148
0.0
149
0.0
100
AcDbLayout
  1
Model
 70
     1
 71
     0
 10
0.0
 20
0.0
 11
302.9997823349792
 21
216.0016055409748
 12
0.0
 22
0.0
 32
0.0
 14
0.0
 24
0.0
 34
0.0
 15
302.9997823349792
 25
216.0016055409748
 35
0.0
146
0.0
 13
0.0
 23
0.0
 33
0.0
 16
1.0
 26
0.0
 36
0.0
 17
0.0
 27
1.0
 37
0.0
 76
     0
330
1F
331
29
  0
MATERIAL
  5
45
102
{ACAD_REACTORS
330
43
102
}
330
43
100
AcDbMaterial
  1
ByBlock
 72
     1
 94
      127
  0
MATERIAL
  5
44
102
{ACAD_REACTORS
330
43
102
}
330
43
100
AcDbMaterial
  1
ByLayer
 72
     1
 94
      127
  0
MATERIAL
  5
46
102
{ACAD_REACTORS
330
43
102
}
330
43
100
AcDbMaterial
  1
Global
 72
     1
 94
      127
  0
MLEADERSTYLE
  5
5C
102
{ACAD_REACTORS
330
5B
102
}
330
5B
100
AcDbMLeaderStyle
179
     2
170
     2
171
     1
172
     0
 90
        2
 40
0.0
 41
0.0
173
     1
 91
-1056964608
340
14
 92
       -2
290
     1
 42
2.0
291
     1
 43
8.0
  3
Standard
341
0
 44
4.0
300

342
11
174
     1
178
     6
175
     1
176
     0
 93
-1056964608
 45
4.0
292
     0
297
     0
 46
4.0
343
0
 94
-1056964608
 47
1.0
 49
1.0
140
1.0
293
     1
141
0.0
294
     1
177
     0
142
1.0
295
     0
296
     0
143
3.75
271
     0
272
     9
273
     9
298
     0
  0
MLINESTYLE
  5
18
102
{ACAD_REACTORS
330
17
102
}
330
17
100
AcDbMlineStyle
  2
Standard
 70
     0
  3

 62
   256
 51
90.0
 52
90.0
 71
     2
 49
0.5
 62
   256
  6
BYLAYER
 49
-0.5
 62
   256
  6
BYLAYER
  0
ACDBPLACEHOLDER
  5
F
102
{ACAD_REACTORS
330
E
102
}
330
E
  0
SCALE
  5
48
102
{ACAD_REACTORS
330
47
102
}
330
47
100
AcDbScale
 70
     0
300
1:1
140
1.0
141
1.0
290
     1
  0
SCALE
  5
49
102
{ACAD_REACTORS
330
47
102
}
330
47
100
AcDbScale
 70
     0
300
1:2
140
1.0
141
2.0
290
     0
  0
SCALE
  5
4A
102
{ACAD_REACTORS
330
47
102
}
330
47
100
AcDbScale
 70
     0
300
1:4
140
1.0
141
4.0
290
     0
  0
SCALE
  5
4B
102
{ACAD_REACTORS
330
47
102
}
330
47
100
AcDbScale
 70
     0
300
1:5
140
1.0
141
5.0
290
     0
  0
SCALE
  5
4C
102
{ACAD_REACTORS
330
47
102
}
330
47
100
AcDbScale
 70
     0
300
1:8
140
1.0
141
8.0
290
     0
  0
SCALE
  5
4D
102
{ACAD_REACTORS
330
47
102
}
330
47
100
AcDbScale
 70
     0
300
1:10
140
1.0
141
10.0
290
     0
  0
SCALE
  5
4E
102
{ACAD_REACTORS
330
47
102
}
330
47
100
AcDbScale
 70
     0
300
1:16
140
1.0
141
16.0
290
     0
  0
SCALE
  5
4F
102
{ACAD_REACTORS
330
47
102
}
330
47
100
AcDbScale
 70
     0
300
1:20
140
1.0
141
20.0
290
     0
  0
SCALE
  5
50
102
{ACAD_REACTORS
330
47
102
}
330
47
100
AcDbScale
 70
     0
300
1:30
140
1.0
141
30.0
290
     0
  0
SCALE
  5
51
102
{ACAD_REACTORS
330
47
102
}
330
47
100
AcDbScale
 70
     0
300
1:40
140
1.0
141
40.0
290
     0
  0
SCALE
  5
52
102
{ACAD_REACTORS
330
47
102
}
330
47
100
AcDbScale
 70
     0
300
1:50
140
1.0
141
50.0
290
     0
  0
SCALE
  5
53
102
{ACAD_REACTORS
330
47
102
}
330
47
100
AcDbScale
 70
     0
300
1:100
140
1.0
141
100.0
290
     0
  0
SCALE
  5
54
102
{ACAD_REACTORS
330
47
102
}
330
47
100
AcDbScale
 70
     0
300
2:1
140
2.0
141
1.0
290
     0
  0
SCALE
  5
55
102
{ACAD_REACTORS
330
47
102
}
330
47
100
AcDbScale
 70
     0
300
4:1
140
4.0
141
1.0
290
     0
  0
SCALE
  5
56
102
{ACAD_REACTORS
330
47
102
}
330
47
100
AcDbScale
 70
     0
300
8:1
140
8.0
141
1.0
290
     0
  0
SCALE
  5
57
102
{ACAD_REACTORS
330
47
102
}
330
47
100
AcDbScale
 70
     0
300
10:1
140
10.0
141
1.0
290
     0
  0
SCALE
  5
58
102
{ACAD_REACTORS
330
47
102
}
330
47
100
AcDbScale
 70
     0
300
100:1
140
100.0
141
1.0
290
     0
  0
TABLESTYLE
  5
5A
102
{ACAD_REACTORS
330
59
102
}
102
{ACAD_XDICTIONARY
360
A2
102
}
330
59
100
AcDbTableStyle
  3
Standard
 70
     0
 71
     0
 40
0.06
 41
0.06
280
     0
281
     0
  7
Standard
140
4.5
170
     2
 62
     0
 63
   257
283
     0
 90
        4
 91
        0
  1

274
    -2
284
     1
 64
     0
275
    -2
285
     1
 65
     0
276
    -2
286
     1
 66
     0
277
    -2
287
     1
 67
     0
278
    -2
288
     1
 68
     0
279
    -2
289
     1
 69
     0
  7
Standard
140
6.0
170
     5
 62
     0
 63
   257
283
     0
 90
        4
 91
        0
  1

274
    -2
284
     1
 64
     0
275
    -2
285
     1
 65
     0
276
    -2
286
     1
 66
     0
277
    -2
287
     1
 67
     0
278
    -2
288
     1
 68
     0
279
    -2
289
     1
 69
     0
  7
Standard
140
4.5
170
     5
 62
     0
 63
   257
283
     0
 90
        4
 91
        0
  1

274
    -2
284
     1
 64
     0
275
    -2
285
     1
 65
     0
276
    -2
286
     1
 66
     0
277
    -2
287
     1
 67
     0
278
    -2
288
     1
 68
     0
279
    -2
289
     1
 69
     0
  0
VISUALSTYLE
  5
2F
102
{ACAD_REACTORS
330
2A
102
}
330
2A
100
AcDbVisualStyle
  2
2dWireframe
 70
     4
177
     3
291
     0
 70
    58
 90
        0
176
     1
 90
        2
176
     1
 90
        0
176
     1
 90
        0
176
     1
 40
0.6
176
     1
 40
30.0
176
     1
 62
     7
420
 16777215
176
     1
 90
        1
176
     1
 90
        4
176
     1
 62
     7
176
     1
 62
   257
176
     1
 90
        1
176
     1
 90
        1
176
     1
 40
1.0
176
     1
 90
        0
176
     1
 62
   257
176
     1
 40
1.0
176
     1
 90
        1
176
     1
 90
        6
176
     1
 90
        2
176
     1
 62
     7
176
     1
 90
        5
176
     1
 90
        0
176
     1
 90
        0
176
     1
290
     0
176
     1
 90
        1
176
     1
 40
0.0
176
     1
 90
        0
176
     1
290
     1
176
     1
290
     1
176
     1
290
     0
176
     1
290
     0
176
     1
290
     0
176
     1
290
     0
176
     1
290
     0
176
     1
290
     0
176
     1
290
     0
176
     1
 90
       50
176
     1
 40
0.0
176
     1
 40
1.0
176
     1
 90
        0
176
     1
 62
    18
420
        0
176
     1
 90
       50
176
     1
 90
        3
176
     1
 62
     5
420
      255
176
     1
290
     0
176
     1
 90
       50
176
     1
 90
       50
176
     1
 90
       50
176
     1
290
     0
176
     1
 90
       50
176
     1
 62
   256
176
     0
 40
1.0
176
     0
 90
        2
176
     1
  1
strokes_ogs.tif
176
     1
290
     0
176
     1
 40
1.0
176
     1
 40
1.0
176
     1
  0
VISUALSTYLE
  5
32
102
{ACAD_REACTORS
330
2A
102
}
330
2A
100
AcDbVisualStyle
  2
Basic
 70
     7
177
     3
291
     1
 70
    58
 90
        1
176
     1
 90
        0
176
     1
 90
        1
176
     1
 90
        0
176
     1
 40
0.6
176
     1
 40
30.0
176
     1
 62
     7
420
 16777215
176
     1
 90
        0
176
     1
 90
        4
176
     1
 62
     7
176
     1
 62
   257
176
     1
 90
        1
176
     1
 90
        1
176
     1
 40
1.0
176
     1
 90
        8
176
     1
 62
     7
176
     1
 40
1.0
176
     1
 90
        1
176
     1
 90
        6
176
     1
 90
        2
176
     1
 62
     7
176
     1
 90
        5
176
     1
 90
        0
176
     1
 90
        0
176
     1
290
     0
176
     1
 90
        1
176
     1
 40
0.0
176
     1
 90
        0
176
     1
290
     0
176
     1
290
     1
176
     1
290
     1
176
     1
290
     0
176
     1
290
     0
176
     1
290
     0
176
     1
290
     0
176
     1
290
     0
176
     1
290
     0
176
     1
 90
       50
176
     1
 40
0.0
176
     1
 40
1.0
176
     1
 90
        0
176
     1
 62
    18
420
        0
176
     1
 90
       50
176
     1
 90
        3
176
     1
 62
     5
420
      255
176
     1
290
     0
176
     1
 90
       50
176
     1
 90
       50
176
     1
 90
       50
176
     1
290
     0
176
     1
 90
       50
176
     1
 62
   256
176
     0
 40
1.0
176
     0
 90
        2
176
     1
  1
strokes_ogs.tif
176
     1
290
     0
176
     1
 40
1.0
176
     1
 40
1.0
176
     1
  0
VISUALSTYLE
  5
36
102
{ACAD_REACTORS
330
2A
102
}
330
2A
100
AcDbVisualStyle
  2
Brighten
 70
    12
177
     3
291
     1
 70
    58
 90
        2
176
     1
 90
        2
176
     1
 90
        0
176
     1
 90
        0
176
     1
 40
0.6
176
     1
 40
30.0
176
     1
 62
     7
420
 16777215
176
     1
 90
        1
176
     1
 90
        4
176
     1
 62
     7
176
     1
 62
   257
176
     1
 90
        1
176
     1
 90
        1
176
     1
 40
1.0
176
     1
 90
        8
176
     1
 62
     7
176
     1
 40
1.0
176
     1
 90
        1
176
     1
 90
        6
176
     1
 90
        2
176
     1
 62
     7
176
     1
 90
        5
176
     1
 90
        0
176
     1
 90
        0
176
     1
290
     0
176
     1
 90
        1
176
     1
 40
50.0
176
     1
 90
        0
176
     1
290
     0
176
     1
290
     1
176
     1
290
     1
176
     1
290
     0
176
     1
290
     0
176
     1
290
     0
176
     1
290
     0
176
     1
290
     0
176
     1
290
     0
176
     1
 90
       50
176
     1
 40
0.0
176
     1
 40
1.0
176
     1
 90
        0
176
     1
 62
    18
420
        0
176
     1
 90
       50
176
     1
 90
        3
176
     1
 62
     5
420
      255
176
     1
290
     0
176
     1
 90
       50
176
     1
 90
       50
176
     1
 90
       50
176
     1
290
     0
176
     1
 90
       50
176
     1
 62
   256
176
     0
 40
1.0
176
     0
 90
        2
176
     1
  1
strokes_ogs.tif
176
     1
290
     0
176
     1
 40
1.0
176
     1
 40
1.0
176
     1
  0
VISUALSTYLE
  5
3A
102
{ACAD_REACTORS
330
2A
102
}
330
2A
100
AcDbVisualStyle
  2
ColorChange
 70
    16
177
     3
291
     1
 70
    58
 90
        2
176
     1
 90
        2
176
     1
 90
        3
176
     1
 90
        0
176
     1
 40
0.6
176
     1
 40
30.0
176
     1
 62
     8
420
  8421504
176
     1
 90
        1
176
     1
 90
        4
176
     1
 62
     7
176
     1
 62
   257
176
     1
 90
        1
176
     1
 90
        1
176
     1
 40
1.0
176
     1
 90
        8
176
     1
 62
     8
420
  8421504
176
     1
 40
1.0
176
     1
 90
        1
176
     1
 90
        6
176
     1
 90
        2
176
     1
 62
     7
176
     1
 90
        5
176
     1
 90
        0
176
     1
 90
        0
176
     1
290
     0
176
     1
 90
        1
176
     1
 40
0.0
176
     1
 90
        0
176
     1
290
     0
176
     1
290
     1
176
     1
290
     1
176
     1
290
     0
176
     1
290
     0
176
     1
290
     0
176
     1
290
     0
176
     1
290
     0
176
     1
290
     0
176
     1
 90
       50
176
     1
 40
0.0
176
     1
 40
1.0
176
     1
 90
        0
176
     1
 62
    18
420
        0
176
     1
 90
       50
176
     1
 90
        3
176
     1
 62
     5
420
      255
176
     1
290
     0
176
     1
 90
       50
176
     1
 90
       50
176
     1
 90
       50
176
     1
290
     0
176
     1
 90
       50
176
     1
 62
   256
176
     0
 40
1.0
176
     0
 90
        2
176
     1
  1
strokes_ogs.tif
176
     1
290
     0
176
     1
 40
1.0
176
     1
 40
1.0
176
     1
  0
VISUALSTYLE
  5
34
102
{ACAD_REACTORS
330
2A
102
}
330
2A
100
AcDbVisualStyle
  2
Conceptual
 70
     9
177
     3
291
     0
 70
    58
 90
        3
176
     1
 90
        2
176
     1
 90
        0
176
     1
 90
        0
176
     1
 40
0.6
176
     1
 40
30.0
176
     1
 62
     7
420
 16777215
176
     1
 90
        2
176
     1
 90
        2
176
     1
 62
     7
176
     1
 62
   257
176
     1
 90
        1
176
     1
 90
        1
176
     1
 40
179.0
176
     1
 90
        8
176
     1
 62
     7
176
     1
 40
1.0
176
     1
 90
        1
176
     1
 90
        6
176
     1
 90
        2
176
     1
 62
     7
176
     1
 90
        3
176
     1
 90
        0
176
     1
 90
        0
176
     1
290
     0
176
     1
 90
        1
176
     1
 40
0.0
176
     1
 90
        0
176
     1
290
     0
176
     1
290
     1
176
     1
290
     1
176
     1
290
     0
176
     1
290
     0
176
     1
290
     0
176
     1
290
     0
176
     1
290
     0
176
     1
290
     0
176
     1
 90
       50
176
     1
 40
0.0
176
     1
 40
1.0
176
     1
 90
        0
176
     1
 62
    18
420
        0
176
     1
 90
       50
176
     1
 90
        3
176
     1
 62
     5
420
      255
176
     1
290
     0
176
     1
 90
       50
176
     1
 90
       50
176
     1
 90
       50
176
     1
290
     0
176
     1
 90
       50
176
     1
 62
   256
176
     0
 40
1.0
176
     0
 90
        2
176
     1
  1
strokes_ogs.tif
176
     1
290
     0
176
     1
 40
1.0
176
     1
 40
1.0
176
     1
  0
VISUALSTYLE
  5
35
102
{ACAD_REACTORS
330
2A
102
}
330
2A
100
AcDbVisualStyle
  2
Dim
 70
    11
177
     3
291
     1
 70
    58
 90
        2
176
     1
 90
        2
176
     1
 90
        0
176
     1
 90
        0
176
     1
 40
0.6
176
     1
 40
30.0
176
     1
 62
     7
420
 16777215
176
     1
 90
        1
176
     1
 90
        4
176
     1
 62
     7
176
     1
 62
   257
176
     1
 90
        1
176
     1
 90
        1
176
     1
 40
1.0
176
     1
 90
        8
176
     1
 62
     7
176
     1
 40
1.0
176
     1
 90
        1
176
     1
 90
        6
176
     1
 90
        2
176
     1
 62
     7
176
     1
 90
        5
176
     1
 90
        0
176
     1
 90
        0
176
     1
290
     0
176
     1
 90
        1
176
     1
 40
-50.0
176
     1
 90
        0
176
     1
290
     0
176
     1
290
     1
176
     1
290
     1
176
     1
290
     0
176
     1
290
     0
176
     1
290
     0
176
     1
290
     0
176
     1
290
     0
176
     1
290
     0
176
     1
 90
       50
176
     1
 40
0.0
176
     1
 40
1.0
176
     1
 90
        0
176
     1
 62
    18
420
        0
176
     1
 90
       50
176
     1
 90
        3
176
     1
 62
     5
420
      255
176
     1
290
     0
176
     1
 90
       50
176
     1
 90
       50
176
     1
 90
       50
176
     1
290
     0
176
     1
 90
       50
176
     1
 62
   256
176
     0
 40
1.0
176
     0
 90
        2
176
     1
  1
strokes_ogs.tif
176
     1
290
     0
176
     1
 40
1.0
176
     1
 40
1.0
176
     1
  0
VISUALSTYLE
  5
3D
102
{ACAD_REACTORS
330
2A
102
}
330
2A
100
AcDbVisualStyle
  2
EdgeColorOff
 70
    22
177
     3
291
     1
 70
    58
 90
        2
176
     0
 90
        2
176
     0
 90
        0
176
     0
 90
        0
176
     0
 40
0.6
176
     0
 40
30.0
176
     0
 62
     7
420
 16777215
176
     0
 90
        1
176
     0
 90
        4
176
     0
 62
     7
176
     0
 62
   257
176
     0
 90
        1
176
     0
 90
        1
176
     0
 40
1.0
176
     0
 90
        8
176
     2
 62
     7
176
     0
 40
1.0
176
     0
 90
        1
176
     0
 90
        6
176
     0
 90
        2
176
     0
 62
     7
176
     0
 90
        5
176
     0
 90
        0
176
     0
 90
        0
176
     0
290
     0
176
     0
 90
        1
176
     0
 40
0.0
176
     0
 90
        0
176
     0
290
     0
176
     0
290
     1
176
     0
290
     1
176
     0
290
     0
176
     0
290
     0
176
     0
290
     0
176
     0
290
     0
176
     0
290
     0
176
     0
290
     0
176
     0
 90
       50
176
     0
 40
0.0
176
     0
 40
1.0
176
     0
 90
        0
176
     0
 62
    18
420
        0
176
     0
 90
       50
176
     0
 90
        3
176
     0
 62
     5
420
      255
176
     0
290
     0
176
     0
 90
       50
176
     0
 90
       50
176
     0
 90
       50
176
     0
290
     0
176
     0
 90
       50
176
     0
 62
   256
176
     0
 40
1.0
176
     0
 90
        2
176
     0
  1
strokes_ogs.tif
176
     0
290
     0
176
     0
 40
1.0
176
     0
 40
1.0
176
     0
  0
VISUALSTYLE
  5
39
102
{ACAD_REACTORS
330
2A
102
}
330
2A
100
AcDbVisualStyle
  2
Facepattern
 70
    15
177
     3
291
     1
 70
    58
 90
        2
176
     1
 90
        2
176
     1
 90
        0
176
     1
 90
        0
176
     1
 40
0.6
176
     1
 40
30.0
176
     1
 62
     7
420
 16777215
176
     1
 90
        1
176
     1
 90
        4
176
     1
 62
     7
176
     1
 62
   257
176
     1
 90
        1
176
     1
 90
        1
176
     1
 40
1.0
176
     1
 90
        8
176
     1
 62
     7
176
     1
 40
1.0
176
     1
 90
        1
176
     1
 90
        6
176
     1
 90
        2
176
     1
 62
     7
176
     1
 90
        5
176
     1
 90
        0
176
     1
 90
        0
176
     1
290
     0
176
     1
 90
        1
176
     1
 40
0.0
176
     1
 90
        0
176
     1
290
     0
176
     1
290
     1
176
     1
290
     1
176
     1
290
     0
176
     1
290
     0
176
     1
290
     0
176
     1
290
     0
176
     1
290
     0
176
     1
290
     0
176
     1
 90
       50
176
     1
 40
0.0
176
     1
 40
1.0
176
     1
 90
        0
176
     1
 62
    18
420
        0
176
     1
 90
       50
176
     1
 90
        3
176
     1
 62
     5
420
      255
176
     1
290
     0
176
     1
 90
       50
176
     1
 90
       50
176
     1
 90
       50
176
     1
290
     0
176
     1
 90
       50
176
     1
 62
   256
176
     0
 40
1.0
176
     0
 90
        2
176
     1
  1
strokes_ogs.tif
176
     1
290
     0
176
     1
 40
1.0
176
     1
 40
1.0
176
     1
  0
VISUALSTYLE
  5
2B
102
{ACAD_REACTORS
330
2A
102
}
330
2A
100
AcDbVisualStyle
  2
Flat
 70
     0
177
     3
291
     1
 70
    58
 90
        2
176
     1
 90
        1
176
     1
 90
        1
176
     1
 90
        2
176
     1
 40
0.6
176
     1
 40
30.0
176
     1
 62
     7
420
 16777215
176
     1
 90
        0
176
     1
 90
        0
176
     1
 62
     7
176
     1
 62
   257
176
     1
 90
        1
176
     1
 90
        1
176
     1
 40
1.0
176
     1
 90
        8
176
     1
 62
     7
176
     1
 40
1.0
176
     1
 90
        1
176
     1
 90
        6
176
     1
 90
        2
176
     1
 62
     7
176
     1
 90
        5
176
     1
 90
        0
176
     1
 90
        0
176
     1
290
     0
176
     1
 90
       13
176
     1
 40
0.0
176
     1
 90
        0
176
     1
290
     0
176
     1
290
     1
176
     1
290
     1
176
     1
290
     0
176
     1
290
     0
176
     1
290
     0
176
     1
290
     0
176
     1
290
     0
176
     1
290
     0
176
     1
 90
       50
176
     1
 40
0.0
176
     1
 40
1.0
176
     1
 90
        0
176
     1
 62
    18
420
        0
176
     1
 90
       50
176
     1
 90
        3
176
     1
 62
     5
420
      255
176
     1
290
     0
176
     1
 90
       50
176
     1
 90
       50
176
     1
 90
       50
176
     1
290
     0
176
     1
 90
       50
176
     1
 62
   256
176
     0
 40
1.0
176
     0
 90
        2
176
     1
  1
strokes_ogs.tif
176
     1
290
     0
176
     1
 40
1.0
176
     1
 40
1.0
176
     1
  0
VISUALSTYLE
  5
2C
102
{ACAD_REACTORS
330
2A
102
}
330
2A
100
AcDbVisualStyle
  2
FlatWithEdges
 70
     1
177
     3
291
     1
 70
    58
 90
        2
176
     1
 90
        1
176
     1
 90
        1
176
     1
 90
        2
176
     1
 40
0.6
176
     1
 40
30.0
176
     1
 62
     7
420
 16777215
176
     1
 90
        1
176
     1
 90
        0
176
     1
 62
     7
176
     1
 62
   257
176
     1
 90
        1
176
     1
 90
        1
176
     1
 40
1.0
176
     1
 90
        0
176
     1
 62
   257
176
     1
 40
1.0
176
     1
 90
        1
176
     1
 90
        6
176
     1
 90
        2
176
     1
 62
     7
176
     1
 90
        5
176
     1
 90
        0
176
     1
 90
        0
176
     1
290
     0
176
     1
 90
       13
176
     1
 40
0.0
176
     1
 90
        0
176
     1
290
     0
176
     1
290
     1
176
     1
290
     1
176
     1
290
     0
176
     1
290
     0
176
     1
290
     0
176
     1
290
     0
176
     1
290
     0
176
     1
290
     0
176
     1
 90
       50
176
     1
 40
0.0
176
     1
 40
1.0
176
     1
 90
        0
176
     1
 62
    18
420
        0
176
     1
 90
       50
176
     1
 90
        3
176
     1
 62
     5
420
      255
176
     1
290
     0
176
     1
 90
       50
176
     1
 90
       50
176
     1
 90
       50
176
     1
290
     0
176
     1
 90
       50
176
     1
 62
   256
176
     0
 40
1.0
176
     0
 90
        2
176
     1
  1
strokes_ogs.tif
176
     1
290
     0
176
     1
 40
1.0
176
     1
 40
1.0
176
     1
  0
VISUALSTYLE
  5
2D
102
{ACAD_REACTORS
330
2A
102
}
330
2A
100
AcDbVisualStyle
  2
Gouraud
 70
     2
177
     3
291
     1
 70
    58
 90
        2
176
     1
 90
        2
176
     1
 90
        1
176
     1
 90
        2
176
     1
 40
0.6
176
     1
 40
30.0
176
     1
 62
     7
420
 16777215
176
     1
 90
        0
176
     1
 90
        0
176
     1
 62
     7
176
     1
 62
   257
176
     1
 90
        1
176
     1
 90
        1
176
     1
 40
1.0
176
     1
 90
        0
176
     1
 62
     7
176
     1
 40
1.0
176
     1
 90
        1
176
     1
 90
        6
176
     1
 90
        2
176
     1
 62
     7
176
     1
 90
        5
176
     1
 90
        0
176
     1
 90
        0
176
     1
290
     0
176
     1
 90
       13
176
     1
 40
0.0
176
     1
 90
        0
176
     1
290
     0
176
     1
290
     1
176
     1
290
     1
176
     1
290
     0
176
     1
290
     0
176
     1
290
     0
176
     1
290
     0
176
     1
290
     0
176
     1
290
     0
176
     1
 90
       50
176
     1
 40
0.0
176
     1
 40
1.0
176
     1
 90
        0
176
     1
 62
    18
420
        0
176
     1
 90
       50
176
     1
 90
        3
176
     1
 62
     5
420
      255
176
     1
290
     0
176
     1
 90
       50
176
     1
 90
       50
176
     1
 90
       50
176
     1
290
     0
176
     1
 90
       50
176
     1
 62
   256
176
     0
 40
1.0
176
     0
 90
        2
176
     1
  1
strokes_ogs.tif
176
     1
290
     0
176
     1
 40
1.0
176
     1
 40
1.0
176
     1
  0
VISUALSTYLE
  5
2E
102
{ACAD_REACTORS
330
2A
102
}
330
2A
100
AcDbVisualStyle
  2
GouraudWithEdges
 70
     3
177
     3
291
     1
 70
    58
 90
        2
176
     1
 90
        2
176
     1
 90
        1
176
     1
 90
        2
176
     1
 40
0.6
176
     1
 40
30.0
176
     1
 62
     7
420
 16777215
176
     1
 90
        1
176
     1
 90
        0
176
     1
 62
     7
176
     1
 62
   257
176
     1
 90
        1
176
     1
 90
        1
176
     1
 40
1.0
176
     1
 90
        0
176
     1
 62
   257
176
     1
 40
1.0
176
     1
 90
        1
176
     1
 90
        6
176
     1
 90
        2
176
     1
 62
     7
176
     1
 90
        5
176
     1
 90
        0
176
     1
 90
        0
176
     1
290
     0
176
     1
 90
       13
176
     1
 40
0.0
176
     1
 90
        0
176
     1
290
     0
176
     1
290
     1
176
     1
290
     1
176
     1
290
     0
176
     1
290
     0
176
     1
290
     0
176
     1
290
     0
176
     1
290
     0
176
     1
290
     0
176
     1
 90
       50
176
     1
 40
0.0
176
     1
 40
1.0
176
     1
 90
        0
176
     1
 62
    18
420
        0
176
     1
 90
       50
176
     1
 90
        3
176
     1
 62
     5
420
      255
176
     1
290
     0
176
     1
 90
       50
176
     1
 90
       50
176
     1
 90
       50
176
     1
290
     0
176
     1
 90
       50
176
     1
 62
   256
176
     0
 40
1.0
176
     0
 90
        2
176
     1
  1
strokes_ogs.tif
176
     1
290
     0
176
     1
 40
1.0
176
     1
 40
1.0
176
     1
  0
VISUALSTYLE
  5
31
102
{ACAD_REACTORS
330
2A
102
}
330
2A
100
AcDbVisualStyle
  2
Hidden
 70
     6
177
     3
291
     0
 70
    58
 90
        1
176
     1
 90
        2
176
     1
 90
        2
176
     1
 90
        0
176
     1
 40
0.6
176
     1
 40
30.0
176
     1
 62
     7
420
 16777215
176
     1
 90
        2
176
     1
 90
        2
176
     1
 62
     7
176
     1
 62
   257
176
     1
 90
        2
176
     1
 90
        1
176
     1
 40
40.0
176
     1
 90
        0
176
     1
 62
   257
176
     1
 40
1.0
176
     1
 90
        1
176
     1
 90
        6
176
     1
 90
        2
176
     1
 62
     7
176
     1
 90
        3
176
     1
 90
        0
176
     1
 90
        0
176
     1
290
     0
176
     1
 90
        1
176
     1
 40
0.0
176
     1
 90
        0
176
     1
290
     0
176
     1
290
     1
176
     1
290
     1
176
     1
290
     0
176
     1
290
     0
176
     1
290
     0
176
     1
290
     0
176
     1
290
     0
176
     1
290
     0
176
     1
 90
       50
176
     1
 40
0.0
176
     1
 40
1.0
176
     1
 90
        0
176
     1
 62
    18
420
        0
176
     1
 90
       50
176
     1
 90
        3
176
     1
 62
     5
420
      255
176
     1
290
     0
176
     1
 90
       50
176
     1
 90
       50
176
     1
 90
       50
176
     1
290
     0
176
     1
 90
       50
176
     1
 62
   256
176
     0
 40
1.0
176
     0
 90
        2
176
     1
  1
strokes_ogs.tif
176
     1
290
     0
176
     1
 40
1.0
176
     1
 40
1.0
176
     1
  0
VISUALSTYLE
  5
3B
102
{ACAD_REACTORS
330
2A
102
}
330
2A
100
AcDbVisualStyle
  2
JitterOff
 70
    20
177
     3
291
     1
 70
    58
 90
        2
176
     0
 90
        2
176
     0
 90
        0
176
     0
 90
        0
176
     0
 40
0.6
176
     0
 40
30.0
176
     0
 62
     7
420
 16777215
176
     0
 90
        1
176
     0
 90
        4
176
     0
 62
     7
176
     0
 62
   257
176
     0
 90
        1
176
     0
 90
        1
176
     0
 40
1.0
176
     0
 90
       10
176
     2
 62
     7
176
     0
 40
1.0
176
     0
 90
        1
176
     0
 90
        6
176
     0
 90
        2
176
     0
 62
     7
176
     0
 90
        5
176
     0
 90
        0
176
     0
 90
        0
176
     0
290
     0
176
     0
 90
        1
176
     0
 40
0.0
176
     0
 90
        0
176
     0
290
     0
176
     0
290
     1
176
     0
290
     1
176
     0
290
     0
176
     0
290
     0
176
     0
290
     0
176
     0
290
     0
176
     0
290
     0
176
     0
290
     0
176
     0
 90
       50
176
     0
 40
0.0
176
     0
 40
1.0
176
     0
 90
        0
176
     0
 62
    18
420
        0
176
     0
 90
       50
176
     0
 90
        3
176
     0
 62
     5
420
      255
176
     0
290
     0
176
     0
 90
       50
176
     0
 90
       50
176
     0
 90
       50
176
     0
290
     0
176
     0
 90
       50
176
     0
 62
   256
176
     0
 40
1.0
176
     0
 90
        2
176
     0
  1
strokes_ogs.tif
176
     0
290
     0
176
     0
 40
1.0
176
     0
 40
1.0
176
     0
  0
VISUALSTYLE
  5
38
102
{ACAD_REACTORS
330
2A
102
}
330
2A
100
AcDbVisualStyle
  2
Linepattern
 70
    14
177
     3
291
     1
 70
    58
 90
        2
176
     1
 90
        2
176
     1
 90
        0
176
     1
 90
        0
176
     1
 40
0.6
176
     1
 40
30.0
176
     1
 62
     7
420
 16777215
176
     1
 90
        1
176
     1
 90
        4
176
     1
 62
     7
176
     1
 62
   257
176
     1
 90
        7
176
     1
 90
        7
176
     1
 40
1.0
176
     1
 90
        8
176
     1
 62
     7
176
     1
 40
1.0
176
     1
 90
        1
176
     1
 90
        6
176
     1
 90
        2
176
     1
 62
     7
176
     1
 90
        5
176
     1
 90
        0
176
     1
 90
        0
176
     1
290
     0
176
     1
 90
        1
176
     1
 40
0.0
176
     1
 90
        0
176
     1
290
     0
176
     1
290
     1
176
     1
290
     1
176
     1
290
     0
176
     1
290
     0
176
     1
290
     0
176
     1
290
     0
176
     1
290
     0
176
     1
290
     0
176
     1
 90
       50
176
     1
 40
0.0
176
     1
 40
1.0
176
     1
 90
        0
176
     1
 62
    18
420
        0
176
     1
 90
       50
176
     1
 90
        3
176
     1
 62
     5
420
      255
176
     1
290
     0
176
     1
 90
       50
176
     1
 90
       50
176
     1
 90
       50
176
     1
290
     0
176
     1
 90
       50
176
     1
 62
   256
176
     0
 40
1.0
176
     0
 90
        2
176
     1
  1
strokes_ogs.tif
176
     1
290
     0
176
     1
 40
1.0
176
     1
 40
1.0
176
     1
  0
VISUALSTYLE
  5
3C
102
{ACAD_REACTORS
330
2A
102
}
330
2A
100
AcDbVisualStyle
  2
OverhangOff
 70
    21
177
     3
291
     1
 70
    58
 90
        2
176
     0
 90
        2
176
     0
 90
        0
176
     0
 90
        0
176
     0
 40
0.6
176
     0
 40
30.0
176
     0
 62
     7
420
 16777215
176
     0
 90
        1
176
     0
 90
        4
176
     0
 62
     7
176
     0
 62
   257
176
     0
 90
        1
176
     0
 90
        1
176
     0
 40
1.0
176
     0
 90
        9
176
     2
 62
     7
176
     0
 40
1.0
176
     0
 90
        1
176
     0
 90
        6
176
     0
 90
        2
176
     0
 62
     7
176
     0
 90
        5
176
     0
 90
        0
176
     0
 90
        0
176
     0
290
     0
176
     0
 90
        1
176
     0
 40
0.0
176
     0
 90
        0
176
     0
290
     0
176
     0
290
     1
176
     0
290
     1
176
     0
290
     0
176
     0
290
     0
176
     0
290
     0
176
     0
290
     0
176
     0
290
     0
176
     0
290
     0
176
     0
 90
       50
176
     0
 40
0.0
176
     0
 40
1.0
176
     0
 90
        0
176
     0
 62
    18
420
        0
176
     0
 90
       50
176
     0
 90
        3
176
     0
 62
     5
420
      255
176
     0
290
     0
176
     0
 90
       50
176
     0
 90
       50
176
     0
 90
       50
176
     0
290
     0
176
     0
 90
       50
176
     0
 62
   256
176
     0
 40
1.0
176
     0
 90
        2
176
     0
  1
strokes_ogs.tif
176
     0
290
     0
176
     0
 40
1.0
176
     0
 40
1.0
176
     0
  0
VISUALSTYLE
  5
33
102
{ACAD_REACTORS
330
2A
102
}
330
2A
100
AcDbVisualStyle
  2
Realistic
 70
     8
177
     3
291
     0
 70
    58
 90
        2
176
     1
 90
        3
176
     1
 90
        0
176
     1
 90
        2
176
     1
 40
0.6
176
     1
 40
30.0
176
     1
 62
     7
420
 16777215
176
     1
 90
        0
176
     1
 90
        0
176
     1
 62
     7
176
     1
 62
   257
176
     1
 90
        1
176
     1
 90
        1
176
     1
 40
1.0
176
     1
 90
        8
176
     1
 62
   257
176
     1
 40
1.0
176
     1
 90
        1
176
     1
 90
        6
176
     1
 90
        2
176
     1
 62
     7
176
     1
 90
        3
176
     1
 90
        0
176
     1
 90
        0
176
     1
290
     0
176
     1
 90
       13
176
     1
 40
0.0
176
     1
 90
        0
176
     1
290
     0
176
     1
290
     1
176
     1
290
     1
176
     1
290
     0
176
     1
290
     0
176
     1
290
     0
176
     1
290
     0
176
     1
290
     0
176
     1
290
     0
176
     1
 90
       50
176
     1
 40
0.0
176
     1
 40
1.0
176
     1
 90
        0
176
     1
 62
    18
420
        0
176
     1
 90
       50
176
     1
 90
        3
176
     1
 62
     5
420
      255
176
     1
290
     0
176
     1
 90
       50
176
     1
 90
       50
176
     1
 90
       50
176
     1
290
     0
176
     1
 90
       50
176
     1
 62
   256
176
     0
 40
1.0
176
     0
 90
        2
176
     1
  1
strokes_ogs.tif
176
     1
290
     0
176
     1
 40
1.0
176
     1
 40
1.0
176
     1
  0
VISUALSTYLE
  5
42
102
{ACAD_REACTORS
330
2A
102
}
330
2A
100
AcDbVisualStyle
  2
Shaded
 70
    27
177
     3
291
     0
 70
    58
 90
        2
176
     1
 90
        2
176
     1
 90
        1
176
     1
 90
        2
176
     1
 40
0.6
176
     1
 40
30.0
176
     1
 62
     7
420
 16777215
176
     1
 90
        0
176
     1
 90
        4
176
     1
 62
     7
176
     1
 62
   257
176
     1
 90
        1
176
     1
 90
        1
176
     1
 40
1.0
176
     1
 90
        8
176
     1
 62
   257
176
     1
 40
1.0
176
     1
 90
        1
176
     1
 90
        6
176
     1
 90
        2
176
     1
 62
     8
420
  7895160
176
     1
 90
        3
176
     1
 90
        0
176
     1
 90
        0
176
     1
290
     0
176
     1
 90
        5
176
     1
 40
0.0
176
     1
 90
        0
176
     1
290
     0
176
     1
290
     1
176
     1
290
     1
176
     1
290
     0
176
     1
290
     0
176
     1
290
     0
176
     1
290
     0
176
     1
290
     0
176
     1
290
     0
176
     1
 90
       50
176
     1
 40
0.0
176
     1
 40
1.0
176
     1
 90
        0
176
     1
 62
    18
420
        0
176
     1
 90
       50
176
     1
 90
        3
176
     1
 62
     5
420
      255
176
     1
290
     0
176
     1
 90
       50
176
     1
 90
       50
176
     1
 90
       50
176
     1
290
     0
176
     1
 90
       50
176
     1
 62
   256
176
     0
 40
1.0
176
     0
 90
        2
176
     1
  1
strokes_ogs.tif
176
     1
290
     0
176
     1
 40
1.0
176
     1
 40
1.0
176
     1
  0
VISUALSTYLE
  5
41
102
{ACAD_REACTORS
330
2A
102
}
330
2A
100
AcDbVisualStyle
  2
Shaded with edges
 70
    26
177
     3
291
     0
 70
    58
 90
        2
176
     1
 90
        2
176
     1
 90
        1
176
     1
 90
        2
176
     1
 40
0.6
176
     1
 40
30.0
176
     1
 62
     7
420
 16777215
176
     1
 90
        1
176
     1
 90
       10
176
     1
 62
     7
176
     1
 62
   257
176
     1
 90
        2
176
     1
 90
        1
176
     1
 40
1.0
176
     1
 90
        8
176
     1
 62
   257
176
     1
 40
1.0
176
     1
 90
        1
176
     1
 90
        6
176
     1
 90
        2
176
     1
 62
     7
176
     1
 90
        3
176
     1
 90
        0
176
     1
 90
        0
176
     1
290
     0
176
     1
 90
        5
176
     1
 40
0.0
176
     1
 90
        0
176
     1
290
     0
176
     1
290
     1
176
     1
290
     1
176
     1
290
     0
176
     1
290
     0
176
     1
290
     0
176
     1
290
     0
176
     1
290
     0
176
     1
290
     0
176
     1
 90
       50
176
     1
 40
0.0
176
     1
 40
1.0
176
     1
 90
        0
176
     1
 62
    18
420
        0
176
     1
 90
       50
176
     1
 90
        3
176
     1
 62
     5
420
      255
176
     1
290
     0
176
     1
 90
       50
176
     1
 90
       50
176
     1
 90
       50
176
     1
290
     0
176
     1
 90
       50
176
     1
 62
   256
176
     0
 40
1.0
176
     0
 90
        2
176
     1
  1
strokes_ogs.tif
176
     1
290
     0
176
     1
 40
1.0
176
     1
 40
1.0
176
     1
  0
VISUALSTYLE
  5
3E
102
{ACAD_REACTORS
330
2A
102
}
330
2A
100
AcDbVisualStyle
  2
Shades of Gray
 70
    23
177
     3
291
     0
 70
    58
 90
        2
176
     1
 90
        2
176
     1
 90
        3
176
     1
 90
        0
176
     1
 40
0.6
176
     1
 40
30.0
176
     1
 62
     7
420
 16777215
176
     1
 90
        2
176
     1
 90
        2
176
     1
 62
     7
176
     1
 62
     7
176
     1
 90
        1
176
     1
 90
        1
176
     1
 40
40.0
176
     1
 90
        8
176
     1
 62
     7
176
     1
 40
1.0
176
     1
 90
        1
176
     1
 90
        6
176
     1
 90
        2
176
     1
 62
     7
176
     1
 90
        3
176
     1
 90
        0
176
     1
 90
        0
176
     1
290
     0
176
     1
 90
        1
176
     1
 40
0.0
176
     1
 90
        0
176
     1
290
     0
176
     1
290
     1
176
     1
290
     1
176
     1
290
     0
176
     1
290
     0
176
     1
290
     0
176
     1
290
     0
176
     1
290
     0
176
     1
290
     0
176
     1
 90
       50
176
     1
 40
0.0
176
     1
 40
1.0
176
     1
 90
        0
176
     1
 62
    18
420
        0
176
     1
 90
       50
176
     1
 90
        3
176
     1
 62
     5
420
      255
176
     1
290
     0
176
     1
 90
       50
176
     1
 90
       50
176
     1
 90
       50
176
     1
290
     0
176
     1
 90
       50
176
     1
 62
   256
176
     0
 40
1.0
176
     0
 90
        2
176
     1
  1
strokes_ogs.tif
176
     1
290
     0
176
     1
 40
1.0
176
     1
 40
1.0
176
     1
  0
VISUALSTYLE
  5
3F
102
{ACAD_REACTORS
330
2A
102
}
330
2A
100
AcDbVisualStyle
  2
Sketchy
 70
    24
177
     3
291
     0
 70
    58
 90
        1
176
     1
 90
        2
176
     1
 90
        2
176
     1
 90
        0
176
     1
 40
0.6
176
     1
 40
30.0
176
     1
 62
     7
420
 16777215
176
     1
 90
        2
176
     1
 90
        2
176
     1
 62
     7
176
     1
 62
     7
176
     1
 90
        1
176
     1
 90
        1
176
     1
 40
40.0
176
     1
 90
       11
176
     1
 62
     7
176
     1
 40
1.0
176
     1
 90
        1
176
     1
 90
        6
176
     1
 90
        2
176
     1
 62
     7
176
     1
 90
        6
176
     1
 90
        0
176
     1
 90
        0
176
     1
290
     0
176
     1
 90
        1
176
     1
 40
0.0
176
     1
 90
        0
176
     1
290
     0
176
     1
290
     1
176
     1
290
     1
176
     1
290
     0
176
     1
290
     0
176
     1
290
     0
176
     1
290
     0
176
     1
290
     0
176
     1
290
     0
176
     1
 90
       50
176
     1
 40
0.0
176
     1
 40
1.0
176
     1
 90
        0
176
     1
 62
    18
420
        0
176
     1
 90
       50
176
     1
 90
        3
176
     1
 62
     5
420
      255
176
     1
290
     0
176
     1
 90
       50
176
     1
 90
       50
176
     1
 90
       50
176
     1
290
     0
176
     1
 90
       50
176
     1
 62
   256
176
     0
 40
1.0
176
     0
 90
        2
176
     1
  1
strokes_ogs.tif
176
     1
290
     0
176
     1
 40
1.0
176
     1
 40
1.0
176
     1
  0
VISUALSTYLE
  5
37
102
{ACAD_REACTORS
330
2A
102
}
330
2A
100
AcDbVisualStyle
  2
Thicken
 70
    13
177
     3
291
     1
 70
    58
 90
        2
176
     1
 90
        2
176
     1
 90
        0
176
     1
 90
        0
176
     1
 40
0.6
176
     1
 40
30.0
176
     1
 62
     7
420
 16777215
176
     1
 90
        1
176
     1
 90
        4
176
     1
 62
     7
176
     1
 62
   257
176
     1
 90
        1
176
     1
 90
        1
176
     1
 40
1.0
176
     1
 90
       12
176
     1
 62
     7
176
     1
 40
1.0
176
     1
 90
        1
176
     1
 90
        6
176
     1
 90
        2
176
     1
 62
     7
176
     1
 90
        5
176
     1
 90
        0
176
     1
 90
        0
176
     1
290
     0
176
     1
 90
        1
176
     1
 40
0.0
176
     1
 90
        0
176
     1
290
     0
176
     1
290
     1
176
     1
290
     1
176
     1
290
     0
176
     1
290
     0
176
     1
290
     0
176
     1
290
     0
176
     1
290
     0
176
     1
290
     0
176
     1
 90
       50
176
     1
 40
0.0
176
     1
 40
1.0
176
     1
 90
        0
176
     1
 62
    18
420
        0
176
     1
 90
       50
176
     1
 90
        3
176
     1
 62
     5
420
      255
176
     1
290
     0
176
     1
 90
       50
176
     1
 90
       50
176
     1
 90
       50
176
     1
290
     0
176
     1
 90
       50
176
     1
 62
   256
176
     0
 40
1.0
176
     0
 90
        2
176
     1
  1
strokes_ogs.tif
176
     1
290
     0
176
     1
 40
1.0
176
     1
 40
1.0
176
     1
  0
VISUALSTYLE
  5
30
102
{ACAD_REACTORS
330
2A
102
}
330
2A
100
AcDbVisualStyle
  2
Wireframe
 70
     5
177
     3
291
     0
 70
    58
 90
        0
176
     1
 90
        2
176
     1
 90
        0
176
     1
 90
        0
176
     1
 40
0.6
176
     1
 40
30.0
176
     1
 62
     7
420
 16777215
176
     1
 90
        1
176
     1
 90
        4
176
     1
 62
     7
176
     1
 62
   257
176
     1
 90
        1
176
     1
 90
        1
176
     1
 40
1.0
176
     1
 90
        0
176
     1
 62
   257
176
     1
 40
1.0
176
     1
 90
        1
176
     1
 90
        6
176
     1
 90
        2
176
     1
 62
     7
176
     1
 90
        3
176
     1
 90
        0
176
     1
 90
        0
176
     1
290
     0
176
     1
 90
        1
176
     1
 40
0.0
176
     1
 90
        0
176
     1
290
     0
176
     1
290
     1
176
     1
290
     1
176
     1
290
     0
176
     1
290
     0
176
     1
290
     0
176
     1
290
     0
176
     1
290
     0
176
     1
290
     0
176
     1
 90
       50
176
     1
 40
0.0
176
     1
 40
1.0
176
     1
 90
        0
176
     1
 62
    18
420
        0
176
     1
 90
       50
176
     1
 90
        3
176
     1
 62
     5
420
      255
176
     1
290
     0
176
     1
 90
       50
176
     1
 90
       50
176
     1
 90
       50
176
     1
290
     0
176
     1
 90
       50
176
     1
 62
   256
176
     0
 40
1.0
176
     0
 90
        2
176
     1
  1
strokes_ogs.tif
176
     1
290
     0
176
     1
 40
1.0
176
     1
 40
1.0
176
     1
  0
VISUALSTYLE
  5
40
102
{ACAD_REACTORS
330
2A
102
}
330
2A
100
AcDbVisualStyle
  2
X-Ray
 70
    25
177
     3
291
     0
 70
    58
 90
        2
176
     1
 90
        2
176
     1
 90
        1
176
     1
 90
        1
176
     1
 40
0.5
176
     1
 40
30.0
176
     1
 62
     7
420
 16777215
176
     1
 90
        1
176
     1
 90
        0
176
     1
 62
     7
176
     1
 62
   257
176
     1
 90
        1
176
     1
 90
        1
176
     1
 40
1.0
176
     1
 90
        8
176
     1
 62
     7
176
     1
 40
1.0
176
     1
 90
        1
176
     1
 90
        6
176
     1
 90
        2
176
     1
 62
     7
176
     1
 90
        3
176
     1
 90
        0
176
     1
 90
        0
176
     1
290
     0
176
     1
 90
       13
176
     1
 40
0.0
176
     1
 90
        0
176
     1
290
     0
176
     1
290
     1
176
     1
290
     1
176
     1
290
     0
176
     1
290
     0
176
     1
290
     0
176
     1
290
     0
176
     1
290
     0
176
     1
290
     0
176
     1
 90
       50
176
     1
 40
0.0
176
     1
 40
1.0
176
     1
 90
        0
176
     1
 62
    18
420
        0
176
     1
 90
       50
176
     1
 90
        3
176
     1
 62
     5
420
      255
176
     1
290
     0
176
     1
 90
       50
176
     1
 90
       50
176
     1
 90
       50
176
     1
290
     0
176
     1
 90
       50
176
     1
 62
   256
176
     0
 40
1.0
176
     0
 90
        2
176
     1
  1
strokes_ogs.tif
176
     1
290
     0
176
     1
 40
1.0
176
     1
 40
1.0
176
     1
  0
DICTIONARYVAR
  5
A1
102
{ACAD_REACTORS
330
A0
102
}
330
A0
100
DictionaryVariables
280
     0
  1
1:1
  0
DICTIONARYVAR
  5
A9
102
{ACAD_REACTORS
330
A0
102
}
330
A0
100
DictionaryVariables
280
     0
  1
3.500000
  0
DICTIONARYVAR
  5
AA
102
{ACAD_REACTORS
330
A0
102
}
330
A0
100
DictionaryVariables
280
     0
  1
acadiso.lin
  0
DICTIONARYVAR
  5
A6
102
{ACAD_REACTORS
330
A0
102
}
330
A0
100
DictionaryVariables
280
     0
  1
Standard
  0
DICTIONARYVAR
  5
A5
102
{ACAD_REACTORS
330
A0
102
}
330
A0
100
DictionaryVariables
280
     0
  1
Standard
  0
DICTIONARY
  5
A2
330
5A
100
AcDbDictionary
280
     1
281
     1
  3
ACAD_ROUNDTRIP_2008_TABLESTYLE_CELLSTYLEMAP
360
A3
  0
CELLSTYLEMAP
  5
A3
102
{ACAD_REACTORS
330
A2
102
}
330
A2
100
AcDbCellStyleMap
 90
        3
300
CELLSTYLE
  1
TABLEFORMAT_BEGIN
 90
        5
170
     1
 91
        0
 92
    32768
 62
   257
 93
        1
300
CONTENTFORMAT
  1
CONTENTFORMAT_BEGIN
 90
        0
 91
        0
 92
        4
 93
        0
300

 40
0.0
140
1.0
 94
        5
 62
     0
340
11
144
6.0
309
CONTENTFORMAT_END
171
     1
301
MARGIN
  1
CELLMARGIN_BEGIN
 40
1.5
 40
1.5
 40
1.5
 40
1.5
 40
1.5
 40
1.5
309
CELLMARGIN_END
 94
        6
 95
        1
302
GRIDFORMAT
  1
GRIDFORMAT_BEGIN
 90
        0
 91
        1
 62
     0
 92
       -2
340
14
 93
        0
 40
0.045
309
GRIDFORMAT_END
 95
        2
302
GRIDFORMAT
  1
GRIDFORMAT_BEGIN
 90
        0
 91
        1
 62
     0
 92
       -2
340
14
 93
        0
 40
0.045
309
GRIDFORMAT_END
 95
        4
302
GRIDFORMAT
  1
GRIDFORMAT_BEGIN
 90
        0
 91
        1
 62
     0
 92
       -2
340
14
 93
        0
 40
0.045
309
GRIDFORMAT_END
 95
        8
302
GRIDFORMAT
  1
GRIDFORMAT_BEGIN
 90
        0
 91
        1
 62
     0
 92
       -2
340
14
 93
        0
 40
0.045
309
GRIDFORMAT_END
 95
       16
302
GRIDFORMAT
  1
GRIDFORMAT_BEGIN
 90
        0
 91
        1
 62
     0
 92
       -2
340
14
 93
        0
 40
0.045
309
GRIDFORMAT_END
 95
       32
302
GRIDFORMAT
  1
GRIDFORMAT_BEGIN
 90
        0
 91
        1
 62
     0
 92
       -2
340
14
 93
        0
 40
0.045
309
GRIDFORMAT_END
309
TABLEFORMAT_END
  1
CELLSTYLE_BEGIN
 90
        1
 91
        1
300
_TITLE
309
CELLSTYLE_END
300
CELLSTYLE
  1
TABLEFORMAT_BEGIN
 90
        5
170
     1
 91
        0
 92
        0
 62
   257
 93
        1
300
CONTENTFORMAT
  1
CONTENTFORMAT_BEGIN
 90
        0
 91
        0
 92
        4
 93
        0
300

 40
0.0
140
1.0
 94
        5
 62
     0
340
11
144
4.5
309
CONTENTFORMAT_END
171
     1
301
MARGIN
  1
CELLMARGIN_BEGIN
 40
1.5
 40
1.5
 40
1.5
 40
1.5
 40
1.5
 40
1.5
309
CELLMARGIN_END
 94
        6
 95
        1
302
GRIDFORMAT
  1
GRIDFORMAT_BEGIN
 90
        0
 91
        1
 62
     0
 92
       -2
340
14
 93
        0
 40
0.045
309
GRIDFORMAT_END
 95
        2
302
GRIDFORMAT
  1
GRIDFORMAT_BEGIN
 90
        0
 91
        1
 62
     0
 92
       -2
340
14
 93
        0
 40
0.045
309
GRIDFORMAT_END
 95
        4
302
GRIDFORMAT
  1
GRIDFORMAT_BEGIN
 90
        0
 91
        1
 62
     0
 92
       -2
340
14
 93
        0
 40
0.045
309
GRIDFORMAT_END
 95
        8
302
GRIDFORMAT
  1
GRIDFORMAT_BEGIN
 90
        0
 91
        1
 62
     0
 92
       -2
340
14
 93
        0
 40
0.045
309
GRIDFORMAT_END
 95
       16
302
GRIDFORMAT
  1
GRIDFORMAT_BEGIN
 90
        0
 91
        1
 62
     0
 92
       -2
340
14
 93
        0
 40
0.045
309
GRIDFORMAT_END
 95
       32
302
GRIDFORMAT
  1
GRIDFORMAT_BEGIN
 90
        0
 91
        1
 62
     0
 92
       -2
340
14
 93
        0
 40
0.045
309
GRIDFORMAT_END
309
TABLEFORMAT_END
  1
CELLSTYLE_BEGIN
 90
        2
 91
        1
300
_HEADER
309
CELLSTYLE_END
300
CELLSTYLE
  1
TABLEFORMAT_BEGIN
 90
        5
170
     1
 91
        0
 92
        0
 62
   257
 93
        1
300
CONTENTFORMAT
  1
CONTENTFORMAT_BEGIN
 90
        0
 91
        0
 92
        4
 93
        0
300

 40
0.0
140
1.0
 94
        2
 62
     0
340
11
144
4.5
309
CONTENTFORMAT_END
171
     1
301
MARGIN
  1
CELLMARGIN_BEGIN
 40
1.5
 40
1.5
 40
1.5
 40
1.5
 40
1.5
 40
1.5
309
CELLMARGIN_END
 94
        6
 95
        1
302
GRIDFORMAT
  1
GRIDFORMAT_BEGIN
 90
        0
 91
        1
 62
     0
 92
       -2
340
14
 93
        0
 40
0.045
309
GRIDFORMAT_END
 95
        2
302
GRIDFORMAT
  1
GRIDFORMAT_BEGIN
 90
        0
 91
        1
 62
     0
 92
       -2
340
14
 93
        0
 40
0.045
309
GRIDFORMAT_END
 95
        4
302
GRIDFORMAT
  1
GRIDFORMAT_BEGIN
 90
        0
 91
        1
 62
     0
 92
       -2
340
14
 93
        0
 40
0.045
309
GRIDFORMAT_END
 95
        8
302
GRIDFORMAT
  1
GRIDFORMAT_BEGIN
 90
        0
 91
        1
 62
     0
 92
       -2
340
14
 93
        0
 40
0.045
309
GRIDFORMAT_END
 95
       16
302
GRIDFORMAT
  1
GRIDFORMAT_BEGIN
 90
        0
 91
        1
 62
     0
 92
       -2
340
14
 93
        0
 40
0.045
309
GRIDFORMAT_END
 95
       32
302
GRIDFORMAT
  1
GRIDFORMAT_BEGIN
 90
        0
 91
        1
 62
     0
 92
       -2
340
14
 93
        0
 40
0.045
309
GRIDFORMAT_END
309
TABLEFORMAT_END
  1
CELLSTYLE_BEGIN
 90
        3
 91
        2
300
_DATA
309
CELLSTYLE_END
  0
ENDSEC
  0
EOF
