  0
SECTION
  2
HEADER
  9
$ACADVER
  1
AC1027
  9
$ACADMAINTVER
 70
   105
  9
$DWGCODEPAGE
  3
ANSI_932
  9
$LASTSAVEDBY
  1
a.yasuda
  9
$REQUIREDVERSIONS
160
                 0
  9
$INSBASE
 10
0.0
 20
0.0
 30
0.0
  9
$EXTMIN
 10
0.0
 20
0.0
 30
0.0
  9
$EXTMAX
 10
302.9997823349792
 20
216.0016055409748
 30
0.0
  9
$LIMMIN
 10
0.0
 20
0.0
  9
$LIMMAX
 10
302.9997823349792
 20
216.0016055409748
  9
$ORTHOMODE
 70
     0
  9
$REGENMODE
 70
     1
  9
$FILLMODE
 70
     1
  9
$QTEXTMODE
 70
     0
  9
$MIRRTEXT
 70
     1
  9
$LTSCALE
 40
1.0
  9
$ATTMODE
 70
     1
  9
$TEXTSIZE
 40
2.5
  9
$TRACEWID
 40
1.0
  9
$TEXTSTYLE
  7
Standard
  9
$CLAYER
  8
0
  9
$CELTYPE
  6
ByLayer
  9
$CECOLOR
 62
   256
  9
$CELTSCALE
 40
1.0
  9
$DISPSILH
 70
     0
  9
$DIMSCALE
 40
1.0
  9
$DIMASZ
 40
2.5
  9
$DIMEXO
 40
0.625
  9
$DIMDLI
 40
3.75
  9
$DIMRND
 40
0.0
  9
$DIMDLE
 40
0.0
  9
$DIMEXE
 40
1.25
  9
$DIMTP
 40
0.0
  9
$DIMTM
 40
0.0
  9
$DIMTXT
 40
2.5
  9
$DIMCEN
 40
2.5
  9
$DIMTSZ
 40
0.0
  9
$DIMTOL
 70
     0
  9
$DIMLIM
 70
     0
  9
$DIMTIH
 70
     0
  9
$DIMTOH
 70
     0
  9
$DIMSE1
 70
     0
  9
$DIMSE2
 70
     0
  9
$DIMTAD
 70
     1
  9
$DIMZIN
 70
     8
  9
$DIMBLK
  1

  9
$DIMASO
 70
     1
  9
$DIMSHO
 70
     1
  9
$DIMPOST
  1

  9
$DIMAPOST
  1

  9
$DIMALT
 70
     0
  9
$DIMALTD
 70
     3
  9
$DIMALTF
 40
0.03937007874016
  9
$DIMLFAC
 40
1.0
  9
$DIMTOFL
 70
     1
  9
$DIMTVP
 40
0.0
  9
$DIMTIX
 70
     0
  9
$DIMSOXD
 70
     0
  9
$DIMSAH
 70
     0
  9
$DIMBLK1
  1

  9
$DIMBLK2
  1

  9
$DIMSTYLE
  2
ISO-25
  9
$DIMCLRD
 70
     0
  9
$DIMCLRE
 70
     0
  9
$DIMCLRT
 70
     0
  9
$DIMTFAC
 40
1.0
  9
$DIMGAP
 40
0.625
  9
$DIMJUST
 70
     0
  9
$DIMSD1
 70
     0
  9
$DIMSD2
 70
     0
  9
$DIMTOLJ
 70
     0
  9
$DIMTZIN
 70
     8
  9
$DIMALTZ
 70
     0
  9
$DIMALTTZ
 70
     0
  9
$DIMUPT
 70
     0
  9
$DIMDEC
 70
     2
  9
$DIMTDEC
 70
     2
  9
$DIMALTU
 70
     2
  9
$DIMALTTD
 70
     3
  9
$DIMTXSTY
  7
Standard
  9
$DIMAUNIT
 70
     0
  9
$DIMADEC
 70
     0
  9
$DIMALTRND
 40
0.0
  9
$DIMAZIN
 70
     0
  9
$DIMDSEP
 70
    44
  9
$DIMATFIT
 70
     3
  9
$DIMFRAC
 70
     0
  9
$DIMLDRBLK
  1

  9
$DIMLUNIT
 70
     2
  9
$DIMLWD
 70
    -2
  9
$DIMLWE
 70
    -2
  9
$DIMTMOVE
 70
     0
  9
$DIMFXL
 40
1.0
  9
$DIMFXLON
 70
     0
  9
$DIMJOGANG
 40
0.7853981633974483
  9
$DIMTFILL
 70
     0
  9
$DIMTFILLCLR
 70
     0
  9
$DIMARCSYM
 70
     0
  9
$DIMLTYPE
  6

  9
$DIMLTEX1
  6

  9
$DIMLTEX2
  6

  9
$DIMTXTDIRECTION
 70
     0
  9
$LUNITS
 70
     2
  9
$LUPREC
 70
     4
  9
$SKETCHINC
 40
1.0
  9
$FILLETRAD
 40
0.0
  9
$AUNITS
 70
     0
  9
$AUPREC
 70
     0
  9
$MENU
  1
.
  9
$ELEVATION
 40
0.0
  9
$PELEVATION
 40
0.0
  9
$THICKNESS
 40
0.0
  9
$LIMCHECK
 70
     0
  9
$CHAMFERA
 40
0.0
  9
$CHAMFERB
 40
0.0
  9
$CHAMFERC
 40
0.0
  9
$CHAMFERD
 40
0.0
  9
$SKPOLY
 70
     0
  9
$TDCREATE
 40
2459873.45758794
  9
$TDUCREATE
 40
2459873.08258794
  9
$TDUPDATE
 40
2459873.457587975
  9
$TDUUPDATE
 40
2459873.082587975
  9
$TDINDWG
 40
0.0000000116
  9
$TDUSRTIMER
 40
0.0000000116
  9
$USRTIMER
 70
     1
  9
$ANGBASE
 50
0.0
  9
$ANGDIR
 70
     0
  9
$PDMODE
 70
     0
  9
$PDSIZE
 40
0.0
  9
$PLINEWID
 40
0.0
  9
$SPLFRAME
 70
     0
  9
$SPLINETYPE
 70
     6
  9
$SPLINESEGS
 70
     8
  9
$HANDSEED
  5
A5
  9
$SURFTAB1
 70
     6
  9
$SURFTAB2
 70
     6
  9
$SURFTYPE
 70
     6
  9
$SURFU
 70
     6
  9
$SURFV
 70
     6
  9
$UCSBASE
  2

  9
$UCSNAME
  2

  9
$UCSORG
 10
0.0
 20
0.0
 30
0.0
  9
$UCSXDIR
 10
1.0
 20
0.0
 30
0.0
  9
$UCSYDIR
 10
0.0
 20
1.0
 30
0.0
  9
$UCSORTHOREF
  2

  9
$UCSORTHOVIEW
 70
     0
  9
$UCSORGTOP
 10
0.0
 20
0.0
 30
0.0
  9
$UCSORGBOTTOM
 10
0.0
 20
0.0
 30
0.0
  9
$UCSORGLEFT
 10
0.0
 20
0.0
 30
0.0
  9
$UCSORGRIGHT
 10
0.0
 20
0.0
 30
0.0
  9
$UCSORGFRONT
 10
0.0
 20
0.0
 30
0.0
  9
$UCSORGBACK
 10
0.0
 20
0.0
 30
0.0
  9
$PUCSBASE
  2

  9
$PUCSNAME
  2

  9
$PUCSORG
 10
0.0
 20
0.0
 30
0.0
  9
$PUCSXDIR
 10
1.0
 20
0.0
 30
0.0
  9
$PUCSYDIR
 10
0.0
 20
1.0
 30
0.0
  9
$PUCSORTHOREF
  2

  9
$PUCSORTHOVIEW
 70
     0
  9
$PUCSORGTOP
 10
0.0
 20
0.0
 30
0.0
  9
$PUCSORGBOTTOM
 10
0.0
 20
0.0
 30
0.0
  9
$PUCSORGLEFT
 10
0.0
 20
0.0
 30
0.0
  9
$PUCSORGRIGHT
 10
0.0
 20
0.0
 30
0.0
  9
$PUCSORGFRONT
 10
0.0
 20
0.0
 30
0.0
  9
$PUCSORGBACK
 10
0.0
 20
0.0
 30
0.0
  9
$USERI1
 70
     0
  9
$USERI2
 70
     0
  9
$USERI3
 70
     0
  9
$USERI4
 70
     0
  9
$USERI5
 70
     0
  9
$USERR1
 40
0.0
  9
$USERR2
 40
0.0
  9
$USERR3
 40
0.0
  9
$USERR4
 40
0.0
  9
$USERR5
 40
0.0
  9
$WORLDVIEW
 70
     1
  9
$SHADEDGE
 70
     3
  9
$SHADEDIF
 70
    70
  9
$TILEMODE
 70
     1
  9
$MAXACTVP
 70
    64
  9
$PINSBASE
 10
0.0
 20
0.0
 30
0.0
  9
$PLIMCHECK
 70
     0
  9
$PEXTMIN
 10
1.000000000000000E+20
 20
1.000000000000000E+20
 30
1.000000000000000E+20
  9
$PEXTMAX
 10
-1.000000000000000E+20
 20
-1.000000000000000E+20
 30
-1.000000000000000E+20
  9
$PLIMMIN
 10
0.0
 20
0.0
  9
$PLIMMAX
 10
420.0
 20
297.0
  9
$UNITMODE
 70
     0
  9
$VISRETAIN
 70
     1
  9
$PLINEGEN
 70
     0
  9
$PSLTSCALE
 70
     1
  9
$TREEDEPTH
 70
  3020
  9
$CMLSTYLE
  2
Standard
  9
$CMLJUST
 70
     0
  9
$CMLSCALE
 40
20.0
  9
$PROXYGRAPHICS
 70
     1
  9
$MEASUREMENT
 70
     1
  9
$CELWEIGHT
370
    -1
  9
$ENDCAPS
280
     0
  9
$JOINSTYLE
280
     0
  9
$LWDISPLAY
290
     0
  9
$INSUNITS
 70
     4
  9
$HYPERLINKBASE
  1

  9
$STYLESHEET
  1

  9
$XEDIT
290
     1
  9
$CEPSNTYPE
380
     0
  9
$PSTYLEMODE
290
     1
  9
$FINGERPRINTGUID
  2
{a25f025f-3289-493d-9c4b-9bb368a628c7}
  9
$VERSIONGUID
  2
{FAEB1C32-E019-11D5-929B-00C0DF256EC4}
  9
$EXTNAMES
290
     1
  9
$PSVPSCALE
 40
0.0
  9
$OLESTARTUP
290
     0
  9
$SORTENTS
280
   127
  9
$INDEXCTL
280
     0
  9
$HIDETEXT
280
     1
  9
$XCLIPFRAME
280
     2
  9
$HALOGAP
280
     0
  9
$OBSCOLOR
 70
   257
  9
$OBSLTYPE
280
     0
  9
$INTERSECTIONDISPLAY
280
     0
  9
$INTERSECTIONCOLOR
 70
   257
  9
$DIMASSOC
280
     2
  9
$PROJECTNAME
  1

  9
$CAMERADISPLAY
290
     0
  9
$LENSLENGTH
 40
50.0
  9
$CAMERAHEIGHT
 40
0.0
  9
$STEPSPERSEC
 40
2.0
  9
$STEPSIZE
 40
6.0
  9
$3DDWFPREC
 40
2.0
  9
$PSOLWIDTH
 40
5.0
  9
$PSOLHEIGHT
 40
80.0
  9
$LOFTANG1
 40
1.570796326794897
  9
$LOFTANG2
 40
1.570796326794897
  9
$LOFTMAG1
 40
0.0
  9
$LOFTMAG2
 40
0.0
  9
$LOFTPARAM
 70
     7
  9
$LOFTNORMALS
280
     1
  9
$LATITUDE
 40
37.795
  9
$LONGITUDE
 40
-122.394
  9
$NORTHDIRECTION
 40
0.0
  9
$TIMEZONE
 70
 -8000
  9
$LIGHTGLYPHDISPLAY
280
     1
  9
$TILEMODELIGHTSYNCH
280
     1
  9
$CMATERIAL
347
44
  9
$SOLIDHIST
280
     0
  9
$SHOWHIST
280
     1
  9
$DWFFRAME
280
     2
  9
$DGNFRAME
280
     2
  9
$REALWORLDSCALE
290
     1
  9
$INTERFERECOLOR
 62
   256
  9
$CSHADOW
280
     0
  9
$SHADOWPLANELOCATION
 40
0.0
  0
ENDSEC
  0
SECTION
  2
CLASSES
  0
CLASS
  1
ACDBDICTIONARYWDFLT
  2
AcDbDictionaryWithDefault
  3
ObjectDBX Classes
 90
        0
 91
        3
280
     0
281
     0
  0
CLASS
  1
VISUALSTYLE
  2
AcDbVisualStyle
  3
ObjectDBX Classes
 90
     4095
 91
        3
280
     0
281
     0
  0
CLASS
  1
MATERIAL
  2
AcDbMaterial
  3
ObjectDBX Classes
 90
     1153
 91
        3
280
     0
281
     0
  0
CLASS
  1
SCALE
  2
AcDbScale
  3
ObjectDBX Classes
 90
     1153
 91
        3
280
     0
281
     0
  0
CLASS
  1
TABLESTYLE
  2
AcDbTableStyle
  3
ObjectDBX Classes
 90
     4095
 91
        3
280
     0
281
     0
  0
CLASS
  1
MLEADERSTYLE
  2
AcDbMLeaderStyle
  3
ACDB_MLEADERSTYLE_CLASS
 90
     4095
 91
        3
280
     0
281
     0
  0
CLASS
  1
SUN
  2
AcDbSun
  3
SCENEOE
 90
     1153
 91
        3
280
     0
281
     0
  0
CLASS
  1
DICTIONARYVAR
  2
AcDbDictionaryVar
  3
ObjectDBX Classes
 90
        0
 91
        3
280
     0
281
     0
  0
CLASS
  1
CELLSTYLEMAP
  2
AcDbCellStyleMap
  3
ObjectDBX Classes
 90
     1152
 91
        3
280
     0
281
     0
  0
ENDSEC
  0
SECTION
  2
TABLES
  0
TABLE
  2
VPORT
  5
8
330
0
100
AcDbSymbolTable
 70
     1
  0
VPORT
  5
29
330
8
100
AcDbSymbolTableRecord
100
AcDbViewportTableRecord
  2
*Active
 70
     0
 10
0.0
 20
0.0
 11
1.0
 21
1.0
 12
151.4998911674896
 22
108.0008027704874
 13
0.0
 23
0.0
 14
10.0
 24
10.0
 15
10.0
 25
10.0
 16
0.0
 26
0.0
 36
1.0
 17
0.0
 27
0.0
 37
0.0
 40
237.6017660950723
 41
1.402766343222857
 42
50.0
 43
0.0
 44
0.0
 50
0.0
 51
0.0
 71
     0
 72
 10000
 73
     1
 74
     3
 75
     0
 76
     0
 77
     0
 78
     0
281
     0
 65
     1
110
0.0
120
0.0
130
0.0
111
1.0
121
0.0
131
0.0
112
0.0
122
1.0
132
0.0
 79
     0
146
0.0
348
2F
 60
     3
 61
     5
292
     1
282
     1
141
0.0
142
0.0
 63
   250
361
5D
  0
ENDTAB
  0
TABLE
  2
LTYPE
  5
5
330
0
100
AcDbSymbolTable
 70
     2
  0
LTYPE
  5
14
330
5
100
AcDbSymbolTableRecord
100
AcDbLinetypeTableRecord
  2
ByBlock
 70
     0
  3

 72
    65
 73
     0
 40
0.0
  0
LTYPE
  5
15
330
5
100
AcDbSymbolTableRecord
100
AcDbLinetypeTableRecord
  2
ByLayer
 70
     0
  3

 72
    65
 73
     0
 40
0.0
  0
LTYPE
  5
16
330
5
100
AcDbSymbolTableRecord
100
AcDbLinetypeTableRecord
  2
Continuous
 70
     0
  3
Solid line
 72
    65
 73
     0
 40
0.0
  0
LTYPE
  5
5F
330
5
100
AcDbSymbolTableRecord
100
AcDbLinetypeTableRecord
  2
UserDefined01
 70
     0
  3
----------------                
 72
    65
 73
     2
 40
0.7055555449591743
 49
0.3527777724795871
 74
     0
 49
-0.3527777724795871
 74
     0
  0
ENDTAB
  0
TABLE
  2
LAYER
  5
2
330
0
100
AcDbSymbolTable
 70
     3
  0
LAYER
  5
10
330
2
100
AcDbSymbolTableRecord
100
AcDbLayerTableRecord
  2
0
 70
     0
 62
     7
  6
Continuous
370
    -3
390
F
347
46
348
0
  0
LAYER
  5
60
330
2
100
AcDbSymbolTableRecord
100
AcDbLayerTableRecord
  2
外枠
 70
     0
 62
     7
  6
Continuous
370
    -3
390
F
347
46
348
0
  0
LAYER
  5
61
330
2
100
AcDbSymbolTableRecord
100
AcDbLayerTableRecord
  2
ISS138金台
 70
     0
 62
     7
  6
Continuous
370
    -3
390
F
347
46
348
0
  0
ENDTAB
  0
TABLE
  2
STYLE
  5
3
330
0
100
AcDbSymbolTable
 70
     2
  0
STYLE
  5
11
330
3
100
AcDbSymbolTableRecord
100
AcDbTextStyleTableRecord
  2
Standard
 70
     0
 40
0.0
 41
1.0
 50
0.0
 71
     0
 42
2.5
  3

  4

  0
STYLE
  5
5E
330
3
100
AcDbSymbolTableRecord
100
AcDbTextStyleTableRecord
  2
MS Gothic
 70
     0
 40
1.0
 41
1.0
 50
0.0
 71
     0
 42
2.5
  3
msgothic.ttc
  4

1001
ACAD
1000
MS Gothic
1071
    32817
  0
ENDTAB
  0
TABLE
  2
VIEW
  5
6
330
0
100
AcDbSymbolTable
 70
     0
  0
ENDTAB
  0
TABLE
  2
UCS
  5
7
330
0
100
AcDbSymbolTable
 70
     0
  0
ENDTAB
  0
TABLE
  2
APPID
  5
9
330
0
100
AcDbSymbolTable
 70
     1
  0
APPID
  5
12
330
9
100
AcDbSymbolTableRecord
100
AcDbRegAppTableRecord
  2
ACAD
 70
     0
  0
ENDTAB
  0
TABLE
  2
DIMSTYLE
  5
A
330
0
100
AcDbSymbolTable
 70
     1
100
AcDbDimStyleTable
  0
DIMSTYLE
105
27
330
A
100
AcDbSymbolTableRecord
100
AcDbDimStyleTableRecord
  2
ISO-25
 70
     0
 41
2.5
 42
0.625
 43
3.75
 44
1.25
 73
     0
 74
     0
 77
     1
 78
     8
140
2.5
141
2.5
143
0.03937007874016
147
0.625
171
     3
172
     1
178
     0
271
     2
272
     2
274
     3
278
    44
283
     0
284
     8
340
11
  0
ENDTAB
  0
TABLE
  2
BLOCK_RECORD
  5
1
330
0
100
AcDbSymbolTable
 70
     1
  0
BLOCK_RECORD
  5
1F
330
1
100
AcDbSymbolTableRecord
100
AcDbBlockTableRecord
  2
*Model_Space
340
22
 70
     0
280
     1
281
     0
  0
BLOCK_RECORD
  5
1B
330
1
100
AcDbSymbolTableRecord
100
AcDbBlockTableRecord
  2
*Paper_Space
340
1E
 70
     0
280
     1
281
     0
  0
BLOCK_RECORD
  5
23
330
1
100
AcDbSymbolTableRecord
100
AcDbBlockTableRecord
  2
*Paper_Space0
340
26
 70
     0
280
     1
281
     0
  0
ENDTAB
  0
ENDSEC
  0
SECTION
  2
BLOCKS
  0
BLOCK
  5
20
330
1F
100
AcDbEntity
  8
0
100
AcDbBlockBegin
  2
*Model_Space
 70
     0
 10
0.0
 20
0.0
 30
0.0
  3
*Model_Space
  1

  0
ENDBLK
  5
21
330
1F
100
AcDbEntity
  8
0
100
AcDbBlockEnd
  0
BLOCK
  5
1C
330
1B
100
AcDbEntity
 67
     1
  8
0
100
AcDbBlockBegin
  2
*Paper_Space
 70
     0
 10
0.0
 20
0.0
 30
0.0
  3
*Paper_Space
  1

  0
ENDBLK
  5
1D
330
1B
100
AcDbEntity
 67
     1
  8
0
100
AcDbBlockEnd
  0
BLOCK
  5
24
330
23
100
AcDbEntity
  8
0
100
AcDbBlockBegin
  2
*Paper_Space0
 70
     0
 10
0.0
 20
0.0
 30
0.0
  3
*Paper_Space0
  1

  0
ENDBLK
  5
25
330
23
100
AcDbEntity
  8
0
100
AcDbBlockEnd
  0
ENDSEC
  0
SECTION
  2
ENTITIES
  0
LWPOLYLINE
  5
62
330
1F
100
AcDbEntity
  8
外枠
  6
Continuous
 62
   250
420
  2367521
370
   100
100
AcDbPolyline
 90
        5
 70
     0
 43
0.0
 10
281.9999662644599
 20
13.29407825637392
 10
20.99981607051935
 20
13.29407825637392
 10
20.99981607051935
 20
193.0018900389566
 10
281.9999662644599
 20
193.0018900389566
 10
281.9999662644599
 20
13.29407825637392
  0
LINE
  5
63
330
1F
100
AcDbEntity
  8
外枠
  6
Continuous
 62
   250
420
  2367521
370
    25
100
AcDbLine
 10
223.3097080177524
 20
174.0786160074276
 30
0.0
 11
281.9999232007669
 21
174.0786160074276
 31
0.0
  0
LINE
  5
64
330
1F
100
AcDbEntity
  8
外枠
  6
Continuous
 62
   250
420
  2367521
370
    25
100
AcDbLine
 10
223.3097080177524
 20
50.37109023844297
 30
0.0
 11
281.9999232007669
 21
50.37109023844297
 31
0.0
  0
LINE
  5
65
330
1F
100
AcDbEntity
  8
外枠
  6
Continuous
 62
   250
420
  2367521
370
    25
100
AcDbLine
 10
223.3097080177524
 20
36.25997933925949
 30
0.0
 11
281.9999232007669
 21
36.25997933925949
 31
0.0
  0
LINE
  5
66
330
1F
100
AcDbEntity
  8
外枠
  6
Continuous
 62
   250
420
  2367521
370
    50
100
AcDbLine
 10
223.0158413772006
 20
193.3637327187979
 30
0.0
 11
223.0158413772006
 21
13.29396655992039
 31
0.0
  0
TEXT
  5
67
330
1F
100
AcDbEntity
  8
外枠
  6
Continuous
 62
   250
420
  2367521
100
AcDbText
 10
224.7190965599536
 20
186.6888051931772
 30
0.0
 40
2.688166626294454
  1
品名：
 41
0.974166170756022
  7
MS Gothic
100
AcDbText
  0
TEXT
  5
68
330
1F
100
AcDbEntity
  8
外枠
  6
Continuous
 62
   250
420
  2367521
100
AcDbText
 10
224.7190965599536
 20
168.1080059455944
 30
0.0
 40
2.688166626294454
  1
仕様：
 41
0.9978878657023111
  7
MS Gothic
100
AcDbText
  0
TEXT
  5
69
330
1F
100
AcDbEntity
  8
外枠
  6
Continuous
 62
   250
420
  2367521
100
AcDbText
 10
224.7190965599536
 20
44.16660664327048
 30
0.0
 40
2.688166626294454
  1
縮尺：
 41
0.9939999262491861
  7
MS Gothic
100
AcDbText
  0
TEXT
  5
6A
330
1F
100
AcDbEntity
  8
外枠
  6
Continuous
 62
   250
420
  2367521
100
AcDbText
 10
250.2379519709696
 20
40.59738467878129
 30
0.0
 40
2.150533301035563
  1
1/1
 41
1.000003814697266
  7
MS Gothic
100
AcDbText
  0
TEXT
  5
6B
330
1F
100
AcDbEntity
  8
外枠
  6
Continuous
 62
   250
420
  2367521
100
AcDbText
 10
232.7757967427735
 20
181.9845273775436
 30
0.0
 40
2.688166626294454
  1
フレックス
 41
0.999647979736328
  7
MS Gothic
100
AcDbText
  0
TEXT
  5
6C
330
1F
100
AcDbEntity
  8
外枠
  6
Continuous
 62
   250
420
  2367521
100
AcDbText
 10
232.7757967427735
 20
176.6928607903498
 30
0.0
 40
2.688166626294454
  1
フロアーレイ　LC-1-F
 41
0.9923577880859373
  7
MS Gothic
100
AcDbText
  0
TEXT
  5
6D
330
1F
100
AcDbEntity
  8
外枠
  6
Continuous
 62
   250
420
  2367521
100
AcDbText
 10
226.1633020978884
 20
24.25683874973963
 30
0.0
 40
2.553758294979732
  1
ヤスダインテリアサプライ株式会社
 41
1.0194908945184
  7
MS Gothic
100
AcDbText
  0
TEXT
  5
6E
330
1F
100
AcDbEntity
  8
外枠
  6
Continuous
 62
   250
420
  2367521
100
AcDbText
 10
227.7635273953072
 20
161.7763665048245
 30
0.0
 40
2.150533301035563
  1
材質
 41
1.028502464294433
  7
MS Gothic
100
AcDbText
  0
TEXT
  5
6F
330
1F
100
AcDbEntity
  8
外枠
  6
Continuous
 62
   250
420
  2367521
100
AcDbText
 10
233.5984640006548
 20
156.9052368606422
 30
0.0
 40
2.016124969720841
  1
金台：
 41
1.494500562879774
  7
MS Gothic
100
AcDbText
  0
TEXT
  5
70
330
1F
100
AcDbEntity
  8
外枠
  6
Continuous
 62
   250
420
  2367521
100
AcDbText
 10
244.4305115335576
 20
156.9052368606422
 30
0.0
 40
2.016124969720841
  1
アルミ押出形材（A6063S-T5）
 41
1.033106825086805
  7
MS Gothic
100
AcDbText
  0
TEXT
  5
71
330
1F
100
AcDbEntity
  8
外枠
  6
Continuous
 62
   250
420
  2367521
100
AcDbText
 10
233.5984640006548
 20
152.6719035908871
 30
0.0
 40
2.016124969720841
  1
                  シルバー仕上（アルマイト）
 41
0.7675306377988871
  7
MS Gothic
100
AcDbText
  0
TEXT
  5
72
330
1F
100
AcDbEntity
  8
外枠
  6
Continuous
 62
   250
420
  2367521
100
AcDbText
 10
227.7635273953072
 20
135.3178613140838
 30
0.0
 40
2.150533301035563
  1
タイヤカラー
 41
1.008334398269653
  7
MS Gothic
100
AcDbText
  0
TEXT
  5
73
330
1F
100
AcDbEntity
  8
外枠
  6
Continuous
 62
   250
420
  2367521
100
AcDbText
 10
232.7757967427735
 20
129.3182583626035
 30
0.0
 40
2.016124969720841
  1
IS-13  グレー
 41
0.90473398061899
  7
MS Gothic
100
AcDbText
  0
TEXT
  5
74
330
1F
100
AcDbEntity
  8
外枠
  6
Continuous
 62
   250
420
  2367521
100
AcDbText
 10
232.7757967427735
 20
124.0265917754097
 30
0.0
 40
2.016124969720841
  1
IS-19  ライトベージュ
 41
0.9467488606770831
  7
MS Gothic
100
AcDbText
  0
TEXT
  5
75
330
1F
100
AcDbEntity
  8
外枠
  6
Continuous
 62
   250
420
  2367521
100
AcDbText
 10
232.7757967427735
 20
118.7349251882159
 30
0.0
 40
2.016124969720841
  1
IS-16  ベージュ
 41
0.9228807915581594
  7
MS Gothic
100
AcDbText
  0
TEXT
  5
76
330
1F
100
AcDbEntity
  8
外枠
  6
Continuous
 62
   250
420
  2367521
100
AcDbText
 10
232.7757967427735
 20
113.4432586010221
 30
0.0
 40
2.016124969720841
  1
IS-21  チョコレート
 41
0.9285238701000545
  7
MS Gothic
100
AcDbText
  0
TEXT
  5
77
330
1F
100
AcDbEntity
  8
外枠
  6
Continuous
 62
   250
420
  2367521
100
AcDbText
 10
232.7757967427735
 20
108.1515920138282
 30
0.0
 40
2.016124969720841
  1
IS-12  ワインレッド
 41
0.9415448105126094
  7
MS Gothic
100
AcDbText
  0
TEXT
  5
78
330
1F
100
AcDbEntity
  8
外枠
  6
Continuous
 62
   250
420
  2367521
100
AcDbText
 10
233.598657787273
 20
148.2624290511266
 30
0.0
 40
2.016124969720841
  1
タイヤ：
 41
1.121272277832031
  7
MS Gothic
100
AcDbText
  0
TEXT
  5
79
330
1F
100
AcDbEntity
  8
外枠
  6
Continuous
 62
   250
420
  2367521
100
AcDbText
 10
244.7058607861497
 20
148.2624290511266
 30
0.0
 40
2.016124969720841
  1
軟質塩ビ
 41
1.887001037597656
  7
MS Gothic
100
AcDbText
  0
HATCH
  5
7A
330
1F
100
AcDbEntity
  8
ISS138金台
  6
Continuous
 62
   254
420
 13816532
370
    25
100
AcDbHatch
 10
0.0
 20
0.0
 30
0.0
210
0.0
220
0.0
230
1.0
  2
SOLID
 70
     1
 71
     0
 91
        1
 92
        3
 72
     0
 73
     1
 93
      283
 10
119.72998545227
 20
106.2808711726474
 10
119.2997576280565
 20
106.241618616542
 10
118.9330810486839
 20
106.1301482473937
 10
118.6267905327218
 20
105.9558910139539
 10
118.3777531965097
 20
105.7282778649743
 10
118.1828576882334
 20
105.4567397492065
 10
118.038960358309
 20
105.150707615402
 10
117.9429175571527
 20
104.8196124123125
 10
117.8916179329503
 20
104.4728850886895
 10
117.8819178361179
 20
104.1199565932847
 10
117.9106843829949
 20
103.7702578748495
 10
117.9747846899206
 20
103.4332198821357
 10
118.0710966391578
 20
103.1182735638948
 10
118.1964765811224
 20
102.8348498688784
 10
118.3478023980772
 20
102.5923797458381
 10
118.5219412063614
 20
102.4002941435255
 10
118.7157493563912
 20
102.2680240106921
 10
118.7157493563912
 20
100.4819142827425
 10
117.2605410449129
 20
100.4819142827425
 10
113.7239460289897
 20
102.257085832688
 10
113.7239460289897
 20
104.2633371588939
 10
113.7264867868726
 20
104.3126450872983
 10
113.7339260398261
 20
104.3610809759209
 10
113.7460054056929
 20
104.4083649107577
 10
113.762455736392
 20
104.4541416163419
 10
113.7830078838427
 20
104.4980773490533
 10
113.8074034658873
 20
104.5398383652719
 10
113.8353733344451
 20
104.5791016873005
 10
113.8666375755121
 20
104.6155443374422
 10
113.900959338777
 20
104.6488110402303
 10
113.9380587102359
 20
104.6785895838912
 10
113.9776665418079
 20
104.7045462248045
 10
114.0195136854123
 20
104.7263364534269
 10
114.0633525248146
 20
104.7436480579846
 10
114.1088923800877
 20
104.7561365289342
 10
114.1558964009204
 20
104.7634788885787
 10
114.2040739073855
 20
104.7653413932979
 10
114.2040739073855
 20
104.7653413932979
 10
114.2539308978748
 20
104.7619285956332
 10
114.3023129568812
 20
104.7539079828251
 10
114.3489832340937
 20
104.7414948733381
 10
114.3937156451244
 20
104.7248399900976
 10
114.4363271692782
 20
104.7041694174914
 10
114.476570190321
 20
104.6796231125215
 10
114.5142509216344
 20
104.6514163936526
 10
114.5491325129074
 20
104.6197215156563
 10
114.5810104115986
 20
104.5847430310742
 10
114.6096692992433
 20
104.5466316628315
 10
114.6348938573768
 20
104.5056027293928
 10
114.6564580016113
 20
104.4618284855298
 10
114.6741571794054
 20
104.4154919519375
 10
114.6877653063711
 20
104.3667761493109
 10
114.6970670640439
 20
104.3158856301913
 10
114.7018471339591
 20
104.2629818834272
 10
114.7018471339591
 20
104.2629818834272
 10
114.7073485207309
 20
104.2067191686147
 10
114.7182759328118
 20
104.1536324011556
 10
114.7341664355028
 20
104.1037538788199
 10
114.7545678600282
 20
104.0571697289933
 10
114.7790280376123
 20
104.0139337812919
 10
114.8071055654024
 20
103.974099865332
 10
114.8383375086996
 20
103.9377541084994
 10
114.8722716987282
 20
103.9049611063335
 10
114.9084667326355
 20
103.8757746884504
 10
114.9464596757227
 20
103.8502486844664
 10
114.9857983592139
 20
103.8284799876904
 10
115.0260413802567
 20
103.8105008958923
 10
115.0667258041519
 20
103.7963867705346
 10
115.107399462124
 20
103.78621297308
 10
115.1476101853971
 20
103.7800333331446
 10
115.1869165711186
 20
103.7779124462678
 10
115.1869165711186
 20
103.7779124462678
 10
115.2244035158138
 20
103.7795596325223
 10
115.2649587486303
 20
103.7848887645224
 10
115.3077963571721
 20
103.7939429059609
 10
115.352173492736
 20
103.8067112909145
 10
115.397336540696
 20
103.823226217153
 10
115.4425426523489
 20
103.8434876846764
 10
115.487016681222
 20
103.8675279912544
 10
115.5300265445355
 20
103.8953471368869
 10
115.5708078617398
 20
103.9269558874973
 10
115.6086070182088
 20
103.9623973067784
 10
115.6426703993162
 20
104.001660628807
 10
115.6722336245123
 20
104.0447673854295
 10
115.6965646110176
 20
104.0917283425693
 10
115.7148882123592
 20
104.1425650320727
 10
115.7264723457572
 20
104.1972989857863
 10
115.7305418647391
 20
104.25593020371
 10
115.7316076911391
 20
104.7699276765949
 10
115.7279795750098
 20
104.9324715855578
 10
115.7175366294743
 20
105.0887389612762
 10
115.7001711953005
 20
105.2381269120492
 10
115.6757217836396
 20
105.3800756098685
 10
115.6440699693364
 20
105.5140036948796
 10
115.6050865613118
 20
105.6392975094584
 10
115.5586531344104
 20
105.7554295233664
 10
115.5046297316302
 20
105.8617753130562
 10
115.4428871618923
 20
105.9577750505196
 10
115.373296234118
 20
106.0428258440556
 10
115.2957277572285
 20
106.1163786315794
 10
115.2100633060682
 20
106.1778412873132
 10
115.1161413917887
 20
106.2266216854793
 10
115.0138651210808
 20
106.262138466223
 10
114.9030945369426
 20
106.2838318015363
 10
114.7836896823719
 20
106.2910987997182
 10
112.1184561951102
 20
106.2865125164212
 10
112.1230424784072
 20
109.2794822387239
 10
113.732763320117
 20
109.2794822387239
 10
113.7495904581293
 20
109.0120782374773
 10
113.7971866047398
 20
108.7803417398997
 10
113.8711269655
 20
108.5842512141446
 10
113.9670298096543
 20
108.4238281920585
 10
114.0805026405239
 20
108.2990403758716
 10
114.2071637273532
 20
108.2098985315072
 10
114.3425882756936
 20
108.1564241908119
 10
114.4824160866362
 20
108.138595821939
 10
114.6222546635019
 20
108.1564241908119
 10
114.7576792118424
 20
108.2098985315072
 10
114.8843295327485
 20
108.2990296099484
 10
114.9978023636181
 20
108.4238174261352
 10
115.0937052077724
 20
108.5842512141446
 10
115.1676455685326
 20
108.7803417398997
 10
115.2152309492198
 20
109.0120890034005
 10
115.2320688531553
 20
109.2794822387239
 10
117.2605410449129
 20
109.2794822387239
 10
117.2768729504565
 20
109.0120782374773
 10
117.3230695270468
 20
108.7803417398997
 10
117.394835171314
 20
108.5842512141446
 10
117.4879173435814
 20
108.4238281920585
 10
117.598052738249
 20
108.2990403758716
 10
117.7209888156398
 20
108.2098985315072
 10
117.8524299723843
 20
108.1564241908119
 10
117.9881452006521
 20
108.138595821939
 10
118.123871194843
 20
108.1564241908119
 10
118.2553123515875
 20
108.2098985315072
 10
118.3782376630552
 20
108.2990296099484
 10
118.4883730577227
 20
108.4238174261352
 10
118.5814552299901
 20
108.5842512141446
 10
118.6532208742574
 20
108.7803417398997
 10
118.6994066849244
 20
109.0120890034005
 10
118.7157493563912
 20
109.2794822387239
 10
119.7098747076719
 20
109.2794822387239
 10
120.7036555494091
 20
109.2794822387239
 10
120.7199982208759
 20
109.0120782374773
 10
120.7661840315429
 20
108.7803417398997
 10
120.8379496758102
 20
108.5842512141446
 10
120.9310318480776
 20
108.4238281920585
 10
121.0411672427451
 20
108.2990403758716
 10
121.1640925542128
 20
108.2098985315072
 10
121.2955444768805
 20
108.1564241908119
 10
121.4312597051483
 20
108.138595821939
 10
121.566974933416
 20
108.1564241908119
 10
121.6984268560837
 20
108.2098985315072
 10
121.8213521675514
 20
108.2990296099484
 10
121.9314875622189
 20
108.4238174261352
 10
122.0245697344863
 20
108.5842512141446
 10
122.0963353787536
 20
108.7803417398997
 10
122.1425211894206
 20
109.0120890034005
 10
122.1588638608874
 20
109.2794822387239
 10
124.1873360526451
 20
109.2794822387239
 10
124.2041739565805
 20
109.0120782374773
 10
124.2517593372678
 20
108.7803417398997
 10
124.325699698028
 20
108.5842512141446
 10
124.4216025421823
 20
108.4238281920585
 10
124.5350753730519
 20
108.2990403758716
 10
124.6617256939579
 20
108.2098985315072
 10
124.7971610082216
 20
108.1564241908119
 10
124.9369888191642
 20
108.138595821939
 10
125.0768166301067
 20
108.1564241908119
 10
125.2122519443704
 20
108.2098985315072
 10
125.3389022652765
 20
108.2990296099484
 10
125.4523750961461
 20
108.4238174261352
 10
125.5482779403004
 20
108.5842512141446
 10
125.6222183010606
 20
108.7803417398997
 10
125.6698036817478
 20
109.0120890034005
 10
125.6866415856833
 20
109.2794822387239
 10
127.1859471187215
 20
109.2794822387239
 10
127.190877911562
 20
106.2865125164212
 10
124.6364150084385
 20
106.2910987997182
 10
124.5168809627891
 20
106.2838318015363
 10
124.4060134853417
 20
106.262138466223
 10
124.3036295554015
 20
106.2266109195561
 10
124.2096430455826
 20
106.1778412873132
 10
124.1239032329597
 20
106.1163893975026
 10
124.0462701605308
 20
106.0428258440556
 10
123.9766361690636
 20
105.9577750505196
 10
123.9148505356328
 20
105.8617753130562
 10
123.8608056010061
 20
105.7554187574432
 10
123.8143506422582
 20
105.6393082753817
 10
123.7753564683104
 20
105.5139929289564
 10
123.7436938880839
 20
105.3800756098685
 10
123.7192444764231
 20
105.2381269120492
 10
123.701868276326
 20
105.0887389612762
 10
123.6914253307906
 20
104.9324715855578
 10
123.6877972146613
 20
104.7699276765949
 10
123.6892075506047
 20
104.25593020371
 10
123.6932017081239
 20
104.1972882198631
 10
123.7047427778291
 20
104.1425650320727
 10
123.7230233154777
 20
104.0917283425693
 10
123.74731123829
 20
104.0447673854295
 10
123.7768529316397
 20
104.001660628807
 10
123.8108947809006
 20
103.9623973067784
 10
123.8486724055231
 20
103.9269558874973
 10
123.8894537227275
 20
103.8953471368869
 10
123.932463586041
 20
103.8675279912544
 10
123.9769591467605
 20
103.8434876846764
 10
124.0221867902599
 20
103.823226217153
 10
124.0673821359895
 20
103.8067112909145
 10
124.1118023352465
 20
103.7939429059609
 10
124.1546830074812
 20
103.7848995304456
 10
124.1952813039906
 20
103.7795596325223
 10
124.2328436101484
 20
103.7779124462678
 10
124.2328436101484
 20
103.7779124462678
 10
124.2720746344073
 20
103.7800225672214
 10
124.3122422939875
 20
103.78621297308
 10
124.3528728882666
 20
103.7963867705346
 10
124.3935142484689
 20
103.8105008958923
 10
124.433724971742
 20
103.8284799876904
 10
124.4730421233867
 20
103.8502486844664
 10
124.5110243005507
 20
103.8757639225272
 10
124.5472085685348
 20
103.9049611063335
 10
124.5811535244866
 20
103.9377648744226
 10
124.612396233707
 20
103.974099865332
 10
124.6404952933436
 20
104.0139337812919
 10
124.6649877686974
 20
104.0571697289933
 10
124.6854322569157
 20
104.1037538788199
 10
124.7013658232997
 20
104.1536324011556
 10
124.7123470649967
 20
104.2067299345379
 10
124.7179130473079
 20
104.2629818834272
 10
124.7179130473079
 20
104.2629818834272
 10
124.7227038831463
 20
104.3158856301913
 10
124.7319733430494
 20
104.3667761493109
 10
124.7455599381687
 20
104.4154919519375
 10
124.7632375841163
 20
104.4618284855298
 10
124.7847801965044
 20
104.505613495316
 10
124.809961690945
 20
104.5466424287548
 10
124.83858828082
 20
104.5847430310742
 10
124.8704446476647
 20
104.6197322815796
 10
124.9053047070912
 20
104.6514163936526
 10
124.9429423747117
 20
104.6796231125215
 10
124.983163863908
 20
104.7041586515681
 10
125.0257430902922
 20
104.7248507560208
 10
125.0704539694764
 20
104.7414841074149
 10
125.1171134807656
 20
104.7539079828251
 10
125.1654740079256
 20
104.7619285956332
 10
125.2153309984149
 20
104.7653413932979
 10
125.2153309984149
 20
104.7653413932979
 10
125.2635085048799
 20
104.7634788885787
 10
125.3105017597894
 20
104.7561365289342
 10
125.3560523809857
 20
104.7436480579846
 10
125.3998912203881
 20
104.7263364534269
 10
125.4417383639924
 20
104.7045462248045
 10
125.4813461955645
 20
104.6785895838912
 10
125.5184455670234
 20
104.6488110402303
 10
125.5527565643651
 20
104.6155335715189
 10
125.5840315713552
 20
104.5791016873005
 10
125.612001439913
 20
104.5398383652719
 10
125.6363970219576
 20
104.4980773490533
 10
125.6569491694083
 20
104.4541416163419
 10
125.6733995001074
 20
104.4083649107577
 10
125.6854788659742
 20
104.3610917418442
 10
125.6929181189278
 20
104.3126343213751
 10
125.6954588768106
 20
104.2633371588939
 10
125.6954588768106
 20
102.257085832688
 10
122.1588638608874
 20
100.4819142827425
 10
120.7036555494091
 20
100.4819142827425
 10
120.7036555494091
 20
102.2680240106921
 10
120.8974098698228
 20
102.4002941435255
 10
121.0714948484908
 20
102.5923797458381
 10
121.2227883676759
 20
102.8348498688784
 10
121.3481575437173
 20
103.1182735638948
 10
121.4444587270312
 20
103.4332198821357
 10
121.5085697998802
 20
103.7702578748495
 10
121.5373363467572
 20
104.1199565932847
 10
121.527647015848
 20
104.4728850886895
 10
121.4763689234921
 20
104.8196124123125
 10
121.3803584201054
 20
105.150707615402
 10
121.2364718561043
 20
105.4567397492065
 10
121.0415978796745
 20
105.7282778649743
 10
120.7925820753088
 20
105.9558910139539
 10
120.48630232527
 20
106.1301482473937
 10
120.1196257458974
 20
106.241618616542
 10
119.6894194535303
 20
106.2808711726474
 97
        0
 75
     1
 76
     1
 98
        0
  0
LWPOLYLINE
  5
7B
330
1F
100
AcDbEntity
  8
ISS138金台
  6
Continuous
 62
   250
420
  2367521
370
    25
100
AcDbPolyline
 90
      283
 70
     0
 43
0.0
 10
119.72998545227
 20
106.2808711726474
 10
119.2997576280565
 20
106.241618616542
 10
118.9330810486839
 20
106.1301482473937
 10
118.6267905327218
 20
105.9558910139539
 10
118.3777531965097
 20
105.7282778649743
 10
118.1828576882334
 20
105.4567397492065
 10
118.038960358309
 20
105.150707615402
 10
117.9429175571527
 20
104.8196124123125
 10
117.8916179329503
 20
104.4728850886895
 10
117.8819178361179
 20
104.1199565932847
 10
117.9106843829949
 20
103.7702578748495
 10
117.9747846899206
 20
103.4332198821357
 10
118.0710966391578
 20
103.1182735638948
 10
118.1964765811224
 20
102.8348498688784
 10
118.3478023980772
 20
102.5923797458381
 10
118.5219412063614
 20
102.4002941435255
 10
118.7157493563912
 20
102.2680240106921
 10
118.7157493563912
 20
100.4819142827425
 10
117.2605410449129
 20
100.4819142827425
 10
113.7239460289897
 20
102.257085832688
 10
113.7239460289897
 20
104.2633371588939
 10
113.7264867868726
 20
104.3126450872983
 10
113.7339260398261
 20
104.3610809759209
 10
113.7460054056929
 20
104.4083649107577
 10
113.762455736392
 20
104.4541416163419
 10
113.7830078838427
 20
104.4980773490533
 10
113.8074034658873
 20
104.5398383652719
 10
113.8353733344451
 20
104.5791016873005
 10
113.8666375755121
 20
104.6155443374422
 10
113.900959338777
 20
104.6488110402303
 10
113.9380587102359
 20
104.6785895838912
 10
113.9776665418079
 20
104.7045462248045
 10
114.0195136854123
 20
104.7263364534269
 10
114.0633525248146
 20
104.7436480579846
 10
114.1088923800877
 20
104.7561365289342
 10
114.1558964009204
 20
104.7634788885787
 10
114.2040739073855
 20
104.7653413932979
 10
114.2040739073855
 20
104.7653413932979
 10
114.2539308978748
 20
104.7619285956332
 10
114.3023129568812
 20
104.7539079828251
 10
114.3489832340937
 20
104.7414948733381
 10
114.3937156451244
 20
104.7248399900976
 10
114.4363271692782
 20
104.7041694174914
 10
114.476570190321
 20
104.6796231125215
 10
114.5142509216344
 20
104.6514163936526
 10
114.5491325129074
 20
104.6197215156563
 10
114.5810104115986
 20
104.5847430310742
 10
114.6096692992433
 20
104.5466316628315
 10
114.6348938573768
 20
104.5056027293928
 10
114.6564580016113
 20
104.4618284855298
 10
114.6741571794054
 20
104.4154919519375
 10
114.6877653063711
 20
104.3667761493109
 10
114.6970670640439
 20
104.3158856301913
 10
114.7018471339591
 20
104.2629818834272
 10
114.7018471339591
 20
104.2629818834272
 10
114.7073485207309
 20
104.2067191686147
 10
114.7182759328118
 20
104.1536324011556
 10
114.7341664355028
 20
104.1037538788199
 10
114.7545678600282
 20
104.0571697289933
 10
114.7790280376123
 20
104.0139337812919
 10
114.8071055654024
 20
103.974099865332
 10
114.8383375086996
 20
103.9377541084994
 10
114.8722716987282
 20
103.9049611063335
 10
114.9084667326355
 20
103.8757746884504
 10
114.9464596757227
 20
103.8502486844664
 10
114.9857983592139
 20
103.8284799876904
 10
115.0260413802567
 20
103.8105008958923
 10
115.0667258041519
 20
103.7963867705346
 10
115.107399462124
 20
103.78621297308
 10
115.1476101853971
 20
103.7800333331446
 10
115.1869165711186
 20
103.7779124462678
 10
115.1869165711186
 20
103.7779124462678
 10
115.2244035158138
 20
103.7795596325223
 10
115.2649587486303
 20
103.7848887645224
 10
115.3077963571721
 20
103.7939429059609
 10
115.352173492736
 20
103.8067112909145
 10
115.397336540696
 20
103.823226217153
 10
115.4425426523489
 20
103.8434876846764
 10
115.487016681222
 20
103.8675279912544
 10
115.5300265445355
 20
103.8953471368869
 10
115.5708078617398
 20
103.9269558874973
 10
115.6086070182088
 20
103.9623973067784
 10
115.6426703993162
 20
104.001660628807
 10
115.6722336245123
 20
104.0447673854295
 10
115.6965646110176
 20
104.0917283425693
 10
115.7148882123592
 20
104.1425650320727
 10
115.7264723457572
 20
104.1972989857863
 10
115.7305418647391
 20
104.25593020371
 10
115.7316076911391
 20
104.7699276765949
 10
115.7279795750098
 20
104.9324715855578
 10
115.7175366294743
 20
105.0887389612762
 10
115.7001711953005
 20
105.2381269120492
 10
115.6757217836396
 20
105.3800756098685
 10
115.6440699693364
 20
105.5140036948796
 10
115.6050865613118
 20
105.6392975094584
 10
115.5586531344104
 20
105.7554295233664
 10
115.5046297316302
 20
105.8617753130562
 10
115.4428871618923
 20
105.9577750505196
 10
115.373296234118
 20
106.0428258440556
 10
115.2957277572285
 20
106.1163786315794
 10
115.2100633060682
 20
106.1778412873132
 10
115.1161413917887
 20
106.2266216854793
 10
115.0138651210808
 20
106.262138466223
 10
114.9030945369426
 20
106.2838318015363
 10
114.7836896823719
 20
106.2910987997182
 10
112.1184561951102
 20
106.2865125164212
 10
112.1230424784072
 20
109.2794822387239
 10
113.732763320117
 20
109.2794822387239
 10
113.7495904581293
 20
109.0120782374773
 10
113.7971866047398
 20
108.7803417398997
 10
113.8711269655
 20
108.5842512141446
 10
113.9670298096543
 20
108.4238281920585
 10
114.0805026405239
 20
108.2990403758716
 10
114.2071637273532
 20
108.2098985315072
 10
114.3425882756936
 20
108.1564241908119
 10
114.4824160866362
 20
108.138595821939
 10
114.6222546635019
 20
108.1564241908119
 10
114.7576792118424
 20
108.2098985315072
 10
114.8843295327485
 20
108.2990296099484
 10
114.9978023636181
 20
108.4238174261352
 10
115.0937052077724
 20
108.5842512141446
 10
115.1676455685326
 20
108.7803417398997
 10
115.2152309492198
 20
109.0120890034005
 10
115.2320688531553
 20
109.2794822387239
 10
117.2605410449129
 20
109.2794822387239
 10
117.2768729504565
 20
109.0120782374773
 10
117.3230695270468
 20
108.7803417398997
 10
117.394835171314
 20
108.5842512141446
 10
117.4879173435814
 20
108.4238281920585
 10
117.598052738249
 20
108.2990403758716
 10
117.7209888156398
 20
108.2098985315072
 10
117.8524299723843
 20
108.1564241908119
 10
117.9881452006521
 20
108.138595821939
 10
118.123871194843
 20
108.1564241908119
 10
118.2553123515875
 20
108.2098985315072
 10
118.3782376630552
 20
108.2990296099484
 10
118.4883730577227
 20
108.4238174261352
 10
118.5814552299901
 20
108.5842512141446
 10
118.6532208742574
 20
108.7803417398997
 10
118.6994066849244
 20
109.0120890034005
 10
118.7157493563912
 20
109.2794822387239
 10
119.7098747076719
 20
109.2794822387239
 10
120.7036555494091
 20
109.2794822387239
 10
120.7199982208759
 20
109.0120782374773
 10
120.7661840315429
 20
108.7803417398997
 10
120.8379496758102
 20
108.5842512141446
 10
120.9310318480776
 20
108.4238281920585
 10
121.0411672427451
 20
108.2990403758716
 10
121.1640925542128
 20
108.2098985315072
 10
121.2955444768805
 20
108.1564241908119
 10
121.4312597051483
 20
108.138595821939
 10
121.566974933416
 20
108.1564241908119
 10
121.6984268560837
 20
108.2098985315072
 10
121.8213521675514
 20
108.2990296099484
 10
121.9314875622189
 20
108.4238174261352
 10
122.0245697344863
 20
108.5842512141446
 10
122.0963353787536
 20
108.7803417398997
 10
122.1425211894206
 20
109.0120890034005
 10
122.1588638608874
 20
109.2794822387239
 10
124.1873360526451
 20
109.2794822387239
 10
124.2041739565805
 20
109.0120782374773
 10
124.2517593372678
 20
108.7803417398997
 10
124.325699698028
 20
108.5842512141446
 10
124.4216025421823
 20
108.4238281920585
 10
124.5350753730519
 20
108.2990403758716
 10
124.6617256939579
 20
108.2098985315072
 10
124.7971610082216
 20
108.1564241908119
 10
124.9369888191642
 20
108.138595821939
 10
125.0768166301067
 20
108.1564241908119
 10
125.2122519443704
 20
108.2098985315072
 10
125.3389022652765
 20
108.2990296099484
 10
125.4523750961461
 20
108.4238174261352
 10
125.5482779403004
 20
108.5842512141446
 10
125.6222183010606
 20
108.7803417398997
 10
125.6698036817478
 20
109.0120890034005
 10
125.6866415856833
 20
109.2794822387239
 10
127.1859471187215
 20
109.2794822387239
 10
127.190877911562
 20
106.2865125164212
 10
124.6364150084385
 20
106.2910987997182
 10
124.5168809627891
 20
106.2838318015363
 10
124.4060134853417
 20
106.262138466223
 10
124.3036295554015
 20
106.2266109195561
 10
124.2096430455826
 20
106.1778412873132
 10
124.1239032329597
 20
106.1163893975026
 10
124.0462701605308
 20
106.0428258440556
 10
123.9766361690636
 20
105.9577750505196
 10
123.9148505356328
 20
105.8617753130562
 10
123.8608056010061
 20
105.7554187574432
 10
123.8143506422582
 20
105.6393082753817
 10
123.7753564683104
 20
105.5139929289564
 10
123.7436938880839
 20
105.3800756098685
 10
123.7192444764231
 20
105.2381269120492
 10
123.701868276326
 20
105.0887389612762
 10
123.6914253307906
 20
104.9324715855578
 10
123.6877972146613
 20
104.7699276765949
 10
123.6892075506047
 20
104.25593020371
 10
123.6932017081239
 20
104.1972882198631
 10
123.7047427778291
 20
104.1425650320727
 10
123.7230233154777
 20
104.0917283425693
 10
123.74731123829
 20
104.0447673854295
 10
123.7768529316397
 20
104.001660628807
 10
123.8108947809006
 20
103.9623973067784
 10
123.8486724055231
 20
103.9269558874973
 10
123.8894537227275
 20
103.8953471368869
 10
123.932463586041
 20
103.8675279912544
 10
123.9769591467605
 20
103.8434876846764
 10
124.0221867902599
 20
103.823226217153
 10
124.0673821359895
 20
103.8067112909145
 10
124.1118023352465
 20
103.7939429059609
 10
124.1546830074812
 20
103.7848995304456
 10
124.1952813039906
 20
103.7795596325223
 10
124.2328436101484
 20
103.7779124462678
 10
124.2328436101484
 20
103.7779124462678
 10
124.2720746344073
 20
103.7800225672214
 10
124.3122422939875
 20
103.78621297308
 10
124.3528728882666
 20
103.7963867705346
 10
124.3935142484689
 20
103.8105008958923
 10
124.433724971742
 20
103.8284799876904
 10
124.4730421233867
 20
103.8502486844664
 10
124.5110243005507
 20
103.8757639225272
 10
124.5472085685348
 20
103.9049611063335
 10
124.5811535244866
 20
103.9377648744226
 10
124.612396233707
 20
103.974099865332
 10
124.6404952933436
 20
104.0139337812919
 10
124.6649877686974
 20
104.0571697289933
 10
124.6854322569157
 20
104.1037538788199
 10
124.7013658232997
 20
104.1536324011556
 10
124.7123470649967
 20
104.2067299345379
 10
124.7179130473079
 20
104.2629818834272
 10
124.7179130473079
 20
104.2629818834272
 10
124.7227038831463
 20
104.3158856301913
 10
124.7319733430494
 20
104.3667761493109
 10
124.7455599381687
 20
104.4154919519375
 10
124.7632375841163
 20
104.4618284855298
 10
124.7847801965044
 20
104.505613495316
 10
124.809961690945
 20
104.5466424287548
 10
124.83858828082
 20
104.5847430310742
 10
124.8704446476647
 20
104.6197322815796
 10
124.9053047070912
 20
104.6514163936526
 10
124.9429423747117
 20
104.6796231125215
 10
124.983163863908
 20
104.7041586515681
 10
125.0257430902922
 20
104.7248507560208
 10
125.0704539694764
 20
104.7414841074149
 10
125.1171134807656
 20
104.7539079828251
 10
125.1654740079256
 20
104.7619285956332
 10
125.2153309984149
 20
104.7653413932979
 10
125.2153309984149
 20
104.7653413932979
 10
125.2635085048799
 20
104.7634788885787
 10
125.3105017597894
 20
104.7561365289342
 10
125.3560523809857
 20
104.7436480579846
 10
125.3998912203881
 20
104.7263364534269
 10
125.4417383639924
 20
104.7045462248045
 10
125.4813461955645
 20
104.6785895838912
 10
125.5184455670234
 20
104.6488110402303
 10
125.5527565643651
 20
104.6155335715189
 10
125.5840315713552
 20
104.5791016873005
 10
125.612001439913
 20
104.5398383652719
 10
125.6363970219576
 20
104.4980773490533
 10
125.6569491694083
 20
104.4541416163419
 10
125.6733995001074
 20
104.4083649107577
 10
125.6854788659742
 20
104.3610917418442
 10
125.6929181189278
 20
104.3126343213751
 10
125.6954588768106
 20
104.2633371588939
 10
125.6954588768106
 20
102.257085832688
 10
122.1588638608874
 20
100.4819142827425
 10
120.7036555494091
 20
100.4819142827425
 10
120.7036555494091
 20
102.2680240106921
 10
120.8974098698228
 20
102.4002941435255
 10
121.0714948484908
 20
102.5923797458381
 10
121.2227883676759
 20
102.8348498688784
 10
121.3481575437173
 20
103.1182735638948
 10
121.4444587270312
 20
103.4332198821357
 10
121.5085697998802
 20
103.7702578748495
 10
121.5373363467572
 20
104.1199565932847
 10
121.527647015848
 20
104.4728850886895
 10
121.4763689234921
 20
104.8196124123125
 10
121.3803584201054
 20
105.150707615402
 10
121.2364718561043
 20
105.4567397492065
 10
121.0415978796745
 20
105.7282778649743
 10
120.7925820753088
 20
105.9558910139539
 10
120.48630232527
 20
106.1301482473937
 10
120.1196257458974
 20
106.241618616542
 10
119.6894194535303
 20
106.2808711726474
  0
HATCH
  5
7C
330
1F
100
AcDbEntity
  8
ISS138金台
  6
Continuous
 62
     7
420
 16777215
370
    25
100
AcDbHatch
 10
0.0
 20
0.0
 30
0.0
210
0.0
220
0.0
230
1.0
  2
SOLID
 70
     1
 71
     0
 91
        1
 92
        3
 72
     0
 73
     1
 93
      212
 10
119.6507482572795
 20
100.4810099451909
 10
115.1570626659951
 20
100.4810099451909
 10
115.0090527533959
 20
100.4885891551466
 10
114.8630991321342
 20
100.5105408726174
 10
114.720278394533
 20
100.5463052695955
 10
114.5816133032996
 20
100.595290220303
 10
114.4481589189106
 20
100.6569143648853
 10
114.3209810677662
 20
100.7306178753343
 10
114.2011132784965
 20
100.8157870940259
 10
114.0895998456553
 20
100.9118837247984
 10
113.9875173615656
 20
101.0183048759508
 10
113.8958778230113
 20
101.1344799535517
 10
113.8157685882389
 20
101.2598275977467
 10
113.7482124199556
 20
101.3937664486811
 10
113.694264378638
 20
101.5357366783468
 10
113.6549795247629
 20
101.685135395043
 10
113.6314129188071
 20
101.8414027707614
 10
113.624598089401
 20
102.0039466797243
 10
113.624598089401
 20
104.2751366107566
 10
113.6271496132071
 20
104.3244337732378
 10
113.6345888661607
 20
104.3728696618604
 10
113.6466682320275
 20
104.4201320648507
 10
113.6631077968034
 20
104.4658872385884
 10
113.6836707101773
 20
104.5097906735302
 10
113.7080662922219
 20
104.5515301579023
 10
113.7360469267029
 20
104.5907611821612
 10
113.7673434655396
 20
104.6271607686099
 10
113.8016867606509
 20
104.6604059395516
 10
113.838796898033
 20
104.6901521854428
 10
113.8784370273748
 20
104.7160657626632
 10
113.9203164687489
 20
104.7378452253623
 10
113.9641876059209
 20
104.7551245321504
 10
114.0097920567334
 20
104.7676022371767
 10
114.056839141259
 20
104.774933830898
 10
114.1050812432635
 20
104.776785569694
 10
114.1050812432635
 20
104.776785569694
 10
114.1548951700598
 20
104.7733189424131
 10
114.2032126335269
 20
104.7652444999888
 10
114.2498506129697
 20
104.7527883268089
 10
114.2945830240003
 20
104.7360903798754
 10
114.3371730163077
 20
104.7153767435763
 10
114.3774160373505
 20
104.6908196726832
 10
114.4151075345872
 20
104.662602187891
 10
114.4499998917834
 20
104.6309073098948
 10
114.4819100882442
 20
104.5959288253127
 10
114.5105905077354
 20
104.5578389889164
 10
114.5358365977154
 20
104.516820821401
 10
114.5574222737964
 20
104.4730788753077
 10
114.5751322175137
 20
104.4267746394851
 10
114.5887618763259
 20
104.3781126664746
 10
114.5980636339987
 20
104.3272652110479
 10
114.6028544698371
 20
104.2744260598233
 10
114.6028544698371
 20
104.2744260598233
 10
114.6082912610695
 20
104.2182387064733
 10
114.6191648435342
 20
104.1651950027073
 10
114.6350122825323
 20
104.1153595440644
 10
114.6553921752113
 20
104.0688184579307
 10
114.6798092891024
 20
104.0255932761526
 10
114.7078652850461
 20
103.9857916579624
 10
114.7390972283433
 20
103.949456667053
 10
114.7730206524486
 20
103.9166744308103
 10
114.8092264522792
 20
103.887477247004
 10
114.8472193953664
 20
103.8619404770968
 10
114.8865903766273
 20
103.8401502484743
 10
114.9268549295165
 20
103.8221388589065
 10
114.9675716511815
 20
103.8079924357792
 10
115.0082883728464
 20
103.7977755746316
 10
115.0485636916589
 20
103.79154210508
 10
115.0879239069966
 20
103.7893566226638
 10
115.0879239069966
 20
103.7893566226638
 10
115.1253462561524
 20
103.7909930429952
 10
115.1658476593527
 20
103.7963437068417
 10
115.2086422042016
 20
103.8053763164337
 10
115.2529978079191
 20
103.8181554673105
 10
115.2981177921861
 20
103.8346596276258
 10
115.3433023719926
 20
103.8549210951492
 10
115.3877764008656
 20
103.8789398698807
 10
115.4307754982559
 20
103.9067374836668
 10
115.4715675813835
 20
103.9383462342772
 10
115.5093667378525
 20
103.9737445898653
 10
115.5434516508063
 20
104.0129863800475
 10
115.5730471737722
 20
104.0560608389003
 10
115.5974104580471
 20
104.1029787323472
 10
115.6157878890048
 20
104.1537723581577
 10
115.6274150860958
 20
104.2084524822551
 10
115.6315492006171
 20
104.2670191046394
 10
115.6326042610938
 20
104.7806613020576
 10
115.6289223153484
 20
104.9433451680226
 10
115.61843630612
 20
105.0997202029733
 10
115.6009955104835
 20
105.2492265789018
 10
115.576513801053
 20
105.3912829359534
 10
115.54482968898
 20
105.5252863824272
 10
115.5058355150322
 20
105.6506878562383
 10
115.4593805562844
 20
105.7668844656857
 10
115.4053356216577
 20
105.8733056168381
 10
115.3435822859966
 20
105.9693591839176
 10
115.2739698263758
 20
106.0544745729931
 10
115.1964013494863
 20
106.128081190133
 10
115.1107153664796
 20
106.1895761436366
 10
115.0168042181233
 20
106.2383780736491
 10
114.9145171814922
 20
106.2739271521625
 10
114.8037465973539
 20
106.2956204874758
 10
114.6843417427832
 20
106.3028982515809
 10
112.1203509975991
 20
106.3032535270476
 10
112.115064929292
 20
99.29144002354911
 10
119.4570692983285
 20
99.29144002354911
 10
119.6507482572795
 20
99.48970526579716
 10
119.8437166652972
 20
99.29144002354911
 10
127.1857318002569
 20
99.29144002354911
 10
127.1807902414932
 20
106.3032535270476
 10
124.6167994963091
 20
106.3028982515809
 10
124.4973300461991
 20
106.2956204874758
 10
124.3865056324446
 20
106.2739271521625
 10
124.2841755321206
 20
106.2383673077259
 10
124.1902213200713
 20
106.1895653777133
 10
124.1045030392949
 20
106.1280704242098
 10
124.0269237964822
 20
106.0544853389163
 10
123.9573113368614
 20
105.9693591839176
 10
123.8955364693538
 20
105.8733056168381
 10
123.8415023006504
 20
105.7668844656857
 10
123.7950581078258
 20
105.6506878562383
 10
123.7560746998012
 20
105.5252863824272
 10
123.7244228854979
 20
105.3912721700302
 10
123.6999734738371
 20
105.2492265789018
 10
123.68259727374
 20
105.0997202029733
 10
123.6721650941278
 20
104.9433344020993
 10
123.6685369779985
 20
104.7806613020576
 10
123.6695920384752
 20
104.2670191046394
 10
123.6736723233803
 20
104.2084524822551
 10
123.6852349249319
 20
104.1537723581577
 10
123.7035692921967
 20
104.1029787323472
 10
123.7278895127787
 20
104.0560500729771
 10
123.7574635038982
 20
104.0129863800475
 10
123.7915268850055
 20
103.9737445898653
 10
123.8293260414745
 20
103.9383354683539
 10
123.8701073586789
 20
103.90674824959
 10
123.9131172219924
 20
103.8789398698807
 10
123.9575912508654
 20
103.854910329226
 10
124.0027973625183
 20
103.8346596276258
 10
124.0479711764015
 20
103.8181554673105
 10
124.0923483119655
 20
103.8053870823569
 10
124.1351859205073
 20
103.7963437068417
 10
124.1757303874005
 20
103.7910038089184
 10
124.213228098019
 20
103.7893566226638
 10
124.213228098019
 20
103.7893566226638
 10
124.2525344837405
 20
103.79154210508
 10
124.2927344410903
 20
103.7977755746316
 10
124.3334188649856
 20
103.8079924357792
 10
124.3740925229577
 20
103.8221496248298
 10
124.4143247780772
 20
103.8401394825511
 10
124.4536849934149
 20
103.8619404770968
 10
124.4916671705788
 20
103.8874664810808
 10
124.5278622044862
 20
103.9166744308103
 10
124.5617963945147
 20
103.9494674329762
 10
124.5930283378119
 20
103.9857916579624
 10
124.621105865602
 20
104.0256040420758
 10
124.6455768091093
 20
104.0688076920075
 10
124.6659782336347
 20
104.1153595440644
 10
124.6818687363258
 20
104.1651950027073
 10
124.6927961484067
 20
104.2182387064733
 10
124.6982975351784
 20
104.2744260598233
 10
124.6982975351784
 20
104.2744260598233
 10
124.7031314347098
 20
104.3272652110479
 10
124.7124870219987
 20
104.3781126664746
 10
124.726116680811
 20
104.4267746394851
 10
124.743815858605
 20
104.4730788753077
 10
124.7653907687628
 20
104.516820821401
 10
124.7906153268963
 20
104.5578389889164
 10
124.8192634486178
 20
104.5959288253127
 10
124.8511305813857
 20
104.630918075818
 10
124.8860014067355
 20
104.6626129538142
 10
124.9236606062025
 20
104.6908304386064
 10
124.9638820953987
 20
104.7153767435763
 10
125.0064613217829
 20
104.7361011457987
 10
125.0511937328136
 20
104.7527775608857
 10
125.0978424781796
 20
104.7652444999888
 10
125.1462030053396
 20
104.7733081764899
 10
125.1960599958289
 20
104.776785569694
 10
125.1960599958289
 20
104.776785569694
 10
125.2442375022939
 20
104.774933830898
 10
125.2912415231266
 20
104.7676022371767
 10
125.3367813783997
 20
104.7551245321504
 10
125.3806094518788
 20
104.7378452253623
 10
125.4224565954832
 20
104.7160657626632
 10
125.4620859589017
 20
104.6901521854428
 10
125.4991745644374
 20
104.6604059395516
 10
125.5334963277023
 20
104.6271607686099
 10
125.5647605687692
 20
104.5907611821612
 10
125.5927412032502
 20
104.5515301579023
 10
125.6171260193716
 20
104.5097906735302
 10
125.6376781668223
 20
104.4658872385884
 10
125.6541284975214
 20
104.4201320648507
 10
125.6662078633882
 20
104.3728696618604
 10
125.6736471163418
 20
104.3244337732378
 10
125.6761878742246
 20
104.2751366107566
 10
125.6761878742246
 20
102.0039466797243
 10
125.6693838107417
 20
101.8414027707614
 10
125.645817204786
 20
101.685135395043
 10
125.6065215849877
 20
101.5357366783468
 10
125.5525843095933
 20
101.3937664486811
 10
125.4850389072332
 20
101.2598275977467
 10
125.4049296724609
 20
101.1344799535517
 10
125.313311665753
 20
101.0182941100276
 10
125.2112291816633
 20
100.9118837247984
 10
125.0997480465917
 20
100.8157870940259
 10
124.9799017891686
 20
100.7306178753343
 10
124.8527454698706
 20
100.6569143648853
 10
124.7193341491745
 20
100.595290220303
 10
124.5807013557108
 20
100.5463160355187
 10
124.4379236818026
 20
100.5105516385407
 10
124.292023890157
 20
100.4885891551466
 10
124.1440785730972
 20
100.4810099451909
 97
        0
 75
     1
 76
     1
 98
        0
  0
LWPOLYLINE
  5
7D
330
1F
100
AcDbEntity
  8
ISS138金台
  6
Continuous
 62
     7
420
 16777215
370
    25
100
AcDbPolyline
 90
      213
 70
     0
 43
0.0
 10
119.6507482572795
 20
100.4810099451909
 10
115.1570626659951
 20
100.4810099451909
 10
115.0090527533959
 20
100.4885891551466
 10
114.8630991321342
 20
100.5105408726174
 10
114.720278394533
 20
100.5463052695955
 10
114.5816133032996
 20
100.595290220303
 10
114.4481589189106
 20
100.6569143648853
 10
114.3209810677662
 20
100.7306178753343
 10
114.2011132784965
 20
100.8157870940259
 10
114.0895998456553
 20
100.9118837247984
 10
113.9875173615656
 20
101.0183048759508
 10
113.8958778230113
 20
101.1344799535517
 10
113.8157685882389
 20
101.2598275977467
 10
113.7482124199556
 20
101.3937664486811
 10
113.694264378638
 20
101.5357366783468
 10
113.6549795247629
 20
101.685135395043
 10
113.6314129188071
 20
101.8414027707614
 10
113.624598089401
 20
102.0039466797243
 10
113.624598089401
 20
104.2751366107566
 10
113.6271496132071
 20
104.3244337732378
 10
113.6345888661607
 20
104.3728696618604
 10
113.6466682320275
 20
104.4201320648507
 10
113.6631077968034
 20
104.4658872385884
 10
113.6836707101773
 20
104.5097906735302
 10
113.7080662922219
 20
104.5515301579023
 10
113.7360469267029
 20
104.5907611821612
 10
113.7673434655396
 20
104.6271607686099
 10
113.8016867606509
 20
104.6604059395516
 10
113.838796898033
 20
104.6901521854428
 10
113.8784370273748
 20
104.7160657626632
 10
113.9203164687489
 20
104.7378452253623
 10
113.9641876059209
 20
104.7551245321504
 10
114.0097920567334
 20
104.7676022371767
 10
114.056839141259
 20
104.774933830898
 10
114.1050812432635
 20
104.776785569694
 10
114.1050812432635
 20
104.776785569694
 10
114.1548951700598
 20
104.7733189424131
 10
114.2032126335269
 20
104.7652444999888
 10
114.2498506129697
 20
104.7527883268089
 10
114.2945830240003
 20
104.7360903798754
 10
114.3371730163077
 20
104.7153767435763
 10
114.3774160373505
 20
104.6908196726832
 10
114.4151075345872
 20
104.662602187891
 10
114.4499998917834
 20
104.6309073098948
 10
114.4819100882442
 20
104.5959288253127
 10
114.5105905077354
 20
104.5578389889164
 10
114.5358365977154
 20
104.516820821401
 10
114.5574222737964
 20
104.4730788753077
 10
114.5751322175137
 20
104.4267746394851
 10
114.5887618763259
 20
104.3781126664746
 10
114.5980636339987
 20
104.3272652110479
 10
114.6028544698371
 20
104.2744260598233
 10
114.6028544698371
 20
104.2744260598233
 10
114.6082912610695
 20
104.2182387064733
 10
114.6191648435342
 20
104.1651950027073
 10
114.6350122825323
 20
104.1153595440644
 10
114.6553921752113
 20
104.0688184579307
 10
114.6798092891024
 20
104.0255932761526
 10
114.7078652850461
 20
103.9857916579624
 10
114.7390972283433
 20
103.949456667053
 10
114.7730206524486
 20
103.9166744308103
 10
114.8092264522792
 20
103.887477247004
 10
114.8472193953664
 20
103.8619404770968
 10
114.8865903766273
 20
103.8401502484743
 10
114.9268549295165
 20
103.8221388589065
 10
114.9675716511815
 20
103.8079924357792
 10
115.0082883728464
 20
103.7977755746316
 10
115.0485636916589
 20
103.79154210508
 10
115.0879239069966
 20
103.7893566226638
 10
115.0879239069966
 20
103.7893566226638
 10
115.1253462561524
 20
103.7909930429952
 10
115.1658476593527
 20
103.7963437068417
 10
115.2086422042016
 20
103.8053763164337
 10
115.2529978079191
 20
103.8181554673105
 10
115.2981177921861
 20
103.8346596276258
 10
115.3433023719926
 20
103.8549210951492
 10
115.3877764008656
 20
103.8789398698807
 10
115.4307754982559
 20
103.9067374836668
 10
115.4715675813835
 20
103.9383462342772
 10
115.5093667378525
 20
103.9737445898653
 10
115.5434516508063
 20
104.0129863800475
 10
115.5730471737722
 20
104.0560608389003
 10
115.5974104580471
 20
104.1029787323472
 10
115.6157878890048
 20
104.1537723581577
 10
115.6274150860958
 20
104.2084524822551
 10
115.6315492006171
 20
104.2670191046394
 10
115.6326042610938
 20
104.7806613020576
 10
115.6289223153484
 20
104.9433451680226
 10
115.61843630612
 20
105.0997202029733
 10
115.6009955104835
 20
105.2492265789018
 10
115.576513801053
 20
105.3912829359534
 10
115.54482968898
 20
105.5252863824272
 10
115.5058355150322
 20
105.6506878562383
 10
115.4593805562844
 20
105.7668844656857
 10
115.4053356216577
 20
105.8733056168381
 10
115.3435822859966
 20
105.9693591839176
 10
115.2739698263758
 20
106.0544745729931
 10
115.1964013494863
 20
106.128081190133
 10
115.1107153664796
 20
106.1895761436366
 10
115.0168042181233
 20
106.2383780736491
 10
114.9145171814922
 20
106.2739271521625
 10
114.8037465973539
 20
106.2956204874758
 10
114.6843417427832
 20
106.3028982515809
 10
112.1203509975991
 20
106.3032535270476
 10
112.115064929292
 20
99.29144002354911
 10
119.4570692983285
 20
99.29144002354911
 10
119.6507482572795
 20
99.48970526579716
 10
119.8437166652972
 20
99.29144002354911
 10
127.1857318002569
 20
99.29144002354911
 10
127.1807902414932
 20
106.3032535270476
 10
124.6167994963091
 20
106.3028982515809
 10
124.4973300461991
 20
106.2956204874758
 10
124.3865056324446
 20
106.2739271521625
 10
124.2841755321206
 20
106.2383673077259
 10
124.1902213200713
 20
106.1895653777133
 10
124.1045030392949
 20
106.1280704242098
 10
124.0269237964822
 20
106.0544853389163
 10
123.9573113368614
 20
105.9693591839176
 10
123.8955364693538
 20
105.8733056168381
 10
123.8415023006504
 20
105.7668844656857
 10
123.7950581078258
 20
105.6506878562383
 10
123.7560746998012
 20
105.5252863824272
 10
123.7244228854979
 20
105.3912721700302
 10
123.6999734738371
 20
105.2492265789018
 10
123.68259727374
 20
105.0997202029733
 10
123.6721650941278
 20
104.9433344020993
 10
123.6685369779985
 20
104.7806613020576
 10
123.6695920384752
 20
104.2670191046394
 10
123.6736723233803
 20
104.2084524822551
 10
123.6852349249319
 20
104.1537723581577
 10
123.7035692921967
 20
104.1029787323472
 10
123.7278895127787
 20
104.0560500729771
 10
123.7574635038982
 20
104.0129863800475
 10
123.7915268850055
 20
103.9737445898653
 10
123.8293260414745
 20
103.9383354683539
 10
123.8701073586789
 20
103.90674824959
 10
123.9131172219924
 20
103.8789398698807
 10
123.9575912508654
 20
103.854910329226
 10
124.0027973625183
 20
103.8346596276258
 10
124.0479711764015
 20
103.8181554673105
 10
124.0923483119655
 20
103.8053870823569
 10
124.1351859205073
 20
103.7963437068417
 10
124.1757303874005
 20
103.7910038089184
 10
124.213228098019
 20
103.7893566226638
 10
124.213228098019
 20
103.7893566226638
 10
124.2525344837405
 20
103.79154210508
 10
124.2927344410903
 20
103.7977755746316
 10
124.3334188649856
 20
103.8079924357792
 10
124.3740925229577
 20
103.8221496248298
 10
124.4143247780772
 20
103.8401394825511
 10
124.4536849934149
 20
103.8619404770968
 10
124.4916671705788
 20
103.8874664810808
 10
124.5278622044862
 20
103.9166744308103
 10
124.5617963945147
 20
103.9494674329762
 10
124.5930283378119
 20
103.9857916579624
 10
124.621105865602
 20
104.0256040420758
 10
124.6455768091093
 20
104.0688076920075
 10
124.6659782336347
 20
104.1153595440644
 10
124.6818687363258
 20
104.1651950027073
 10
124.6927961484067
 20
104.2182387064733
 10
124.6982975351784
 20
104.2744260598233
 10
124.6982975351784
 20
104.2744260598233
 10
124.7031314347098
 20
104.3272652110479
 10
124.7124870219987
 20
104.3781126664746
 10
124.726116680811
 20
104.4267746394851
 10
124.743815858605
 20
104.4730788753077
 10
124.7653907687628
 20
104.516820821401
 10
124.7906153268963
 20
104.5578389889164
 10
124.8192634486178
 20
104.5959288253127
 10
124.8511305813857
 20
104.630918075818
 10
124.8860014067355
 20
104.6626129538142
 10
124.9236606062025
 20
104.6908304386064
 10
124.9638820953987
 20
104.7153767435763
 10
125.0064613217829
 20
104.7361011457987
 10
125.0511937328136
 20
104.7527775608857
 10
125.0978424781796
 20
104.7652444999888
 10
125.1462030053396
 20
104.7733081764899
 10
125.1960599958289
 20
104.776785569694
 10
125.1960599958289
 20
104.776785569694
 10
125.2442375022939
 20
104.774933830898
 10
125.2912415231266
 20
104.7676022371767
 10
125.3367813783997
 20
104.7551245321504
 10
125.3806094518788
 20
104.7378452253623
 10
125.4224565954832
 20
104.7160657626632
 10
125.4620859589017
 20
104.6901521854428
 10
125.4991745644374
 20
104.6604059395516
 10
125.5334963277023
 20
104.6271607686099
 10
125.5647605687692
 20
104.5907611821612
 10
125.5927412032502
 20
104.5515301579023
 10
125.6171260193716
 20
104.5097906735302
 10
125.6376781668223
 20
104.4658872385884
 10
125.6541284975214
 20
104.4201320648507
 10
125.6662078633882
 20
104.3728696618604
 10
125.6736471163418
 20
104.3244337732378
 10
125.6761878742246
 20
104.2751366107566
 10
125.6761878742246
 20
102.0039466797243
 10
125.6693838107417
 20
101.8414027707614
 10
125.645817204786
 20
101.685135395043
 10
125.6065215849877
 20
101.5357366783468
 10
125.5525843095933
 20
101.3937664486811
 10
125.4850389072332
 20
101.2598275977467
 10
125.4049296724609
 20
101.1344799535517
 10
125.313311665753
 20
101.0182941100276
 10
125.2112291816633
 20
100.9118837247984
 10
125.0997480465917
 20
100.8157870940259
 10
124.9799017891686
 20
100.7306178753343
 10
124.8527454698706
 20
100.6569143648853
 10
124.7193341491745
 20
100.595290220303
 10
124.5807013557108
 20
100.5463160355187
 10
124.4379236818026
 20
100.5105516385407
 10
124.292023890157
 20
100.4885891551466
 10
124.1440785730972
 20
100.4810099451909
 10
119.6507482572795
 20
100.4810099451909
  0
LWPOLYLINE
  5
7E
330
1F
100
AcDbEntity
  8
ISS138金台
  6
Continuous
 62
   250
420
  2367521
370
    25
100
AcDbPolyline
 90
      213
 70
     0
 43
0.0
 10
119.6507482572795
 20
100.4810099451909
 10
115.1570626659951
 20
100.4810099451909
 10
115.0090527533959
 20
100.4885891551466
 10
114.8630991321342
 20
100.5105408726174
 10
114.720278394533
 20
100.5463052695955
 10
114.5816133032996
 20
100.595290220303
 10
114.4481589189106
 20
100.6569143648853
 10
114.3209810677662
 20
100.7306178753343
 10
114.2011132784965
 20
100.8157870940259
 10
114.0895998456553
 20
100.9118837247984
 10
113.9875173615656
 20
101.0183048759508
 10
113.8958778230113
 20
101.1344799535517
 10
113.8157685882389
 20
101.2598275977467
 10
113.7482124199556
 20
101.3937664486811
 10
113.694264378638
 20
101.5357366783468
 10
113.6549795247629
 20
101.685135395043
 10
113.6314129188071
 20
101.8414027707614
 10
113.624598089401
 20
102.0039466797243
 10
113.624598089401
 20
104.2751366107566
 10
113.6271496132071
 20
104.3244337732378
 10
113.6345888661607
 20
104.3728696618604
 10
113.6466682320275
 20
104.4201320648507
 10
113.6631077968034
 20
104.4658872385884
 10
113.6836707101773
 20
104.5097906735302
 10
113.7080662922219
 20
104.5515301579023
 10
113.7360469267029
 20
104.5907611821612
 10
113.7673434655396
 20
104.6271607686099
 10
113.8016867606509
 20
104.6604059395516
 10
113.838796898033
 20
104.6901521854428
 10
113.8784370273748
 20
104.7160657626632
 10
113.9203164687489
 20
104.7378452253623
 10
113.9641876059209
 20
104.7551245321504
 10
114.0097920567334
 20
104.7676022371767
 10
114.056839141259
 20
104.774933830898
 10
114.1050812432635
 20
104.776785569694
 10
114.1050812432635
 20
104.776785569694
 10
114.1548951700598
 20
104.7733189424131
 10
114.2032126335269
 20
104.7652444999888
 10
114.2498506129697
 20
104.7527883268089
 10
114.2945830240003
 20
104.7360903798754
 10
114.3371730163077
 20
104.7153767435763
 10
114.3774160373505
 20
104.6908196726832
 10
114.4151075345872
 20
104.662602187891
 10
114.4499998917834
 20
104.6309073098948
 10
114.4819100882442
 20
104.5959288253127
 10
114.5105905077354
 20
104.5578389889164
 10
114.5358365977154
 20
104.516820821401
 10
114.5574222737964
 20
104.4730788753077
 10
114.5751322175137
 20
104.4267746394851
 10
114.5887618763259
 20
104.3781126664746
 10
114.5980636339987
 20
104.3272652110479
 10
114.6028544698371
 20
104.2744260598233
 10
114.6028544698371
 20
104.2744260598233
 10
114.6082912610695
 20
104.2182387064733
 10
114.6191648435342
 20
104.1651950027073
 10
114.6350122825323
 20
104.1153595440644
 10
114.6553921752113
 20
104.0688184579307
 10
114.6798092891024
 20
104.0255932761526
 10
114.7078652850461
 20
103.9857916579624
 10
114.7390972283433
 20
103.949456667053
 10
114.7730206524486
 20
103.9166744308103
 10
114.8092264522792
 20
103.887477247004
 10
114.8472193953664
 20
103.8619404770968
 10
114.8865903766273
 20
103.8401502484743
 10
114.9268549295165
 20
103.8221388589065
 10
114.9675716511815
 20
103.8079924357792
 10
115.0082883728464
 20
103.7977755746316
 10
115.0485636916589
 20
103.79154210508
 10
115.0879239069966
 20
103.7893566226638
 10
115.0879239069966
 20
103.7893566226638
 10
115.1253462561524
 20
103.7909930429952
 10
115.1658476593527
 20
103.7963437068417
 10
115.2086422042016
 20
103.8053763164337
 10
115.2529978079191
 20
103.8181554673105
 10
115.2981177921861
 20
103.8346596276258
 10
115.3433023719926
 20
103.8549210951492
 10
115.3877764008656
 20
103.8789398698807
 10
115.4307754982559
 20
103.9067374836668
 10
115.4715675813835
 20
103.9383462342772
 10
115.5093667378525
 20
103.9737445898653
 10
115.5434516508063
 20
104.0129863800475
 10
115.5730471737722
 20
104.0560608389003
 10
115.5974104580471
 20
104.1029787323472
 10
115.6157878890048
 20
104.1537723581577
 10
115.6274150860958
 20
104.2084524822551
 10
115.6315492006171
 20
104.2670191046394
 10
115.6326042610938
 20
104.7806613020576
 10
115.6289223153484
 20
104.9433451680226
 10
115.61843630612
 20
105.0997202029733
 10
115.6009955104835
 20
105.2492265789018
 10
115.576513801053
 20
105.3912829359534
 10
115.54482968898
 20
105.5252863824272
 10
115.5058355150322
 20
105.6506878562383
 10
115.4593805562844
 20
105.7668844656857
 10
115.4053356216577
 20
105.8733056168381
 10
115.3435822859966
 20
105.9693591839176
 10
115.2739698263758
 20
106.0544745729931
 10
115.1964013494863
 20
106.128081190133
 10
115.1107153664796
 20
106.1895761436366
 10
115.0168042181233
 20
106.2383780736491
 10
114.9145171814922
 20
106.2739271521625
 10
114.8037465973539
 20
106.2956204874758
 10
114.6843417427832
 20
106.3028982515809
 10
112.1203509975991
 20
106.3032535270476
 10
112.115064929292
 20
99.29144002354911
 10
119.4570692983285
 20
99.29144002354911
 10
119.6507482572795
 20
99.48970526579716
 10
119.8437166652972
 20
99.29144002354911
 10
127.1857318002569
 20
99.29144002354911
 10
127.1807902414932
 20
106.3032535270476
 10
124.6167994963091
 20
106.3028982515809
 10
124.4973300461991
 20
106.2956204874758
 10
124.3865056324446
 20
106.2739271521625
 10
124.2841755321206
 20
106.2383673077259
 10
124.1902213200713
 20
106.1895653777133
 10
124.1045030392949
 20
106.1280704242098
 10
124.0269237964822
 20
106.0544853389163
 10
123.9573113368614
 20
105.9693591839176
 10
123.8955364693538
 20
105.8733056168381
 10
123.8415023006504
 20
105.7668844656857
 10
123.7950581078258
 20
105.6506878562383
 10
123.7560746998012
 20
105.5252863824272
 10
123.7244228854979
 20
105.3912721700302
 10
123.6999734738371
 20
105.2492265789018
 10
123.68259727374
 20
105.0997202029733
 10
123.6721650941278
 20
104.9433344020993
 10
123.6685369779985
 20
104.7806613020576
 10
123.6695920384752
 20
104.2670191046394
 10
123.6736723233803
 20
104.2084524822551
 10
123.6852349249319
 20
104.1537723581577
 10
123.7035692921967
 20
104.1029787323472
 10
123.7278895127787
 20
104.0560500729771
 10
123.7574635038982
 20
104.0129863800475
 10
123.7915268850055
 20
103.9737445898653
 10
123.8293260414745
 20
103.9383354683539
 10
123.8701073586789
 20
103.90674824959
 10
123.9131172219924
 20
103.8789398698807
 10
123.9575912508654
 20
103.854910329226
 10
124.0027973625183
 20
103.8346596276258
 10
124.0479711764015
 20
103.8181554673105
 10
124.0923483119655
 20
103.8053870823569
 10
124.1351859205073
 20
103.7963437068417
 10
124.1757303874005
 20
103.7910038089184
 10
124.213228098019
 20
103.7893566226638
 10
124.213228098019
 20
103.7893566226638
 10
124.2525344837405
 20
103.79154210508
 10
124.2927344410903
 20
103.7977755746316
 10
124.3334188649856
 20
103.8079924357792
 10
124.3740925229577
 20
103.8221496248298
 10
124.4143247780772
 20
103.8401394825511
 10
124.4536849934149
 20
103.8619404770968
 10
124.4916671705788
 20
103.8874664810808
 10
124.5278622044862
 20
103.9166744308103
 10
124.5617963945147
 20
103.9494674329762
 10
124.5930283378119
 20
103.9857916579624
 10
124.621105865602
 20
104.0256040420758
 10
124.6455768091093
 20
104.0688076920075
 10
124.6659782336347
 20
104.1153595440644
 10
124.6818687363258
 20
104.1651950027073
 10
124.6927961484067
 20
104.2182387064733
 10
124.6982975351784
 20
104.2744260598233
 10
124.6982975351784
 20
104.2744260598233
 10
124.7031314347098
 20
104.3272652110479
 10
124.7124870219987
 20
104.3781126664746
 10
124.726116680811
 20
104.4267746394851
 10
124.743815858605
 20
104.4730788753077
 10
124.7653907687628
 20
104.516820821401
 10
124.7906153268963
 20
104.5578389889164
 10
124.8192634486178
 20
104.5959288253127
 10
124.8511305813857
 20
104.630918075818
 10
124.8860014067355
 20
104.6626129538142
 10
124.9236606062025
 20
104.6908304386064
 10
124.9638820953987
 20
104.7153767435763
 10
125.0064613217829
 20
104.7361011457987
 10
125.0511937328136
 20
104.7527775608857
 10
125.0978424781796
 20
104.7652444999888
 10
125.1462030053396
 20
104.7733081764899
 10
125.1960599958289
 20
104.776785569694
 10
125.1960599958289
 20
104.776785569694
 10
125.2442375022939
 20
104.774933830898
 10
125.2912415231266
 20
104.7676022371767
 10
125.3367813783997
 20
104.7551245321504
 10
125.3806094518788
 20
104.7378452253623
 10
125.4224565954832
 20
104.7160657626632
 10
125.4620859589017
 20
104.6901521854428
 10
125.4991745644374
 20
104.6604059395516
 10
125.5334963277023
 20
104.6271607686099
 10
125.5647605687692
 20
104.5907611821612
 10
125.5927412032502
 20
104.5515301579023
 10
125.6171260193716
 20
104.5097906735302
 10
125.6376781668223
 20
104.4658872385884
 10
125.6541284975214
 20
104.4201320648507
 10
125.6662078633882
 20
104.3728696618604
 10
125.6736471163418
 20
104.3244337732378
 10
125.6761878742246
 20
104.2751366107566
 10
125.6761878742246
 20
102.0039466797243
 10
125.6693838107417
 20
101.8414027707614
 10
125.645817204786
 20
101.685135395043
 10
125.6065215849877
 20
101.5357366783468
 10
125.5525843095933
 20
101.3937664486811
 10
125.4850389072332
 20
101.2598275977467
 10
125.4049296724609
 20
101.1344799535517
 10
125.313311665753
 20
101.0182941100276
 10
125.2112291816633
 20
100.9118837247984
 10
125.0997480465917
 20
100.8157870940259
 10
124.9799017891686
 20
100.7306178753343
 10
124.8527454698706
 20
100.6569143648853
 10
124.7193341491745
 20
100.595290220303
 10
124.5807013557108
 20
100.5463160355187
 10
124.4379236818026
 20
100.5105516385407
 10
124.292023890157
 20
100.4885891551466
 10
124.1440785730972
 20
100.4810099451909
 10
119.6507482572795
 20
100.4810099451909
  0
LINE
  5
7F
330
1F
100
AcDbEntity
  8
ISS138金台
  6
Continuous
 62
   250
420
  2367521
370
    13
100
AcDbLine
 10
128.1766489064143
 20
99.22531572305564
 30
0.0
 11
138.1867182005226
 21
99.22531572305564
 31
0.0
  0
LINE
  5
80
330
1F
100
AcDbEntity
  8
ISS138金台
  6
Continuous
 62
   250
420
  2367521
370
    13
100
AcDbLine
 10
132.674565505529
 20
106.3470062390641
 30
0.0
 11
132.674565505529
 21
99.2251327023607
 31
0.0
  0
LINE
  5
81
330
1F
100
AcDbEntity
  8
ISS138金台
  6
Continuous
 62
   250
420
  2367521
370
    13
100
AcDbLine
 10
128.1766489064143
 20
106.3470062390641
 30
0.0
 11
133.1818558082402
 21
106.3470062390641
 31
0.0
  0
LINE
  5
82
330
1F
100
AcDbEntity
  8
ISS138金台
  6
Continuous
 62
   250
420
  2367521
370
    13
100
AcDbLine
 10
137.6796109185064
 20
109.3456173051406
 30
0.0
 11
137.6796109185064
 21
99.2251327023607
 31
0.0
  0
LINE
  5
83
330
1F
100
AcDbEntity
  8
ISS138金台
  6
Continuous
 62
   250
420
  2367521
370
    13
100
AcDbLine
 10
128.1766489064143
 20
109.3456173051406
 30
0.0
 11
138.1867182005226
 21
109.3456173051406
 31
0.0
  0
LINE
  5
84
330
1F
100
AcDbEntity
  8
ISS138金台
  6
Continuous
 62
   250
420
  2367521
370
    13
100
AcDbLine
 10
127.2285586428754
 20
110.4260099992825
 30
0.0
 11
127.2285586428754
 21
115.430872391565
 31
0.0
  0
LINE
  5
85
330
1F
100
AcDbEntity
  8
ISS138金台
  6
Continuous
 62
   250
420
  2367521
370
    13
100
AcDbLine
 10
112.169357480153
 20
114.9237435777023
 30
0.0
 11
127.2287308976471
 21
114.9237435777023
 31
0.0
  0
LINE
  5
86
330
1F
100
AcDbEntity
  8
ISS138金台
  6
Continuous
 62
   250
420
  2367521
370
    13
100
AcDbLine
 10
112.169357480153
 20
115.430872391565
 30
0.0
 11
112.169357480153
 21
110.4260099992825
 31
0.0
  0
HATCH
  5
87
330
1F
100
AcDbEntity
  8
ISS138金台
  6
Continuous
 62
   250
420
  2367521
370
    13
100
AcDbHatch
 10
0.0
 20
0.0
 30
0.0
210
0.0
220
0.0
230
1.0
  2
SOLID
 70
     1
 71
     0
 91
        1
 92
        3
 72
     0
 73
     1
 93
       67
 10
112.169357480153
 20
114.673446628472
 10
112.1949480796765
 20
114.6747277733367
 10
112.2198173623433
 20
114.6785173783145
 10
112.2438038393051
 20
114.6846862523267
 10
112.2667890854063
 20
114.693083672448
 10
112.2886439095681
 20
114.703601979446
 10
112.3092714184814
 20
114.7161119822421
 10
112.328520889221
 20
114.7304844897574
 10
112.3462846625545
 20
114.7466010768363
 10
112.3624120155566
 20
114.7643433183233
 10
112.3768060549183
 20
114.7835712572164
 10
112.3893268236376
 20
114.8041557024367
 10
112.3998451306357
 20
114.8259997606753
 10
112.408242550757
 20
114.8489419430835
 10
112.4144006588459
 20
114.8728745904292
 10
112.4181902638237
 20
114.8976792775567
 10
112.4194821746116
 20
114.9232160474639
 10
112.4194821746116
 20
114.9232160474639
 10
112.418201029747
 20
114.9488066469874
 10
112.4144006588459
 20
114.973665163731
 10
112.4082533166802
 20
114.9976516406928
 10
112.3998558965589
 20
115.0206476527172
 10
112.3893160577144
 20
115.042502476879
 10
112.3768060549183
 20
115.0631299857923
 10
112.3624120155566
 20
115.0823794565319
 10
112.3462846625545
 20
115.1001324639421
 10
112.328520889221
 20
115.1162705828675
 10
112.3092714184814
 20
115.130653856306
 10
112.2886439095681
 20
115.1431746250253
 10
112.2667783194831
 20
115.1536929320234
 10
112.2437930733819
 20
115.1621011180679
 10
112.2198065964201
 20
115.1682592261568
 10
112.1949588455997
 20
115.1720380652114
 10
112.169357480153
 20
115.1733299759993
 10
112.169357480153
 20
115.1733299759993
 10
112.1438207102458
 20
115.1720380652114
 10
112.1190160231183
 20
115.1682484602336
 10
112.0950941416959
 20
115.1621011180679
 10
112.0721411933644
 20
115.1536929320234
 10
112.0503079010491
 20
115.1431746250253
 10
112.0297126899055
 20
115.130653856306
 10
112.0104955169356
 20
115.1162705828675
 10
111.9927532754486
 20
115.1001324639421
 10
111.9766259224464
 20
115.0823794565319
 10
111.9622534149312
 20
115.0631299857923
 10
111.9497326462119
 20
115.042502476879
 10
111.9392143392138
 20
115.020636886794
 10
111.9308169190925
 20
114.9976516406928
 10
111.9246695769268
 20
114.973665163731
 10
111.920879971949
 20
114.9488174129106
 10
111.9195880611611
 20
114.9232160474639
 10
111.9195880611611
 20
114.9232160474639
 10
111.920879971949
 20
114.8976685116334
 10
111.9246588110036
 20
114.8728853563524
 10
111.9308169190925
 20
114.8489527090068
 10
111.9392251051371
 20
114.8259997606753
 10
111.9497326462119
 20
114.80416646836
 10
111.9622534149312
 20
114.7835604912931
 10
111.9766259224464
 20
114.7643433183233
 10
111.9927532754486
 20
114.7466010768363
 10
112.0104847510124
 20
114.7304844897574
 10
112.0297126899055
 20
114.7161012163188
 10
112.0503079010491
 20
114.7035912135228
 10
112.0721411933644
 20
114.6930729065247
 10
112.0950833757727
 20
114.6846754864034
 10
112.1190267890415
 20
114.6785173783145
 10
112.1438207102458
 20
114.6747385392599
 97
        0
 75
     1
 76
     1
 98
        0
  0
LWPOLYLINE
  5
88
330
1F
100
AcDbEntity
  8
ISS138金台
  6
Continuous
 62
   250
420
  2367521
370
    13
100
AcDbPolyline
 90
       68
 70
     0
 43
0.0
 10
112.169357480153
 20
114.673446628472
 10
112.1949480796765
 20
114.6747277733367
 10
112.2198173623433
 20
114.6785173783145
 10
112.2438038393051
 20
114.6846862523267
 10
112.2667890854063
 20
114.693083672448
 10
112.2886439095681
 20
114.703601979446
 10
112.3092714184814
 20
114.7161119822421
 10
112.328520889221
 20
114.7304844897574
 10
112.3462846625545
 20
114.7466010768363
 10
112.3624120155566
 20
114.7643433183233
 10
112.3768060549183
 20
114.7835712572164
 10
112.3893268236376
 20
114.8041557024367
 10
112.3998451306357
 20
114.8259997606753
 10
112.408242550757
 20
114.8489419430835
 10
112.4144006588459
 20
114.8728745904292
 10
112.4181902638237
 20
114.8976792775567
 10
112.4194821746116
 20
114.9232160474639
 10
112.4194821746116
 20
114.9232160474639
 10
112.418201029747
 20
114.9488066469874
 10
112.4144006588459
 20
114.973665163731
 10
112.4082533166802
 20
114.9976516406928
 10
112.3998558965589
 20
115.0206476527172
 10
112.3893160577144
 20
115.042502476879
 10
112.3768060549183
 20
115.0631299857923
 10
112.3624120155566
 20
115.0823794565319
 10
112.3462846625545
 20
115.1001324639421
 10
112.328520889221
 20
115.1162705828675
 10
112.3092714184814
 20
115.130653856306
 10
112.2886439095681
 20
115.1431746250253
 10
112.2667783194831
 20
115.1536929320234
 10
112.2437930733819
 20
115.1621011180679
 10
112.2198065964201
 20
115.1682592261568
 10
112.1949588455997
 20
115.1720380652114
 10
112.169357480153
 20
115.1733299759993
 10
112.169357480153
 20
115.1733299759993
 10
112.1438207102458
 20
115.1720380652114
 10
112.1190160231183
 20
115.1682484602336
 10
112.0950941416959
 20
115.1621011180679
 10
112.0721411933644
 20
115.1536929320234
 10
112.0503079010491
 20
115.1431746250253
 10
112.0297126899055
 20
115.130653856306
 10
112.0104955169356
 20
115.1162705828675
 10
111.9927532754486
 20
115.1001324639421
 10
111.9766259224464
 20
115.0823794565319
 10
111.9622534149312
 20
115.0631299857923
 10
111.9497326462119
 20
115.042502476879
 10
111.9392143392138
 20
115.020636886794
 10
111.9308169190925
 20
114.9976516406928
 10
111.9246695769268
 20
114.973665163731
 10
111.920879971949
 20
114.9488174129106
 10
111.9195880611611
 20
114.9232160474639
 10
111.9195880611611
 20
114.9232160474639
 10
111.920879971949
 20
114.8976685116334
 10
111.9246588110036
 20
114.8728853563524
 10
111.9308169190925
 20
114.8489527090068
 10
111.9392251051371
 20
114.8259997606753
 10
111.9497326462119
 20
114.80416646836
 10
111.9622534149312
 20
114.7835604912931
 10
111.9766259224464
 20
114.7643433183233
 10
111.9927532754486
 20
114.7466010768363
 10
112.0104847510124
 20
114.7304844897574
 10
112.0297126899055
 20
114.7161012163188
 10
112.0503079010491
 20
114.7035912135228
 10
112.0721411933644
 20
114.6930729065247
 10
112.0950833757727
 20
114.6846754864034
 10
112.1190267890415
 20
114.6785173783145
 10
112.1438207102458
 20
114.6747385392599
 10
112.169357480153
 20
114.673446628472
  0
HATCH
  5
89
330
1F
100
AcDbEntity
  8
ISS138金台
  6
Continuous
 62
   250
420
  2367521
370
    13
100
AcDbHatch
 10
0.0
 20
0.0
 30
0.0
210
0.0
220
0.0
230
1.0
  2
SOLID
 70
     1
 71
     0
 91
        1
 92
        3
 72
     0
 73
     1
 93
       67
 10
127.2285586428754
 20
114.6738019039387
 10
127.2540954127827
 20
114.6750938147266
 10
127.2788785680637
 20
114.6788726537812
 10
127.3028112154093
 20
114.6850307618701
 10
127.3257211000479
 20
114.6934281819914
 10
127.3475220945935
 20
114.7039464889895
 10
127.3680850079675
 20
114.7164564917855
 10
127.387291415014
 20
114.7308289993008
 10
127.4049905928081
 20
114.7469563523029
 10
127.4210856480406
 20
114.7646985937899
 10
127.4354258577862
 20
114.783926532683
 10
127.4479035628125
 20
114.8045109779034
 10
127.4584003379641
 20
114.8263442702187
 10
127.4667762262389
 20
114.8492972185502
 10
127.4729128024814
 20
114.8732298658959
 10
127.476691641536
 20
114.8980345530233
 10
127.4779727864006
 20
114.9235713229306
 10
127.4779727864006
 20
114.9235713229306
 10
127.4766808756128
 20
114.9491726883773
 10
127.4729020365582
 20
114.9740312051209
 10
127.4667762262389
 20
114.9980069161595
 10
127.4584003379641
 20
115.0209921622607
 10
127.4479143287357
 20
115.0428685182689
 10
127.4354258577862
 20
115.063485261259
 10
127.4210748821174
 20
115.0827347319985
 10
127.4049905928081
 20
115.1004877394088
 10
127.3872806490908
 20
115.1166150924109
 10
127.3680850079675
 20
115.1310091317727
 10
127.3475328605168
 20
115.143529900492
 10
127.3257211000479
 20
115.15404820749
 10
127.3027896835629
 20
115.1624563935345
 10
127.2788785680637
 20
115.1686145016235
 10
127.2540846468595
 20
115.1723933406781
 10
127.2285586428754
 20
115.1736852514659
 10
127.2285586428754
 20
115.1736852514659
 10
127.2029034478126
 20
115.1723933406781
 10
127.178001867376
 20
115.1686145016235
 10
127.1539938585677
 20
115.1624563935345
 10
127.1309870806201
 20
115.15404820749
 10
127.1091214905351
 20
115.143529900492
 10
127.0884832156985
 20
115.1310091317727
 10
127.0692445108822
 20
115.1166150924109
 10
127.0515130353185
 20
115.1004877394088
 10
127.0353964482395
 20
115.0827347319985
 10
127.0210239407243
 20
115.0634744953358
 10
127.0085247038514
 20
115.0428577523457
 10
126.9980171627766
 20
115.0209921622607
 10
126.9896412745018
 20
114.9980069161595
 10
126.9834939323361
 20
114.9740204391977
 10
126.9797150932815
 20
114.9491726883773
 10
126.9784339484168
 20
114.9235713229306
 10
126.9784339484168
 20
114.9235713229306
 10
126.9797258592047
 20
114.8980237871001
 10
126.9834939323361
 20
114.8732298658959
 10
126.9896412745018
 20
114.8492972185502
 10
126.9980171627766
 20
114.8263550361419
 10
127.0085139379282
 20
114.8045217438266
 10
127.0210239407243
 20
114.7839157667598
 10
127.0353856823163
 20
114.7646985937899
 10
127.0515022693952
 20
114.7469563523029
 10
127.0692445108822
 20
114.730839765224
 10
127.0884939816218
 20
114.7164564917855
 10
127.1091107246118
 20
114.7039464889895
 10
127.1309870806201
 20
114.6934281819914
 10
127.1539938585677
 20
114.6850307618701
 10
127.178001867376
 20
114.6788726537812
 10
127.2029034478126
 20
114.6750938147266
 97
        0
 75
     1
 76
     1
 98
        0
  0
LWPOLYLINE
  5
8A
330
1F
100
AcDbEntity
  8
ISS138金台
  6
Continuous
 62
   250
420
  2367521
370
    13
100
AcDbPolyline
 90
       68
 70
     0
 43
0.0
 10
127.2285586428754
 20
114.6738019039387
 10
127.2540954127827
 20
114.6750938147266
 10
127.2788785680637
 20
114.6788726537812
 10
127.3028112154093
 20
114.6850307618701
 10
127.3257211000479
 20
114.6934281819914
 10
127.3475220945935
 20
114.7039464889895
 10
127.3680850079675
 20
114.7164564917855
 10
127.387291415014
 20
114.7308289993008
 10
127.4049905928081
 20
114.7469563523029
 10
127.4210856480406
 20
114.7646985937899
 10
127.4354258577862
 20
114.783926532683
 10
127.4479035628125
 20
114.8045109779034
 10
127.4584003379641
 20
114.8263442702187
 10
127.4667762262389
 20
114.8492972185502
 10
127.4729128024814
 20
114.8732298658959
 10
127.476691641536
 20
114.8980345530233
 10
127.4779727864006
 20
114.9235713229306
 10
127.4779727864006
 20
114.9235713229306
 10
127.4766808756128
 20
114.9491726883773
 10
127.4729020365582
 20
114.9740312051209
 10
127.4667762262389
 20
114.9980069161595
 10
127.4584003379641
 20
115.0209921622607
 10
127.4479143287357
 20
115.0428685182689
 10
127.4354258577862
 20
115.063485261259
 10
127.4210748821174
 20
115.0827347319985
 10
127.4049905928081
 20
115.1004877394088
 10
127.3872806490908
 20
115.1166150924109
 10
127.3680850079675
 20
115.1310091317727
 10
127.3475328605168
 20
115.143529900492
 10
127.3257211000479
 20
115.15404820749
 10
127.3027896835629
 20
115.1624563935345
 10
127.2788785680637
 20
115.1686145016235
 10
127.2540846468595
 20
115.1723933406781
 10
127.2285586428754
 20
115.1736852514659
 10
127.2285586428754
 20
115.1736852514659
 10
127.2029034478126
 20
115.1723933406781
 10
127.178001867376
 20
115.1686145016235
 10
127.1539938585677
 20
115.1624563935345
 10
127.1309870806201
 20
115.15404820749
 10
127.1091214905351
 20
115.143529900492
 10
127.0884832156985
 20
115.1310091317727
 10
127.0692445108822
 20
115.1166150924109
 10
127.0515130353185
 20
115.1004877394088
 10
127.0353964482395
 20
115.0827347319985
 10
127.0210239407243
 20
115.0634744953358
 10
127.0085247038514
 20
115.0428577523457
 10
126.9980171627766
 20
115.0209921622607
 10
126.9896412745018
 20
114.9980069161595
 10
126.9834939323361
 20
114.9740204391977
 10
126.9797150932815
 20
114.9491726883773
 10
126.9784339484168
 20
114.9235713229306
 10
126.9784339484168
 20
114.9235713229306
 10
126.9797258592047
 20
114.8980237871001
 10
126.9834939323361
 20
114.8732298658959
 10
126.9896412745018
 20
114.8492972185502
 10
126.9980171627766
 20
114.8263550361419
 10
127.0085139379282
 20
114.8045217438266
 10
127.0210239407243
 20
114.7839157667598
 10
127.0353856823163
 20
114.7646985937899
 10
127.0515022693952
 20
114.7469563523029
 10
127.0692445108822
 20
114.730839765224
 10
127.0884939816218
 20
114.7164564917855
 10
127.1091107246118
 20
114.7039464889895
 10
127.1309870806201
 20
114.6934281819914
 10
127.1539938585677
 20
114.6850307618701
 10
127.178001867376
 20
114.6788726537812
 10
127.2029034478126
 20
114.6750938147266
 10
127.2285586428754
 20
114.6738019039387
  0
HATCH
  5
8B
330
1F
100
AcDbEntity
  8
ISS138金台
  6
Continuous
 62
   250
420
  2367521
370
    13
100
AcDbHatch
 10
0.0
 20
0.0
 30
0.0
210
0.0
220
0.0
230
1.0
  2
SOLID
 70
     1
 71
     0
 91
        1
 92
        3
 72
     0
 73
     1
 93
       67
 10
132.674565505529
 20
106.0965478009853
 10
132.7001561050525
 20
106.0978397117732
 10
132.7250253877193
 20
106.1016185508278
 10
132.7490118646812
 20
106.107744361147
 10
132.7719971107824
 20
106.1161310153451
 10
132.7938519349441
 20
106.1266277904967
 10
132.8144794438574
 20
106.1391162614463
 10
132.833728914597
 20
106.1534672371151
 10
132.8514926879305
 20
106.1695730582708
 10
132.8676200409326
 20
106.1872937679113
 10
132.8820140802943
 20
106.2065217068044
 10
132.8945348490136
 20
106.2271061520247
 10
132.9050531560117
 20
106.2489502102633
 10
132.9134613420562
 20
106.271913924518
 10
132.9196086842219
 20
106.2958788696334
 10
132.9233982891997
 20
106.3207266204538
 10
132.9246901999876
 20
106.3463172199772
 10
132.9246901999876
 20
106.3463172199772
 10
132.9234090551229
 20
106.3719185854239
 10
132.9196086842219
 20
106.396755570321
 10
132.9134613420562
 20
106.4207528132061
 10
132.9050639219349
 20
106.4437488252305
 10
132.8945240830904
 20
106.4656036493923
 10
132.8820248462176
 20
106.4862311583056
 10
132.8676200409326
 20
106.5054806290452
 10
132.8514926879305
 20
106.5232336364554
 10
132.833728914597
 20
106.5393609894575
 10
132.8144794438574
 20
106.5537550288193
 10
132.7938519349441
 20
106.5662757975386
 10
132.7719863448591
 20
106.5767941045366
 10
132.7490010987579
 20
106.5852022905811
 10
132.7250146217961
 20
106.5913496327469
 10
132.7001668709757
 20
106.5951392377247
 10
132.674565505529
 20
106.5964311485125
 10
132.674565505529
 20
106.5964311485125
 10
132.6489641400824
 20
106.5951500036479
 10
132.6241271551852
 20
106.5913496327469
 10
132.6001729759931
 20
106.5852022905811
 10
132.5771984958151
 20
106.5768048704599
 10
132.5553544375766
 20
106.5662650316153
 10
132.5347699923562
 20
106.5537657947425
 10
132.5155528193864
 20
106.5393609894575
 10
132.4978213438226
 20
106.5232336364554
 10
132.4817155226669
 20
106.5054698631219
 10
132.4673645469981
 20
106.4862311583056
 10
132.4548760760485
 20
106.4656036493923
 10
132.4443793008969
 20
106.4437380593073
 10
132.4359926466988
 20
106.4207528132061
 10
132.4298560704564
 20
106.3967663362443
 10
132.4260879973251
 20
106.3719185854239
 10
132.4247960865371
 20
106.3463172199772
 10
132.4247960865371
 20
106.3463172199772
 10
132.4260879973251
 20
106.3207266204538
 10
132.4298560704564
 20
106.2958896355566
 10
132.4359926466988
 20
106.271913924518
 10
132.4443793008969
 20
106.2489502102633
 10
132.4548653101253
 20
106.2271061520247
 10
132.4673645469981
 20
106.2065109408811
 10
132.4817155226669
 20
106.1872937679113
 10
132.4978213438226
 20
106.1695730582708
 10
132.5155528193864
 20
106.1534672371151
 10
132.5347699923562
 20
106.139105495523
 10
132.5553544375766
 20
106.1266277904967
 10
132.5771984958151
 20
106.1161310153451
 10
132.6001622100699
 20
106.107744361147
 10
132.6241271551852
 20
106.1016077849045
 10
132.6489749060056
 20
106.09782894585
 97
        0
 75
     1
 76
     1
 98
        0
  0
LWPOLYLINE
  5
8C
330
1F
100
AcDbEntity
  8
ISS138金台
  6
Continuous
 62
   250
420
  2367521
370
    13
100
AcDbPolyline
 90
       68
 70
     0
 43
0.0
 10
132.674565505529
 20
106.0965478009853
 10
132.7001561050525
 20
106.0978397117732
 10
132.7250253877193
 20
106.1016185508278
 10
132.7490118646812
 20
106.107744361147
 10
132.7719971107824
 20
106.1161310153451
 10
132.7938519349441
 20
106.1266277904967
 10
132.8144794438574
 20
106.1391162614463
 10
132.833728914597
 20
106.1534672371151
 10
132.8514926879305
 20
106.1695730582708
 10
132.8676200409326
 20
106.1872937679113
 10
132.8820140802943
 20
106.2065217068044
 10
132.8945348490136
 20
106.2271061520247
 10
132.9050531560117
 20
106.2489502102633
 10
132.9134613420562
 20
106.271913924518
 10
132.9196086842219
 20
106.2958788696334
 10
132.9233982891997
 20
106.3207266204538
 10
132.9246901999876
 20
106.3463172199772
 10
132.9246901999876
 20
106.3463172199772
 10
132.9234090551229
 20
106.3719185854239
 10
132.9196086842219
 20
106.396755570321
 10
132.9134613420562
 20
106.4207528132061
 10
132.9050639219349
 20
106.4437488252305
 10
132.8945240830904
 20
106.4656036493923
 10
132.8820248462176
 20
106.4862311583056
 10
132.8676200409326
 20
106.5054806290452
 10
132.8514926879305
 20
106.5232336364554
 10
132.833728914597
 20
106.5393609894575
 10
132.8144794438574
 20
106.5537550288193
 10
132.7938519349441
 20
106.5662757975386
 10
132.7719863448591
 20
106.5767941045366
 10
132.7490010987579
 20
106.5852022905811
 10
132.7250146217961
 20
106.5913496327469
 10
132.7001668709757
 20
106.5951392377247
 10
132.674565505529
 20
106.5964311485125
 10
132.674565505529
 20
106.5964311485125
 10
132.6489641400824
 20
106.5951500036479
 10
132.6241271551852
 20
106.5913496327469
 10
132.6001729759931
 20
106.5852022905811
 10
132.5771984958151
 20
106.5768048704599
 10
132.5553544375766
 20
106.5662650316153
 10
132.5347699923562
 20
106.5537657947425
 10
132.5155528193864
 20
106.5393609894575
 10
132.4978213438226
 20
106.5232336364554
 10
132.4817155226669
 20
106.5054698631219
 10
132.4673645469981
 20
106.4862311583056
 10
132.4548760760485
 20
106.4656036493923
 10
132.4443793008969
 20
106.4437380593073
 10
132.4359926466988
 20
106.4207528132061
 10
132.4298560704564
 20
106.3967663362443
 10
132.4260879973251
 20
106.3719185854239
 10
132.4247960865371
 20
106.3463172199772
 10
132.4247960865371
 20
106.3463172199772
 10
132.4260879973251
 20
106.3207266204538
 10
132.4298560704564
 20
106.2958896355566
 10
132.4359926466988
 20
106.271913924518
 10
132.4443793008969
 20
106.2489502102633
 10
132.4548653101253
 20
106.2271061520247
 10
132.4673645469981
 20
106.2065109408811
 10
132.4817155226669
 20
106.1872937679113
 10
132.4978213438226
 20
106.1695730582708
 10
132.5155528193864
 20
106.1534672371151
 10
132.5347699923562
 20
106.139105495523
 10
132.5553544375766
 20
106.1266277904967
 10
132.5771984958151
 20
106.1161310153451
 10
132.6001622100699
 20
106.107744361147
 10
132.6241271551852
 20
106.1016077849045
 10
132.6489749060056
 20
106.09782894585
 10
132.674565505529
 20
106.0965478009853
  0
HATCH
  5
8D
330
1F
100
AcDbEntity
  8
ISS138金台
  6
Continuous
 62
   250
420
  2367521
370
    13
100
AcDbHatch
 10
0.0
 20
0.0
 30
0.0
210
0.0
220
0.0
230
1.0
  2
SOLID
 70
     1
 71
     0
 91
        1
 92
        3
 72
     0
 73
     1
 93
       67
 10
137.6796109185064
 20
109.0951588670618
 10
137.7052122839531
 20
109.0964615437729
 10
137.7300708006967
 20
109.1002403828275
 10
137.7540465117353
 20
109.1063877249932
 10
137.7770425237597
 20
109.1147959110377
 10
137.7989081138447
 20
109.1253034521126
 10
137.8195248568348
 20
109.1378134549086
 10
137.8387743275744
 20
109.1521859624239
 10
137.8565273349846
 20
109.168313315426
 10
137.8726762198332
 20
109.1860447909898
 10
137.8870487273485
 20
109.2052834958061
 10
137.899580261991
 20
109.2258787069497
 10
137.9100985689891
 20
109.2477012333418
 10
137.9184959891103
 20
109.2706541816733
 10
137.9246540971993
 20
109.294586829019
 10
137.9284437021771
 20
109.3193915161464
 10
137.929735612965
 20
109.3449282860537
 10
137.929735612965
 20
109.3449282860537
 10
137.9284329362538
 20
109.3705296515004
 10
137.9246540971993
 20
109.3953666363975
 10
137.9185067550336
 20
109.4193638792826
 10
137.9100985689891
 20
109.442359891307
 10
137.8995694960678
 20
109.4642147154688
 10
137.8870594932717
 20
109.4848422243821
 10
137.87266545391
 20
109.5040916951216
 10
137.8565273349846
 20
109.5218447025319
 10
137.8387743275744
 20
109.537972055534
 10
137.8195248568348
 20
109.5523660948958
 10
137.7988973479215
 20
109.5648868636151
 10
137.7770317578365
 20
109.5754051706131
 10
137.7540465117353
 20
109.5838133566576
 10
137.7300600347735
 20
109.5899606988233
 10
137.7052122839531
 20
109.5937503038011
 10
137.6796109185064
 20
109.595042214589
 10
137.6796109185064
 20
109.595042214589
 10
137.654020318983
 20
109.5937610697244
 10
137.6291725681626
 20
109.5899606988233
 10
137.6052076230472
 20
109.5838133566576
 10
137.5822439087925
 20
109.5754159365363
 10
137.5603998505539
 20
109.5648760976918
 10
137.5398154053336
 20
109.552376860819
 10
137.5205982323637
 20
109.537972055534
 10
137.5028667568
 20
109.5218447025319
 10
137.4867717015675
 20
109.5040809291984
 10
137.4723991940522
 20
109.4848422243821
 10
137.4599214890259
 20
109.4642147154688
 10
137.4494247138743
 20
109.4423491253838
 10
137.4410380596762
 20
109.4193638792826
 10
137.4349014834337
 20
109.3953774023208
 10
137.4311226443792
 20
109.3705296515004
 10
137.4298414995145
 20
109.3449282860537
 10
137.4298414995145
 20
109.3449282860537
 10
137.4311334103024
 20
109.3193915161464
 10
137.4349014834337
 20
109.2945975949422
 10
137.4410488255995
 20
109.2706541816733
 10
137.4494247138743
 20
109.2477012333418
 10
137.4599214890259
 20
109.2258679410265
 10
137.4724099599755
 20
109.2052834958061
 10
137.4867717015675
 20
109.1860447909898
 10
137.5028667568
 20
109.168313315426
 10
137.5205982323637
 20
109.1521967283471
 10
137.5398046394104
 20
109.1378134549086
 10
137.5603998505539
 20
109.1253034521126
 10
137.5822439087925
 20
109.1147851451145
 10
137.6052076230472
 20
109.1063877249932
 10
137.6291725681626
 20
109.1002296169043
 10
137.654020318983
 20
109.0964507778497
 97
        0
 75
     1
 76
     1
 98
        0
  0
LWPOLYLINE
  5
8E
330
1F
100
AcDbEntity
  8
ISS138金台
  6
Continuous
 62
   250
420
  2367521
370
    13
100
AcDbPolyline
 90
       68
 70
     0
 43
0.0
 10
137.6796109185064
 20
109.0951588670618
 10
137.7052122839531
 20
109.0964615437729
 10
137.7300708006967
 20
109.1002403828275
 10
137.7540465117353
 20
109.1063877249932
 10
137.7770425237597
 20
109.1147959110377
 10
137.7989081138447
 20
109.1253034521126
 10
137.8195248568348
 20
109.1378134549086
 10
137.8387743275744
 20
109.1521859624239
 10
137.8565273349846
 20
109.168313315426
 10
137.8726762198332
 20
109.1860447909898
 10
137.8870487273485
 20
109.2052834958061
 10
137.899580261991
 20
109.2258787069497
 10
137.9100985689891
 20
109.2477012333418
 10
137.9184959891103
 20
109.2706541816733
 10
137.9246540971993
 20
109.294586829019
 10
137.9284437021771
 20
109.3193915161464
 10
137.929735612965
 20
109.3449282860537
 10
137.929735612965
 20
109.3449282860537
 10
137.9284329362538
 20
109.3705296515004
 10
137.9246540971993
 20
109.3953666363975
 10
137.9185067550336
 20
109.4193638792826
 10
137.9100985689891
 20
109.442359891307
 10
137.8995694960678
 20
109.4642147154688
 10
137.8870594932717
 20
109.4848422243821
 10
137.87266545391
 20
109.5040916951216
 10
137.8565273349846
 20
109.5218447025319
 10
137.8387743275744
 20
109.537972055534
 10
137.8195248568348
 20
109.5523660948958
 10
137.7988973479215
 20
109.5648868636151
 10
137.7770317578365
 20
109.5754051706131
 10
137.7540465117353
 20
109.5838133566576
 10
137.7300600347735
 20
109.5899606988233
 10
137.7052122839531
 20
109.5937503038011
 10
137.6796109185064
 20
109.595042214589
 10
137.6796109185064
 20
109.595042214589
 10
137.654020318983
 20
109.5937610697244
 10
137.6291725681626
 20
109.5899606988233
 10
137.6052076230472
 20
109.5838133566576
 10
137.5822439087925
 20
109.5754159365363
 10
137.5603998505539
 20
109.5648760976918
 10
137.5398154053336
 20
109.552376860819
 10
137.5205982323637
 20
109.537972055534
 10
137.5028667568
 20
109.5218447025319
 10
137.4867717015675
 20
109.5040809291984
 10
137.4723991940522
 20
109.4848422243821
 10
137.4599214890259
 20
109.4642147154688
 10
137.4494247138743
 20
109.4423491253838
 10
137.4410380596762
 20
109.4193638792826
 10
137.4349014834337
 20
109.3953774023208
 10
137.4311226443792
 20
109.3705296515004
 10
137.4298414995145
 20
109.3449282860537
 10
137.4298414995145
 20
109.3449282860537
 10
137.4311334103024
 20
109.3193915161464
 10
137.4349014834337
 20
109.2945975949422
 10
137.4410488255995
 20
109.2706541816733
 10
137.4494247138743
 20
109.2477012333418
 10
137.4599214890259
 20
109.2258679410265
 10
137.4724099599755
 20
109.2052834958061
 10
137.4867717015675
 20
109.1860447909898
 10
137.5028667568
 20
109.168313315426
 10
137.5205982323637
 20
109.1521967283471
 10
137.5398046394104
 20
109.1378134549086
 10
137.5603998505539
 20
109.1253034521126
 10
137.5822439087925
 20
109.1147851451145
 10
137.6052076230472
 20
109.1063877249932
 10
137.6291725681626
 20
109.1002296169043
 10
137.654020318983
 20
109.0964507778497
 10
137.6796109185064
 20
109.0951588670618
  0
HATCH
  5
8F
330
1F
100
AcDbEntity
  8
ISS138金台
  6
Continuous
 62
   250
420
  2367521
370
    13
100
AcDbHatch
 10
0.0
 20
0.0
 30
0.0
210
0.0
220
0.0
230
1.0
  2
SOLID
 70
     1
 71
     0
 91
        1
 92
        3
 72
     0
 73
     1
 93
       67
 10
137.6796109185064
 20
98.9751910285971
 10
137.7051476884137
 20
98.97648293938497
 10
137.7299416096179
 20
98.98026177843954
 10
137.7538742569636
 20
98.9864198865285
 10
137.7768272052951
 20
98.994828072573
 10
137.7986604976104
 20
99.00534637957107
 10
137.819255708754
 20
99.01786714829035
 10
137.8384836476471
 20
99.03225042172886
 10
137.8562258891341
 20
99.04838854065423
 10
137.872342476213
 20
99.06615231398771
 10
137.8867149837283
 20
99.08540178472725
 10
137.8992357524476
 20
99.10601852771732
 10
137.9097540594456
 20
99.12788411780235
 10
137.9181514795669
 20
99.15088012982677
 10
137.9243095876558
 20
99.17485584086535
 10
137.9280884267104
 20
99.19971435760898
 10
137.9293803374983
 20
99.22531572305564
 10
137.9293803374983
 20
99.22531572305564
 10
137.9280884267104
 20
99.25085249296293
 10
137.9242988217326
 20
99.2756571800904
 10
137.9181514795669
 20
99.29957906151282
 10
137.9097540594456
 20
99.32253200984431
 10
137.8992357524476
 20
99.34436530215963
 10
137.8867257496515
 20
99.36496051330323
 10
137.872342476213
 20
99.38418845219631
 10
137.8562258891341
 20
99.40191992776009
 10
137.8384836476471
 20
99.418036514839
 10
137.819255708754
 20
99.43241978827751
 10
137.7986604976104
 20
99.44492979107358
 10
137.7768272052951
 20
99.45544809807163
 10
137.7538850228868
 20
99.46384551819291
 10
137.7299416096179
 20
99.47000362628185
 10
137.7051476884137
 20
99.47378246533643
 10
137.6796109185064
 20
99.47507437612431
 10
137.6796109185064
 20
99.47507437612431
 10
137.654020318983
 20
99.47378246533643
 10
137.6291618022394
 20
99.47000362628185
 10
137.6051753252775
 20
99.46384551819291
 10
137.5821900791763
 20
99.45544809807163
 10
137.5603244890913
 20
99.44492979107358
 10
137.539696980178
 20
99.43241978827751
 10
137.5204475094385
 20
99.418036514839
 10
137.5026945020282
 20
99.40191992776009
 10
137.4865563831029
 20
99.38418845219631
 10
137.4721623437411
 20
99.36494974738
 10
137.4596415750218
 20
99.34436530215963
 10
137.4491232680238
 20
99.32253200984431
 10
137.4407150819792
 20
99.29958982743605
 10
137.4345569738903
 20
99.27564641416717
 10
137.4307781348357
 20
99.25085249296293
 10
137.4294862240478
 20
99.22531572305564
 10
137.4294862240478
 20
99.22531572305564
 10
137.4307673689125
 20
99.19970359168575
 10
137.4345569738903
 20
99.17485584086535
 10
137.4407258479025
 20
99.15088012982677
 10
137.4491232680238
 20
99.12789488372559
 10
137.4596415750218
 20
99.10602929364055
 10
137.4721623437411
 20
99.08540178472725
 10
137.4865563831029
 20
99.06615231398771
 10
137.5026945020282
 20
99.04839930657747
 10
137.5204475094385
 20
99.0322611876521
 10
137.539696980178
 20
99.01786714829035
 10
137.5603244890913
 20
99.00534637957107
 10
137.5821900791763
 20
98.994828072573
 10
137.6051753252775
 20
98.9864198865285
 10
137.6291618022394
 20
98.98026177843954
 10
137.6540095530598
 20
98.97648293938497
 97
        0
 75
     1
 76
     1
 98
        0
  0
LWPOLYLINE
  5
90
330
1F
100
AcDbEntity
  8
ISS138金台
  6
Continuous
 62
   250
420
  2367521
370
    13
100
AcDbPolyline
 90
       68
 70
     0
 43
0.0
 10
137.6796109185064
 20
98.9751910285971
 10
137.7051476884137
 20
98.97648293938497
 10
137.7299416096179
 20
98.98026177843954
 10
137.7538742569636
 20
98.9864198865285
 10
137.7768272052951
 20
98.994828072573
 10
137.7986604976104
 20
99.00534637957107
 10
137.819255708754
 20
99.01786714829035
 10
137.8384836476471
 20
99.03225042172886
 10
137.8562258891341
 20
99.04838854065423
 10
137.872342476213
 20
99.06615231398771
 10
137.8867149837283
 20
99.08540178472725
 10
137.8992357524476
 20
99.10601852771732
 10
137.9097540594456
 20
99.12788411780235
 10
137.9181514795669
 20
99.15088012982677
 10
137.9243095876558
 20
99.17485584086535
 10
137.9280884267104
 20
99.19971435760898
 10
137.9293803374983
 20
99.22531572305564
 10
137.9293803374983
 20
99.22531572305564
 10
137.9280884267104
 20
99.25085249296293
 10
137.9242988217326
 20
99.2756571800904
 10
137.9181514795669
 20
99.29957906151282
 10
137.9097540594456
 20
99.32253200984431
 10
137.8992357524476
 20
99.34436530215963
 10
137.8867257496515
 20
99.36496051330323
 10
137.872342476213
 20
99.38418845219631
 10
137.8562258891341
 20
99.40191992776009
 10
137.8384836476471
 20
99.418036514839
 10
137.819255708754
 20
99.43241978827751
 10
137.7986604976104
 20
99.44492979107358
 10
137.7768272052951
 20
99.45544809807163
 10
137.7538850228868
 20
99.46384551819291
 10
137.7299416096179
 20
99.47000362628185
 10
137.7051476884137
 20
99.47378246533643
 10
137.6796109185064
 20
99.47507437612431
 10
137.6796109185064
 20
99.47507437612431
 10
137.654020318983
 20
99.47378246533643
 10
137.6291618022394
 20
99.47000362628185
 10
137.6051753252775
 20
99.46384551819291
 10
137.5821900791763
 20
99.45544809807163
 10
137.5603244890913
 20
99.44492979107358
 10
137.539696980178
 20
99.43241978827751
 10
137.5204475094385
 20
99.418036514839
 10
137.5026945020282
 20
99.40191992776009
 10
137.4865563831029
 20
99.38418845219631
 10
137.4721623437411
 20
99.36494974738
 10
137.4596415750218
 20
99.34436530215963
 10
137.4491232680238
 20
99.32253200984431
 10
137.4407150819792
 20
99.29958982743605
 10
137.4345569738903
 20
99.27564641416717
 10
137.4307781348357
 20
99.25085249296293
 10
137.4294862240478
 20
99.22531572305564
 10
137.4294862240478
 20
99.22531572305564
 10
137.4307673689125
 20
99.19970359168575
 10
137.4345569738903
 20
99.17485584086535
 10
137.4407258479025
 20
99.15088012982677
 10
137.4491232680238
 20
99.12789488372559
 10
137.4596415750218
 20
99.10602929364055
 10
137.4721623437411
 20
99.08540178472725
 10
137.4865563831029
 20
99.06615231398771
 10
137.5026945020282
 20
99.04839930657747
 10
137.5204475094385
 20
99.0322611876521
 10
137.539696980178
 20
99.01786714829035
 10
137.5603244890913
 20
99.00534637957107
 10
137.5821900791763
 20
98.994828072573
 10
137.6051753252775
 20
98.9864198865285
 10
137.6291618022394
 20
98.98026177843954
 10
137.6540095530598
 20
98.97648293938497
 10
137.6796109185064
 20
98.9751910285971
  0
HATCH
  5
91
330
1F
100
AcDbEntity
  8
ISS138金台
  6
Continuous
 62
   250
420
  2367521
370
    13
100
AcDbHatch
 10
0.0
 20
0.0
 30
0.0
210
0.0
220
0.0
230
1.0
  2
SOLID
 70
     1
 71
     0
 91
        1
 92
        3
 72
     0
 73
     1
 93
       67
 10
132.674565505529
 20
98.9748357531304
 10
132.7001561050525
 20
98.97611689799507
 10
132.7250253877193
 20
98.97988497112641
 10
132.7490118646812
 20
98.98604307921536
 10
132.7719971107824
 20
98.99440820156693
 10
132.7938519349441
 20
99.00491574264177
 10
132.8144794438574
 20
99.01740421359136
 10
132.833728914597
 20
99.0317659551834
 10
132.8514926879305
 20
99.04786101041586
 10
132.8676200409326
 20
99.0655817200564
 10
132.8820140802943
 20
99.08480965894947
 10
132.8945348490136
 20
99.10539410416985
 10
132.9050531560117
 20
99.1272381624084
 10
132.9134613420562
 20
99.15020187666313
 10
132.9196086842219
 20
99.17416682177847
 10
132.9233982891997
 20
99.19901457259888
 10
132.9246901999876
 20
99.22460517212231
 10
132.9246901999876
 20
99.22460517212231
 10
132.9234090551229
 20
99.25019577164575
 10
132.9196086842219
 20
99.27505428838938
 10
132.9134613420562
 20
99.29904076535118
 10
132.9050639219349
 20
99.32203677737562
 10
132.8945240830904
 20
99.34389160153741
 10
132.8820248462176
 20
99.3645191104507
 10
132.8676200409326
 20
99.38376858119025
 10
132.8514926879305
 20
99.4015215886005
 10
132.833728914597
 20
99.41765970752587
 10
132.8144794438574
 20
99.43204298096438
 10
132.7938519349441
 20
99.44456374968367
 10
132.7719863448591
 20
99.45508205668173
 10
132.7490010987579
 20
99.46349024272624
 10
132.7250146217961
 20
99.46964835081518
 10
132.7001668709757
 20
99.47342718986975
 10
132.674565505529
 20
99.47471910065764
 10
132.674565505529
 20
99.47471910065764
 10
132.6489641400824
 20
99.47342718986975
 10
132.6241271551852
 20
99.46963758489196
 10
132.6001729759931
 20
99.46349024272624
 10
132.5771984958151
 20
99.45508205668173
 10
132.5553544375766
 20
99.44456374968367
 10
132.5347699923562
 20
99.43204298096438
 10
132.5155528193864
 20
99.41765970752587
 10
132.4978213438226
 20
99.4015215886005
 10
132.4817155226669
 20
99.38375781526702
 10
132.4673645469981
 20
99.3645191104507
 10
132.4548760760485
 20
99.34389160153741
 10
132.4443793008969
 20
99.32202601145238
 10
132.4359926466988
 20
99.29904076535118
 10
132.4298560704564
 20
99.27505428838938
 10
132.4260879973251
 20
99.25020653756897
 10
132.4247960865371
 20
99.22460517212231
 10
132.4247960865371
 20
99.22460517212231
 10
132.4260879973251
 20
99.19900380667565
 10
132.4298560704564
 20
99.1741775877017
 10
132.4359926466988
 20
99.15021264258635
 10
132.4443793008969
 20
99.1272381624084
 10
132.4548653101253
 20
99.10540487009308
 10
132.4673645469981
 20
99.08479889302625
 10
132.4817155226669
 20
99.06559248597964
 10
132.4978213438226
 20
99.04786101041586
 10
132.5155528193864
 20
99.03175518926017
 10
132.5347699923562
 20
99.01740421359136
 10
132.5553544375766
 20
99.00491574264177
 10
132.5771984958151
 20
98.99440820156693
 10
132.6001622100699
 20
98.98603231329213
 10
132.6241271551852
 20
98.97989573704965
 10
132.6489749060056
 20
98.97611689799507
 97
        0
 75
     1
 76
     1
 98
        0
  0
LWPOLYLINE
  5
92
330
1F
100
AcDbEntity
  8
ISS138金台
  6
Continuous
 62
   250
420
  2367521
370
    13
100
AcDbPolyline
 90
       68
 70
     0
 43
0.0
 10
132.674565505529
 20
98.9748357531304
 10
132.7001561050525
 20
98.97611689799507
 10
132.7250253877193
 20
98.97988497112641
 10
132.7490118646812
 20
98.98604307921536
 10
132.7719971107824
 20
98.99440820156693
 10
132.7938519349441
 20
99.00491574264177
 10
132.8144794438574
 20
99.01740421359136
 10
132.833728914597
 20
99.0317659551834
 10
132.8514926879305
 20
99.04786101041586
 10
132.8676200409326
 20
99.0655817200564
 10
132.8820140802943
 20
99.08480965894947
 10
132.8945348490136
 20
99.10539410416985
 10
132.9050531560117
 20
99.1272381624084
 10
132.9134613420562
 20
99.15020187666313
 10
132.9196086842219
 20
99.17416682177847
 10
132.9233982891997
 20
99.19901457259888
 10
132.9246901999876
 20
99.22460517212231
 10
132.9246901999876
 20
99.22460517212231
 10
132.9234090551229
 20
99.25019577164575
 10
132.9196086842219
 20
99.27505428838938
 10
132.9134613420562
 20
99.29904076535118
 10
132.9050639219349
 20
99.32203677737562
 10
132.8945240830904
 20
99.34389160153741
 10
132.8820248462176
 20
99.3645191104507
 10
132.8676200409326
 20
99.38376858119025
 10
132.8514926879305
 20
99.4015215886005
 10
132.833728914597
 20
99.41765970752587
 10
132.8144794438574
 20
99.43204298096438
 10
132.7938519349441
 20
99.44456374968367
 10
132.7719863448591
 20
99.45508205668173
 10
132.7490010987579
 20
99.46349024272624
 10
132.7250146217961
 20
99.46964835081518
 10
132.7001668709757
 20
99.47342718986975
 10
132.674565505529
 20
99.47471910065764
 10
132.674565505529
 20
99.47471910065764
 10
132.6489641400824
 20
99.47342718986975
 10
132.6241271551852
 20
99.46963758489196
 10
132.6001729759931
 20
99.46349024272624
 10
132.5771984958151
 20
99.45508205668173
 10
132.5553544375766
 20
99.44456374968367
 10
132.5347699923562
 20
99.43204298096438
 10
132.5155528193864
 20
99.41765970752587
 10
132.4978213438226
 20
99.4015215886005
 10
132.4817155226669
 20
99.38375781526702
 10
132.4673645469981
 20
99.3645191104507
 10
132.4548760760485
 20
99.34389160153741
 10
132.4443793008969
 20
99.32202601145238
 10
132.4359926466988
 20
99.29904076535118
 10
132.4298560704564
 20
99.27505428838938
 10
132.4260879973251
 20
99.25020653756897
 10
132.4247960865371
 20
99.22460517212231
 10
132.4247960865371
 20
99.22460517212231
 10
132.4260879973251
 20
99.19900380667565
 10
132.4298560704564
 20
99.1741775877017
 10
132.4359926466988
 20
99.15021264258635
 10
132.4443793008969
 20
99.1272381624084
 10
132.4548653101253
 20
99.10540487009308
 10
132.4673645469981
 20
99.08479889302625
 10
132.4817155226669
 20
99.06559248597964
 10
132.4978213438226
 20
99.04786101041586
 10
132.5155528193864
 20
99.03175518926017
 10
132.5347699923562
 20
99.01740421359136
 10
132.5553544375766
 20
99.00491574264177
 10
132.5771984958151
 20
98.99440820156693
 10
132.6001622100699
 20
98.98603231329213
 10
132.6241271551852
 20
98.97989573704965
 10
132.6489749060056
 20
98.97611689799507
 10
132.674565505529
 20
98.9748357531304
  0
TEXT
  5
93
330
1F
100
AcDbEntity
  8
ISS138金台
  6
Continuous
 62
   250
420
  2367521
100
AcDbText
 10
131.5928130322191
 20
102.2680132273746
 30
0.0
 40
2.150533301035563
  1
7
 50
90.00000250447816
 41
1.024999618530273
  7
MS Gothic
100
AcDbText
  0
TEXT
  5
94
330
1F
100
AcDbEntity
  8
ISS138金台
  6
Continuous
 62
   250
420
  2367521
100
AcDbText
 10
136.6191965050431
 20
102.5756387178175
 30
0.0
 40
2.150533301035563
  1
10
 50
90.00000250447816
 41
0.9978761672973631
  7
MS Gothic
100
AcDbText
  0
TEXT
  5
95
330
1F
100
AcDbEntity
  8
ISS138金台
  6
Continuous
 62
   250
420
  2367521
100
AcDbText
 10
118.1442080238291
 20
116.0492810607984
 30
0.0
 40
2.150533301035563
  1
15
 41
0.9618744850158689
  7
MS Gothic
100
AcDbText
  0
LINE
  5
96
330
1F
100
AcDbEntity
  8
ISS138金台
  6
UserDefined01
 62
   140
420
    44526
370
    13
100
AcDbLine
 10
119.7017356697082
 20
94.12724196742703
 30
0.0
 11
127.227891155635
 21
94.12724196742703
 31
0.0
  0
TEXT
  5
97
330
1F
100
AcDbEntity
  8
ISS138金台
  6
Continuous
 62
   140
420
    44526
100
AcDbText
 10
121.8189944303635
 20
94.91640584446387
 30
0.0
 40
1.881716638406118
  1
7.5
 41
0.8731679462251207
  7
MS Gothic
100
AcDbText
  0
HATCH
  5
98
330
1F
100
AcDbEntity
  8
ISS138金台
  6
Continuous
 62
   140
420
    44526
370
    50
100
AcDbHatch
 10
0.0
 20
0.0
 30
0.0
210
0.0
220
0.0
230
1.0
  2
SOLID
 70
     1
 71
     0
 91
        1
 92
        3
 72
     0
 73
     1
 93
        3
 10
118.8359616552043
 20
103.2991195423529
 10
120.5677465345232
 20
103.2987642668862
 10
119.7030921760355
 20
101.8001692847813
 97
        0
 75
     1
 76
     1
 98
        0
  0
LWPOLYLINE
  5
99
330
1F
100
AcDbEntity
  8
ISS138金台
  6
Continuous
 62
   140
420
    44526
370
    50
100
AcDbPolyline
 90
        4
 70
     0
 43
0.0
 10
118.8359616552043
 20
103.2991195423529
 10
120.5677465345232
 20
103.2987642668862
 10
119.7030921760355
 20
101.8001692847813
 10
118.8359616552043
 20
103.2991195423529
  0
ENDSEC
  0
SECTION
  2
OBJECTS
  0
DICTIONARY
  5
C
330
0
100
AcDbDictionary
281
     1
  3
ACAD_DETAILVIEWSTYLE
350
A1
  3
ACAD_GROUP
350
D
  3
ACAD_LAYOUT
350
1A
  3
ACAD_MATERIAL
350
43
  3
ACAD_MLEADERSTYLE
350
5B
  3
ACAD_MLINESTYLE
350
17
  3
ACAD_PLOTSETTINGS
350
19
  3
ACAD_PLOTSTYLENAME
350
E
  3
ACAD_SCALELIST
350
47
  3
ACAD_SECTIONVIEWSTYLE
350
A2
  3
ACAD_TABLESTYLE
350
59
  3
ACAD_VISUALSTYLE
350
2A
  3
ACDB_RECOMPOSE_DATA
350
9E
  3
AcDbVariableDictionary
350
9A
  0
SUN
  5
5D
330
29
100
AcDbSun
 90
        1
290
     0
 63
     7
421
 16777215
 40
1.0
291
     1
 91
  2455826
 92
 54000000
292
     0
 70
     2
 71
   256
280
     1
  0
DICTIONARY
  5
A1
102
{ACAD_REACTORS
330
C
102
}
330
C
100
AcDbDictionary
281
     1
  0
DICTIONARY
  5
D
102
{ACAD_REACTORS
330
C
102
}
330
C
100
AcDbDictionary
281
     1
  0
DICTIONARY
  5
1A
102
{ACAD_REACTORS
330
C
102
}
330
C
100
AcDbDictionary
281
     1
  3
Layout1
350
1E
  3
Layout2
350
26
  3
Model
350
22
  0
DICTIONARY
  5
43
102
{ACAD_REACTORS
330
C
102
}
330
C
100
AcDbDictionary
281
     1
  3
ByBlock
350
45
  3
ByLayer
350
44
  3
Global
350
46
  0
DICTIONARY
  5
5B
102
{ACAD_REACTORS
330
C
102
}
330
C
100
AcDbDictionary
281
     1
  3
Standard
350
5C
  0
DICTIONARY
  5
17
102
{ACAD_REACTORS
330
C
102
}
330
C
100
AcDbDictionary
281
     1
  3
Standard
350
18
  0
DICTIONARY
  5
19
102
{ACAD_REACTORS
330
C
102
}
330
C
100
AcDbDictionary
281
     1
  0
ACDBDICTIONARYWDFLT
  5
E
102
{ACAD_REACTORS
330
C
102
}
330
C
100
AcDbDictionary
281
     1
  3
Normal
350
F
100
AcDbDictionaryWithDefault
340
F
  0
DICTIONARY
  5
47
102
{ACAD_REACTORS
330
C
102
}
330
C
100
AcDbDictionary
281
     1
  3
A0
350
48
  3
A1
350
49
  3
A2
350
4A
  3
A3
350
4B
  3
A4
350
4C
  3
A5
350
4D
  3
A6
350
4E
  3
A7
350
4F
  3
A8
350
50
  3
A9
350
51
  3
B0
350
52
  3
B1
350
53
  3
B2
350
54
  3
B3
350
55
  3
B4
350
56
  3
B5
350
57
  3
B6
350
58
  0
DICTIONARY
  5
A2
102
{ACAD_REACTORS
330
C
102
}
330
C
100
AcDbDictionary
281
     1
  0
DICTIONARY
  5
59
102
{ACAD_REACTORS
330
C
102
}
330
C
100
AcDbDictionary
281
     1
  3
Standard
350
5A
  0
DICTIONARY
  5
2A
102
{ACAD_REACTORS
330
C
102
}
330
C
100
AcDbDictionary
281
     1
  3
2dWireframe
350
2F
  3
Basic
350
32
  3
Brighten
350
36
  3
ColorChange
350
3A
  3
Conceptual
350
34
  3
Dim
350
35
  3
EdgeColorOff
350
3D
  3
Facepattern
350
39
  3
Flat
350
2B
  3
FlatWithEdges
350
2C
  3
Gouraud
350
2D
  3
GouraudWithEdges
350
2E
  3
Hidden
350
31
  3
JitterOff
350
3B
  3
Linepattern
350
38
  3
OverhangOff
350
3C
  3
Realistic
350
33
  3
Shaded
350
42
  3
Shaded with edges
350
41
  3
Shades of Gray
350
3E
  3
Sketchy
350
3F
  3
Thicken
350
37
  3
Wireframe
350
30
  3
X-Ray
350
40
  0
XRECORD
  5
9E
102
{ACAD_REACTORS
330
C
102
}
330
C
100
AcDbXrecord
280
     1
 90
        1
330
5A
  0
DICTIONARY
  5
9A
102
{ACAD_REACTORS
330
C
102
}
330
C
100
AcDbDictionary
281
     1
  3
CANNOSCALE
350
9B
  3
CENTEREXE
350
A3
  3
CENTERLTYPEFILE
350
A4
  3
CMLEADERSTYLE
350
A0
  3
CTABLESTYLE
350
9F
  0
LAYOUT
  5
1E
102
{ACAD_REACTORS
330
1A
102
}
330
1A
100
AcDbPlotSettings
  1

  2
none_device
  4

  6

 40
0.0
 41
0.0
 42
0.0
 43
0.0
 44
0.0
 45
0.0
 46
0.0
 47
0.0
 48
0.0
 49
0.0
140
0.0
141
0.0
142
1.0
143
1.0
 70
   688
 72
     1
 73
     0
 74
     5
  7

 75
    16
 76
     0
 77
     5
 78
   300
147
1.0
148
0.0
149
0.0
100
AcDbLayout
  1
Layout1
 70
     1
 71
     1
 10
0.0
 20
0.0
 11
420.0
 21
297.0
 12
0.0
 22
0.0
 32
0.0
 14
1.000000000000000E+20
 24
1.000000000000000E+20
 34
1.000000000000000E+20
 15
-1.000000000000000E+20
 25
-1.000000000000000E+20
 35
-1.000000000000000E+20
146
0.0
 13
0.0
 23
0.0
 33
0.0
 16
1.0
 26
0.0
 36
0.0
 17
0.0
 27
1.0
 37
0.0
 76
     0
330
1B
  0
LAYOUT
  5
26
102
{ACAD_REACTORS
330
1A
102
}
330
1A
100
AcDbPlotSettings
  1

  2
none_device
  4

  6

 40
0.0
 41
0.0
 42
0.0
 43
0.0
 44
0.0
 45
0.0
 46
0.0
 47
0.0
 48
0.0
 49
0.0
140
0.0
141
0.0
142
1.0
143
1.0
 70
   688
 72
     1
 73
     0
 74
     5
  7

 75
    16
 76
     0
 77
     5
 78
   300
147
1.0
148
0.0
149
0.0
100
AcDbLayout
  1
Layout2
 70
     1
 71
     2
 10
0.0
 20
0.0
 11
0.0
 21
0.0
 12
0.0
 22
0.0
 32
0.0
 14
0.0
 24
0.0
 34
0.0
 15
0.0
 25
0.0
 35
0.0
146
0.0
 13
0.0
 23
0.0
 33
0.0
 16
1.0
 26
0.0
 36
0.0
 17
0.0
 27
1.0
 37
0.0
 76
     0
330
23
  0
LAYOUT
  5
22
102
{ACAD_REACTORS
330
1A
102
}
330
1A
100
AcDbPlotSettings
  1

  2
none_device
  4
Letter_(8.50_x_11.00_Inches)
  6

 40
6.35
 41
6.35
 42
6.35000508
 43
6.35000508
 44
215.9
 45
279.4
 46
0.0
 47
0.0
 48
0.0
 49
0.0
140
0.0
141
0.0
142
1.0
143
1.0
 70
  1712
 72
     1
 73
     0
 74
     0
  7

 75
     0
 76
     0
 77
     5
 78
   300
147
1.0
148
0.0
149
0.0
100
AcDbLayout
  1
Model
 70
     1
 71
     0
 10
0.0
 20
0.0
 11
302.9997823349792
 21
216.0016055409748
 12
0.0
 22
0.0
 32
0.0
 14
0.0
 24
0.0
 34
0.0
 15
302.9997823349792
 25
216.0016055409748
 35
0.0
146
0.0
 13
0.0
 23
0.0
 33
0.0
 16
1.0
 26
0.0
 36
0.0
 17
0.0
 27
1.0
 37
0.0
 76
     0
330
1F
331
29
  0
MATERIAL
  5
45
102
{ACAD_REACTORS
330
43
102
}
330
43
100
AcDbMaterial
  1
ByBlock
 72
     1
 94
      127
  0
MATERIAL
  5
44
102
{ACAD_REACTORS
330
43
102
}
330
43
100
AcDbMaterial
  1
ByLayer
 72
     1
 94
      127
  0
MATERIAL
  5
46
102
{ACAD_REACTORS
330
43
102
}
330
43
100
AcDbMaterial
  1
Global
 72
     1
 94
      127
  0
MLEADERSTYLE
  5
5C
102
{ACAD_REACTORS
330
5B
102
}
330
5B
100
AcDbMLeaderStyle
179
     2
170
     2
171
     1
172
     0
 90
        2
 40
0.0
 41
0.0
173
     1
 91
-1056964608
340
14
 92
       -2
290
     1
 42
2.0
291
     1
 43
8.0
  3
Standard
341
0
 44
4.0
300

342
11
174
     1
178
     6
175
     1
176
     0
 93
-1056964608
 45
4.0
292
     0
297
     0
 46
4.0
343
0
 94
-1056964608
 47
1.0
 49
1.0
140
1.0
293
     1
141
0.0
294
     1
177
     0
142
1.0
295
     0
296
     0
143
3.75
271
     0
272
     9
273
     9
298
     0
  0
MLINESTYLE
  5
18
102
{ACAD_REACTORS
330
17
102
}
330
17
100
AcDbMlineStyle
  2
Standard
 70
     0
  3

 62
   256
 51
90.0
 52
90.0
 71
     2
 49
0.5
 62
   256
  6
BYLAYER
 49
-0.5
 62
   256
  6
BYLAYER
  0
ACDBPLACEHOLDER
  5
F
102
{ACAD_REACTORS
330
E
102
}
330
E
  0
SCALE
  5
48
102
{ACAD_REACTORS
330
47
102
}
330
47
100
AcDbScale
 70
     0
300
1:1
140
1.0
141
1.0
290
     1
  0
SCALE
  5
49
102
{ACAD_REACTORS
330
47
102
}
330
47
100
AcDbScale
 70
     0
300
1:2
140
1.0
141
2.0
290
     0
  0
SCALE
  5
4A
102
{ACAD_REACTORS
330
47
102
}
330
47
100
AcDbScale
 70
     0
300
1:4
140
1.0
141
4.0
290
     0
  0
SCALE
  5
4B
102
{ACAD_REACTORS
330
47
102
}
330
47
100
AcDbScale
 70
     0
300
1:5
140
1.0
141
5.0
290
     0
  0
SCALE
  5
4C
102
{ACAD_REACTORS
330
47
102
}
330
47
100
AcDbScale
 70
     0
300
1:8
140
1.0
141
8.0
290
     0
  0
SCALE
  5
4D
102
{ACAD_REACTORS
330
47
102
}
330
47
100
AcDbScale
 70
     0
300
1:10
140
1.0
141
10.0
290
     0
  0
SCALE
  5
4E
102
{ACAD_REACTORS
330
47
102
}
330
47
100
AcDbScale
 70
     0
300
1:16
140
1.0
141
16.0
290
     0
  0
SCALE
  5
4F
102
{ACAD_REACTORS
330
47
102
}
330
47
100
AcDbScale
 70
     0
300
1:20
140
1.0
141
20.0
290
     0
  0
SCALE
  5
50
102
{ACAD_REACTORS
330
47
102
}
330
47
100
AcDbScale
 70
     0
300
1:30
140
1.0
141
30.0
290
     0
  0
SCALE
  5
51
102
{ACAD_REACTORS
330
47
102
}
330
47
100
AcDbScale
 70
     0
300
1:40
140
1.0
141
40.0
290
     0
  0
SCALE
  5
52
102
{ACAD_REACTORS
330
47
102
}
330
47
100
AcDbScale
 70
     0
300
1:50
140
1.0
141
50.0
290
     0
  0
SCALE
  5
53
102
{ACAD_REACTORS
330
47
102
}
330
47
100
AcDbScale
 70
     0
300
1:100
140
1.0
141
100.0
290
     0
  0
SCALE
  5
54
102
{ACAD_REACTORS
330
47
102
}
330
47
100
AcDbScale
 70
     0
300
2:1
140
2.0
141
1.0
290
     0
  0
SCALE
  5
55
102
{ACAD_REACTORS
330
47
102
}
330
47
100
AcDbScale
 70
     0
300
4:1
140
4.0
141
1.0
290
     0
  0
SCALE
  5
56
102
{ACAD_REACTORS
330
47
102
}
330
47
100
AcDbScale
 70
     0
300
8:1
140
8.0
141
1.0
290
     0
  0
SCALE
  5
57
102
{ACAD_REACTORS
330
47
102
}
330
47
100
AcDbScale
 70
     0
300
10:1
140
10.0
141
1.0
290
     0
  0
SCALE
  5
58
102
{ACAD_REACTORS
330
47
102
}
330
47
100
AcDbScale
 70
     0
300
100:1
140
100.0
141
1.0
290
     0
  0
TABLESTYLE
  5
5A
102
{ACAD_REACTORS
330
59
102
}
102
{ACAD_XDICTIONARY
360
9C
102
}
330
59
100
AcDbTableStyle
  3
Standard
 70
     0
 71
     0
 40
0.06
 41
0.06
280
     0
281
     0
  7
Standard
140
4.5
170
     2
 62
     0
 63
   257
283
     0
 90
        4
 91
        0
  1

274
    -2
284
     1
 64
     0
275
    -2
285
     1
 65
     0
276
    -2
286
     1
 66
     0
277
    -2
287
     1
 67
     0
278
    -2
288
     1
 68
     0
279
    -2
289
     1
 69
     0
  7
Standard
140
6.0
170
     5
 62
     0
 63
   257
283
     0
 90
        4
 91
        0
  1

274
    -2
284
     1
 64
     0
275
    -2
285
     1
 65
     0
276
    -2
286
     1
 66
     0
277
    -2
287
     1
 67
     0
278
    -2
288
     1
 68
     0
279
    -2
289
     1
 69
     0
  7
Standard
140
4.5
170
     5
 62
     0
 63
   257
283
     0
 90
        4
 91
        0
  1

274
    -2
284
     1
 64
     0
275
    -2
285
     1
 65
     0
276
    -2
286
     1
 66
     0
277
    -2
287
     1
 67
     0
278
    -2
288
     1
 68
     0
279
    -2
289
     1
 69
     0
  0
VISUALSTYLE
  5
2F
102
{ACAD_REACTORS
330
2A
102
}
330
2A
100
AcDbVisualStyle
  2
2dWireframe
 70
     4
177
     3
291
     0
 70
    58
 90
        0
176
     1
 90
        2
176
     1
 90
        0
176
     1
 90
        0
176
     1
 40
0.6
176
     1
 40
30.0
176
     1
 62
     7
420
 16777215
176
     1
 90
        1
176
     1
 90
        4
176
     1
 62
     7
176
     1
 62
   257
176
     1
 90
        1
176
     1
 90
        1
176
     1
 40
1.0
176
     1
 90
        0
176
     1
 62
   257
176
     1
 40
1.0
176
     1
 90
        1
176
     1
 90
        6
176
     1
 90
        2
176
     1
 62
     7
176
     1
 90
        5
176
     1
 90
        0
176
     1
 90
        0
176
     1
290
     0
176
     1
 90
        1
176
     1
 40
0.0
176
     1
 90
        0
176
     1
290
     1
176
     1
290
     1
176
     1
290
     0
176
     1
290
     0
176
     1
290
     0
176
     1
290
     0
176
     1
290
     0
176
     1
290
     0
176
     1
290
     0
176
     1
 90
       50
176
     1
 40
0.0
176
     1
 40
1.0
176
     1
 90
        0
176
     1
 62
    18
420
        0
176
     1
 90
       50
176
     1
 90
        3
176
     1
 62
     5
420
      255
176
     1
290
     0
176
     1
 90
       50
176
     1
 90
       50
176
     1
 90
       50
176
     1
290
     0
176
     1
 90
       50
176
     1
 62
   256
176
     0
 40
1.0
176
     0
 90
        2
176
     1
  1
strokes_ogs.tif
176
     1
290
     0
176
     1
 40
1.0
176
     1
 40
1.0
176
     1
  0
VISUALSTYLE
  5
32
102
{ACAD_REACTORS
330
2A
102
}
330
2A
100
AcDbVisualStyle
  2
Basic
 70
     7
177
     3
291
     1
 70
    58
 90
        1
176
     1
 90
        0
176
     1
 90
        1
176
     1
 90
        0
176
     1
 40
0.6
176
     1
 40
30.0
176
     1
 62
     7
420
 16777215
176
     1
 90
        0
176
     1
 90
        4
176
     1
 62
     7
176
     1
 62
   257
176
     1
 90
        1
176
     1
 90
        1
176
     1
 40
1.0
176
     1
 90
        8
176
     1
 62
     7
176
     1
 40
1.0
176
     1
 90
        1
176
     1
 90
        6
176
     1
 90
        2
176
     1
 62
     7
176
     1
 90
        5
176
     1
 90
        0
176
     1
 90
        0
176
     1
290
     0
176
     1
 90
        1
176
     1
 40
0.0
176
     1
 90
        0
176
     1
290
     0
176
     1
290
     1
176
     1
290
     1
176
     1
290
     0
176
     1
290
     0
176
     1
290
     0
176
     1
290
     0
176
     1
290
     0
176
     1
290
     0
176
     1
 90
       50
176
     1
 40
0.0
176
     1
 40
1.0
176
     1
 90
        0
176
     1
 62
    18
420
        0
176
     1
 90
       50
176
     1
 90
        3
176
     1
 62
     5
420
      255
176
     1
290
     0
176
     1
 90
       50
176
     1
 90
       50
176
     1
 90
       50
176
     1
290
     0
176
     1
 90
       50
176
     1
 62
   256
176
     0
 40
1.0
176
     0
 90
        2
176
     1
  1
strokes_ogs.tif
176
     1
290
     0
176
     1
 40
1.0
176
     1
 40
1.0
176
     1
  0
VISUALSTYLE
  5
36
102
{ACAD_REACTORS
330
2A
102
}
330
2A
100
AcDbVisualStyle
  2
Brighten
 70
    12
177
     3
291
     1
 70
    58
 90
        2
176
     1
 90
        2
176
     1
 90
        0
176
     1
 90
        0
176
     1
 40
0.6
176
     1
 40
30.0
176
     1
 62
     7
420
 16777215
176
     1
 90
        1
176
     1
 90
        4
176
     1
 62
     7
176
     1
 62
   257
176
     1
 90
        1
176
     1
 90
        1
176
     1
 40
1.0
176
     1
 90
        8
176
     1
 62
     7
176
     1
 40
1.0
176
     1
 90
        1
176
     1
 90
        6
176
     1
 90
        2
176
     1
 62
     7
176
     1
 90
        5
176
     1
 90
        0
176
     1
 90
        0
176
     1
290
     0
176
     1
 90
        1
176
     1
 40
50.0
176
     1
 90
        0
176
     1
290
     0
176
     1
290
     1
176
     1
290
     1
176
     1
290
     0
176
     1
290
     0
176
     1
290
     0
176
     1
290
     0
176
     1
290
     0
176
     1
290
     0
176
     1
 90
       50
176
     1
 40
0.0
176
     1
 40
1.0
176
     1
 90
        0
176
     1
 62
    18
420
        0
176
     1
 90
       50
176
     1
 90
        3
176
     1
 62
     5
420
      255
176
     1
290
     0
176
     1
 90
       50
176
     1
 90
       50
176
     1
 90
       50
176
     1
290
     0
176
     1
 90
       50
176
     1
 62
   256
176
     0
 40
1.0
176
     0
 90
        2
176
     1
  1
strokes_ogs.tif
176
     1
290
     0
176
     1
 40
1.0
176
     1
 40
1.0
176
     1
  0
VISUALSTYLE
  5
3A
102
{ACAD_REACTORS
330
2A
102
}
330
2A
100
AcDbVisualStyle
  2
ColorChange
 70
    16
177
     3
291
     1
 70
    58
 90
        2
176
     1
 90
        2
176
     1
 90
        3
176
     1
 90
        0
176
     1
 40
0.6
176
     1
 40
30.0
176
     1
 62
     8
420
  8421504
176
     1
 90
        1
176
     1
 90
        4
176
     1
 62
     7
176
     1
 62
   257
176
     1
 90
        1
176
     1
 90
        1
176
     1
 40
1.0
176
     1
 90
        8
176
     1
 62
     8
420
  8421504
176
     1
 40
1.0
176
     1
 90
        1
176
     1
 90
        6
176
     1
 90
        2
176
     1
 62
     7
176
     1
 90
        5
176
     1
 90
        0
176
     1
 90
        0
176
     1
290
     0
176
     1
 90
        1
176
     1
 40
0.0
176
     1
 90
        0
176
     1
290
     0
176
     1
290
     1
176
     1
290
     1
176
     1
290
     0
176
     1
290
     0
176
     1
290
     0
176
     1
290
     0
176
     1
290
     0
176
     1
290
     0
176
     1
 90
       50
176
     1
 40
0.0
176
     1
 40
1.0
176
     1
 90
        0
176
     1
 62
    18
420
        0
176
     1
 90
       50
176
     1
 90
        3
176
     1
 62
     5
420
      255
176
     1
290
     0
176
     1
 90
       50
176
     1
 90
       50
176
     1
 90
       50
176
     1
290
     0
176
     1
 90
       50
176
     1
 62
   256
176
     0
 40
1.0
176
     0
 90
        2
176
     1
  1
strokes_ogs.tif
176
     1
290
     0
176
     1
 40
1.0
176
     1
 40
1.0
176
     1
  0
VISUALSTYLE
  5
34
102
{ACAD_REACTORS
330
2A
102
}
330
2A
100
AcDbVisualStyle
  2
Conceptual
 70
     9
177
     3
291
     0
 70
    58
 90
        3
176
     1
 90
        2
176
     1
 90
        0
176
     1
 90
        0
176
     1
 40
0.6
176
     1
 40
30.0
176
     1
 62
     7
420
 16777215
176
     1
 90
        2
176
     1
 90
        2
176
     1
 62
     7
176
     1
 62
   257
176
     1
 90
        1
176
     1
 90
        1
176
     1
 40
179.0
176
     1
 90
        8
176
     1
 62
     7
176
     1
 40
1.0
176
     1
 90
        1
176
     1
 90
        6
176
     1
 90
        2
176
     1
 62
     7
176
     1
 90
        3
176
     1
 90
        0
176
     1
 90
        0
176
     1
290
     0
176
     1
 90
        1
176
     1
 40
0.0
176
     1
 90
        0
176
     1
290
     0
176
     1
290
     1
176
     1
290
     1
176
     1
290
     0
176
     1
290
     0
176
     1
290
     0
176
     1
290
     0
176
     1
290
     0
176
     1
290
     0
176
     1
 90
       50
176
     1
 40
0.0
176
     1
 40
1.0
176
     1
 90
        0
176
     1
 62
    18
420
        0
176
     1
 90
       50
176
     1
 90
        3
176
     1
 62
     5
420
      255
176
     1
290
     0
176
     1
 90
       50
176
     1
 90
       50
176
     1
 90
       50
176
     1
290
     0
176
     1
 90
       50
176
     1
 62
   256
176
     0
 40
1.0
176
     0
 90
        2
176
     1
  1
strokes_ogs.tif
176
     1
290
     0
176
     1
 40
1.0
176
     1
 40
1.0
176
     1
  0
VISUALSTYLE
  5
35
102
{ACAD_REACTORS
330
2A
102
}
330
2A
100
AcDbVisualStyle
  2
Dim
 70
    11
177
     3
291
     1
 70
    58
 90
        2
176
     1
 90
        2
176
     1
 90
        0
176
     1
 90
        0
176
     1
 40
0.6
176
     1
 40
30.0
176
     1
 62
     7
420
 16777215
176
     1
 90
        1
176
     1
 90
        4
176
     1
 62
     7
176
     1
 62
   257
176
     1
 90
        1
176
     1
 90
        1
176
     1
 40
1.0
176
     1
 90
        8
176
     1
 62
     7
176
     1
 40
1.0
176
     1
 90
        1
176
     1
 90
        6
176
     1
 90
        2
176
     1
 62
     7
176
     1
 90
        5
176
     1
 90
        0
176
     1
 90
        0
176
     1
290
     0
176
     1
 90
        1
176
     1
 40
-50.0
176
     1
 90
        0
176
     1
290
     0
176
     1
290
     1
176
     1
290
     1
176
     1
290
     0
176
     1
290
     0
176
     1
290
     0
176
     1
290
     0
176
     1
290
     0
176
     1
290
     0
176
     1
 90
       50
176
     1
 40
0.0
176
     1
 40
1.0
176
     1
 90
        0
176
     1
 62
    18
420
        0
176
     1
 90
       50
176
     1
 90
        3
176
     1
 62
     5
420
      255
176
     1
290
     0
176
     1
 90
       50
176
     1
 90
       50
176
     1
 90
       50
176
     1
290
     0
176
     1
 90
       50
176
     1
 62
   256
176
     0
 40
1.0
176
     0
 90
        2
176
     1
  1
strokes_ogs.tif
176
     1
290
     0
176
     1
 40
1.0
176
     1
 40
1.0
176
     1
  0
VISUALSTYLE
  5
3D
102
{ACAD_REACTORS
330
2A
102
}
330
2A
100
AcDbVisualStyle
  2
EdgeColorOff
 70
    22
177
     3
291
     1
 70
    58
 90
        2
176
     0
 90
        2
176
     0
 90
        0
176
     0
 90
        0
176
     0
 40
0.6
176
     0
 40
30.0
176
     0
 62
     7
420
 16777215
176
     0
 90
        1
176
     0
 90
        4
176
     0
 62
     7
176
     0
 62
   257
176
     0
 90
        1
176
     0
 90
        1
176
     0
 40
1.0
176
     0
 90
        8
176
     2
 62
     7
176
     0
 40
1.0
176
     0
 90
        1
176
     0
 90
        6
176
     0
 90
        2
176
     0
 62
     7
176
     0
 90
        5
176
     0
 90
        0
176
     0
 90
        0
176
     0
290
     0
176
     0
 90
        1
176
     0
 40
0.0
176
     0
 90
        0
176
     0
290
     0
176
     0
290
     1
176
     0
290
     1
176
     0
290
     0
176
     0
290
     0
176
     0
290
     0
176
     0
290
     0
176
     0
290
     0
176
     0
290
     0
176
     0
 90
       50
176
     0
 40
0.0
176
     0
 40
1.0
176
     0
 90
        0
176
     0
 62
    18
420
        0
176
     0
 90
       50
176
     0
 90
        3
176
     0
 62
     5
420
      255
176
     0
290
     0
176
     0
 90
       50
176
     0
 90
       50
176
     0
 90
       50
176
     0
290
     0
176
     0
 90
       50
176
     0
 62
   256
176
     0
 40
1.0
176
     0
 90
        2
176
     0
  1
strokes_ogs.tif
176
     0
290
     0
176
     0
 40
1.0
176
     0
 40
1.0
176
     0
  0
VISUALSTYLE
  5
39
102
{ACAD_REACTORS
330
2A
102
}
330
2A
100
AcDbVisualStyle
  2
Facepattern
 70
    15
177
     3
291
     1
 70
    58
 90
        2
176
     1
 90
        2
176
     1
 90
        0
176
     1
 90
        0
176
     1
 40
0.6
176
     1
 40
30.0
176
     1
 62
     7
420
 16777215
176
     1
 90
        1
176
     1
 90
        4
176
     1
 62
     7
176
     1
 62
   257
176
     1
 90
        1
176
     1
 90
        1
176
     1
 40
1.0
176
     1
 90
        8
176
     1
 62
     7
176
     1
 40
1.0
176
     1
 90
        1
176
     1
 90
        6
176
     1
 90
        2
176
     1
 62
     7
176
     1
 90
        5
176
     1
 90
        0
176
     1
 90
        0
176
     1
290
     0
176
     1
 90
        1
176
     1
 40
0.0
176
     1
 90
        0
176
     1
290
     0
176
     1
290
     1
176
     1
290
     1
176
     1
290
     0
176
     1
290
     0
176
     1
290
     0
176
     1
290
     0
176
     1
290
     0
176
     1
290
     0
176
     1
 90
       50
176
     1
 40
0.0
176
     1
 40
1.0
176
     1
 90
        0
176
     1
 62
    18
420
        0
176
     1
 90
       50
176
     1
 90
        3
176
     1
 62
     5
420
      255
176
     1
290
     0
176
     1
 90
       50
176
     1
 90
       50
176
     1
 90
       50
176
     1
290
     0
176
     1
 90
       50
176
     1
 62
   256
176
     0
 40
1.0
176
     0
 90
        2
176
     1
  1
strokes_ogs.tif
176
     1
290
     0
176
     1
 40
1.0
176
     1
 40
1.0
176
     1
  0
VISUALSTYLE
  5
2B
102
{ACAD_REACTORS
330
2A
102
}
330
2A
100
AcDbVisualStyle
  2
Flat
 70
     0
177
     3
291
     1
 70
    58
 90
        2
176
     1
 90
        1
176
     1
 90
        1
176
     1
 90
        2
176
     1
 40
0.6
176
     1
 40
30.0
176
     1
 62
     7
420
 16777215
176
     1
 90
        0
176
     1
 90
        0
176
     1
 62
     7
176
     1
 62
   257
176
     1
 90
        1
176
     1
 90
        1
176
     1
 40
1.0
176
     1
 90
        8
176
     1
 62
     7
176
     1
 40
1.0
176
     1
 90
        1
176
     1
 90
        6
176
     1
 90
        2
176
     1
 62
     7
176
     1
 90
        5
176
     1
 90
        0
176
     1
 90
        0
176
     1
290
     0
176
     1
 90
       13
176
     1
 40
0.0
176
     1
 90
        0
176
     1
290
     0
176
     1
290
     1
176
     1
290
     1
176
     1
290
     0
176
     1
290
     0
176
     1
290
     0
176
     1
290
     0
176
     1
290
     0
176
     1
290
     0
176
     1
 90
       50
176
     1
 40
0.0
176
     1
 40
1.0
176
     1
 90
        0
176
     1
 62
    18
420
        0
176
     1
 90
       50
176
     1
 90
        3
176
     1
 62
     5
420
      255
176
     1
290
     0
176
     1
 90
       50
176
     1
 90
       50
176
     1
 90
       50
176
     1
290
     0
176
     1
 90
       50
176
     1
 62
   256
176
     0
 40
1.0
176
     0
 90
        2
176
     1
  1
strokes_ogs.tif
176
     1
290
     0
176
     1
 40
1.0
176
     1
 40
1.0
176
     1
  0
VISUALSTYLE
  5
2C
102
{ACAD_REACTORS
330
2A
102
}
330
2A
100
AcDbVisualStyle
  2
FlatWithEdges
 70
     1
177
     3
291
     1
 70
    58
 90
        2
176
     1
 90
        1
176
     1
 90
        1
176
     1
 90
        2
176
     1
 40
0.6
176
     1
 40
30.0
176
     1
 62
     7
420
 16777215
176
     1
 90
        1
176
     1
 90
        0
176
     1
 62
     7
176
     1
 62
   257
176
     1
 90
        1
176
     1
 90
        1
176
     1
 40
1.0
176
     1
 90
        0
176
     1
 62
   257
176
     1
 40
1.0
176
     1
 90
        1
176
     1
 90
        6
176
     1
 90
        2
176
     1
 62
     7
176
     1
 90
        5
176
     1
 90
        0
176
     1
 90
        0
176
     1
290
     0
176
     1
 90
       13
176
     1
 40
0.0
176
     1
 90
        0
176
     1
290
     0
176
     1
290
     1
176
     1
290
     1
176
     1
290
     0
176
     1
290
     0
176
     1
290
     0
176
     1
290
     0
176
     1
290
     0
176
     1
290
     0
176
     1
 90
       50
176
     1
 40
0.0
176
     1
 40
1.0
176
     1
 90
        0
176
     1
 62
    18
420
        0
176
     1
 90
       50
176
     1
 90
        3
176
     1
 62
     5
420
      255
176
     1
290
     0
176
     1
 90
       50
176
     1
 90
       50
176
     1
 90
       50
176
     1
290
     0
176
     1
 90
       50
176
     1
 62
   256
176
     0
 40
1.0
176
     0
 90
        2
176
     1
  1
strokes_ogs.tif
176
     1
290
     0
176
     1
 40
1.0
176
     1
 40
1.0
176
     1
  0
VISUALSTYLE
  5
2D
102
{ACAD_REACTORS
330
2A
102
}
330
2A
100
AcDbVisualStyle
  2
Gouraud
 70
     2
177
     3
291
     1
 70
    58
 90
        2
176
     1
 90
        2
176
     1
 90
        1
176
     1
 90
        2
176
     1
 40
0.6
176
     1
 40
30.0
176
     1
 62
     7
420
 16777215
176
     1
 90
        0
176
     1
 90
        0
176
     1
 62
     7
176
     1
 62
   257
176
     1
 90
        1
176
     1
 90
        1
176
     1
 40
1.0
176
     1
 90
        0
176
     1
 62
     7
176
     1
 40
1.0
176
     1
 90
        1
176
     1
 90
        6
176
     1
 90
        2
176
     1
 62
     7
176
     1
 90
        5
176
     1
 90
        0
176
     1
 90
        0
176
     1
290
     0
176
     1
 90
       13
176
     1
 40
0.0
176
     1
 90
        0
176
     1
290
     0
176
     1
290
     1
176
     1
290
     1
176
     1
290
     0
176
     1
290
     0
176
     1
290
     0
176
     1
290
     0
176
     1
290
     0
176
     1
290
     0
176
     1
 90
       50
176
     1
 40
0.0
176
     1
 40
1.0
176
     1
 90
        0
176
     1
 62
    18
420
        0
176
     1
 90
       50
176
     1
 90
        3
176
     1
 62
     5
420
      255
176
     1
290
     0
176
     1
 90
       50
176
     1
 90
       50
176
     1
 90
       50
176
     1
290
     0
176
     1
 90
       50
176
     1
 62
   256
176
     0
 40
1.0
176
     0
 90
        2
176
     1
  1
strokes_ogs.tif
176
     1
290
     0
176
     1
 40
1.0
176
     1
 40
1.0
176
     1
  0
VISUALSTYLE
  5
2E
102
{ACAD_REACTORS
330
2A
102
}
330
2A
100
AcDbVisualStyle
  2
GouraudWithEdges
 70
     3
177
     3
291
     1
 70
    58
 90
        2
176
     1
 90
        2
176
     1
 90
        1
176
     1
 90
        2
176
     1
 40
0.6
176
     1
 40
30.0
176
     1
 62
     7
420
 16777215
176
     1
 90
        1
176
     1
 90
        0
176
     1
 62
     7
176
     1
 62
   257
176
     1
 90
        1
176
     1
 90
        1
176
     1
 40
1.0
176
     1
 90
        0
176
     1
 62
   257
176
     1
 40
1.0
176
     1
 90
        1
176
     1
 90
        6
176
     1
 90
        2
176
     1
 62
     7
176
     1
 90
        5
176
     1
 90
        0
176
     1
 90
        0
176
     1
290
     0
176
     1
 90
       13
176
     1
 40
0.0
176
     1
 90
        0
176
     1
290
     0
176
     1
290
     1
176
     1
290
     1
176
     1
290
     0
176
     1
290
     0
176
     1
290
     0
176
     1
290
     0
176
     1
290
     0
176
     1
290
     0
176
     1
 90
       50
176
     1
 40
0.0
176
     1
 40
1.0
176
     1
 90
        0
176
     1
 62
    18
420
        0
176
     1
 90
       50
176
     1
 90
        3
176
     1
 62
     5
420
      255
176
     1
290
     0
176
     1
 90
       50
176
     1
 90
       50
176
     1
 90
       50
176
     1
290
     0
176
     1
 90
       50
176
     1
 62
   256
176
     0
 40
1.0
176
     0
 90
        2
176
     1
  1
strokes_ogs.tif
176
     1
290
     0
176
     1
 40
1.0
176
     1
 40
1.0
176
     1
  0
VISUALSTYLE
  5
31
102
{ACAD_REACTORS
330
2A
102
}
330
2A
100
AcDbVisualStyle
  2
Hidden
 70
     6
177
     3
291
     0
 70
    58
 90
        1
176
     1
 90
        2
176
     1
 90
        2
176
     1
 90
        0
176
     1
 40
0.6
176
     1
 40
30.0
176
     1
 62
     7
420
 16777215
176
     1
 90
        2
176
     1
 90
        2
176
     1
 62
     7
176
     1
 62
   257
176
     1
 90
        2
176
     1
 90
        1
176
     1
 40
40.0
176
     1
 90
        0
176
     1
 62
   257
176
     1
 40
1.0
176
     1
 90
        1
176
     1
 90
        6
176
     1
 90
        2
176
     1
 62
     7
176
     1
 90
        3
176
     1
 90
        0
176
     1
 90
        0
176
     1
290
     0
176
     1
 90
        1
176
     1
 40
0.0
176
     1
 90
        0
176
     1
290
     0
176
     1
290
     1
176
     1
290
     1
176
     1
290
     0
176
     1
290
     0
176
     1
290
     0
176
     1
290
     0
176
     1
290
     0
176
     1
290
     0
176
     1
 90
       50
176
     1
 40
0.0
176
     1
 40
1.0
176
     1
 90
        0
176
     1
 62
    18
420
        0
176
     1
 90
       50
176
     1
 90
        3
176
     1
 62
     5
420
      255
176
     1
290
     0
176
     1
 90
       50
176
     1
 90
       50
176
     1
 90
       50
176
     1
290
     0
176
     1
 90
       50
176
     1
 62
   256
176
     0
 40
1.0
176
     0
 90
        2
176
     1
  1
strokes_ogs.tif
176
     1
290
     0
176
     1
 40
1.0
176
     1
 40
1.0
176
     1
  0
VISUALSTYLE
  5
3B
102
{ACAD_REACTORS
330
2A
102
}
330
2A
100
AcDbVisualStyle
  2
JitterOff
 70
    20
177
     3
291
     1
 70
    58
 90
        2
176
     0
 90
        2
176
     0
 90
        0
176
     0
 90
        0
176
     0
 40
0.6
176
     0
 40
30.0
176
     0
 62
     7
420
 16777215
176
     0
 90
        1
176
     0
 90
        4
176
     0
 62
     7
176
     0
 62
   257
176
     0
 90
        1
176
     0
 90
        1
176
     0
 40
1.0
176
     0
 90
       10
176
     2
 62
     7
176
     0
 40
1.0
176
     0
 90
        1
176
     0
 90
        6
176
     0
 90
        2
176
     0
 62
     7
176
     0
 90
        5
176
     0
 90
        0
176
     0
 90
        0
176
     0
290
     0
176
     0
 90
        1
176
     0
 40
0.0
176
     0
 90
        0
176
     0
290
     0
176
     0
290
     1
176
     0
290
     1
176
     0
290
     0
176
     0
290
     0
176
     0
290
     0
176
     0
290
     0
176
     0
290
     0
176
     0
290
     0
176
     0
 90
       50
176
     0
 40
0.0
176
     0
 40
1.0
176
     0
 90
        0
176
     0
 62
    18
420
        0
176
     0
 90
       50
176
     0
 90
        3
176
     0
 62
     5
420
      255
176
     0
290
     0
176
     0
 90
       50
176
     0
 90
       50
176
     0
 90
       50
176
     0
290
     0
176
     0
 90
       50
176
     0
 62
   256
176
     0
 40
1.0
176
     0
 90
        2
176
     0
  1
strokes_ogs.tif
176
     0
290
     0
176
     0
 40
1.0
176
     0
 40
1.0
176
     0
  0
VISUALSTYLE
  5
38
102
{ACAD_REACTORS
330
2A
102
}
330
2A
100
AcDbVisualStyle
  2
Linepattern
 70
    14
177
     3
291
     1
 70
    58
 90
        2
176
     1
 90
        2
176
     1
 90
        0
176
     1
 90
        0
176
     1
 40
0.6
176
     1
 40
30.0
176
     1
 62
     7
420
 16777215
176
     1
 90
        1
176
     1
 90
        4
176
     1
 62
     7
176
     1
 62
   257
176
     1
 90
        7
176
     1
 90
        7
176
     1
 40
1.0
176
     1
 90
        8
176
     1
 62
     7
176
     1
 40
1.0
176
     1
 90
        1
176
     1
 90
        6
176
     1
 90
        2
176
     1
 62
     7
176
     1
 90
        5
176
     1
 90
        0
176
     1
 90
        0
176
     1
290
     0
176
     1
 90
        1
176
     1
 40
0.0
176
     1
 90
        0
176
     1
290
     0
176
     1
290
     1
176
     1
290
     1
176
     1
290
     0
176
     1
290
     0
176
     1
290
     0
176
     1
290
     0
176
     1
290
     0
176
     1
290
     0
176
     1
 90
       50
176
     1
 40
0.0
176
     1
 40
1.0
176
     1
 90
        0
176
     1
 62
    18
420
        0
176
     1
 90
       50
176
     1
 90
        3
176
     1
 62
     5
420
      255
176
     1
290
     0
176
     1
 90
       50
176
     1
 90
       50
176
     1
 90
       50
176
     1
290
     0
176
     1
 90
       50
176
     1
 62
   256
176
     0
 40
1.0
176
     0
 90
        2
176
     1
  1
strokes_ogs.tif
176
     1
290
     0
176
     1
 40
1.0
176
     1
 40
1.0
176
     1
  0
VISUALSTYLE
  5
3C
102
{ACAD_REACTORS
330
2A
102
}
330
2A
100
AcDbVisualStyle
  2
OverhangOff
 70
    21
177
     3
291
     1
 70
    58
 90
        2
176
     0
 90
        2
176
     0
 90
        0
176
     0
 90
        0
176
     0
 40
0.6
176
     0
 40
30.0
176
     0
 62
     7
420
 16777215
176
     0
 90
        1
176
     0
 90
        4
176
     0
 62
     7
176
     0
 62
   257
176
     0
 90
        1
176
     0
 90
        1
176
     0
 40
1.0
176
     0
 90
        9
176
     2
 62
     7
176
     0
 40
1.0
176
     0
 90
        1
176
     0
 90
        6
176
     0
 90
        2
176
     0
 62
     7
176
     0
 90
        5
176
     0
 90
        0
176
     0
 90
        0
176
     0
290
     0
176
     0
 90
        1
176
     0
 40
0.0
176
     0
 90
        0
176
     0
290
     0
176
     0
290
     1
176
     0
290
     1
176
     0
290
     0
176
     0
290
     0
176
     0
290
     0
176
     0
290
     0
176
     0
290
     0
176
     0
290
     0
176
     0
 90
       50
176
     0
 40
0.0
176
     0
 40
1.0
176
     0
 90
        0
176
     0
 62
    18
420
        0
176
     0
 90
       50
176
     0
 90
        3
176
     0
 62
     5
420
      255
176
     0
290
     0
176
     0
 90
       50
176
     0
 90
       50
176
     0
 90
       50
176
     0
290
     0
176
     0
 90
       50
176
     0
 62
   256
176
     0
 40
1.0
176
     0
 90
        2
176
     0
  1
strokes_ogs.tif
176
     0
290
     0
176
     0
 40
1.0
176
     0
 40
1.0
176
     0
  0
VISUALSTYLE
  5
33
102
{ACAD_REACTORS
330
2A
102
}
330
2A
100
AcDbVisualStyle
  2
Realistic
 70
     8
177
     3
291
     0
 70
    58
 90
        2
176
     1
 90
        3
176
     1
 90
        0
176
     1
 90
        2
176
     1
 40
0.6
176
     1
 40
30.0
176
     1
 62
     7
420
 16777215
176
     1
 90
        0
176
     1
 90
        0
176
     1
 62
     7
176
     1
 62
   257
176
     1
 90
        1
176
     1
 90
        1
176
     1
 40
1.0
176
     1
 90
        8
176
     1
 62
   257
176
     1
 40
1.0
176
     1
 90
        1
176
     1
 90
        6
176
     1
 90
        2
176
     1
 62
     7
176
     1
 90
        3
176
     1
 90
        0
176
     1
 90
        0
176
     1
290
     0
176
     1
 90
       13
176
     1
 40
0.0
176
     1
 90
        0
176
     1
290
     0
176
     1
290
     1
176
     1
290
     1
176
     1
290
     0
176
     1
290
     0
176
     1
290
     0
176
     1
290
     0
176
     1
290
     0
176
     1
290
     0
176
     1
 90
       50
176
     1
 40
0.0
176
     1
 40
1.0
176
     1
 90
        0
176
     1
 62
    18
420
        0
176
     1
 90
       50
176
     1
 90
        3
176
     1
 62
     5
420
      255
176
     1
290
     0
176
     1
 90
       50
176
     1
 90
       50
176
     1
 90
       50
176
     1
290
     0
176
     1
 90
       50
176
     1
 62
   256
176
     0
 40
1.0
176
     0
 90
        2
176
     1
  1
strokes_ogs.tif
176
     1
290
     0
176
     1
 40
1.0
176
     1
 40
1.0
176
     1
  0
VISUALSTYLE
  5
42
102
{ACAD_REACTORS
330
2A
102
}
330
2A
100
AcDbVisualStyle
  2
Shaded
 70
    27
177
     3
291
     0
 70
    58
 90
        2
176
     1
 90
        2
176
     1
 90
        1
176
     1
 90
        2
176
     1
 40
0.6
176
     1
 40
30.0
176
     1
 62
     7
420
 16777215
176
     1
 90
        0
176
     1
 90
        4
176
     1
 62
     7
176
     1
 62
   257
176
     1
 90
        1
176
     1
 90
        1
176
     1
 40
1.0
176
     1
 90
        8
176
     1
 62
   257
176
     1
 40
1.0
176
     1
 90
        1
176
     1
 90
        6
176
     1
 90
        2
176
     1
 62
     8
420
  7895160
176
     1
 90
        3
176
     1
 90
        0
176
     1
 90
        0
176
     1
290
     0
176
     1
 90
        5
176
     1
 40
0.0
176
     1
 90
        0
176
     1
290
     0
176
     1
290
     1
176
     1
290
     1
176
     1
290
     0
176
     1
290
     0
176
     1
290
     0
176
     1
290
     0
176
     1
290
     0
176
     1
290
     0
176
     1
 90
       50
176
     1
 40
0.0
176
     1
 40
1.0
176
     1
 90
        0
176
     1
 62
    18
420
        0
176
     1
 90
       50
176
     1
 90
        3
176
     1
 62
     5
420
      255
176
     1
290
     0
176
     1
 90
       50
176
     1
 90
       50
176
     1
 90
       50
176
     1
290
     0
176
     1
 90
       50
176
     1
 62
   256
176
     0
 40
1.0
176
     0
 90
        2
176
     1
  1
strokes_ogs.tif
176
     1
290
     0
176
     1
 40
1.0
176
     1
 40
1.0
176
     1
  0
VISUALSTYLE
  5
41
102
{ACAD_REACTORS
330
2A
102
}
330
2A
100
AcDbVisualStyle
  2
Shaded with edges
 70
    26
177
     3
291
     0
 70
    58
 90
        2
176
     1
 90
        2
176
     1
 90
        1
176
     1
 90
        2
176
     1
 40
0.6
176
     1
 40
30.0
176
     1
 62
     7
420
 16777215
176
     1
 90
        1
176
     1
 90
       10
176
     1
 62
     7
176
     1
 62
   257
176
     1
 90
        2
176
     1
 90
        1
176
     1
 40
1.0
176
     1
 90
        8
176
     1
 62
   257
176
     1
 40
1.0
176
     1
 90
        1
176
     1
 90
        6
176
     1
 90
        2
176
     1
 62
     7
176
     1
 90
        3
176
     1
 90
        0
176
     1
 90
        0
176
     1
290
     0
176
     1
 90
        5
176
     1
 40
0.0
176
     1
 90
        0
176
     1
290
     0
176
     1
290
     1
176
     1
290
     1
176
     1
290
     0
176
     1
290
     0
176
     1
290
     0
176
     1
290
     0
176
     1
290
     0
176
     1
290
     0
176
     1
 90
       50
176
     1
 40
0.0
176
     1
 40
1.0
176
     1
 90
        0
176
     1
 62
    18
420
        0
176
     1
 90
       50
176
     1
 90
        3
176
     1
 62
     5
420
      255
176
     1
290
     0
176
     1
 90
       50
176
     1
 90
       50
176
     1
 90
       50
176
     1
290
     0
176
     1
 90
       50
176
     1
 62
   256
176
     0
 40
1.0
176
     0
 90
        2
176
     1
  1
strokes_ogs.tif
176
     1
290
     0
176
     1
 40
1.0
176
     1
 40
1.0
176
     1
  0
VISUALSTYLE
  5
3E
102
{ACAD_REACTORS
330
2A
102
}
330
2A
100
AcDbVisualStyle
  2
Shades of Gray
 70
    23
177
     3
291
     0
 70
    58
 90
        2
176
     1
 90
        2
176
     1
 90
        3
176
     1
 90
        0
176
     1
 40
0.6
176
     1
 40
30.0
176
     1
 62
     7
420
 16777215
176
     1
 90
        2
176
     1
 90
        2
176
     1
 62
     7
176
     1
 62
     7
176
     1
 90
        1
176
     1
 90
        1
176
     1
 40
40.0
176
     1
 90
        8
176
     1
 62
     7
176
     1
 40
1.0
176
     1
 90
        1
176
     1
 90
        6
176
     1
 90
        2
176
     1
 62
     7
176
     1
 90
        3
176
     1
 90
        0
176
     1
 90
        0
176
     1
290
     0
176
     1
 90
        1
176
     1
 40
0.0
176
     1
 90
        0
176
     1
290
     0
176
     1
290
     1
176
     1
290
     1
176
     1
290
     0
176
     1
290
     0
176
     1
290
     0
176
     1
290
     0
176
     1
290
     0
176
     1
290
     0
176
     1
 90
       50
176
     1
 40
0.0
176
     1
 40
1.0
176
     1
 90
        0
176
     1
 62
    18
420
        0
176
     1
 90
       50
176
     1
 90
        3
176
     1
 62
     5
420
      255
176
     1
290
     0
176
     1
 90
       50
176
     1
 90
       50
176
     1
 90
       50
176
     1
290
     0
176
     1
 90
       50
176
     1
 62
   256
176
     0
 40
1.0
176
     0
 90
        2
176
     1
  1
strokes_ogs.tif
176
     1
290
     0
176
     1
 40
1.0
176
     1
 40
1.0
176
     1
  0
VISUALSTYLE
  5
3F
102
{ACAD_REACTORS
330
2A
102
}
330
2A
100
AcDbVisualStyle
  2
Sketchy
 70
    24
177
     3
291
     0
 70
    58
 90
        1
176
     1
 90
        2
176
     1
 90
        2
176
     1
 90
        0
176
     1
 40
0.6
176
     1
 40
30.0
176
     1
 62
     7
420
 16777215
176
     1
 90
        2
176
     1
 90
        2
176
     1
 62
     7
176
     1
 62
     7
176
     1
 90
        1
176
     1
 90
        1
176
     1
 40
40.0
176
     1
 90
       11
176
     1
 62
     7
176
     1
 40
1.0
176
     1
 90
        1
176
     1
 90
        6
176
     1
 90
        2
176
     1
 62
     7
176
     1
 90
        6
176
     1
 90
        0
176
     1
 90
        0
176
     1
290
     0
176
     1
 90
        1
176
     1
 40
0.0
176
     1
 90
        0
176
     1
290
     0
176
     1
290
     1
176
     1
290
     1
176
     1
290
     0
176
     1
290
     0
176
     1
290
     0
176
     1
290
     0
176
     1
290
     0
176
     1
290
     0
176
     1
 90
       50
176
     1
 40
0.0
176
     1
 40
1.0
176
     1
 90
        0
176
     1
 62
    18
420
        0
176
     1
 90
       50
176
     1
 90
        3
176
     1
 62
     5
420
      255
176
     1
290
     0
176
     1
 90
       50
176
     1
 90
       50
176
     1
 90
       50
176
     1
290
     0
176
     1
 90
       50
176
     1
 62
   256
176
     0
 40
1.0
176
     0
 90
        2
176
     1
  1
strokes_ogs.tif
176
     1
290
     0
176
     1
 40
1.0
176
     1
 40
1.0
176
     1
  0
VISUALSTYLE
  5
37
102
{ACAD_REACTORS
330
2A
102
}
330
2A
100
AcDbVisualStyle
  2
Thicken
 70
    13
177
     3
291
     1
 70
    58
 90
        2
176
     1
 90
        2
176
     1
 90
        0
176
     1
 90
        0
176
     1
 40
0.6
176
     1
 40
30.0
176
     1
 62
     7
420
 16777215
176
     1
 90
        1
176
     1
 90
        4
176
     1
 62
     7
176
     1
 62
   257
176
     1
 90
        1
176
     1
 90
        1
176
     1
 40
1.0
176
     1
 90
       12
176
     1
 62
     7
176
     1
 40
1.0
176
     1
 90
        1
176
     1
 90
        6
176
     1
 90
        2
176
     1
 62
     7
176
     1
 90
        5
176
     1
 90
        0
176
     1
 90
        0
176
     1
290
     0
176
     1
 90
        1
176
     1
 40
0.0
176
     1
 90
        0
176
     1
290
     0
176
     1
290
     1
176
     1
290
     1
176
     1
290
     0
176
     1
290
     0
176
     1
290
     0
176
     1
290
     0
176
     1
290
     0
176
     1
290
     0
176
     1
 90
       50
176
     1
 40
0.0
176
     1
 40
1.0
176
     1
 90
        0
176
     1
 62
    18
420
        0
176
     1
 90
       50
176
     1
 90
        3
176
     1
 62
     5
420
      255
176
     1
290
     0
176
     1
 90
       50
176
     1
 90
       50
176
     1
 90
       50
176
     1
290
     0
176
     1
 90
       50
176
     1
 62
   256
176
     0
 40
1.0
176
     0
 90
        2
176
     1
  1
strokes_ogs.tif
176
     1
290
     0
176
     1
 40
1.0
176
     1
 40
1.0
176
     1
  0
VISUALSTYLE
  5
30
102
{ACAD_REACTORS
330
2A
102
}
330
2A
100
AcDbVisualStyle
  2
Wireframe
 70
     5
177
     3
291
     0
 70
    58
 90
        0
176
     1
 90
        2
176
     1
 90
        0
176
     1
 90
        0
176
     1
 40
0.6
176
     1
 40
30.0
176
     1
 62
     7
420
 16777215
176
     1
 90
        1
176
     1
 90
        4
176
     1
 62
     7
176
     1
 62
   257
176
     1
 90
        1
176
     1
 90
        1
176
     1
 40
1.0
176
     1
 90
        0
176
     1
 62
   257
176
     1
 40
1.0
176
     1
 90
        1
176
     1
 90
        6
176
     1
 90
        2
176
     1
 62
     7
176
     1
 90
        3
176
     1
 90
        0
176
     1
 90
        0
176
     1
290
     0
176
     1
 90
        1
176
     1
 40
0.0
176
     1
 90
        0
176
     1
290
     0
176
     1
290
     1
176
     1
290
     1
176
     1
290
     0
176
     1
290
     0
176
     1
290
     0
176
     1
290
     0
176
     1
290
     0
176
     1
290
     0
176
     1
 90
       50
176
     1
 40
0.0
176
     1
 40
1.0
176
     1
 90
        0
176
     1
 62
    18
420
        0
176
     1
 90
       50
176
     1
 90
        3
176
     1
 62
     5
420
      255
176
     1
290
     0
176
     1
 90
       50
176
     1
 90
       50
176
     1
 90
       50
176
     1
290
     0
176
     1
 90
       50
176
     1
 62
   256
176
     0
 40
1.0
176
     0
 90
        2
176
     1
  1
strokes_ogs.tif
176
     1
290
     0
176
     1
 40
1.0
176
     1
 40
1.0
176
     1
  0
VISUALSTYLE
  5
40
102
{ACAD_REACTORS
330
2A
102
}
330
2A
100
AcDbVisualStyle
  2
X-Ray
 70
    25
177
     3
291
     0
 70
    58
 90
        2
176
     1
 90
        2
176
     1
 90
        1
176
     1
 90
        1
176
     1
 40
0.5
176
     1
 40
30.0
176
     1
 62
     7
420
 16777215
176
     1
 90
        1
176
     1
 90
        0
176
     1
 62
     7
176
     1
 62
   257
176
     1
 90
        1
176
     1
 90
        1
176
     1
 40
1.0
176
     1
 90
        8
176
     1
 62
     7
176
     1
 40
1.0
176
     1
 90
        1
176
     1
 90
        6
176
     1
 90
        2
176
     1
 62
     7
176
     1
 90
        3
176
     1
 90
        0
176
     1
 90
        0
176
     1
290
     0
176
     1
 90
       13
176
     1
 40
0.0
176
     1
 90
        0
176
     1
290
     0
176
     1
290
     1
176
     1
290
     1
176
     1
290
     0
176
     1
290
     0
176
     1
290
     0
176
     1
290
     0
176
     1
290
     0
176
     1
290
     0
176
     1
 90
       50
176
     1
 40
0.0
176
     1
 40
1.0
176
     1
 90
        0
176
     1
 62
    18
420
        0
176
     1
 90
       50
176
     1
 90
        3
176
     1
 62
     5
420
      255
176
     1
290
     0
176
     1
 90
       50
176
     1
 90
       50
176
     1
 90
       50
176
     1
290
     0
176
     1
 90
       50
176
     1
 62
   256
176
     0
 40
1.0
176
     0
 90
        2
176
     1
  1
strokes_ogs.tif
176
     1
290
     0
176
     1
 40
1.0
176
     1
 40
1.0
176
     1
  0
DICTIONARYVAR
  5
9B
102
{ACAD_REACTORS
330
9A
102
}
330
9A
100
DictionaryVariables
280
     0
  1
1:1
  0
DICTIONARYVAR
  5
A3
102
{ACAD_REACTORS
330
9A
102
}
330
9A
100
DictionaryVariables
280
     0
  1
3.500000
  0
DICTIONARYVAR
  5
A4
102
{ACAD_REACTORS
330
9A
102
}
330
9A
100
DictionaryVariables
280
     0
  1
acadiso.lin
  0
DICTIONARYVAR
  5
A0
102
{ACAD_REACTORS
330
9A
102
}
330
9A
100
DictionaryVariables
280
     0
  1
Standard
  0
DICTIONARYVAR
  5
9F
102
{ACAD_REACTORS
330
9A
102
}
330
9A
100
DictionaryVariables
280
     0
  1
Standard
  0
DICTIONARY
  5
9C
330
5A
100
AcDbDictionary
280
     1
281
     1
  3
ACAD_ROUNDTRIP_2008_TABLESTYLE_CELLSTYLEMAP
360
9D
  0
CELLSTYLEMAP
  5
9D
102
{ACAD_REACTORS
330
9C
102
}
330
9C
100
AcDbCellStyleMap
 90
        3
300
CELLSTYLE
  1
TABLEFORMAT_BEGIN
 90
        5
170
     1
 91
        0
 92
    32768
 62
   257
 93
        1
300
CONTENTFORMAT
  1
CONTENTFORMAT_BEGIN
 90
        0
 91
        0
 92
        4
 93
        0
300

 40
0.0
140
1.0
 94
        5
 62
     0
340
11
144
6.0
309
CONTENTFORMAT_END
171
     1
301
MARGIN
  1
CELLMARGIN_BEGIN
 40
1.5
 40
1.5
 40
1.5
 40
1.5
 40
1.5
 40
1.5
309
CELLMARGIN_END
 94
        6
 95
        1
302
GRIDFORMAT
  1
GRIDFORMAT_BEGIN
 90
        0
 91
        1
 62
     0
 92
       -2
340
14
 93
        0
 40
0.045
309
GRIDFORMAT_END
 95
        2
302
GRIDFORMAT
  1
GRIDFORMAT_BEGIN
 90
        0
 91
        1
 62
     0
 92
       -2
340
14
 93
        0
 40
0.045
309
GRIDFORMAT_END
 95
        4
302
GRIDFORMAT
  1
GRIDFORMAT_BEGIN
 90
        0
 91
        1
 62
     0
 92
       -2
340
14
 93
        0
 40
0.045
309
GRIDFORMAT_END
 95
        8
302
GRIDFORMAT
  1
GRIDFORMAT_BEGIN
 90
        0
 91
        1
 62
     0
 92
       -2
340
14
 93
        0
 40
0.045
309
GRIDFORMAT_END
 95
       16
302
GRIDFORMAT
  1
GRIDFORMAT_BEGIN
 90
        0
 91
        1
 62
     0
 92
       -2
340
14
 93
        0
 40
0.045
309
GRIDFORMAT_END
 95
       32
302
GRIDFORMAT
  1
GRIDFORMAT_BEGIN
 90
        0
 91
        1
 62
     0
 92
       -2
340
14
 93
        0
 40
0.045
309
GRIDFORMAT_END
309
TABLEFORMAT_END
  1
CELLSTYLE_BEGIN
 90
        1
 91
        1
300
_TITLE
309
CELLSTYLE_END
300
CELLSTYLE
  1
TABLEFORMAT_BEGIN
 90
        5
170
     1
 91
        0
 92
        0
 62
   257
 93
        1
300
CONTENTFORMAT
  1
CONTENTFORMAT_BEGIN
 90
        0
 91
        0
 92
        4
 93
        0
300

 40
0.0
140
1.0
 94
        5
 62
     0
340
11
144
4.5
309
CONTENTFORMAT_END
171
     1
301
MARGIN
  1
CELLMARGIN_BEGIN
 40
1.5
 40
1.5
 40
1.5
 40
1.5
 40
1.5
 40
1.5
309
CELLMARGIN_END
 94
        6
 95
        1
302
GRIDFORMAT
  1
GRIDFORMAT_BEGIN
 90
        0
 91
        1
 62
     0
 92
       -2
340
14
 93
        0
 40
0.045
309
GRIDFORMAT_END
 95
        2
302
GRIDFORMAT
  1
GRIDFORMAT_BEGIN
 90
        0
 91
        1
 62
     0
 92
       -2
340
14
 93
        0
 40
0.045
309
GRIDFORMAT_END
 95
        4
302
GRIDFORMAT
  1
GRIDFORMAT_BEGIN
 90
        0
 91
        1
 62
     0
 92
       -2
340
14
 93
        0
 40
0.045
309
GRIDFORMAT_END
 95
        8
302
GRIDFORMAT
  1
GRIDFORMAT_BEGIN
 90
        0
 91
        1
 62
     0
 92
       -2
340
14
 93
        0
 40
0.045
309
GRIDFORMAT_END
 95
       16
302
GRIDFORMAT
  1
GRIDFORMAT_BEGIN
 90
        0
 91
        1
 62
     0
 92
       -2
340
14
 93
        0
 40
0.045
309
GRIDFORMAT_END
 95
       32
302
GRIDFORMAT
  1
GRIDFORMAT_BEGIN
 90
        0
 91
        1
 62
     0
 92
       -2
340
14
 93
        0
 40
0.045
309
GRIDFORMAT_END
309
TABLEFORMAT_END
  1
CELLSTYLE_BEGIN
 90
        2
 91
        1
300
_HEADER
309
CELLSTYLE_END
300
CELLSTYLE
  1
TABLEFORMAT_BEGIN
 90
        5
170
     1
 91
        0
 92
        0
 62
   257
 93
        1
300
CONTENTFORMAT
  1
CONTENTFORMAT_BEGIN
 90
        0
 91
        0
 92
        4
 93
        0
300

 40
0.0
140
1.0
 94
        2
 62
     0
340
11
144
4.5
309
CONTENTFORMAT_END
171
     1
301
MARGIN
  1
CELLMARGIN_BEGIN
 40
1.5
 40
1.5
 40
1.5
 40
1.5
 40
1.5
 40
1.5
309
CELLMARGIN_END
 94
        6
 95
        1
302
GRIDFORMAT
  1
GRIDFORMAT_BEGIN
 90
        0
 91
        1
 62
     0
 92
       -2
340
14
 93
        0
 40
0.045
309
GRIDFORMAT_END
 95
        2
302
GRIDFORMAT
  1
GRIDFORMAT_BEGIN
 90
        0
 91
        1
 62
     0
 92
       -2
340
14
 93
        0
 40
0.045
309
GRIDFORMAT_END
 95
        4
302
GRIDFORMAT
  1
GRIDFORMAT_BEGIN
 90
        0
 91
        1
 62
     0
 92
       -2
340
14
 93
        0
 40
0.045
309
GRIDFORMAT_END
 95
        8
302
GRIDFORMAT
  1
GRIDFORMAT_BEGIN
 90
        0
 91
        1
 62
     0
 92
       -2
340
14
 93
        0
 40
0.045
309
GRIDFORMAT_END
 95
       16
302
GRIDFORMAT
  1
GRIDFORMAT_BEGIN
 90
        0
 91
        1
 62
     0
 92
       -2
340
14
 93
        0
 40
0.045
309
GRIDFORMAT_END
 95
       32
302
GRIDFORMAT
  1
GRIDFORMAT_BEGIN
 90
        0
 91
        1
 62
     0
 92
       -2
340
14
 93
        0
 40
0.045
309
GRIDFORMAT_END
309
TABLEFORMAT_END
  1
CELLSTYLE_BEGIN
 90
        3
 91
        2
300
_DATA
309
CELLSTYLE_END
  0
ENDSEC
  0
EOF
