  0
SECTION
  2
HEADER
  9
$ACADVER
  1
AC1027
  9
$ACADMAINTVER
 70
   105
  9
$DWGCODEPAGE
  3
ANSI_932
  9
$LASTSAVEDBY
  1
a.yasuda
  9
$REQUIREDVERSIONS
160
                 0
  9
$INSBASE
 10
0.0
 20
0.0
 30
0.0
  9
$EXTMIN
 10
0.0
 20
0.0
 30
0.0
  9
$EXTMAX
 10
302.9997823349792
 20
216.0016055409748
 30
0.0
  9
$LIMMIN
 10
0.0
 20
0.0
  9
$LIMMAX
 10
302.9997823349792
 20
216.0016055409748
  9
$ORTHOMODE
 70
     0
  9
$REGENMODE
 70
     1
  9
$FILLMODE
 70
     1
  9
$QTEXTMODE
 70
     0
  9
$MIRRTEXT
 70
     1
  9
$LTSCALE
 40
1.0
  9
$ATTMODE
 70
     1
  9
$TEXTSIZE
 40
2.5
  9
$TRACEWID
 40
1.0
  9
$TEXTSTYLE
  7
Standard
  9
$CLAYER
  8
0
  9
$CELTYPE
  6
ByLayer
  9
$CECOLOR
 62
   256
  9
$CELTSCALE
 40
1.0
  9
$DISPSILH
 70
     0
  9
$DIMSCALE
 40
1.0
  9
$DIMASZ
 40
2.5
  9
$DIMEXO
 40
0.625
  9
$DIMDLI
 40
3.75
  9
$DIMRND
 40
0.0
  9
$DIMDLE
 40
0.0
  9
$DIMEXE
 40
1.25
  9
$DIMTP
 40
0.0
  9
$DIMTM
 40
0.0
  9
$DIMTXT
 40
2.5
  9
$DIMCEN
 40
2.5
  9
$DIMTSZ
 40
0.0
  9
$DIMTOL
 70
     0
  9
$DIMLIM
 70
     0
  9
$DIMTIH
 70
     0
  9
$DIMTOH
 70
     0
  9
$DIMSE1
 70
     0
  9
$DIMSE2
 70
     0
  9
$DIMTAD
 70
     1
  9
$DIMZIN
 70
     8
  9
$DIMBLK
  1

  9
$DIMASO
 70
     1
  9
$DIMSHO
 70
     1
  9
$DIMPOST
  1

  9
$DIMAPOST
  1

  9
$DIMALT
 70
     0
  9
$DIMALTD
 70
     3
  9
$DIMALTF
 40
0.03937007874016
  9
$DIMLFAC
 40
1.0
  9
$DIMTOFL
 70
     1
  9
$DIMTVP
 40
0.0
  9
$DIMTIX
 70
     0
  9
$DIMSOXD
 70
     0
  9
$DIMSAH
 70
     0
  9
$DIMBLK1
  1

  9
$DIMBLK2
  1

  9
$DIMSTYLE
  2
ISO-25
  9
$DIMCLRD
 70
     0
  9
$DIMCLRE
 70
     0
  9
$DIMCLRT
 70
     0
  9
$DIMTFAC
 40
1.0
  9
$DIMGAP
 40
0.625
  9
$DIMJUST
 70
     0
  9
$DIMSD1
 70
     0
  9
$DIMSD2
 70
     0
  9
$DIMTOLJ
 70
     0
  9
$DIMTZIN
 70
     8
  9
$DIMALTZ
 70
     0
  9
$DIMALTTZ
 70
     0
  9
$DIMUPT
 70
     0
  9
$DIMDEC
 70
     2
  9
$DIMTDEC
 70
     2
  9
$DIMALTU
 70
     2
  9
$DIMALTTD
 70
     3
  9
$DIMTXSTY
  7
Standard
  9
$DIMAUNIT
 70
     0
  9
$DIMADEC
 70
     0
  9
$DIMALTRND
 40
0.0
  9
$DIMAZIN
 70
     0
  9
$DIMDSEP
 70
    44
  9
$DIMATFIT
 70
     3
  9
$DIMFRAC
 70
     0
  9
$DIMLDRBLK
  1

  9
$DIMLUNIT
 70
     2
  9
$DIMLWD
 70
    -2
  9
$DIMLWE
 70
    -2
  9
$DIMTMOVE
 70
     0
  9
$DIMFXL
 40
1.0
  9
$DIMFXLON
 70
     0
  9
$DIMJOGANG
 40
0.7853981633974483
  9
$DIMTFILL
 70
     0
  9
$DIMTFILLCLR
 70
     0
  9
$DIMARCSYM
 70
     0
  9
$DIMLTYPE
  6

  9
$DIMLTEX1
  6

  9
$DIMLTEX2
  6

  9
$DIMTXTDIRECTION
 70
     0
  9
$LUNITS
 70
     2
  9
$LUPREC
 70
     4
  9
$SKETCHINC
 40
1.0
  9
$FILLETRAD
 40
0.0
  9
$AUNITS
 70
     0
  9
$AUPREC
 70
     0
  9
$MENU
  1
.
  9
$ELEVATION
 40
0.0
  9
$PELEVATION
 40
0.0
  9
$THICKNESS
 40
0.0
  9
$LIMCHECK
 70
     0
  9
$CHAMFERA
 40
0.0
  9
$CHAMFERB
 40
0.0
  9
$CHAMFERC
 40
0.0
  9
$CHAMFERD
 40
0.0
  9
$SKPOLY
 70
     0
  9
$TDCREATE
 40
2459873.457589375
  9
$TDUCREATE
 40
2459873.082589375
  9
$TDUPDATE
 40
2459873.457589433
  9
$TDUUPDATE
 40
2459873.082589433
  9
$TDINDWG
 40
0.0000000116
  9
$TDUSRTIMER
 40
0.0000000116
  9
$USRTIMER
 70
     1
  9
$ANGBASE
 50
0.0
  9
$ANGDIR
 70
     0
  9
$PDMODE
 70
     0
  9
$PDSIZE
 40
0.0
  9
$PLINEWID
 40
0.0
  9
$SPLFRAME
 70
     0
  9
$SPLINETYPE
 70
     6
  9
$SPLINESEGS
 70
     8
  9
$HANDSEED
  5
B1
  9
$SURFTAB1
 70
     6
  9
$SURFTAB2
 70
     6
  9
$SURFTYPE
 70
     6
  9
$SURFU
 70
     6
  9
$SURFV
 70
     6
  9
$UCSBASE
  2

  9
$UCSNAME
  2

  9
$UCSORG
 10
0.0
 20
0.0
 30
0.0
  9
$UCSXDIR
 10
1.0
 20
0.0
 30
0.0
  9
$UCSYDIR
 10
0.0
 20
1.0
 30
0.0
  9
$UCSORTHOREF
  2

  9
$UCSORTHOVIEW
 70
     0
  9
$UCSORGTOP
 10
0.0
 20
0.0
 30
0.0
  9
$UCSORGBOTTOM
 10
0.0
 20
0.0
 30
0.0
  9
$UCSORGLEFT
 10
0.0
 20
0.0
 30
0.0
  9
$UCSORGRIGHT
 10
0.0
 20
0.0
 30
0.0
  9
$UCSORGFRONT
 10
0.0
 20
0.0
 30
0.0
  9
$UCSORGBACK
 10
0.0
 20
0.0
 30
0.0
  9
$PUCSBASE
  2

  9
$PUCSNAME
  2

  9
$PUCSORG
 10
0.0
 20
0.0
 30
0.0
  9
$PUCSXDIR
 10
1.0
 20
0.0
 30
0.0
  9
$PUCSYDIR
 10
0.0
 20
1.0
 30
0.0
  9
$PUCSORTHOREF
  2

  9
$PUCSORTHOVIEW
 70
     0
  9
$PUCSORGTOP
 10
0.0
 20
0.0
 30
0.0
  9
$PUCSORGBOTTOM
 10
0.0
 20
0.0
 30
0.0
  9
$PUCSORGLEFT
 10
0.0
 20
0.0
 30
0.0
  9
$PUCSORGRIGHT
 10
0.0
 20
0.0
 30
0.0
  9
$PUCSORGFRONT
 10
0.0
 20
0.0
 30
0.0
  9
$PUCSORGBACK
 10
0.0
 20
0.0
 30
0.0
  9
$USERI1
 70
     0
  9
$USERI2
 70
     0
  9
$USERI3
 70
     0
  9
$USERI4
 70
     0
  9
$USERI5
 70
     0
  9
$USERR1
 40
0.0
  9
$USERR2
 40
0.0
  9
$USERR3
 40
0.0
  9
$USERR4
 40
0.0
  9
$USERR5
 40
0.0
  9
$WORLDVIEW
 70
     1
  9
$SHADEDGE
 70
     3
  9
$SHADEDIF
 70
    70
  9
$TILEMODE
 70
     1
  9
$MAXACTVP
 70
    64
  9
$PINSBASE
 10
0.0
 20
0.0
 30
0.0
  9
$PLIMCHECK
 70
     0
  9
$PEXTMIN
 10
1.000000000000000E+20
 20
1.000000000000000E+20
 30
1.000000000000000E+20
  9
$PEXTMAX
 10
-1.000000000000000E+20
 20
-1.000000000000000E+20
 30
-1.000000000000000E+20
  9
$PLIMMIN
 10
0.0
 20
0.0
  9
$PLIMMAX
 10
420.0
 20
297.0
  9
$UNITMODE
 70
     0
  9
$VISRETAIN
 70
     1
  9
$PLINEGEN
 70
     0
  9
$PSLTSCALE
 70
     1
  9
$TREEDEPTH
 70
  3020
  9
$CMLSTYLE
  2
Standard
  9
$CMLJUST
 70
     0
  9
$CMLSCALE
 40
20.0
  9
$PROXYGRAPHICS
 70
     1
  9
$MEASUREMENT
 70
     1
  9
$CELWEIGHT
370
    -1
  9
$ENDCAPS
280
     0
  9
$JOINSTYLE
280
     0
  9
$LWDISPLAY
290
     0
  9
$INSUNITS
 70
     4
  9
$HYPERLINKBASE
  1

  9
$STYLESHEET
  1

  9
$XEDIT
290
     1
  9
$CEPSNTYPE
380
     0
  9
$PSTYLEMODE
290
     1
  9
$FINGERPRINTGUID
  2
{e62f7a6a-e824-4100-ab37-a33fbf326db4}
  9
$VERSIONGUID
  2
{FAEB1C32-E019-11D5-929B-00C0DF256EC4}
  9
$EXTNAMES
290
     1
  9
$PSVPSCALE
 40
0.0
  9
$OLESTARTUP
290
     0
  9
$SORTENTS
280
   127
  9
$INDEXCTL
280
     0
  9
$HIDETEXT
280
     1
  9
$XCLIPFRAME
280
     2
  9
$HALOGAP
280
     0
  9
$OBSCOLOR
 70
   257
  9
$OBSLTYPE
280
     0
  9
$INTERSECTIONDISPLAY
280
     0
  9
$INTERSECTIONCOLOR
 70
   257
  9
$DIMASSOC
280
     2
  9
$PROJECTNAME
  1

  9
$CAMERADISPLAY
290
     0
  9
$LENSLENGTH
 40
50.0
  9
$CAMERAHEIGHT
 40
0.0
  9
$STEPSPERSEC
 40
2.0
  9
$STEPSIZE
 40
6.0
  9
$3DDWFPREC
 40
2.0
  9
$PSOLWIDTH
 40
5.0
  9
$PSOLHEIGHT
 40
80.0
  9
$LOFTANG1
 40
1.570796326794897
  9
$LOFTANG2
 40
1.570796326794897
  9
$LOFTMAG1
 40
0.0
  9
$LOFTMAG2
 40
0.0
  9
$LOFTPARAM
 70
     7
  9
$LOFTNORMALS
280
     1
  9
$LATITUDE
 40
37.795
  9
$LONGITUDE
 40
-122.394
  9
$NORTHDIRECTION
 40
0.0
  9
$TIMEZONE
 70
 -8000
  9
$LIGHTGLYPHDISPLAY
280
     1
  9
$TILEMODELIGHTSYNCH
280
     1
  9
$CMATERIAL
347
44
  9
$SOLIDHIST
280
     0
  9
$SHOWHIST
280
     1
  9
$DWFFRAME
280
     2
  9
$DGNFRAME
280
     2
  9
$REALWORLDSCALE
290
     1
  9
$INTERFERECOLOR
 62
   256
  9
$CSHADOW
280
     0
  9
$SHADOWPLANELOCATION
 40
0.0
  0
ENDSEC
  0
SECTION
  2
CLASSES
  0
CLASS
  1
ACDBDICTIONARYWDFLT
  2
AcDbDictionaryWithDefault
  3
ObjectDBX Classes
 90
        0
 91
        3
280
     0
281
     0
  0
CLASS
  1
VISUALSTYLE
  2
AcDbVisualStyle
  3
ObjectDBX Classes
 90
     4095
 91
        3
280
     0
281
     0
  0
CLASS
  1
MATERIAL
  2
AcDbMaterial
  3
ObjectDBX Classes
 90
     1153
 91
        3
280
     0
281
     0
  0
CLASS
  1
SCALE
  2
AcDbScale
  3
ObjectDBX Classes
 90
     1153
 91
        3
280
     0
281
     0
  0
CLASS
  1
TABLESTYLE
  2
AcDbTableStyle
  3
ObjectDBX Classes
 90
     4095
 91
        3
280
     0
281
     0
  0
CLASS
  1
MLEADERSTYLE
  2
AcDbMLeaderStyle
  3
ACDB_MLEADERSTYLE_CLASS
 90
     4095
 91
        3
280
     0
281
     0
  0
CLASS
  1
SUN
  2
AcDbSun
  3
SCENEOE
 90
     1153
 91
        3
280
     0
281
     0
  0
CLASS
  1
DICTIONARYVAR
  2
AcDbDictionaryVar
  3
ObjectDBX Classes
 90
        0
 91
        3
280
     0
281
     0
  0
CLASS
  1
CELLSTYLEMAP
  2
AcDbCellStyleMap
  3
ObjectDBX Classes
 90
     1152
 91
        3
280
     0
281
     0
  0
ENDSEC
  0
SECTION
  2
TABLES
  0
TABLE
  2
VPORT
  5
8
330
0
100
AcDbSymbolTable
 70
     1
  0
VPORT
  5
29
330
8
100
AcDbSymbolTableRecord
100
AcDbViewportTableRecord
  2
*Active
 70
     0
 10
0.0
 20
0.0
 11
1.0
 21
1.0
 12
151.4998911674896
 22
108.0008027704874
 13
0.0
 23
0.0
 14
10.0
 24
10.0
 15
10.0
 25
10.0
 16
0.0
 26
0.0
 36
1.0
 17
0.0
 27
0.0
 37
0.0
 40
237.6017660950723
 41
1.402766343222857
 42
50.0
 43
0.0
 44
0.0
 50
0.0
 51
0.0
 71
     0
 72
 10000
 73
     1
 74
     3
 75
     0
 76
     0
 77
     0
 78
     0
281
     0
 65
     1
110
0.0
120
0.0
130
0.0
111
1.0
121
0.0
131
0.0
112
0.0
122
1.0
132
0.0
 79
     0
146
0.0
348
2F
 60
     3
 61
     5
292
     1
282
     1
141
0.0
142
0.0
 63
   250
361
5D
  0
ENDTAB
  0
TABLE
  2
LTYPE
  5
5
330
0
100
AcDbSymbolTable
 70
     2
  0
LTYPE
  5
14
330
5
100
AcDbSymbolTableRecord
100
AcDbLinetypeTableRecord
  2
ByBlock
 70
     0
  3

 72
    65
 73
     0
 40
0.0
  0
LTYPE
  5
15
330
5
100
AcDbSymbolTableRecord
100
AcDbLinetypeTableRecord
  2
ByLayer
 70
     0
  3

 72
    65
 73
     0
 40
0.0
  0
LTYPE
  5
16
330
5
100
AcDbSymbolTableRecord
100
AcDbLinetypeTableRecord
  2
Continuous
 70
     0
  3
Solid line
 72
    65
 73
     0
 40
0.0
  0
LTYPE
  5
5F
330
5
100
AcDbSymbolTableRecord
100
AcDbLinetypeTableRecord
  2
UserDefined01
 70
     0
  3
----------------                
 72
    65
 73
     2
 40
0.7055555449591743
 49
0.3527777724795871
 74
     0
 49
-0.3527777724795871
 74
     0
  0
ENDTAB
  0
TABLE
  2
LAYER
  5
2
330
0
100
AcDbSymbolTable
 70
     3
  0
LAYER
  5
10
330
2
100
AcDbSymbolTableRecord
100
AcDbLayerTableRecord
  2
0
 70
     0
 62
     7
  6
Continuous
370
    -3
390
F
347
46
348
0
  0
LAYER
  5
60
330
2
100
AcDbSymbolTableRecord
100
AcDbLayerTableRecord
  2
外枠
 70
     0
 62
     7
  6
Continuous
370
    -3
390
F
347
46
348
0
  0
LAYER
  5
61
330
2
100
AcDbSymbolTableRecord
100
AcDbLayerTableRecord
  2
ISS138金台
 70
     0
 62
     7
  6
Continuous
370
    -3
390
F
347
46
348
0
  0
ENDTAB
  0
TABLE
  2
STYLE
  5
3
330
0
100
AcDbSymbolTable
 70
     2
  0
STYLE
  5
11
330
3
100
AcDbSymbolTableRecord
100
AcDbTextStyleTableRecord
  2
Standard
 70
     0
 40
0.0
 41
1.0
 50
0.0
 71
     0
 42
2.5
  3

  4

  0
STYLE
  5
5E
330
3
100
AcDbSymbolTableRecord
100
AcDbTextStyleTableRecord
  2
MS Gothic
 70
     0
 40
1.0
 41
1.0
 50
0.0
 71
     0
 42
2.5
  3
msgothic.ttc
  4

1001
ACAD
1000
MS Gothic
1071
    32817
  0
ENDTAB
  0
TABLE
  2
VIEW
  5
6
330
0
100
AcDbSymbolTable
 70
     0
  0
ENDTAB
  0
TABLE
  2
UCS
  5
7
330
0
100
AcDbSymbolTable
 70
     0
  0
ENDTAB
  0
TABLE
  2
APPID
  5
9
330
0
100
AcDbSymbolTable
 70
     1
  0
APPID
  5
12
330
9
100
AcDbSymbolTableRecord
100
AcDbRegAppTableRecord
  2
ACAD
 70
     0
  0
ENDTAB
  0
TABLE
  2
DIMSTYLE
  5
A
330
0
100
AcDbSymbolTable
 70
     1
100
AcDbDimStyleTable
  0
DIMSTYLE
105
27
330
A
100
AcDbSymbolTableRecord
100
AcDbDimStyleTableRecord
  2
ISO-25
 70
     0
 41
2.5
 42
0.625
 43
3.75
 44
1.25
 73
     0
 74
     0
 77
     1
 78
     8
140
2.5
141
2.5
143
0.03937007874016
147
0.625
171
     3
172
     1
178
     0
271
     2
272
     2
274
     3
278
    44
283
     0
284
     8
340
11
  0
ENDTAB
  0
TABLE
  2
BLOCK_RECORD
  5
1
330
0
100
AcDbSymbolTable
 70
     1
  0
BLOCK_RECORD
  5
1F
330
1
100
AcDbSymbolTableRecord
100
AcDbBlockTableRecord
  2
*Model_Space
340
22
 70
     0
280
     1
281
     0
  0
BLOCK_RECORD
  5
1B
330
1
100
AcDbSymbolTableRecord
100
AcDbBlockTableRecord
  2
*Paper_Space
340
1E
 70
     0
280
     1
281
     0
  0
BLOCK_RECORD
  5
23
330
1
100
AcDbSymbolTableRecord
100
AcDbBlockTableRecord
  2
*Paper_Space0
340
26
 70
     0
280
     1
281
     0
  0
ENDTAB
  0
ENDSEC
  0
SECTION
  2
BLOCKS
  0
BLOCK
  5
20
330
1F
100
AcDbEntity
  8
0
100
AcDbBlockBegin
  2
*Model_Space
 70
     0
 10
0.0
 20
0.0
 30
0.0
  3
*Model_Space
  1

  0
ENDBLK
  5
21
330
1F
100
AcDbEntity
  8
0
100
AcDbBlockEnd
  0
BLOCK
  5
1C
330
1B
100
AcDbEntity
 67
     1
  8
0
100
AcDbBlockBegin
  2
*Paper_Space
 70
     0
 10
0.0
 20
0.0
 30
0.0
  3
*Paper_Space
  1

  0
ENDBLK
  5
1D
330
1B
100
AcDbEntity
 67
     1
  8
0
100
AcDbBlockEnd
  0
BLOCK
  5
24
330
23
100
AcDbEntity
  8
0
100
AcDbBlockBegin
  2
*Paper_Space0
 70
     0
 10
0.0
 20
0.0
 30
0.0
  3
*Paper_Space0
  1

  0
ENDBLK
  5
25
330
23
100
AcDbEntity
  8
0
100
AcDbBlockEnd
  0
ENDSEC
  0
SECTION
  2
ENTITIES
  0
LWPOLYLINE
  5
62
330
1F
100
AcDbEntity
  8
外枠
  6
Continuous
 62
   250
420
  2367521
370
   100
100
AcDbPolyline
 90
        5
 70
     0
 43
0.0
 10
281.9999662644599
 20
13.29407825637392
 10
20.99981607051935
 20
13.29407825637392
 10
20.99981607051935
 20
193.0018900389566
 10
281.9999662644599
 20
193.0018900389566
 10
281.9999662644599
 20
13.29407825637392
  0
LINE
  5
63
330
1F
100
AcDbEntity
  8
外枠
  6
Continuous
 62
   250
420
  2367521
370
    25
100
AcDbLine
 10
223.3097080177524
 20
174.0786160074276
 30
0.0
 11
281.9999232007669
 21
174.0786160074276
 31
0.0
  0
LINE
  5
64
330
1F
100
AcDbEntity
  8
外枠
  6
Continuous
 62
   250
420
  2367521
370
    25
100
AcDbLine
 10
223.3097080177524
 20
50.37109023844297
 30
0.0
 11
281.9999232007669
 21
50.37109023844297
 31
0.0
  0
LINE
  5
65
330
1F
100
AcDbEntity
  8
外枠
  6
Continuous
 62
   250
420
  2367521
370
    25
100
AcDbLine
 10
223.3097080177524
 20
36.25997933925949
 30
0.0
 11
281.9999232007669
 21
36.25997933925949
 31
0.0
  0
LINE
  5
66
330
1F
100
AcDbEntity
  8
外枠
  6
Continuous
 62
   250
420
  2367521
370
    50
100
AcDbLine
 10
223.0158413772006
 20
193.3637327187979
 30
0.0
 11
223.0158413772006
 21
13.29396655992039
 31
0.0
  0
TEXT
  5
67
330
1F
100
AcDbEntity
  8
外枠
  6
Continuous
 62
   250
420
  2367521
100
AcDbText
 10
224.7190965599536
 20
186.6888051931772
 30
0.0
 40
2.688166626294454
  1
品名：
 41
0.974166170756022
  7
MS Gothic
100
AcDbText
  0
TEXT
  5
68
330
1F
100
AcDbEntity
  8
外枠
  6
Continuous
 62
   250
420
  2367521
100
AcDbText
 10
224.7190965599536
 20
168.1080059455944
 30
0.0
 40
2.688166626294454
  1
仕様：
 41
0.9978878657023111
  7
MS Gothic
100
AcDbText
  0
TEXT
  5
69
330
1F
100
AcDbEntity
  8
外枠
  6
Continuous
 62
   250
420
  2367521
100
AcDbText
 10
224.7190965599536
 20
44.16660664327048
 30
0.0
 40
2.688166626294454
  1
縮尺：
 41
0.9939999262491861
  7
MS Gothic
100
AcDbText
  0
TEXT
  5
6A
330
1F
100
AcDbEntity
  8
外枠
  6
Continuous
 62
   250
420
  2367521
100
AcDbText
 10
250.2379519709696
 20
40.59738467878129
 30
0.0
 40
2.150533301035563
  1
1/1
 41
1.000003814697266
  7
MS Gothic
100
AcDbText
  0
TEXT
  5
6B
330
1F
100
AcDbEntity
  8
外枠
  6
Continuous
 62
   250
420
  2367521
100
AcDbText
 10
232.7757967427735
 20
181.9845273775436
 30
0.0
 40
2.688166626294454
  1
フロアーレイ　LC-3
 41
1.00370856391059
  7
MS Gothic
100
AcDbText
  0
TEXT
  5
6C
330
1F
100
AcDbEntity
  8
外枠
  6
Continuous
 62
   250
420
  2367521
100
AcDbText
 10
233.0517273552202
 20
129.9762931224148
 30
0.0
 40
2.016124969720841
  1
IS-13  グレー
 41
0.90473398061899
  7
MS Gothic
100
AcDbText
  0
TEXT
  5
6D
330
1F
100
AcDbEntity
  8
外枠
  6
Continuous
 62
   250
420
  2367521
100
AcDbText
 10
233.0517273552202
 20
124.684626535221
 30
0.0
 40
2.016124969720841
  1
IS-14  ダークグレー
 41
0.9366206654331138
  7
MS Gothic
100
AcDbText
  0
TEXT
  5
6E
330
1F
100
AcDbEntity
  8
外枠
  6
Continuous
 62
   250
420
  2367521
100
AcDbText
 10
233.0517273552202
 20
119.3929599480272
 30
0.0
 40
2.016124969720841
  1
IS-20  ブラック
 41
0.911960788302951
  7
MS Gothic
100
AcDbText
  0
TEXT
  5
6F
330
1F
100
AcDbEntity
  8
外枠
  6
Continuous
 62
   250
420
  2367521
100
AcDbText
 10
233.0517273552202
 20
114.1012933608334
 30
0.0
 40
2.016124969720841
  1
IS-16  ベージュ
 41
0.9228807915581594
  7
MS Gothic
100
AcDbText
  0
TEXT
  5
70
330
1F
100
AcDbEntity
  8
外枠
  6
Continuous
 62
   250
420
  2367521
100
AcDbText
 10
233.0517273552202
 20
108.8096267736396
 30
0.0
 40
2.016124969720841
  1
IS-18  ブラウン
 41
0.9214809841579858
  7
MS Gothic
100
AcDbText
  0
TEXT
  5
71
330
1F
100
AcDbEntity
  8
外枠
  6
Continuous
 62
   250
420
  2367521
100
AcDbText
 10
233.0517273552202
 20
103.5179601864457
 30
0.0
 40
2.016124969720841
  1
IS-21  チョコレート
 41
0.9285238701000545
  7
MS Gothic
100
AcDbText
  0
TEXT
  5
72
330
1F
100
AcDbEntity
  8
外枠
  6
Continuous
 62
   250
420
  2367521
100
AcDbText
 10
233.0517273552202
 20
98.22629359925195
 30
0.0
 40
2.016124969720841
  1
IS-12  ワインレッド
 41
0.9415448105126094
  7
MS Gothic
100
AcDbText
  0
TEXT
  5
73
330
1F
100
AcDbEntity
  8
外枠
  6
Continuous
 62
   250
420
  2367521
100
AcDbText
 10
233.0517273552202
 20
92.93462701205813
 30
0.0
 40
2.016124969720841
  1
IS-6   グリーン
 41
0.8741602918836803
  7
MS Gothic
100
AcDbText
  0
TEXT
  5
74
330
1F
100
AcDbEntity
  8
外枠
  6
Continuous
 62
   250
420
  2367521
100
AcDbText
 10
233.0517273552202
 20
87.64296580782595
 30
0.0
 40
2.016124969720841
  1
IS-15  シャドーブルー
 41
0.9429933578249006
  7
MS Gothic
100
AcDbText
  0
TEXT
  5
75
330
1F
100
AcDbEntity
  8
外枠
  6
Continuous
 62
   250
420
  2367521
100
AcDbText
 10
233.0517273552202
 20
82.35129922063214
 30
0.0
 40
2.016124969720841
  1
IS-9   マスタードイエロー
 41
0.924693196614583
  7
MS Gothic
100
AcDbText
  0
TEXT
  5
76
330
1F
100
AcDbEntity
  8
外枠
  6
Continuous
 62
   250
420
  2367521
100
AcDbText
 10
226.1633020978884
 20
24.25683874973963
 30
0.0
 40
2.553758294979732
  1
ヤスダインテリアサプライ株式会社
 41
1.0194908945184
  7
MS Gothic
100
AcDbText
  0
TEXT
  5
77
330
1F
100
AcDbEntity
  8
外枠
  6
Continuous
 62
   250
420
  2367521
100
AcDbText
 10
227.7635273953072
 20
161.7763665048245
 30
0.0
 40
2.150533301035563
  1
材質
 41
1.028502464294433
  7
MS Gothic
100
AcDbText
  0
TEXT
  5
78
330
1F
100
AcDbEntity
  8
外枠
  6
Continuous
 62
   250
420
  2367521
100
AcDbText
 10
233.5984640006548
 20
156.9052368606422
 30
0.0
 40
2.016124969720841
  1
金台：
 41
1.494500562879774
  7
MS Gothic
100
AcDbText
  0
TEXT
  5
79
330
1F
100
AcDbEntity
  8
外枠
  6
Continuous
 62
   250
420
  2367521
100
AcDbText
 10
244.4305115335576
 20
156.9052368606422
 30
0.0
 40
2.016124969720841
  1
アルミ押出形材（A6063S-T5）
 41
1.033106825086805
  7
MS Gothic
100
AcDbText
  0
TEXT
  5
7A
330
1F
100
AcDbEntity
  8
外枠
  6
Continuous
 62
   250
420
  2367521
100
AcDbText
 10
233.5984640006548
 20
152.6719035908871
 30
0.0
 40
2.016124969720841
  1
                  シルバー仕上（アルマイト）
 41
0.7675306377988871
  7
MS Gothic
100
AcDbText
  0
TEXT
  5
7B
330
1F
100
AcDbEntity
  8
外枠
  6
Continuous
 62
   250
420
  2367521
100
AcDbText
 10
228.7040599807369
 20
135.3178613140838
 30
0.0
 40
2.150533301035563
  1
タイヤカラー
 41
1.008334398269653
  7
MS Gothic
100
AcDbText
  0
TEXT
  5
7C
330
1F
100
AcDbEntity
  8
外枠
  6
Continuous
 62
   250
420
  2367521
100
AcDbText
 10
233.5984640006548
 20
148.2620091801205
 30
0.0
 40
2.016124969720841
  1
タイヤ：
 41
1.121272277832031
  7
MS Gothic
100
AcDbText
  0
TEXT
  5
7D
330
1F
100
AcDbEntity
  8
外枠
  6
Continuous
 62
   250
420
  2367521
100
AcDbText
 10
244.7056669995315
 20
148.2620091801205
 30
0.0
 40
2.016124969720841
  1
軟質塩ビ
 41
1.887001037597656
  7
MS Gothic
100
AcDbText
  0
HATCH
  5
7E
330
1F
100
AcDbEntity
  8
ISS138金台
  6
Continuous
 62
   254
420
 13816532
370
    50
100
AcDbHatch
 10
0.0
 20
0.0
 30
0.0
210
0.0
220
0.0
230
1.0
  2
SOLID
 70
     1
 71
     0
 91
        1
 92
        3
 72
     0
 73
     1
 93
      770
 10
122.0714445642403
 20
109.4825383168103
 10
121.6409906556388
 20
109.443285760705
 10
121.2736035253329
 20
109.3318153915566
 10
120.9662256511244
 20
109.1575581581168
 10
120.7157995108153
 20
108.9299450091373
 10
120.5192245185147
 20
108.6584068933694
 10
120.3734862157176
 20
108.352374759565
 10
120.2754624846865
 20
108.0212903223987
 10
120.2220958032235
 20
107.6745522328525
 10
120.2103394150537
 20
107.3216237374476
 10
120.2371035002094
 20
106.9719250190125
 10
120.2993305364928
 20
106.6348870262987
 10
120.3939522357824
 20
106.3199407080578
 10
120.5179003099571
 20
106.0365170130414
 10
120.6680957049725
 20
105.7940468900011
 10
120.8414808986304
 20
105.6019612876884
 10
121.0349876028097
 20
105.4696911548551
 10
121.0349876028097
 20
103.6617050708972
 10
119.5797792913315
 20
103.6617050708972
 10
116.1532443086132
 20
105.4587529768509
 10
116.1532443086132
 20
107.4653595785235
 10
116.155785066496
 20
107.5146567410047
 10
116.1632243194496
 20
107.5631033955506
 10
116.1753036853164
 20
107.6103765644641
 10
116.1917540160155
 20
107.6561640359715
 10
116.2123061634662
 20
107.7000782368365
 10
116.2366909795876
 20
107.741839253055
 10
116.2646716140686
 20
107.7810918091604
 10
116.2959358551355
 20
107.8175129274556
 10
116.3302683843237
 20
107.8507688643206
 10
116.3673569898593
 20
107.8805258761349
 10
116.4069648214314
 20
107.9064502192786
 10
116.4488119650357
 20
107.9282189160545
 10
116.4926508044381
 20
107.945476690996
 10
116.5382014256344
 20
107.9579220982527
 10
116.5851946805439
 20
107.9652106282811
 10
116.6333721870089
 20
107.9670085374609
 10
116.6333721870089
 20
107.9670085374609
 10
116.6832399434214
 20
107.9635957397962
 10
116.7316112365046
 20
107.9555858929113
 10
116.7782815137171
 20
107.9431835493476
 10
116.823024690671
 20
107.9265717297999
 10
116.8656362148249
 20
107.9059011571937
 10
116.9058792358677
 20
107.8813871499935
 10
116.9435707331043
 20
107.8532019629711
 10
116.9784738562238
 20
107.8215286168213
 10
117.0103732867614
 20
107.7865501322392
 10
117.0390537062526
 20
107.748460295843
 10
117.0643105621558
 20
107.7074313624043
 10
117.0859177700832
 20
107.663646352618
 10
117.103649245647
 20
107.6172882871793
 10
117.1173004363057
 20
107.5685509527062
 10
117.1266560235947
 20
107.5176066039704
 10
117.1315006890493
 20
107.4646490275902
 10
117.1315006890493
 20
107.4646490275902
 10
117.137002075821
 20
107.408450908317
 10
117.1479294879019
 20
107.3554179704742
 10
117.163819990593
 20
107.3055825118313
 10
117.1842106491952
 20
107.2590414256976
 10
117.2086815927024
 20
107.2158162439195
 10
117.2367591204925
 20
107.1760253916525
 10
117.2679910637898
 20
107.1396904007431
 10
117.3019252538183
 20
107.1068973985772
 10
117.3381095218024
 20
107.0777002147709
 10
117.3761132308128
 20
107.0521742107869
 10
117.4154519143041
 20
107.0303732162413
 10
117.4556949353468
 20
107.0123618266734
 10
117.4963793592421
 20
106.9982154035461
 10
117.5370530172141
 20
106.9879985423985
 10
117.5772637404872
 20
106.9817650728469
 10
117.6165701262087
 20
106.9795795904308
 10
117.6165701262087
 20
106.9795795904308
 10
117.6540678368272
 20
106.9812806063015
 10
117.6946015377972
 20
106.9866635679177
 10
117.7374499122622
 20
106.9957392412026
 10
117.7818162819029
 20
107.0085183920795
 10
117.8269793298629
 20
107.0250440842412
 10
117.872196207439
 20
107.0453163176878
 10
117.9166810022353
 20
107.0693350924194
 10
117.9596800996256
 20
107.0971434721287
 10
118.0004506509067
 20
107.1287414568158
 10
118.0382605732989
 20
107.1641505783272
 10
118.0723239544063
 20
107.2033923685093
 10
118.1018871796025
 20
107.2464775932854
 10
118.1262181661077
 20
107.2934277845019
 10
118.1445525333725
 20
107.3442537080821
 10
118.1561259008474
 20
107.3989661299493
 10
118.1601954198292
 20
107.4575973478729
 10
118.1612612462292
 20
107.9712395452912
 10
118.1576223641766
 20
108.1339018794097
 10
118.147168652718
 20
108.2902876802837
 10
118.1297816866976
 20
108.4397725243657
 10
118.1052999772671
 20
108.5818073495708
 10
118.0736266311174
 20
108.7157892641982
 10
118.0346109253232
 20
108.8411584402396
 10
117.9881344347288
 20
108.9573227519173
 10
117.9340679682557
 20
109.0637008393767
 10
117.8722715689016
 20
109.1597328746098
 10
117.8026268115112
 20
109.2448159659155
 10
117.7249937390823
 20
109.3183795193626
 10
117.6392646923826
 20
109.3798529410196
 10
117.5452889484869
 20
109.4286333391857
 10
117.4429480822396
 20
109.4641608858526
 10
117.3321021366388
 20
109.4858542211659
 10
117.2126326865287
 20
109.4931212193478
 10
114.6606459457487
 20
109.4853589886973
 10
114.47453543083
 20
109.4805358550891
 10
114.2491615938828
 20
109.4518769674444
 10
113.9892291433595
 20
109.4013094260218
 10
113.6994966173289
 20
109.3307603310798
 10
113.3846256605506
 20
109.2421890806468
 10
113.0493748110934
 20
109.1375120090581
 10
112.698459543333
 20
109.0186669824955
 10
112.3365953316453
 20
108.8875811012177
 10
111.968497650406
 20
108.7461922314065
 10
111.5988819739909
 20
108.5964382392437
 10
111.2324853086223
 20
108.4402462249879
 10
110.8740123627528
 20
108.2795540548209
 10
110.5281893766813
 20
108.1162995949247
 10
110.1997318247838
 20
107.9524099455577
 10
109.8933659473591
 20
107.7898122069786
 10
109.6138072187831
 20
107.6304550112925
 10
109.6138072187831
 20
107.6304550112925
 10
109.3386517528092
 20
107.4553365039941
 10
109.0450650262614
 20
107.2474357604531
 10
108.7370196648125
 20
107.0116082120472
 10
108.4185636555978
 20
106.7527200560774
 10
108.0937234539063
 20
106.4756267239217
 10
107.7665147491037
 20
106.1852159447274
 10
107.4409424646324
 20
105.8863216180261
 10
107.1210330557814
 20
105.5838207070418
 10
106.8108129778395
 20
105.2825686431525
 10
106.5142979201725
 20
104.9874531555057
 10
106.2355143380693
 20
104.7033081436328
 10
105.9784779208955
 20
104.4350213366811
 10
105.7472043580169
 20
104.1874374001054
 10
105.5457201047223
 20
103.9654332971299
 10
105.3780408503775
 20
103.7738644591324
 10
105.2481822843482
 20
103.6176078493372
 10
105.2481822843482
 20
103.6176078493372
 10
105.1653492709981
 20
103.519810202694
 10
105.0825270235712
 20
103.4334352006004
 10
105.000296901922
 20
103.3590749688341
 10
104.9192079681355
 20
103.2973108672498
 10
104.8397769865268
 20
103.2487134897787
 10
104.7626068487969
 20
103.2138857281219
 10
104.6881927874145
 20
103.1933766443641
 10
104.6171053963109
 20
103.1877891302065
 10
104.5498937375709
 20
103.1977045455036
 10
104.4871068732795
 20
103.2236934841866
 10
104.4292938655215
 20
103.2663480720334
 10
104.3769930104584
 20
103.3262496688985
 10
104.3307533701752
 20
103.4039688687133
 10
104.2911455386032
 20
103.5000977972555
 10
104.2586862800575
 20
103.6152178143796
 10
104.2339461884694
 20
103.7498995140171
 10
104.2339461884694
 20
103.7498995140171
 10
104.2219421840653
 20
103.979149083328
 10
104.244119985924
 20
104.246434659419
 10
104.2982510479366
 20
104.5483649764719
 10
104.3821391217635
 20
104.8815380027453
 10
104.4935556612957
 20
105.2425624724209
 10
104.6302828863473
 20
105.6280148219109
 10
104.7901030167325
 20
106.0344930194737
 10
104.9708090381884
 20
106.4586165652145
 10
105.1701724046062
 20
106.8969618955452
 10
105.3859753357998
 20
107.3461377446478
 10
105.6160108175067
 20
107.8027313148575
 10
105.8580503036177
 20
108.2633621062794
 10
106.1098867798703
 20
108.7245957894023
 10
106.3693132320016
 20
109.1830626302544
 10
106.6340795820563
 20
109.6353390652479
 10
106.902000347618
 20
110.0780230626414
 10
106.902000347618
 20
110.0780230626414
 10
106.9377324468264
 20
110.1329615688964
 10
106.9790412942691
 20
110.1889874333978
 10
107.0263575268756
 20
110.244119726271
 10
107.080111781575
 20
110.2963559857946
 10
107.140702397527
 20
110.3436937502475
 10
107.2085707775841
 20
110.3841197919852
 10
107.2841152609059
 20
110.4156316492865
 10
107.3677557184985
 20
110.4362268604301
 10
107.4599335532144
 20
110.4439029636948
 10
107.5610471042132
 20
110.4366574973594
 10
107.6715270084242
 20
110.4124879997026
 10
107.7917931368534
 20
110.3693812430801
 10
107.922265360507
 20
110.3053455316937
 10
108.0633527844677
 20
110.2183784038223
 10
108.2154860456649
 20
110.1064666318214
 10
108.3790850151046
 20
109.9676077539698
 10
108.3790850151046
 20
109.9676077539698
 10
108.5000509285439
 20
109.8625431091447
 10
108.6072579920922
 20
109.7792148633259
 10
108.7028270926264
 20
109.7176445483597
 10
108.7888252874068
 20
109.677821398323
 10
108.8673411655408
 20
109.6597346472926
 10
108.9404740820585
 20
109.6633842952684
 10
109.010301860144
 20
109.6887488104039
 10
109.0789023229809
 20
109.7358389586225
 10
109.1483855915228
 20
109.8046332080776
 10
109.2208079571073
 20
109.8951423246924
 10
109.2982795406877
 20
110.0073447766206
 10
109.3828781654479
 20
110.1412405638621
 10
109.4766924204952
 20
110.2968296864169
 10
109.5818108949364
 20
110.4741013783617
 10
109.7003114119555
 20
110.6730341078502
 10
109.8342933265829
 20
110.8936494067287
 10
109.8342933265829
 20
110.8936494067287
 10
110.0232675770813
 20
111.190272123628
 10
110.1947472023272
 20
111.4371993388866
 10
110.3508315573506
 20
111.6374993406256
 10
110.4936845927215
 20
111.7941973532733
 10
110.6254271953164
 20
111.9103293671813
 10
110.7481910179356
 20
111.9889313727011
 10
110.864107713379
 20
112.0330501261075
 10
110.9753089344465
 20
112.0456893199823
 10
111.0839370998615
 20
112.0299064765236
 10
111.1920915646543
 20
111.9887591179294
 10
111.3019362793946
 20
111.9252509367814
 10
111.4155921309591
 20
111.8424286893545
 10
111.535190772148
 20
111.7433283660001
 10
111.6628638557611
 20
111.6309859570699
 10
111.8007430345986
 20
111.5084374529154
 10
111.9509599614604
 20
111.3787188438881
 10
111.9509599614604
 20
111.3787188438881
 10
112.1043097719828
 20
111.262672957366
 10
112.2460862150304
 20
111.1816163213492
 10
112.3779580087042
 20
111.1329974120316
 10
112.5015185096426
 20
111.1142324078375
 10
112.618457967793
 20
111.1227697849608
 10
112.7303912716404
 20
111.156036487749
 10
112.838954841516
 20
111.2114271627797
 10
112.9457850977512
 20
111.2864225840167
 10
113.0525615243702
 20
111.3784281639609
 10
113.1608667120882
 20
111.4848708469597
 10
113.2723801449295
 20
111.6031775773606
 10
113.3887382432254
 20
111.7307968313576
 10
113.511566661384
 20
111.8651447873748
 10
113.642523351583
 20
112.003659155683
 10
113.7832232023074
 20
112.1437561147064
 10
113.9353349316581
 20
112.2828841406388
 10
113.9353349316581
 20
112.2828841406388
 10
114.0267160880548
 20
112.3588377290434
 10
114.111174755813
 20
112.4217645503369
 10
114.1894645495591
 20
112.4722567302969
 10
114.2624036794587
 20
112.5109494583942
 10
114.3307565260612
 20
112.5384240944833
 10
114.3953305336092
 20
112.5553265939582
 10
114.4568793167289
 20
112.5622598485198
 10
114.5162210855859
 20
112.5598159839461
 10
114.5741309866531
 20
112.5486301897076
 10
114.631384166403
 20
112.5293161234286
 10
114.688777303155
 20
112.502465910887
 10
114.7470855433817
 20
112.4687255074766
 10
114.8071163313256
 20
112.4286762730521
 10
114.8696340475362
 20
112.3829426311608
 10
114.9354353703327
 20
112.3321490053503
 10
115.0053062121111
 20
112.2768875213984
 10
115.0053062121111
 20
112.2768875213984
 10
115.0145003105515
 20
112.2699112031437
 10
115.0361182844022
 20
112.2536115953699
 10
115.068394522253
 20
112.2293129066343
 10
115.1095203490008
 20
112.1983501114179
 10
115.1576978554658
 20
112.1621120138176
 10
115.211161430238
 20
112.1219012905446
 10
115.2681023982142
 20
112.0790636820028
 10
115.3267228502146
 20
112.0349772263661
 10
115.3852787066757
 20
111.9909553662688
 10
115.4419289947246
 20
111.9483438421149
 10
115.4949081029513
 20
111.9084991602318
 10
115.5424288880992
 20
111.8727778269466
 10
115.5826934409884
 20
111.8424932848939
 10
115.6139146183624
 20
111.819012806324
 10
115.6342945110413
 20
111.8036713657178
 10
115.6420675076151
 20
111.7978147034794
 10
115.6420675076151
 20
111.7978147034794
 10
115.7648851598505
 20
111.7047971267514
 10
115.8733949001099
 20
111.6241926595103
 10
115.9696207219612
 20
111.5560120676794
 10
116.0556296826649
 20
111.500266117182
 10
116.1334134780191
 20
111.4569548080181
 10
116.2050176334378
 20
111.4261104379572
 10
116.2724769084121
 20
111.4077330069995
 10
116.3377829987399
 20
111.4018225151449
 10
116.4030244935283
 20
111.4084004942399
 10
116.4701823226521
 20
111.4274669442845
 10
116.5413127774486
 20
111.4590433971251
 10
116.6184290855623
 20
111.5031406186851
 10
116.7035767724075
 20
111.5597586089643
 10
116.7987690656284
 20
111.6289081338861
 10
116.9060407247161
 20
111.7106214912201
 10
117.0274265091616
 20
111.8048771491198
 10
117.0274265091616
 20
111.8048771491198
 10
117.0365560120626
 20
111.8116812126027
 10
117.0584646658406
 20
111.8278731611442
 10
117.0913114976227
 20
111.8521072543404
 10
117.1332663004594
 20
111.8830269858639
 10
117.1824773355547
 20
111.9192973812339
 10
117.2371251618824
 20
111.9595404022766
 10
117.2953472747233
 20
112.0023887767416
 10
117.3552919352814
 20
112.0465290619945
 10
117.4151504684535
 20
112.0905832198615
 10
117.4730496035975
 20
112.1331947440154
 10
117.5271698996868
 20
112.1730178940521
 10
117.5756596179256
 20
112.2086961636443
 10
117.616677785441
 20
112.2388730464647
 10
117.6484049612069
 20
112.2622028021093
 10
117.6689678745808
 20
112.2773289242509
 10
117.6765363186132
 20
112.2828841406388
 10
117.6765363186132
 20
112.2828841406388
 10
117.7788341211676
 20
112.3603987879121
 10
117.8692140467036
 20
112.4275781488824
 10
117.9493663451689
 20
112.4844222235495
 10
118.0210135642806
 20
112.5309417778367
 10
118.0858028902933
 20
112.5671152798976
 10
118.1454461050008
 20
112.5929750275019
 10
118.201644224274
 20
112.6085102547262
 10
118.2560659662138
 20
112.6136994297243
 10
118.3104231126142
 20
112.6085748502656
 10
118.3663843815763
 20
112.5931149845039
 10
118.4256615548939
 20
112.5673305983623
 10
118.4899341165914
 20
112.531232457764
 10
118.5609030825395
 20
112.4847990308626
 10
118.6402371708391
 20
112.4280518495046
 10
118.7296481632843
 20
112.3609801477667
 10
118.8308263098224
 20
112.2835946915721
 10
118.8308263098224
 20
112.2835946915721
 10
118.8386531360124
 20
112.2776841997175
 10
118.8593021767722
 20
112.2619121221821
 10
118.8909432251522
 20
112.2377103267556
 10
118.9317137764334
 20
112.2064891493816
 10
118.9798159214358
 20
112.1696696919268
 10
119.033376389517
 20
112.1286515244113
 10
119.0905757396508
 20
112.0848342168554
 10
119.1495622330412
 20
112.039649637049
 10
119.2084948968154
 20
111.9944973550122
 10
119.2655435240239
 20
111.9507769407654
 10
119.318867141794
 20
111.9099094961752
 10
119.3666032454065
 20
111.8733268890315
 10
119.4069431597584
 20
111.842407157508
 10
119.4380351460536
 20
111.8185714034714
 10
119.4580489973426
 20
111.8032407287885
 10
119.4651222089063
 20
111.7978147034794
 10
119.4651222089063
 20
111.7978147034794
 10
119.5863788022729
 20
111.7047971267514
 10
119.6935535680516
 20
111.6241818935871
 10
119.7886382020402
 20
111.5559690039865
 10
119.8736889955762
 20
111.5001476920265
 10
119.9506976444576
 20
111.4567394895534
 10
120.0217204400219
 20
111.4257443965673
 10
120.0887706099133
 20
111.4071408812217
 10
120.1538829136229
 20
111.4009397094398
 10
120.2190705787952
 20
111.4071408812217
 10
120.2863468330745
 20
111.4257443965673
 10
120.3577679677983
 20
111.4567502554766
 10
120.4353364446878
 20
111.5001584579497
 10
120.5210870232339
 20
111.5559690039865
 10
120.6170436970044
 20
111.6241818935871
 10
120.7252196936436
 20
111.7047971267514
 10
120.8476605385658
 20
111.7978147034794
 10
120.8476605385658
 20
111.7978147034794
 10
120.8548306434386
 20
111.8032837924814
 10
120.8744999851842
 20
111.818409914623
 10
120.904924484239
 20
111.8418365635767
 10
120.9443600610393
 20
111.8721964670921
 10
120.9910411041751
 20
111.9081438847651
 10
121.0432558318522
 20
111.9483546080381
 10
121.0992063348911
 20
111.9914613646607
 10
121.1571808314976
 20
112.0361184142287
 10
121.2154029443385
 20
112.080969250415
 10
121.2721501256965
 20
112.1246788987385
 10
121.3256459982383
 20
112.1658693210257
 10
121.3741680142468
 20
112.2032270746422
 10
121.4159397963886
 20
112.2353741214142
 10
121.4492387969464
 20
112.2609754868608
 10
121.472288638587
 20
112.2786746646549
 10
121.4833667735931
 20
112.2871259143924
 10
121.4833667735931
 20
112.2871259143924
 10
121.5871502735536
 20
112.3633163531081
 10
121.6793819378856
 20
112.4294083558319
 10
121.7616766550742
 20
112.4853803907172
 10
121.8357246750667
 20
112.5312539896105
 10
121.9031516522712
 20
112.5669430251259
 10
121.9656478366354
 20
112.59246902911
 10
122.0248281166439
 20
112.6077997037929
 10
122.0823719763212
 20
112.6129135173283
 10
122.1399481337681
 20
112.6077997037929
 10
122.1991822433928
 20
112.5924151994938
 10
122.2617537892196
 20
112.5667492385077
 10
122.3292991915797
 20
112.5308018208347
 10
122.4034871685742
 20
112.4845298827818
 10
122.4859756723809
 20
112.4279118925026
 10
122.5784118892544
 20
112.360947849997
 10
122.6824537713724
 20
112.2835946915721
 10
122.6824537713724
 20
112.2835946915721
 10
122.693273524221
 20
112.275251101067
 10
122.715602049005
 20
112.2577026461982
 10
122.7477598617002
 20
112.2323165992162
 10
122.7880674782824
 20
112.2003956368321
 10
122.8348454147272
 20
112.1633177972196
 10
122.8864141870104
 20
112.122428820783
 10
122.9410835451846
 20
112.0790313842331
 10
122.9971740052254
 20
112.0344927598207
 10
123.0530060831087
 20
111.9901479220264
 10
123.1068895288869
 20
111.9473426112543
 10
123.157155624459
 20
111.9074010360621
 10
123.2021141198776
 20
111.8716904687002
 10
123.2400747651951
 20
111.8415243518029
 10
123.2693688423104
 20
111.8182699576209
 10
123.2883168671995
 20
111.8032514947117
 10
123.2952285899147
 20
111.7978147034794
 10
123.2952285899147
 20
111.7978147034794
 10
123.4176586689136
 20
111.7047971267514
 10
123.5258561973994
 20
111.6241818935871
 10
123.6218021052466
 20
111.5559690039865
 10
123.7075526837927
 20
111.5001476920265
 10
123.7851211606822
 20
111.4567394895534
 10
123.8565315294828
 20
111.4257443965673
 10
123.9238293156086
 20
111.4071408812217
 10
123.9890062148576
 20
111.4009397094398
 10
124.0541185185672
 20
111.4071408812217
 10
124.1211579225354
 20
111.4257443965673
 10
124.1921807180996
 20
111.4567502554766
 10
124.2692108988275
 20
111.5001584579497
 10
124.3542509264403
 20
111.5559690039865
 10
124.4493463263522
 20
111.6241818935871
 10
124.5565103262076
 20
111.7047971267514
 10
124.6777669195742
 20
111.7978147034794
 10
124.6777669195742
 20
111.7978147034794
 10
124.6848401311379
 20
111.8032299628653
 10
124.7048432165037
 20
111.8185714034714
 10
124.7359459687222
 20
111.842407157508
 10
124.7762751171508
 20
111.8733268890315
 10
124.8240327526097
 20
111.9099094961752
 10
124.8773456044566
 20
111.9507661748422
 10
124.9343942316652
 20
111.994486589089
 10
124.9933268954394
 20
112.039649637049
 10
125.0523133888297
 20
112.0848449827786
 10
125.1095019730403
 20
112.1286515244113
 10
125.1630732070448
 20
112.16968045785
 10
125.2111645861239
 20
112.2064999153048
 10
125.2519566692515
 20
112.2377210926788
 10
125.2835977176316
 20
112.2619121221821
 10
125.3042467583913
 20
112.2776734337943
 10
125.3120628186581
 20
112.2835946915721
 10
125.3120628186581
 20
112.2835946915721
 10
125.413230199273
 20
112.3609909136899
 10
125.5026519576414
 20
112.4280518495046
 10
125.5819860459411
 20
112.4847990308626
 10
125.6529550118891
 20
112.5312216918408
 10
125.7172275735866
 20
112.5673305983623
 10
125.7765262787507
 20
112.5931257504271
 10
125.832498313636
 20
112.6085640843424
 10
125.8868662259596
 20
112.6137101956475
 10
125.9413094997459
 20
112.6085102547262
 10
125.9975183849423
 20
112.5929857934251
 10
126.0572046633428
 20
112.5671260458209
 10
126.1220262871252
 20
112.5309417778367
 10
126.1937058040065
 20
112.4844222235495
 10
126.273911932088
 20
112.4275781488824
 10
126.3643456872402
 20
112.3603987879121
 10
126.4666973194107
 20
112.2828841406388
 10
126.4666973194107
 20
112.2828841406388
 10
126.474211933827
 20
112.2773181583276
 10
126.4947210175847
 20
112.2622028021093
 10
126.5263943637344
 20
112.2388730464647
 10
126.5673802334802
 20
112.2086961636443
 10
126.6158268880261
 20
112.1730178940521
 10
126.6699256522689
 20
112.1331947440154
 10
126.7278032555664
 20
112.0905724539383
 10
126.7876402568921
 20
112.0465290619945
 10
126.8475849174501
 20
112.0023995426648
 10
126.9057854984446
 20
111.9595296363534
 10
126.9604117929258
 20
111.9192973812339
 10
127.0096335939444
 20
111.8830377517871
 10
127.0515776308578
 20
111.8521180202636
 10
127.0844352285632
 20
111.8278731611442
 10
127.1063438823411
 20
111.8116812126027
 10
127.115462619319
 20
111.8048771491198
 10
127.115462619319
 20
111.8048771491198
 10
127.2368484037644
 20
111.7106214912201
 10
127.3441200628521
 20
111.6289081338861
 10
127.4393123560731
 20
111.5597478430411
 10
127.5244708088414
 20
111.5031298527619
 10
127.6015763510319
 20
111.4590433971251
 10
127.6727283376749
 20
111.4274777102077
 10
127.7399076986452
 20
111.4083897283166
 10
127.8051384275103
 20
111.4018225151449
 10
127.8704875815311
 20
111.4077330069995
 10
127.9379576224286
 20
111.4261212038804
 10
128.009594075617
 20
111.4569655739413
 10
128.0874101687409
 20
111.500266117182
 10
128.1734514272143
 20
111.5560120676794
 10
128.2697418446049
 20
111.6241926595103
 10
128.3783054144806
 20
111.7047971267514
 10
128.5011768963321
 20
111.7978147034794
 10
128.5011768963321
 20
111.7978147034794
 10
128.50886376552
 20
111.8036605997946
 10
128.5292113604293
 20
111.819012806324
 10
128.5603894741103
 20
111.8424932848939
 10
128.6006109633066
 20
111.8727670610234
 10
128.6480994506848
 20
111.9084991602318
 10
128.7010462611417
 20
111.9483438421149
 10
128.7576857832674
 20
111.9909553662688
 10
128.8162093419588
 20
112.0349664604429
 10
128.874819028036
 20
112.0790744479261
 10
128.931749230089
 20
112.1219012905446
 10
128.9852020389379
 20
112.1621120138176
 10
129.033379545403
 20
112.1983608773411
 10
129.0744946062275
 20
112.2293129066343
 10
129.1067600781551
 20
112.2536115953699
 10
129.128388817929
 20
112.269921969067
 10
129.1375829163695
 20
112.2768875213984
 10
129.1375829163695
 20
112.2768875213984
 10
129.2073999285316
 20
112.3321382394271
 10
129.2731474217119
 20
112.3829426311608
 10
129.3356436060761
 20
112.4286655071289
 10
129.3956420962503
 20
112.4687147415534
 10
129.453950336477
 20
112.502465910887
 10
129.511343473229
 20
112.5293161234286
 10
129.5686181848254
 20
112.5486301897076
 10
129.6265388518158
 20
112.5598159839461
 10
129.6858913865961
 20
112.5622598485198
 10
129.7474617015622
 20
112.5553265939582
 10
129.8120572409567
 20
112.5384240944833
 10
129.8804316194057
 20
112.5109494583942
 10
129.9533922811517
 20
112.4722567302969
 10
130.0317036067443
 20
112.4217645503369
 10
130.1161622745025
 20
112.3588484949667
 10
130.2075541968225
 20
112.2828841406388
 10
130.2075541968225
 20
112.2828841406388
 10
130.3596659261732
 20
112.1437561147064
 10
130.5003765428208
 20
112.003659155683
 10
130.6313224670965
 20
111.8651447873748
 10
130.7541616511783
 20
111.7307968313576
 10
130.870508983551
 20
111.6031775773606
 10
130.982011650469
 20
111.4848600810365
 10
131.0903383700335
 20
111.3784281639609
 10
131.1970932648061
 20
111.2864225840167
 10
131.3039342869645
 20
111.2114271627797
 10
131.4124978568402
 20
111.1560257218258
 10
131.5244311606875
 20
111.1227697849608
 10
131.6413598529147
 20
111.1142431737608
 10
131.7649418856996
 20
111.1329974120316
 10
131.8968029134501
 20
111.1816163213492
 10
132.0385793564977
 20
111.2626621914428
 10
132.1919291670201
 20
111.3787188438881
 10
132.1919291670201
 20
111.3787188438881
 10
132.3421460938819
 20
111.5084482188387
 10
132.4800252727194
 20
111.6309859570699
 10
132.6076983563325
 20
111.7433283660001
 10
132.7272969975214
 20
111.8424286893545
 10
132.8409528490859
 20
111.9252509367814
 10
132.950786797903
 20
111.9887591179294
 10
133.0589627945422
 20
112.0299280083701
 10
133.167580194034
 20
112.0456893199823
 10
133.2787814151015
 20
112.033028594261
 10
133.3946981105449
 20
111.9889313727011
 10
133.517461933164
 20
111.9103293671813
 10
133.6492045357591
 20
111.7941973532733
 10
133.7920575711299
 20
111.6374993406256
 10
133.9481526920766
 20
111.4371993388866
 10
134.1196215513992
 20
111.1902613577048
 10
134.3085958018976
 20
110.8936494067287
 10
134.3085958018976
 20
110.8936494067287
 10
134.442577716525
 20
110.6730448737734
 10
134.5610674676209
 20
110.4741013783617
 10
134.6661644102157
 20
110.2968296864169
 10
134.7599571334164
 20
110.1412405638621
 10
134.8445449922535
 20
110.0073447766206
 10
134.9219842780642
 20
109.8951423246924
 10
134.9943958777254
 20
109.8046332080776
 10
135.0638468484976
 20
109.7358389586225
 10
135.1324365454113
 20
109.6887488104039
 10
135.2022535575735
 20
109.6633842952684
 10
135.2753864740912
 20
109.6597346472926
 10
135.3539131181485
 20
109.677821398323
 10
135.4399328447754
 20
109.7176445483597
 10
135.5355342430792
 20
109.7792148633259
 10
135.6427843703204
 20
109.8625323432215
 10
135.763804113376
 20
109.9676077539698
 10
135.763804113376
 20
109.9676077539698
 10
135.9274030828157
 20
110.1064666318214
 10
136.0795363440128
 20
110.2183784038223
 10
136.2206130020503
 20
110.3053562976169
 10
136.3510959916271
 20
110.3693812430801
 10
136.4713513541331
 20
110.4124772337794
 10
136.5818420242674
 20
110.4366574973594
 10
136.6829555752661
 20
110.4439029636948
 10
136.775133409982
 20
110.4362268604301
 10
136.8587846334978
 20
110.4156316492865
 10
136.9343183508964
 20
110.3841197919852
 10
137.0021867309535
 20
110.3436937502475
 10
137.0627773469055
 20
110.2963667517179
 10
137.1165208356817
 20
110.2441304921942
 10
137.1638478342114
 20
110.1889874333978
 10
137.2051674475774
 20
110.1329508029731
 10
137.2408887808625
 20
110.0780230626414
 10
137.2408887808625
 20
110.0780230626414
 10
137.5088095464242
 20
109.6353390652479
 10
137.7735974283253
 20
109.1830626302544
 10
138.0330238804567
 20
108.7245957894023
 10
138.2848818885557
 20
108.2633513403562
 10
138.5269429065132
 20
107.8027313148575
 10
138.7569999200666
 20
107.3461377446478
 10
138.9728243831067
 20
106.8969726614685
 10
139.1722092813709
 20
106.4586165652145
 10
139.3529260687501
 20
106.0344930194737
 10
139.5127569650584
 20
105.6280148219109
 10
139.6494949560333
 20
105.2425624724209
 10
139.7609007296422
 20
104.8815487686685
 10
139.8447672716227
 20
104.5483649764719
 10
139.8988768017888
 20
104.246434659419
 10
139.9210007740314
 20
103.979149083328
 10
139.9089429400111
 20
103.7498995140171
 10
139.9089429400111
 20
103.7498995140171
 10
139.884202848423
 20
103.6152178143796
 10
139.8517543558006
 20
103.5000977972555
 10
139.8121249923821
 20
103.4039688687133
 10
139.7658961180221
 20
103.3262496688985
 10
139.713595262959
 20
103.2663480720334
 10
139.6557714892778
 20
103.2237042501098
 10
139.5929953909096
 20
103.1977045455036
 10
139.5257837321697
 20
103.1877891302065
 10
139.454696341066
 20
103.1933766443641
 10
139.3802822796836
 20
103.2138749621986
 10
139.3031121419537
 20
103.2487134897787
 10
139.2236919262683
 20
103.2973108672498
 10
139.1425922265585
 20
103.3590749688341
 10
139.0603621049094
 20
103.4334352006004
 10
138.9775506234057
 20
103.519810202694
 10
138.8947068441323
 20
103.6176078493372
 10
138.8947068441323
 20
103.6176078493372
 10
138.7648590440262
 20
103.7738752250556
 10
138.5971690237582
 20
103.9654332971299
 10
138.3956847704637
 20
104.1874374001054
 10
138.164411207585
 20
104.4350213366811
 10
137.907364024488
 20
104.7033081436328
 10
137.6285804423848
 20
104.9874531555057
 10
137.332076150641
 20
105.2825794090758
 10
137.0218560726991
 20
105.5838207070418
 10
136.7019466638481
 20
105.8863108521028
 10
136.3763743793768
 20
106.1852159447274
 10
136.0491656745742
 20
106.4756374898449
 10
135.7243254728827
 20
106.7527200560774
 10
135.405869463668
 20
107.0116082120472
 10
135.0978348681423
 20
107.2474465263763
 10
134.8042266097481
 20
107.4553472699174
 10
134.5290819096974
 20
107.6304550112925
 10
134.5290819096974
 20
107.6304550112925
 10
134.2507612622932
 20
107.7898122069786
 10
133.947894309919
 20
107.9524099455577
 10
133.624884315177
 20
108.1162995949247
 10
133.286123774746
 20
108.2795540548209
 10
132.9360051853049
 20
108.4402462249879
 10
132.5789210435323
 20
108.5964382392437
 10
132.2192853779537
 20
108.7461922314065
 10
131.8614691534013
 20
108.8875811012177
 10
131.5098756324773
 20
109.0186669824955
 10
131.1689080777837
 20
109.1375120090581
 10
130.8429589859992
 20
109.2421890806468
 10
130.5364208538029
 20
109.3307603310798
 10
130.2536969437966
 20
109.4012986600986
 10
129.9991689867359
 20
109.4518769674444
 10
129.7772402452231
 20
109.4805358550891
 10
129.5923139818599
 20
109.4853589886973
 10
127.0403164751567
 20
109.4931212193478
 10
126.9209116205861
 20
109.4858434552427
 10
126.8101195046014
 20
109.4641608858526
 10
126.707821702047
 20
109.4286333391857
 10
126.6138890218442
 20
109.3798529410196
 10
126.5281922729143
 20
109.3183795193626
 10
126.4505914982551
 20
109.2448159659155
 10
126.3809682727111
 20
109.1597328746098
 10
126.3191934052035
 20
109.0637116052999
 10
126.2651377046536
 20
108.9573227519173
 10
126.2186719799825
 20
108.8411584402396
 10
126.1796670401115
 20
108.7157892641982
 10
126.1479936939617
 20
108.5817965836476
 10
126.1235227504545
 20
108.4397725243657
 10
126.1061357844341
 20
108.2902876802837
 10
126.0956820729755
 20
108.1339126453329
 10
126.0920539568461
 20
107.9712395452912
 10
126.0927537418562
 20
107.4575973478729
 10
126.0968986223007
 20
107.3989661299493
 10
126.1085150534685
 20
107.3442537080821
 10
126.126881718503
 20
107.2934277845019
 10
126.1512557687011
 20
107.2464775932854
 10
126.1808512916671
 20
107.2033923685093
 10
126.2149362046209
 20
107.1641613442504
 10
126.2527461270131
 20
107.1287414568158
 10
126.2935382101407
 20
107.0971434721287
 10
126.3365373075309
 20
107.0693350924194
 10
126.3810005704808
 20
107.0453163176878
 10
126.4261851502872
 20
107.0250440842412
 10
126.4713266664007
 20
107.0085291580027
 10
126.515671504195
 20
106.9957392412026
 10
126.5584660490438
 20
106.9866635679177
 10
126.5989566863209
 20
106.9812806063015
 10
126.6363898014
 20
106.9795795904308
 10
126.6363898014
 20
106.9795795904308
 10
126.6757607826609
 20
106.9817543069237
 10
126.7160145696269
 20
106.9879985423985
 10
126.7567312912918
 20
106.9982154035461
 10
126.7974587788801
 20
107.0123725925967
 10
126.8377233317693
 20
107.030362450318
 10
126.8770943130302
 20
107.0521742107869
 10
126.9150980220406
 20
107.0777002147709
 10
126.9512930559479
 20
107.1068973985772
 10
126.9852164800533
 20
107.1396904007431
 10
127.0164376574273
 20
107.1760253916525
 10
127.0444936533709
 20
107.2158270098428
 10
127.0689322991085
 20
107.2590306597744
 10
127.0893014258642
 20
107.3055825118313
 10
127.1051488648623
 20
107.3554179704742
 10
127.1160116814038
 20
107.4084616742402
 10
127.1214592385594
 20
107.4646490275902
 10
127.1214592385594
 20
107.4646490275902
 10
127.1263684995534
 20
107.5176066039704
 10
127.1357671505353
 20
107.5685509527062
 10
127.1494829367334
 20
107.617277521256
 10
127.1672467100668
 20
107.663646352618
 10
127.188886215764
 20
107.707420596481
 10
127.2141646035137
 20
107.748460295843
 10
127.2428665548513
 20
107.7865501322392
 10
127.2747875172354
 20
107.8215393827446
 10
127.3097014062781
 20
107.8532019629711
 10
127.3473929035147
 20
107.8813871499935
 10
127.387657456404
 20
107.9059011571937
 10
127.4302689805578
 20
107.9265609638767
 10
127.475022923435
 20
107.9431835493476
 10
127.5216932006475
 20
107.9555966588345
 10
127.5700644937307
 20
107.9635957397962
 10
127.6199322501432
 20
107.9670085374609
 10
127.6199322501432
 20
107.9670085374609
 10
127.6681205225315
 20
107.9652106282811
 10
127.7151137774409
 20
107.957932864176
 10
127.760653632714
 20
107.945476690996
 10
127.8044924721164
 20
107.9282189160545
 10
127.8463396157208
 20
107.9064502192786
 10
127.8859366813696
 20
107.8805258761349
 10
127.9230468187517
 20
107.8507688643206
 10
127.9573685820166
 20
107.8175236933789
 10
127.9886435890067
 20
107.7811025750836
 10
128.0166026916413
 20
107.741839253055
 10
128.0409982736859
 20
107.7000782368365
 10
128.0615504211366
 20
107.6561532700483
 10
128.0780007518358
 20
107.6103873303873
 10
128.0900801177025
 20
107.5631141614738
 10
128.0975193706561
 20
107.5146567410047
 10
128.1000601285389
 20
107.4653595785235
 10
128.1000601285389
 20
105.4587529768509
 10
124.5631098371491
 20
103.6617050708972
 10
123.1079015256708
 20
103.6617050708972
 10
123.1079015256708
 20
105.4696911548551
 10
123.3014082298501
 20
105.6019612876884
 10
123.474793423508
 20
105.7940468900011
 10
123.6249780526002
 20
106.0365170130414
 10
123.7489368926981
 20
106.3199407080578
 10
123.8435478260645
 20
106.6348870262987
 10
123.9057856282711
 20
106.9719250190125
 10
123.9325497134269
 20
107.3216345033709
 10
123.9207933252571
 20
107.6745522328525
 10
123.8674374097172
 20
108.0212795564754
 10
123.7694029127629
 20
108.352374759565
 10
123.6236538440426
 20
108.6584068933694
 10
123.4270896176652
 20
108.9299450091373
 10
123.1766527114329
 20
109.1575581581168
 10
122.8692856031476
 20
109.3318153915566
 10
122.5019092387649
 20
109.443285760705
 97
        0
 75
     1
 76
     1
 98
        0
  0
LWPOLYLINE
  5
7F
330
1F
100
AcDbEntity
  8
ISS138金台
  6
Continuous
 62
   254
420
 13816532
370
    50
100
AcDbPolyline
 90
      771
 70
     0
 43
0.0
 10
122.0714445642403
 20
109.4825383168103
 10
121.6409906556388
 20
109.443285760705
 10
121.2736035253329
 20
109.3318153915566
 10
120.9662256511244
 20
109.1575581581168
 10
120.7157995108153
 20
108.9299450091373
 10
120.5192245185147
 20
108.6584068933694
 10
120.3734862157176
 20
108.352374759565
 10
120.2754624846865
 20
108.0212903223987
 10
120.2220958032235
 20
107.6745522328525
 10
120.2103394150537
 20
107.3216237374476
 10
120.2371035002094
 20
106.9719250190125
 10
120.2993305364928
 20
106.6348870262987
 10
120.3939522357824
 20
106.3199407080578
 10
120.5179003099571
 20
106.0365170130414
 10
120.6680957049725
 20
105.7940468900011
 10
120.8414808986304
 20
105.6019612876884
 10
121.0349876028097
 20
105.4696911548551
 10
121.0349876028097
 20
103.6617050708972
 10
119.5797792913315
 20
103.6617050708972
 10
116.1532443086132
 20
105.4587529768509
 10
116.1532443086132
 20
107.4653595785235
 10
116.155785066496
 20
107.5146567410047
 10
116.1632243194496
 20
107.5631033955506
 10
116.1753036853164
 20
107.6103765644641
 10
116.1917540160155
 20
107.6561640359715
 10
116.2123061634662
 20
107.7000782368365
 10
116.2366909795876
 20
107.741839253055
 10
116.2646716140686
 20
107.7810918091604
 10
116.2959358551355
 20
107.8175129274556
 10
116.3302683843237
 20
107.8507688643206
 10
116.3673569898593
 20
107.8805258761349
 10
116.4069648214314
 20
107.9064502192786
 10
116.4488119650357
 20
107.9282189160545
 10
116.4926508044381
 20
107.945476690996
 10
116.5382014256344
 20
107.9579220982527
 10
116.5851946805439
 20
107.9652106282811
 10
116.6333721870089
 20
107.9670085374609
 10
116.6333721870089
 20
107.9670085374609
 10
116.6832399434214
 20
107.9635957397962
 10
116.7316112365046
 20
107.9555858929113
 10
116.7782815137171
 20
107.9431835493476
 10
116.823024690671
 20
107.9265717297999
 10
116.8656362148249
 20
107.9059011571937
 10
116.9058792358677
 20
107.8813871499935
 10
116.9435707331043
 20
107.8532019629711
 10
116.9784738562238
 20
107.8215286168213
 10
117.0103732867614
 20
107.7865501322392
 10
117.0390537062526
 20
107.748460295843
 10
117.0643105621558
 20
107.7074313624043
 10
117.0859177700832
 20
107.663646352618
 10
117.103649245647
 20
107.6172882871793
 10
117.1173004363057
 20
107.5685509527062
 10
117.1266560235947
 20
107.5176066039704
 10
117.1315006890493
 20
107.4646490275902
 10
117.1315006890493
 20
107.4646490275902
 10
117.137002075821
 20
107.408450908317
 10
117.1479294879019
 20
107.3554179704742
 10
117.163819990593
 20
107.3055825118313
 10
117.1842106491952
 20
107.2590414256976
 10
117.2086815927024
 20
107.2158162439195
 10
117.2367591204925
 20
107.1760253916525
 10
117.2679910637898
 20
107.1396904007431
 10
117.3019252538183
 20
107.1068973985772
 10
117.3381095218024
 20
107.0777002147709
 10
117.3761132308128
 20
107.0521742107869
 10
117.4154519143041
 20
107.0303732162413
 10
117.4556949353468
 20
107.0123618266734
 10
117.4963793592421
 20
106.9982154035461
 10
117.5370530172141
 20
106.9879985423985
 10
117.5772637404872
 20
106.9817650728469
 10
117.6165701262087
 20
106.9795795904308
 10
117.6165701262087
 20
106.9795795904308
 10
117.6540678368272
 20
106.9812806063015
 10
117.6946015377972
 20
106.9866635679177
 10
117.7374499122622
 20
106.9957392412026
 10
117.7818162819029
 20
107.0085183920795
 10
117.8269793298629
 20
107.0250440842412
 10
117.872196207439
 20
107.0453163176878
 10
117.9166810022353
 20
107.0693350924194
 10
117.9596800996256
 20
107.0971434721287
 10
118.0004506509067
 20
107.1287414568158
 10
118.0382605732989
 20
107.1641505783272
 10
118.0723239544063
 20
107.2033923685093
 10
118.1018871796025
 20
107.2464775932854
 10
118.1262181661077
 20
107.2934277845019
 10
118.1445525333725
 20
107.3442537080821
 10
118.1561259008474
 20
107.3989661299493
 10
118.1601954198292
 20
107.4575973478729
 10
118.1612612462292
 20
107.9712395452912
 10
118.1576223641766
 20
108.1339018794097
 10
118.147168652718
 20
108.2902876802837
 10
118.1297816866976
 20
108.4397725243657
 10
118.1052999772671
 20
108.5818073495708
 10
118.0736266311174
 20
108.7157892641982
 10
118.0346109253232
 20
108.8411584402396
 10
117.9881344347288
 20
108.9573227519173
 10
117.9340679682557
 20
109.0637008393767
 10
117.8722715689016
 20
109.1597328746098
 10
117.8026268115112
 20
109.2448159659155
 10
117.7249937390823
 20
109.3183795193626
 10
117.6392646923826
 20
109.3798529410196
 10
117.5452889484869
 20
109.4286333391857
 10
117.4429480822396
 20
109.4641608858526
 10
117.3321021366388
 20
109.4858542211659
 10
117.2126326865287
 20
109.4931212193478
 10
114.6606459457487
 20
109.4853589886973
 10
114.47453543083
 20
109.4805358550891
 10
114.2491615938828
 20
109.4518769674444
 10
113.9892291433595
 20
109.4013094260218
 10
113.6994966173289
 20
109.3307603310798
 10
113.3846256605506
 20
109.2421890806468
 10
113.0493748110934
 20
109.1375120090581
 10
112.698459543333
 20
109.0186669824955
 10
112.3365953316453
 20
108.8875811012177
 10
111.968497650406
 20
108.7461922314065
 10
111.5988819739909
 20
108.5964382392437
 10
111.2324853086223
 20
108.4402462249879
 10
110.8740123627528
 20
108.2795540548209
 10
110.5281893766813
 20
108.1162995949247
 10
110.1997318247838
 20
107.9524099455577
 10
109.8933659473591
 20
107.7898122069786
 10
109.6138072187831
 20
107.6304550112925
 10
109.6138072187831
 20
107.6304550112925
 10
109.3386517528092
 20
107.4553365039941
 10
109.0450650262614
 20
107.2474357604531
 10
108.7370196648125
 20
107.0116082120472
 10
108.4185636555978
 20
106.7527200560774
 10
108.0937234539063
 20
106.4756267239217
 10
107.7665147491037
 20
106.1852159447274
 10
107.4409424646324
 20
105.8863216180261
 10
107.1210330557814
 20
105.5838207070418
 10
106.8108129778395
 20
105.2825686431525
 10
106.5142979201725
 20
104.9874531555057
 10
106.2355143380693
 20
104.7033081436328
 10
105.9784779208955
 20
104.4350213366811
 10
105.7472043580169
 20
104.1874374001054
 10
105.5457201047223
 20
103.9654332971299
 10
105.3780408503775
 20
103.7738644591324
 10
105.2481822843482
 20
103.6176078493372
 10
105.2481822843482
 20
103.6176078493372
 10
105.1653492709981
 20
103.519810202694
 10
105.0825270235712
 20
103.4334352006004
 10
105.000296901922
 20
103.3590749688341
 10
104.9192079681355
 20
103.2973108672498
 10
104.8397769865268
 20
103.2487134897787
 10
104.7626068487969
 20
103.2138857281219
 10
104.6881927874145
 20
103.1933766443641
 10
104.6171053963109
 20
103.1877891302065
 10
104.5498937375709
 20
103.1977045455036
 10
104.4871068732795
 20
103.2236934841866
 10
104.4292938655215
 20
103.2663480720334
 10
104.3769930104584
 20
103.3262496688985
 10
104.3307533701752
 20
103.4039688687133
 10
104.2911455386032
 20
103.5000977972555
 10
104.2586862800575
 20
103.6152178143796
 10
104.2339461884694
 20
103.7498995140171
 10
104.2339461884694
 20
103.7498995140171
 10
104.2219421840653
 20
103.979149083328
 10
104.244119985924
 20
104.246434659419
 10
104.2982510479366
 20
104.5483649764719
 10
104.3821391217635
 20
104.8815380027453
 10
104.4935556612957
 20
105.2425624724209
 10
104.6302828863473
 20
105.6280148219109
 10
104.7901030167325
 20
106.0344930194737
 10
104.9708090381884
 20
106.4586165652145
 10
105.1701724046062
 20
106.8969618955452
 10
105.3859753357998
 20
107.3461377446478
 10
105.6160108175067
 20
107.8027313148575
 10
105.8580503036177
 20
108.2633621062794
 10
106.1098867798703
 20
108.7245957894023
 10
106.3693132320016
 20
109.1830626302544
 10
106.6340795820563
 20
109.6353390652479
 10
106.902000347618
 20
110.0780230626414
 10
106.902000347618
 20
110.0780230626414
 10
106.9377324468264
 20
110.1329615688964
 10
106.9790412942691
 20
110.1889874333978
 10
107.0263575268756
 20
110.244119726271
 10
107.080111781575
 20
110.2963559857946
 10
107.140702397527
 20
110.3436937502475
 10
107.2085707775841
 20
110.3841197919852
 10
107.2841152609059
 20
110.4156316492865
 10
107.3677557184985
 20
110.4362268604301
 10
107.4599335532144
 20
110.4439029636948
 10
107.5610471042132
 20
110.4366574973594
 10
107.6715270084242
 20
110.4124879997026
 10
107.7917931368534
 20
110.3693812430801
 10
107.922265360507
 20
110.3053455316937
 10
108.0633527844677
 20
110.2183784038223
 10
108.2154860456649
 20
110.1064666318214
 10
108.3790850151046
 20
109.9676077539698
 10
108.3790850151046
 20
109.9676077539698
 10
108.5000509285439
 20
109.8625431091447
 10
108.6072579920922
 20
109.7792148633259
 10
108.7028270926264
 20
109.7176445483597
 10
108.7888252874068
 20
109.677821398323
 10
108.8673411655408
 20
109.6597346472926
 10
108.9404740820585
 20
109.6633842952684
 10
109.010301860144
 20
109.6887488104039
 10
109.0789023229809
 20
109.7358389586225
 10
109.1483855915228
 20
109.8046332080776
 10
109.2208079571073
 20
109.8951423246924
 10
109.2982795406877
 20
110.0073447766206
 10
109.3828781654479
 20
110.1412405638621
 10
109.4766924204952
 20
110.2968296864169
 10
109.5818108949364
 20
110.4741013783617
 10
109.7003114119555
 20
110.6730341078502
 10
109.8342933265829
 20
110.8936494067287
 10
109.8342933265829
 20
110.8936494067287
 10
110.0232675770813
 20
111.190272123628
 10
110.1947472023272
 20
111.4371993388866
 10
110.3508315573506
 20
111.6374993406256
 10
110.4936845927215
 20
111.7941973532733
 10
110.6254271953164
 20
111.9103293671813
 10
110.7481910179356
 20
111.9889313727011
 10
110.864107713379
 20
112.0330501261075
 10
110.9753089344465
 20
112.0456893199823
 10
111.0839370998615
 20
112.0299064765236
 10
111.1920915646543
 20
111.9887591179294
 10
111.3019362793946
 20
111.9252509367814
 10
111.4155921309591
 20
111.8424286893545
 10
111.535190772148
 20
111.7433283660001
 10
111.6628638557611
 20
111.6309859570699
 10
111.8007430345986
 20
111.5084374529154
 10
111.9509599614604
 20
111.3787188438881
 10
111.9509599614604
 20
111.3787188438881
 10
112.1043097719828
 20
111.262672957366
 10
112.2460862150304
 20
111.1816163213492
 10
112.3779580087042
 20
111.1329974120316
 10
112.5015185096426
 20
111.1142324078375
 10
112.618457967793
 20
111.1227697849608
 10
112.7303912716404
 20
111.156036487749
 10
112.838954841516
 20
111.2114271627797
 10
112.9457850977512
 20
111.2864225840167
 10
113.0525615243702
 20
111.3784281639609
 10
113.1608667120882
 20
111.4848708469597
 10
113.2723801449295
 20
111.6031775773606
 10
113.3887382432254
 20
111.7307968313576
 10
113.511566661384
 20
111.8651447873748
 10
113.642523351583
 20
112.003659155683
 10
113.7832232023074
 20
112.1437561147064
 10
113.9353349316581
 20
112.2828841406388
 10
113.9353349316581
 20
112.2828841406388
 10
114.0267160880548
 20
112.3588377290434
 10
114.111174755813
 20
112.4217645503369
 10
114.1894645495591
 20
112.4722567302969
 10
114.2624036794587
 20
112.5109494583942
 10
114.3307565260612
 20
112.5384240944833
 10
114.3953305336092
 20
112.5553265939582
 10
114.4568793167289
 20
112.5622598485198
 10
114.5162210855859
 20
112.5598159839461
 10
114.5741309866531
 20
112.5486301897076
 10
114.631384166403
 20
112.5293161234286
 10
114.688777303155
 20
112.502465910887
 10
114.7470855433817
 20
112.4687255074766
 10
114.8071163313256
 20
112.4286762730521
 10
114.8696340475362
 20
112.3829426311608
 10
114.9354353703327
 20
112.3321490053503
 10
115.0053062121111
 20
112.2768875213984
 10
115.0053062121111
 20
112.2768875213984
 10
115.0145003105515
 20
112.2699112031437
 10
115.0361182844022
 20
112.2536115953699
 10
115.068394522253
 20
112.2293129066343
 10
115.1095203490008
 20
112.1983501114179
 10
115.1576978554658
 20
112.1621120138176
 10
115.211161430238
 20
112.1219012905446
 10
115.2681023982142
 20
112.0790636820028
 10
115.3267228502146
 20
112.0349772263661
 10
115.3852787066757
 20
111.9909553662688
 10
115.4419289947246
 20
111.9483438421149
 10
115.4949081029513
 20
111.9084991602318
 10
115.5424288880992
 20
111.8727778269466
 10
115.5826934409884
 20
111.8424932848939
 10
115.6139146183624
 20
111.819012806324
 10
115.6342945110413
 20
111.8036713657178
 10
115.6420675076151
 20
111.7978147034794
 10
115.6420675076151
 20
111.7978147034794
 10
115.7648851598505
 20
111.7047971267514
 10
115.8733949001099
 20
111.6241926595103
 10
115.9696207219612
 20
111.5560120676794
 10
116.0556296826649
 20
111.500266117182
 10
116.1334134780191
 20
111.4569548080181
 10
116.2050176334378
 20
111.4261104379572
 10
116.2724769084121
 20
111.4077330069995
 10
116.3377829987399
 20
111.4018225151449
 10
116.4030244935283
 20
111.4084004942399
 10
116.4701823226521
 20
111.4274669442845
 10
116.5413127774486
 20
111.4590433971251
 10
116.6184290855623
 20
111.5031406186851
 10
116.7035767724075
 20
111.5597586089643
 10
116.7987690656284
 20
111.6289081338861
 10
116.9060407247161
 20
111.7106214912201
 10
117.0274265091616
 20
111.8048771491198
 10
117.0274265091616
 20
111.8048771491198
 10
117.0365560120626
 20
111.8116812126027
 10
117.0584646658406
 20
111.8278731611442
 10
117.0913114976227
 20
111.8521072543404
 10
117.1332663004594
 20
111.8830269858639
 10
117.1824773355547
 20
111.9192973812339
 10
117.2371251618824
 20
111.9595404022766
 10
117.2953472747233
 20
112.0023887767416
 10
117.3552919352814
 20
112.0465290619945
 10
117.4151504684535
 20
112.0905832198615
 10
117.4730496035975
 20
112.1331947440154
 10
117.5271698996868
 20
112.1730178940521
 10
117.5756596179256
 20
112.2086961636443
 10
117.616677785441
 20
112.2388730464647
 10
117.6484049612069
 20
112.2622028021093
 10
117.6689678745808
 20
112.2773289242509
 10
117.6765363186132
 20
112.2828841406388
 10
117.6765363186132
 20
112.2828841406388
 10
117.7788341211676
 20
112.3603987879121
 10
117.8692140467036
 20
112.4275781488824
 10
117.9493663451689
 20
112.4844222235495
 10
118.0210135642806
 20
112.5309417778367
 10
118.0858028902933
 20
112.5671152798976
 10
118.1454461050008
 20
112.5929750275019
 10
118.201644224274
 20
112.6085102547262
 10
118.2560659662138
 20
112.6136994297243
 10
118.3104231126142
 20
112.6085748502656
 10
118.3663843815763
 20
112.5931149845039
 10
118.4256615548939
 20
112.5673305983623
 10
118.4899341165914
 20
112.531232457764
 10
118.5609030825395
 20
112.4847990308626
 10
118.6402371708391
 20
112.4280518495046
 10
118.7296481632843
 20
112.3609801477667
 10
118.8308263098224
 20
112.2835946915721
 10
118.8308263098224
 20
112.2835946915721
 10
118.8386531360124
 20
112.2776841997175
 10
118.8593021767722
 20
112.2619121221821
 10
118.8909432251522
 20
112.2377103267556
 10
118.9317137764334
 20
112.2064891493816
 10
118.9798159214358
 20
112.1696696919268
 10
119.033376389517
 20
112.1286515244113
 10
119.0905757396508
 20
112.0848342168554
 10
119.1495622330412
 20
112.039649637049
 10
119.2084948968154
 20
111.9944973550122
 10
119.2655435240239
 20
111.9507769407654
 10
119.318867141794
 20
111.9099094961752
 10
119.3666032454065
 20
111.8733268890315
 10
119.4069431597584
 20
111.842407157508
 10
119.4380351460536
 20
111.8185714034714
 10
119.4580489973426
 20
111.8032407287885
 10
119.4651222089063
 20
111.7978147034794
 10
119.4651222089063
 20
111.7978147034794
 10
119.5863788022729
 20
111.7047971267514
 10
119.6935535680516
 20
111.6241818935871
 10
119.7886382020402
 20
111.5559690039865
 10
119.8736889955762
 20
111.5001476920265
 10
119.9506976444576
 20
111.4567394895534
 10
120.0217204400219
 20
111.4257443965673
 10
120.0887706099133
 20
111.4071408812217
 10
120.1538829136229
 20
111.4009397094398
 10
120.2190705787952
 20
111.4071408812217
 10
120.2863468330745
 20
111.4257443965673
 10
120.3577679677983
 20
111.4567502554766
 10
120.4353364446878
 20
111.5001584579497
 10
120.5210870232339
 20
111.5559690039865
 10
120.6170436970044
 20
111.6241818935871
 10
120.7252196936436
 20
111.7047971267514
 10
120.8476605385658
 20
111.7978147034794
 10
120.8476605385658
 20
111.7978147034794
 10
120.8548306434386
 20
111.8032837924814
 10
120.8744999851842
 20
111.818409914623
 10
120.904924484239
 20
111.8418365635767
 10
120.9443600610393
 20
111.8721964670921
 10
120.9910411041751
 20
111.9081438847651
 10
121.0432558318522
 20
111.9483546080381
 10
121.0992063348911
 20
111.9914613646607
 10
121.1571808314976
 20
112.0361184142287
 10
121.2154029443385
 20
112.080969250415
 10
121.2721501256965
 20
112.1246788987385
 10
121.3256459982383
 20
112.1658693210257
 10
121.3741680142468
 20
112.2032270746422
 10
121.4159397963886
 20
112.2353741214142
 10
121.4492387969464
 20
112.2609754868608
 10
121.472288638587
 20
112.2786746646549
 10
121.4833667735931
 20
112.2871259143924
 10
121.4833667735931
 20
112.2871259143924
 10
121.5871502735536
 20
112.3633163531081
 10
121.6793819378856
 20
112.4294083558319
 10
121.7616766550742
 20
112.4853803907172
 10
121.8357246750667
 20
112.5312539896105
 10
121.9031516522712
 20
112.5669430251259
 10
121.9656478366354
 20
112.59246902911
 10
122.0248281166439
 20
112.6077997037929
 10
122.0823719763212
 20
112.6129135173283
 10
122.1399481337681
 20
112.6077997037929
 10
122.1991822433928
 20
112.5924151994938
 10
122.2617537892196
 20
112.5667492385077
 10
122.3292991915797
 20
112.5308018208347
 10
122.4034871685742
 20
112.4845298827818
 10
122.4859756723809
 20
112.4279118925026
 10
122.5784118892544
 20
112.360947849997
 10
122.6824537713724
 20
112.2835946915721
 10
122.6824537713724
 20
112.2835946915721
 10
122.693273524221
 20
112.275251101067
 10
122.715602049005
 20
112.2577026461982
 10
122.7477598617002
 20
112.2323165992162
 10
122.7880674782824
 20
112.2003956368321
 10
122.8348454147272
 20
112.1633177972196
 10
122.8864141870104
 20
112.122428820783
 10
122.9410835451846
 20
112.0790313842331
 10
122.9971740052254
 20
112.0344927598207
 10
123.0530060831087
 20
111.9901479220264
 10
123.1068895288869
 20
111.9473426112543
 10
123.157155624459
 20
111.9074010360621
 10
123.2021141198776
 20
111.8716904687002
 10
123.2400747651951
 20
111.8415243518029
 10
123.2693688423104
 20
111.8182699576209
 10
123.2883168671995
 20
111.8032514947117
 10
123.2952285899147
 20
111.7978147034794
 10
123.2952285899147
 20
111.7978147034794
 10
123.4176586689136
 20
111.7047971267514
 10
123.5258561973994
 20
111.6241818935871
 10
123.6218021052466
 20
111.5559690039865
 10
123.7075526837927
 20
111.5001476920265
 10
123.7851211606822
 20
111.4567394895534
 10
123.8565315294828
 20
111.4257443965673
 10
123.9238293156086
 20
111.4071408812217
 10
123.9890062148576
 20
111.4009397094398
 10
124.0541185185672
 20
111.4071408812217
 10
124.1211579225354
 20
111.4257443965673
 10
124.1921807180996
 20
111.4567502554766
 10
124.2692108988275
 20
111.5001584579497
 10
124.3542509264403
 20
111.5559690039865
 10
124.4493463263522
 20
111.6241818935871
 10
124.5565103262076
 20
111.7047971267514
 10
124.6777669195742
 20
111.7978147034794
 10
124.6777669195742
 20
111.7978147034794
 10
124.6848401311379
 20
111.8032299628653
 10
124.7048432165037
 20
111.8185714034714
 10
124.7359459687222
 20
111.842407157508
 10
124.7762751171508
 20
111.8733268890315
 10
124.8240327526097
 20
111.9099094961752
 10
124.8773456044566
 20
111.9507661748422
 10
124.9343942316652
 20
111.994486589089
 10
124.9933268954394
 20
112.039649637049
 10
125.0523133888297
 20
112.0848449827786
 10
125.1095019730403
 20
112.1286515244113
 10
125.1630732070448
 20
112.16968045785
 10
125.2111645861239
 20
112.2064999153048
 10
125.2519566692515
 20
112.2377210926788
 10
125.2835977176316
 20
112.2619121221821
 10
125.3042467583913
 20
112.2776734337943
 10
125.3120628186581
 20
112.2835946915721
 10
125.3120628186581
 20
112.2835946915721
 10
125.413230199273
 20
112.3609909136899
 10
125.5026519576414
 20
112.4280518495046
 10
125.5819860459411
 20
112.4847990308626
 10
125.6529550118891
 20
112.5312216918408
 10
125.7172275735866
 20
112.5673305983623
 10
125.7765262787507
 20
112.5931257504271
 10
125.832498313636
 20
112.6085640843424
 10
125.8868662259596
 20
112.6137101956475
 10
125.9413094997459
 20
112.6085102547262
 10
125.9975183849423
 20
112.5929857934251
 10
126.0572046633428
 20
112.5671260458209
 10
126.1220262871252
 20
112.5309417778367
 10
126.1937058040065
 20
112.4844222235495
 10
126.273911932088
 20
112.4275781488824
 10
126.3643456872402
 20
112.3603987879121
 10
126.4666973194107
 20
112.2828841406388
 10
126.4666973194107
 20
112.2828841406388
 10
126.474211933827
 20
112.2773181583276
 10
126.4947210175847
 20
112.2622028021093
 10
126.5263943637344
 20
112.2388730464647
 10
126.5673802334802
 20
112.2086961636443
 10
126.6158268880261
 20
112.1730178940521
 10
126.6699256522689
 20
112.1331947440154
 10
126.7278032555664
 20
112.0905724539383
 10
126.7876402568921
 20
112.0465290619945
 10
126.8475849174501
 20
112.0023995426648
 10
126.9057854984446
 20
111.9595296363534
 10
126.9604117929258
 20
111.9192973812339
 10
127.0096335939444
 20
111.8830377517871
 10
127.0515776308578
 20
111.8521180202636
 10
127.0844352285632
 20
111.8278731611442
 10
127.1063438823411
 20
111.8116812126027
 10
127.115462619319
 20
111.8048771491198
 10
127.115462619319
 20
111.8048771491198
 10
127.2368484037644
 20
111.7106214912201
 10
127.3441200628521
 20
111.6289081338861
 10
127.4393123560731
 20
111.5597478430411
 10
127.5244708088414
 20
111.5031298527619
 10
127.6015763510319
 20
111.4590433971251
 10
127.6727283376749
 20
111.4274777102077
 10
127.7399076986452
 20
111.4083897283166
 10
127.8051384275103
 20
111.4018225151449
 10
127.8704875815311
 20
111.4077330069995
 10
127.9379576224286
 20
111.4261212038804
 10
128.009594075617
 20
111.4569655739413
 10
128.0874101687409
 20
111.500266117182
 10
128.1734514272143
 20
111.5560120676794
 10
128.2697418446049
 20
111.6241926595103
 10
128.3783054144806
 20
111.7047971267514
 10
128.5011768963321
 20
111.7978147034794
 10
128.5011768963321
 20
111.7978147034794
 10
128.50886376552
 20
111.8036605997946
 10
128.5292113604293
 20
111.819012806324
 10
128.5603894741103
 20
111.8424932848939
 10
128.6006109633066
 20
111.8727670610234
 10
128.6480994506848
 20
111.9084991602318
 10
128.7010462611417
 20
111.9483438421149
 10
128.7576857832674
 20
111.9909553662688
 10
128.8162093419588
 20
112.0349664604429
 10
128.874819028036
 20
112.0790744479261
 10
128.931749230089
 20
112.1219012905446
 10
128.9852020389379
 20
112.1621120138176
 10
129.033379545403
 20
112.1983608773411
 10
129.0744946062275
 20
112.2293129066343
 10
129.1067600781551
 20
112.2536115953699
 10
129.128388817929
 20
112.269921969067
 10
129.1375829163695
 20
112.2768875213984
 10
129.1375829163695
 20
112.2768875213984
 10
129.2073999285316
 20
112.3321382394271
 10
129.2731474217119
 20
112.3829426311608
 10
129.3356436060761
 20
112.4286655071289
 10
129.3956420962503
 20
112.4687147415534
 10
129.453950336477
 20
112.502465910887
 10
129.511343473229
 20
112.5293161234286
 10
129.5686181848254
 20
112.5486301897076
 10
129.6265388518158
 20
112.5598159839461
 10
129.6858913865961
 20
112.5622598485198
 10
129.7474617015622
 20
112.5553265939582
 10
129.8120572409567
 20
112.5384240944833
 10
129.8804316194057
 20
112.5109494583942
 10
129.9533922811517
 20
112.4722567302969
 10
130.0317036067443
 20
112.4217645503369
 10
130.1161622745025
 20
112.3588484949667
 10
130.2075541968225
 20
112.2828841406388
 10
130.2075541968225
 20
112.2828841406388
 10
130.3596659261732
 20
112.1437561147064
 10
130.5003765428208
 20
112.003659155683
 10
130.6313224670965
 20
111.8651447873748
 10
130.7541616511783
 20
111.7307968313576
 10
130.870508983551
 20
111.6031775773606
 10
130.982011650469
 20
111.4848600810365
 10
131.0903383700335
 20
111.3784281639609
 10
131.1970932648061
 20
111.2864225840167
 10
131.3039342869645
 20
111.2114271627797
 10
131.4124978568402
 20
111.1560257218258
 10
131.5244311606875
 20
111.1227697849608
 10
131.6413598529147
 20
111.1142431737608
 10
131.7649418856996
 20
111.1329974120316
 10
131.8968029134501
 20
111.1816163213492
 10
132.0385793564977
 20
111.2626621914428
 10
132.1919291670201
 20
111.3787188438881
 10
132.1919291670201
 20
111.3787188438881
 10
132.3421460938819
 20
111.5084482188387
 10
132.4800252727194
 20
111.6309859570699
 10
132.6076983563325
 20
111.7433283660001
 10
132.7272969975214
 20
111.8424286893545
 10
132.8409528490859
 20
111.9252509367814
 10
132.950786797903
 20
111.9887591179294
 10
133.0589627945422
 20
112.0299280083701
 10
133.167580194034
 20
112.0456893199823
 10
133.2787814151015
 20
112.033028594261
 10
133.3946981105449
 20
111.9889313727011
 10
133.517461933164
 20
111.9103293671813
 10
133.6492045357591
 20
111.7941973532733
 10
133.7920575711299
 20
111.6374993406256
 10
133.9481526920766
 20
111.4371993388866
 10
134.1196215513992
 20
111.1902613577048
 10
134.3085958018976
 20
110.8936494067287
 10
134.3085958018976
 20
110.8936494067287
 10
134.442577716525
 20
110.6730448737734
 10
134.5610674676209
 20
110.4741013783617
 10
134.6661644102157
 20
110.2968296864169
 10
134.7599571334164
 20
110.1412405638621
 10
134.8445449922535
 20
110.0073447766206
 10
134.9219842780642
 20
109.8951423246924
 10
134.9943958777254
 20
109.8046332080776
 10
135.0638468484976
 20
109.7358389586225
 10
135.1324365454113
 20
109.6887488104039
 10
135.2022535575735
 20
109.6633842952684
 10
135.2753864740912
 20
109.6597346472926
 10
135.3539131181485
 20
109.677821398323
 10
135.4399328447754
 20
109.7176445483597
 10
135.5355342430792
 20
109.7792148633259
 10
135.6427843703204
 20
109.8625323432215
 10
135.763804113376
 20
109.9676077539698
 10
135.763804113376
 20
109.9676077539698
 10
135.9274030828157
 20
110.1064666318214
 10
136.0795363440128
 20
110.2183784038223
 10
136.2206130020503
 20
110.3053562976169
 10
136.3510959916271
 20
110.3693812430801
 10
136.4713513541331
 20
110.4124772337794
 10
136.5818420242674
 20
110.4366574973594
 10
136.6829555752661
 20
110.4439029636948
 10
136.775133409982
 20
110.4362268604301
 10
136.8587846334978
 20
110.4156316492865
 10
136.9343183508964
 20
110.3841197919852
 10
137.0021867309535
 20
110.3436937502475
 10
137.0627773469055
 20
110.2963667517179
 10
137.1165208356817
 20
110.2441304921942
 10
137.1638478342114
 20
110.1889874333978
 10
137.2051674475774
 20
110.1329508029731
 10
137.2408887808625
 20
110.0780230626414
 10
137.2408887808625
 20
110.0780230626414
 10
137.5088095464242
 20
109.6353390652479
 10
137.7735974283253
 20
109.1830626302544
 10
138.0330238804567
 20
108.7245957894023
 10
138.2848818885557
 20
108.2633513403562
 10
138.5269429065132
 20
107.8027313148575
 10
138.7569999200666
 20
107.3461377446478
 10
138.9728243831067
 20
106.8969726614685
 10
139.1722092813709
 20
106.4586165652145
 10
139.3529260687501
 20
106.0344930194737
 10
139.5127569650584
 20
105.6280148219109
 10
139.6494949560333
 20
105.2425624724209
 10
139.7609007296422
 20
104.8815487686685
 10
139.8447672716227
 20
104.5483649764719
 10
139.8988768017888
 20
104.246434659419
 10
139.9210007740314
 20
103.979149083328
 10
139.9089429400111
 20
103.7498995140171
 10
139.9089429400111
 20
103.7498995140171
 10
139.884202848423
 20
103.6152178143796
 10
139.8517543558006
 20
103.5000977972555
 10
139.8121249923821
 20
103.4039688687133
 10
139.7658961180221
 20
103.3262496688985
 10
139.713595262959
 20
103.2663480720334
 10
139.6557714892778
 20
103.2237042501098
 10
139.5929953909096
 20
103.1977045455036
 10
139.5257837321697
 20
103.1877891302065
 10
139.454696341066
 20
103.1933766443641
 10
139.3802822796836
 20
103.2138749621986
 10
139.3031121419537
 20
103.2487134897787
 10
139.2236919262683
 20
103.2973108672498
 10
139.1425922265585
 20
103.3590749688341
 10
139.0603621049094
 20
103.4334352006004
 10
138.9775506234057
 20
103.519810202694
 10
138.8947068441323
 20
103.6176078493372
 10
138.8947068441323
 20
103.6176078493372
 10
138.7648590440262
 20
103.7738752250556
 10
138.5971690237582
 20
103.9654332971299
 10
138.3956847704637
 20
104.1874374001054
 10
138.164411207585
 20
104.4350213366811
 10
137.907364024488
 20
104.7033081436328
 10
137.6285804423848
 20
104.9874531555057
 10
137.332076150641
 20
105.2825794090758
 10
137.0218560726991
 20
105.5838207070418
 10
136.7019466638481
 20
105.8863108521028
 10
136.3763743793768
 20
106.1852159447274
 10
136.0491656745742
 20
106.4756374898449
 10
135.7243254728827
 20
106.7527200560774
 10
135.405869463668
 20
107.0116082120472
 10
135.0978348681423
 20
107.2474465263763
 10
134.8042266097481
 20
107.4553472699174
 10
134.5290819096974
 20
107.6304550112925
 10
134.5290819096974
 20
107.6304550112925
 10
134.2507612622932
 20
107.7898122069786
 10
133.947894309919
 20
107.9524099455577
 10
133.624884315177
 20
108.1162995949247
 10
133.286123774746
 20
108.2795540548209
 10
132.9360051853049
 20
108.4402462249879
 10
132.5789210435323
 20
108.5964382392437
 10
132.2192853779537
 20
108.7461922314065
 10
131.8614691534013
 20
108.8875811012177
 10
131.5098756324773
 20
109.0186669824955
 10
131.1689080777837
 20
109.1375120090581
 10
130.8429589859992
 20
109.2421890806468
 10
130.5364208538029
 20
109.3307603310798
 10
130.2536969437966
 20
109.4012986600986
 10
129.9991689867359
 20
109.4518769674444
 10
129.7772402452231
 20
109.4805358550891
 10
129.5923139818599
 20
109.4853589886973
 10
127.0403164751567
 20
109.4931212193478
 10
126.9209116205861
 20
109.4858434552427
 10
126.8101195046014
 20
109.4641608858526
 10
126.707821702047
 20
109.4286333391857
 10
126.6138890218442
 20
109.3798529410196
 10
126.5281922729143
 20
109.3183795193626
 10
126.4505914982551
 20
109.2448159659155
 10
126.3809682727111
 20
109.1597328746098
 10
126.3191934052035
 20
109.0637116052999
 10
126.2651377046536
 20
108.9573227519173
 10
126.2186719799825
 20
108.8411584402396
 10
126.1796670401115
 20
108.7157892641982
 10
126.1479936939617
 20
108.5817965836476
 10
126.1235227504545
 20
108.4397725243657
 10
126.1061357844341
 20
108.2902876802837
 10
126.0956820729755
 20
108.1339126453329
 10
126.0920539568461
 20
107.9712395452912
 10
126.0927537418562
 20
107.4575973478729
 10
126.0968986223007
 20
107.3989661299493
 10
126.1085150534685
 20
107.3442537080821
 10
126.126881718503
 20
107.2934277845019
 10
126.1512557687011
 20
107.2464775932854
 10
126.1808512916671
 20
107.2033923685093
 10
126.2149362046209
 20
107.1641613442504
 10
126.2527461270131
 20
107.1287414568158
 10
126.2935382101407
 20
107.0971434721287
 10
126.3365373075309
 20
107.0693350924194
 10
126.3810005704808
 20
107.0453163176878
 10
126.4261851502872
 20
107.0250440842412
 10
126.4713266664007
 20
107.0085291580027
 10
126.515671504195
 20
106.9957392412026
 10
126.5584660490438
 20
106.9866635679177
 10
126.5989566863209
 20
106.9812806063015
 10
126.6363898014
 20
106.9795795904308
 10
126.6363898014
 20
106.9795795904308
 10
126.6757607826609
 20
106.9817543069237
 10
126.7160145696269
 20
106.9879985423985
 10
126.7567312912918
 20
106.9982154035461
 10
126.7974587788801
 20
107.0123725925967
 10
126.8377233317693
 20
107.030362450318
 10
126.8770943130302
 20
107.0521742107869
 10
126.9150980220406
 20
107.0777002147709
 10
126.9512930559479
 20
107.1068973985772
 10
126.9852164800533
 20
107.1396904007431
 10
127.0164376574273
 20
107.1760253916525
 10
127.0444936533709
 20
107.2158270098428
 10
127.0689322991085
 20
107.2590306597744
 10
127.0893014258642
 20
107.3055825118313
 10
127.1051488648623
 20
107.3554179704742
 10
127.1160116814038
 20
107.4084616742402
 10
127.1214592385594
 20
107.4646490275902
 10
127.1214592385594
 20
107.4646490275902
 10
127.1263684995534
 20
107.5176066039704
 10
127.1357671505353
 20
107.5685509527062
 10
127.1494829367334
 20
107.617277521256
 10
127.1672467100668
 20
107.663646352618
 10
127.188886215764
 20
107.707420596481
 10
127.2141646035137
 20
107.748460295843
 10
127.2428665548513
 20
107.7865501322392
 10
127.2747875172354
 20
107.8215393827446
 10
127.3097014062781
 20
107.8532019629711
 10
127.3473929035147
 20
107.8813871499935
 10
127.387657456404
 20
107.9059011571937
 10
127.4302689805578
 20
107.9265609638767
 10
127.475022923435
 20
107.9431835493476
 10
127.5216932006475
 20
107.9555966588345
 10
127.5700644937307
 20
107.9635957397962
 10
127.6199322501432
 20
107.9670085374609
 10
127.6199322501432
 20
107.9670085374609
 10
127.6681205225315
 20
107.9652106282811
 10
127.7151137774409
 20
107.957932864176
 10
127.760653632714
 20
107.945476690996
 10
127.8044924721164
 20
107.9282189160545
 10
127.8463396157208
 20
107.9064502192786
 10
127.8859366813696
 20
107.8805258761349
 10
127.9230468187517
 20
107.8507688643206
 10
127.9573685820166
 20
107.8175236933789
 10
127.9886435890067
 20
107.7811025750836
 10
128.0166026916413
 20
107.741839253055
 10
128.0409982736859
 20
107.7000782368365
 10
128.0615504211366
 20
107.6561532700483
 10
128.0780007518358
 20
107.6103873303873
 10
128.0900801177025
 20
107.5631141614738
 10
128.0975193706561
 20
107.5146567410047
 10
128.1000601285389
 20
107.4653595785235
 10
128.1000601285389
 20
105.4587529768509
 10
124.5631098371491
 20
103.6617050708972
 10
123.1079015256708
 20
103.6617050708972
 10
123.1079015256708
 20
105.4696911548551
 10
123.3014082298501
 20
105.6019612876884
 10
123.474793423508
 20
105.7940468900011
 10
123.6249780526002
 20
106.0365170130414
 10
123.7489368926981
 20
106.3199407080578
 10
123.8435478260645
 20
106.6348870262987
 10
123.9057856282711
 20
106.9719250190125
 10
123.9325497134269
 20
107.3216345033709
 10
123.9207933252571
 20
107.6745522328525
 10
123.8674374097172
 20
108.0212795564754
 10
123.7694029127629
 20
108.352374759565
 10
123.6236538440426
 20
108.6584068933694
 10
123.4270896176652
 20
108.9299450091373
 10
123.1766527114329
 20
109.1575581581168
 10
122.8692856031476
 20
109.3318153915566
 10
122.5019092387649
 20
109.443285760705
 10
122.0714445642403
 20
109.4825383168103
  0
LWPOLYLINE
  5
80
330
1F
100
AcDbEntity
  8
ISS138金台
  6
Continuous
 62
   250
420
  2367521
370
    25
100
AcDbPolyline
 90
      771
 70
     0
 43
0.0
 10
122.0714445642403
 20
109.4825383168103
 10
121.6409906556388
 20
109.443285760705
 10
121.2736035253329
 20
109.3318153915566
 10
120.9662256511244
 20
109.1575581581168
 10
120.7157995108153
 20
108.9299450091373
 10
120.5192245185147
 20
108.6584068933694
 10
120.3734862157176
 20
108.352374759565
 10
120.2754624846865
 20
108.0212903223987
 10
120.2220958032235
 20
107.6745522328525
 10
120.2103394150537
 20
107.3216237374476
 10
120.2371035002094
 20
106.9719250190125
 10
120.2993305364928
 20
106.6348870262987
 10
120.3939522357824
 20
106.3199407080578
 10
120.5179003099571
 20
106.0365170130414
 10
120.6680957049725
 20
105.7940468900011
 10
120.8414808986304
 20
105.6019612876884
 10
121.0349876028097
 20
105.4696911548551
 10
121.0349876028097
 20
103.6617050708972
 10
119.5797792913315
 20
103.6617050708972
 10
116.1532443086132
 20
105.4587529768509
 10
116.1532443086132
 20
107.4653595785235
 10
116.155785066496
 20
107.5146567410047
 10
116.1632243194496
 20
107.5631033955506
 10
116.1753036853164
 20
107.6103765644641
 10
116.1917540160155
 20
107.6561640359715
 10
116.2123061634662
 20
107.7000782368365
 10
116.2366909795876
 20
107.741839253055
 10
116.2646716140686
 20
107.7810918091604
 10
116.2959358551355
 20
107.8175129274556
 10
116.3302683843237
 20
107.8507688643206
 10
116.3673569898593
 20
107.8805258761349
 10
116.4069648214314
 20
107.9064502192786
 10
116.4488119650357
 20
107.9282189160545
 10
116.4926508044381
 20
107.945476690996
 10
116.5382014256344
 20
107.9579220982527
 10
116.5851946805439
 20
107.9652106282811
 10
116.6333721870089
 20
107.9670085374609
 10
116.6333721870089
 20
107.9670085374609
 10
116.6832399434214
 20
107.9635957397962
 10
116.7316112365046
 20
107.9555858929113
 10
116.7782815137171
 20
107.9431835493476
 10
116.823024690671
 20
107.9265717297999
 10
116.8656362148249
 20
107.9059011571937
 10
116.9058792358677
 20
107.8813871499935
 10
116.9435707331043
 20
107.8532019629711
 10
116.9784738562238
 20
107.8215286168213
 10
117.0103732867614
 20
107.7865501322392
 10
117.0390537062526
 20
107.748460295843
 10
117.0643105621558
 20
107.7074313624043
 10
117.0859177700832
 20
107.663646352618
 10
117.103649245647
 20
107.6172882871793
 10
117.1173004363057
 20
107.5685509527062
 10
117.1266560235947
 20
107.5176066039704
 10
117.1315006890493
 20
107.4646490275902
 10
117.1315006890493
 20
107.4646490275902
 10
117.137002075821
 20
107.408450908317
 10
117.1479294879019
 20
107.3554179704742
 10
117.163819990593
 20
107.3055825118313
 10
117.1842106491952
 20
107.2590414256976
 10
117.2086815927024
 20
107.2158162439195
 10
117.2367591204925
 20
107.1760253916525
 10
117.2679910637898
 20
107.1396904007431
 10
117.3019252538183
 20
107.1068973985772
 10
117.3381095218024
 20
107.0777002147709
 10
117.3761132308128
 20
107.0521742107869
 10
117.4154519143041
 20
107.0303732162413
 10
117.4556949353468
 20
107.0123618266734
 10
117.4963793592421
 20
106.9982154035461
 10
117.5370530172141
 20
106.9879985423985
 10
117.5772637404872
 20
106.9817650728469
 10
117.6165701262087
 20
106.9795795904308
 10
117.6165701262087
 20
106.9795795904308
 10
117.6540678368272
 20
106.9812806063015
 10
117.6946015377972
 20
106.9866635679177
 10
117.7374499122622
 20
106.9957392412026
 10
117.7818162819029
 20
107.0085183920795
 10
117.8269793298629
 20
107.0250440842412
 10
117.872196207439
 20
107.0453163176878
 10
117.9166810022353
 20
107.0693350924194
 10
117.9596800996256
 20
107.0971434721287
 10
118.0004506509067
 20
107.1287414568158
 10
118.0382605732989
 20
107.1641505783272
 10
118.0723239544063
 20
107.2033923685093
 10
118.1018871796025
 20
107.2464775932854
 10
118.1262181661077
 20
107.2934277845019
 10
118.1445525333725
 20
107.3442537080821
 10
118.1561259008474
 20
107.3989661299493
 10
118.1601954198292
 20
107.4575973478729
 10
118.1612612462292
 20
107.9712395452912
 10
118.1576223641766
 20
108.1339018794097
 10
118.147168652718
 20
108.2902876802837
 10
118.1297816866976
 20
108.4397725243657
 10
118.1052999772671
 20
108.5818073495708
 10
118.0736266311174
 20
108.7157892641982
 10
118.0346109253232
 20
108.8411584402396
 10
117.9881344347288
 20
108.9573227519173
 10
117.9340679682557
 20
109.0637008393767
 10
117.8722715689016
 20
109.1597328746098
 10
117.8026268115112
 20
109.2448159659155
 10
117.7249937390823
 20
109.3183795193626
 10
117.6392646923826
 20
109.3798529410196
 10
117.5452889484869
 20
109.4286333391857
 10
117.4429480822396
 20
109.4641608858526
 10
117.3321021366388
 20
109.4858542211659
 10
117.2126326865287
 20
109.4931212193478
 10
114.6606459457487
 20
109.4853589886973
 10
114.47453543083
 20
109.4805358550891
 10
114.2491615938828
 20
109.4518769674444
 10
113.9892291433595
 20
109.4013094260218
 10
113.6994966173289
 20
109.3307603310798
 10
113.3846256605506
 20
109.2421890806468
 10
113.0493748110934
 20
109.1375120090581
 10
112.698459543333
 20
109.0186669824955
 10
112.3365953316453
 20
108.8875811012177
 10
111.968497650406
 20
108.7461922314065
 10
111.5988819739909
 20
108.5964382392437
 10
111.2324853086223
 20
108.4402462249879
 10
110.8740123627528
 20
108.2795540548209
 10
110.5281893766813
 20
108.1162995949247
 10
110.1997318247838
 20
107.9524099455577
 10
109.8933659473591
 20
107.7898122069786
 10
109.6138072187831
 20
107.6304550112925
 10
109.6138072187831
 20
107.6304550112925
 10
109.3386517528092
 20
107.4553365039941
 10
109.0450650262614
 20
107.2474357604531
 10
108.7370196648125
 20
107.0116082120472
 10
108.4185636555978
 20
106.7527200560774
 10
108.0937234539063
 20
106.4756267239217
 10
107.7665147491037
 20
106.1852159447274
 10
107.4409424646324
 20
105.8863216180261
 10
107.1210330557814
 20
105.5838207070418
 10
106.8108129778395
 20
105.2825686431525
 10
106.5142979201725
 20
104.9874531555057
 10
106.2355143380693
 20
104.7033081436328
 10
105.9784779208955
 20
104.4350213366811
 10
105.7472043580169
 20
104.1874374001054
 10
105.5457201047223
 20
103.9654332971299
 10
105.3780408503775
 20
103.7738644591324
 10
105.2481822843482
 20
103.6176078493372
 10
105.2481822843482
 20
103.6176078493372
 10
105.1653492709981
 20
103.519810202694
 10
105.0825270235712
 20
103.4334352006004
 10
105.000296901922
 20
103.3590749688341
 10
104.9192079681355
 20
103.2973108672498
 10
104.8397769865268
 20
103.2487134897787
 10
104.7626068487969
 20
103.2138857281219
 10
104.6881927874145
 20
103.1933766443641
 10
104.6171053963109
 20
103.1877891302065
 10
104.5498937375709
 20
103.1977045455036
 10
104.4871068732795
 20
103.2236934841866
 10
104.4292938655215
 20
103.2663480720334
 10
104.3769930104584
 20
103.3262496688985
 10
104.3307533701752
 20
103.4039688687133
 10
104.2911455386032
 20
103.5000977972555
 10
104.2586862800575
 20
103.6152178143796
 10
104.2339461884694
 20
103.7498995140171
 10
104.2339461884694
 20
103.7498995140171
 10
104.2219421840653
 20
103.979149083328
 10
104.244119985924
 20
104.246434659419
 10
104.2982510479366
 20
104.5483649764719
 10
104.3821391217635
 20
104.8815380027453
 10
104.4935556612957
 20
105.2425624724209
 10
104.6302828863473
 20
105.6280148219109
 10
104.7901030167325
 20
106.0344930194737
 10
104.9708090381884
 20
106.4586165652145
 10
105.1701724046062
 20
106.8969618955452
 10
105.3859753357998
 20
107.3461377446478
 10
105.6160108175067
 20
107.8027313148575
 10
105.8580503036177
 20
108.2633621062794
 10
106.1098867798703
 20
108.7245957894023
 10
106.3693132320016
 20
109.1830626302544
 10
106.6340795820563
 20
109.6353390652479
 10
106.902000347618
 20
110.0780230626414
 10
106.902000347618
 20
110.0780230626414
 10
106.9377324468264
 20
110.1329615688964
 10
106.9790412942691
 20
110.1889874333978
 10
107.0263575268756
 20
110.244119726271
 10
107.080111781575
 20
110.2963559857946
 10
107.140702397527
 20
110.3436937502475
 10
107.2085707775841
 20
110.3841197919852
 10
107.2841152609059
 20
110.4156316492865
 10
107.3677557184985
 20
110.4362268604301
 10
107.4599335532144
 20
110.4439029636948
 10
107.5610471042132
 20
110.4366574973594
 10
107.6715270084242
 20
110.4124879997026
 10
107.7917931368534
 20
110.3693812430801
 10
107.922265360507
 20
110.3053455316937
 10
108.0633527844677
 20
110.2183784038223
 10
108.2154860456649
 20
110.1064666318214
 10
108.3790850151046
 20
109.9676077539698
 10
108.3790850151046
 20
109.9676077539698
 10
108.5000509285439
 20
109.8625431091447
 10
108.6072579920922
 20
109.7792148633259
 10
108.7028270926264
 20
109.7176445483597
 10
108.7888252874068
 20
109.677821398323
 10
108.8673411655408
 20
109.6597346472926
 10
108.9404740820585
 20
109.6633842952684
 10
109.010301860144
 20
109.6887488104039
 10
109.0789023229809
 20
109.7358389586225
 10
109.1483855915228
 20
109.8046332080776
 10
109.2208079571073
 20
109.8951423246924
 10
109.2982795406877
 20
110.0073447766206
 10
109.3828781654479
 20
110.1412405638621
 10
109.4766924204952
 20
110.2968296864169
 10
109.5818108949364
 20
110.4741013783617
 10
109.7003114119555
 20
110.6730341078502
 10
109.8342933265829
 20
110.8936494067287
 10
109.8342933265829
 20
110.8936494067287
 10
110.0232675770813
 20
111.190272123628
 10
110.1947472023272
 20
111.4371993388866
 10
110.3508315573506
 20
111.6374993406256
 10
110.4936845927215
 20
111.7941973532733
 10
110.6254271953164
 20
111.9103293671813
 10
110.7481910179356
 20
111.9889313727011
 10
110.864107713379
 20
112.0330501261075
 10
110.9753089344465
 20
112.0456893199823
 10
111.0839370998615
 20
112.0299064765236
 10
111.1920915646543
 20
111.9887591179294
 10
111.3019362793946
 20
111.9252509367814
 10
111.4155921309591
 20
111.8424286893545
 10
111.535190772148
 20
111.7433283660001
 10
111.6628638557611
 20
111.6309859570699
 10
111.8007430345986
 20
111.5084374529154
 10
111.9509599614604
 20
111.3787188438881
 10
111.9509599614604
 20
111.3787188438881
 10
112.1043097719828
 20
111.262672957366
 10
112.2460862150304
 20
111.1816163213492
 10
112.3779580087042
 20
111.1329974120316
 10
112.5015185096426
 20
111.1142324078375
 10
112.618457967793
 20
111.1227697849608
 10
112.7303912716404
 20
111.156036487749
 10
112.838954841516
 20
111.2114271627797
 10
112.9457850977512
 20
111.2864225840167
 10
113.0525615243702
 20
111.3784281639609
 10
113.1608667120882
 20
111.4848708469597
 10
113.2723801449295
 20
111.6031775773606
 10
113.3887382432254
 20
111.7307968313576
 10
113.511566661384
 20
111.8651447873748
 10
113.642523351583
 20
112.003659155683
 10
113.7832232023074
 20
112.1437561147064
 10
113.9353349316581
 20
112.2828841406388
 10
113.9353349316581
 20
112.2828841406388
 10
114.0267160880548
 20
112.3588377290434
 10
114.111174755813
 20
112.4217645503369
 10
114.1894645495591
 20
112.4722567302969
 10
114.2624036794587
 20
112.5109494583942
 10
114.3307565260612
 20
112.5384240944833
 10
114.3953305336092
 20
112.5553265939582
 10
114.4568793167289
 20
112.5622598485198
 10
114.5162210855859
 20
112.5598159839461
 10
114.5741309866531
 20
112.5486301897076
 10
114.631384166403
 20
112.5293161234286
 10
114.688777303155
 20
112.502465910887
 10
114.7470855433817
 20
112.4687255074766
 10
114.8071163313256
 20
112.4286762730521
 10
114.8696340475362
 20
112.3829426311608
 10
114.9354353703327
 20
112.3321490053503
 10
115.0053062121111
 20
112.2768875213984
 10
115.0053062121111
 20
112.2768875213984
 10
115.0145003105515
 20
112.2699112031437
 10
115.0361182844022
 20
112.2536115953699
 10
115.068394522253
 20
112.2293129066343
 10
115.1095203490008
 20
112.1983501114179
 10
115.1576978554658
 20
112.1621120138176
 10
115.211161430238
 20
112.1219012905446
 10
115.2681023982142
 20
112.0790636820028
 10
115.3267228502146
 20
112.0349772263661
 10
115.3852787066757
 20
111.9909553662688
 10
115.4419289947246
 20
111.9483438421149
 10
115.4949081029513
 20
111.9084991602318
 10
115.5424288880992
 20
111.8727778269466
 10
115.5826934409884
 20
111.8424932848939
 10
115.6139146183624
 20
111.819012806324
 10
115.6342945110413
 20
111.8036713657178
 10
115.6420675076151
 20
111.7978147034794
 10
115.6420675076151
 20
111.7978147034794
 10
115.7648851598505
 20
111.7047971267514
 10
115.8733949001099
 20
111.6241926595103
 10
115.9696207219612
 20
111.5560120676794
 10
116.0556296826649
 20
111.500266117182
 10
116.1334134780191
 20
111.4569548080181
 10
116.2050176334378
 20
111.4261104379572
 10
116.2724769084121
 20
111.4077330069995
 10
116.3377829987399
 20
111.4018225151449
 10
116.4030244935283
 20
111.4084004942399
 10
116.4701823226521
 20
111.4274669442845
 10
116.5413127774486
 20
111.4590433971251
 10
116.6184290855623
 20
111.5031406186851
 10
116.7035767724075
 20
111.5597586089643
 10
116.7987690656284
 20
111.6289081338861
 10
116.9060407247161
 20
111.7106214912201
 10
117.0274265091616
 20
111.8048771491198
 10
117.0274265091616
 20
111.8048771491198
 10
117.0365560120626
 20
111.8116812126027
 10
117.0584646658406
 20
111.8278731611442
 10
117.0913114976227
 20
111.8521072543404
 10
117.1332663004594
 20
111.8830269858639
 10
117.1824773355547
 20
111.9192973812339
 10
117.2371251618824
 20
111.9595404022766
 10
117.2953472747233
 20
112.0023887767416
 10
117.3552919352814
 20
112.0465290619945
 10
117.4151504684535
 20
112.0905832198615
 10
117.4730496035975
 20
112.1331947440154
 10
117.5271698996868
 20
112.1730178940521
 10
117.5756596179256
 20
112.2086961636443
 10
117.616677785441
 20
112.2388730464647
 10
117.6484049612069
 20
112.2622028021093
 10
117.6689678745808
 20
112.2773289242509
 10
117.6765363186132
 20
112.2828841406388
 10
117.6765363186132
 20
112.2828841406388
 10
117.7788341211676
 20
112.3603987879121
 10
117.8692140467036
 20
112.4275781488824
 10
117.9493663451689
 20
112.4844222235495
 10
118.0210135642806
 20
112.5309417778367
 10
118.0858028902933
 20
112.5671152798976
 10
118.1454461050008
 20
112.5929750275019
 10
118.201644224274
 20
112.6085102547262
 10
118.2560659662138
 20
112.6136994297243
 10
118.3104231126142
 20
112.6085748502656
 10
118.3663843815763
 20
112.5931149845039
 10
118.4256615548939
 20
112.5673305983623
 10
118.4899341165914
 20
112.531232457764
 10
118.5609030825395
 20
112.4847990308626
 10
118.6402371708391
 20
112.4280518495046
 10
118.7296481632843
 20
112.3609801477667
 10
118.8308263098224
 20
112.2835946915721
 10
118.8308263098224
 20
112.2835946915721
 10
118.8386531360124
 20
112.2776841997175
 10
118.8593021767722
 20
112.2619121221821
 10
118.8909432251522
 20
112.2377103267556
 10
118.9317137764334
 20
112.2064891493816
 10
118.9798159214358
 20
112.1696696919268
 10
119.033376389517
 20
112.1286515244113
 10
119.0905757396508
 20
112.0848342168554
 10
119.1495622330412
 20
112.039649637049
 10
119.2084948968154
 20
111.9944973550122
 10
119.2655435240239
 20
111.9507769407654
 10
119.318867141794
 20
111.9099094961752
 10
119.3666032454065
 20
111.8733268890315
 10
119.4069431597584
 20
111.842407157508
 10
119.4380351460536
 20
111.8185714034714
 10
119.4580489973426
 20
111.8032407287885
 10
119.4651222089063
 20
111.7978147034794
 10
119.4651222089063
 20
111.7978147034794
 10
119.5863788022729
 20
111.7047971267514
 10
119.6935535680516
 20
111.6241818935871
 10
119.7886382020402
 20
111.5559690039865
 10
119.8736889955762
 20
111.5001476920265
 10
119.9506976444576
 20
111.4567394895534
 10
120.0217204400219
 20
111.4257443965673
 10
120.0887706099133
 20
111.4071408812217
 10
120.1538829136229
 20
111.4009397094398
 10
120.2190705787952
 20
111.4071408812217
 10
120.2863468330745
 20
111.4257443965673
 10
120.3577679677983
 20
111.4567502554766
 10
120.4353364446878
 20
111.5001584579497
 10
120.5210870232339
 20
111.5559690039865
 10
120.6170436970044
 20
111.6241818935871
 10
120.7252196936436
 20
111.7047971267514
 10
120.8476605385658
 20
111.7978147034794
 10
120.8476605385658
 20
111.7978147034794
 10
120.8548306434386
 20
111.8032837924814
 10
120.8744999851842
 20
111.818409914623
 10
120.904924484239
 20
111.8418365635767
 10
120.9443600610393
 20
111.8721964670921
 10
120.9910411041751
 20
111.9081438847651
 10
121.0432558318522
 20
111.9483546080381
 10
121.0992063348911
 20
111.9914613646607
 10
121.1571808314976
 20
112.0361184142287
 10
121.2154029443385
 20
112.080969250415
 10
121.2721501256965
 20
112.1246788987385
 10
121.3256459982383
 20
112.1658693210257
 10
121.3741680142468
 20
112.2032270746422
 10
121.4159397963886
 20
112.2353741214142
 10
121.4492387969464
 20
112.2609754868608
 10
121.472288638587
 20
112.2786746646549
 10
121.4833667735931
 20
112.2871259143924
 10
121.4833667735931
 20
112.2871259143924
 10
121.5871502735536
 20
112.3633163531081
 10
121.6793819378856
 20
112.4294083558319
 10
121.7616766550742
 20
112.4853803907172
 10
121.8357246750667
 20
112.5312539896105
 10
121.9031516522712
 20
112.5669430251259
 10
121.9656478366354
 20
112.59246902911
 10
122.0248281166439
 20
112.6077997037929
 10
122.0823719763212
 20
112.6129135173283
 10
122.1399481337681
 20
112.6077997037929
 10
122.1991822433928
 20
112.5924151994938
 10
122.2617537892196
 20
112.5667492385077
 10
122.3292991915797
 20
112.5308018208347
 10
122.4034871685742
 20
112.4845298827818
 10
122.4859756723809
 20
112.4279118925026
 10
122.5784118892544
 20
112.360947849997
 10
122.6824537713724
 20
112.2835946915721
 10
122.6824537713724
 20
112.2835946915721
 10
122.693273524221
 20
112.275251101067
 10
122.715602049005
 20
112.2577026461982
 10
122.7477598617002
 20
112.2323165992162
 10
122.7880674782824
 20
112.2003956368321
 10
122.8348454147272
 20
112.1633177972196
 10
122.8864141870104
 20
112.122428820783
 10
122.9410835451846
 20
112.0790313842331
 10
122.9971740052254
 20
112.0344927598207
 10
123.0530060831087
 20
111.9901479220264
 10
123.1068895288869
 20
111.9473426112543
 10
123.157155624459
 20
111.9074010360621
 10
123.2021141198776
 20
111.8716904687002
 10
123.2400747651951
 20
111.8415243518029
 10
123.2693688423104
 20
111.8182699576209
 10
123.2883168671995
 20
111.8032514947117
 10
123.2952285899147
 20
111.7978147034794
 10
123.2952285899147
 20
111.7978147034794
 10
123.4176586689136
 20
111.7047971267514
 10
123.5258561973994
 20
111.6241818935871
 10
123.6218021052466
 20
111.5559690039865
 10
123.7075526837927
 20
111.5001476920265
 10
123.7851211606822
 20
111.4567394895534
 10
123.8565315294828
 20
111.4257443965673
 10
123.9238293156086
 20
111.4071408812217
 10
123.9890062148576
 20
111.4009397094398
 10
124.0541185185672
 20
111.4071408812217
 10
124.1211579225354
 20
111.4257443965673
 10
124.1921807180996
 20
111.4567502554766
 10
124.2692108988275
 20
111.5001584579497
 10
124.3542509264403
 20
111.5559690039865
 10
124.4493463263522
 20
111.6241818935871
 10
124.5565103262076
 20
111.7047971267514
 10
124.6777669195742
 20
111.7978147034794
 10
124.6777669195742
 20
111.7978147034794
 10
124.6848401311379
 20
111.8032299628653
 10
124.7048432165037
 20
111.8185714034714
 10
124.7359459687222
 20
111.842407157508
 10
124.7762751171508
 20
111.8733268890315
 10
124.8240327526097
 20
111.9099094961752
 10
124.8773456044566
 20
111.9507661748422
 10
124.9343942316652
 20
111.994486589089
 10
124.9933268954394
 20
112.039649637049
 10
125.0523133888297
 20
112.0848449827786
 10
125.1095019730403
 20
112.1286515244113
 10
125.1630732070448
 20
112.16968045785
 10
125.2111645861239
 20
112.2064999153048
 10
125.2519566692515
 20
112.2377210926788
 10
125.2835977176316
 20
112.2619121221821
 10
125.3042467583913
 20
112.2776734337943
 10
125.3120628186581
 20
112.2835946915721
 10
125.3120628186581
 20
112.2835946915721
 10
125.413230199273
 20
112.3609909136899
 10
125.5026519576414
 20
112.4280518495046
 10
125.5819860459411
 20
112.4847990308626
 10
125.6529550118891
 20
112.5312216918408
 10
125.7172275735866
 20
112.5673305983623
 10
125.7765262787507
 20
112.5931257504271
 10
125.832498313636
 20
112.6085640843424
 10
125.8868662259596
 20
112.6137101956475
 10
125.9413094997459
 20
112.6085102547262
 10
125.9975183849423
 20
112.5929857934251
 10
126.0572046633428
 20
112.5671260458209
 10
126.1220262871252
 20
112.5309417778367
 10
126.1937058040065
 20
112.4844222235495
 10
126.273911932088
 20
112.4275781488824
 10
126.3643456872402
 20
112.3603987879121
 10
126.4666973194107
 20
112.2828841406388
 10
126.4666973194107
 20
112.2828841406388
 10
126.474211933827
 20
112.2773181583276
 10
126.4947210175847
 20
112.2622028021093
 10
126.5263943637344
 20
112.2388730464647
 10
126.5673802334802
 20
112.2086961636443
 10
126.6158268880261
 20
112.1730178940521
 10
126.6699256522689
 20
112.1331947440154
 10
126.7278032555664
 20
112.0905724539383
 10
126.7876402568921
 20
112.0465290619945
 10
126.8475849174501
 20
112.0023995426648
 10
126.9057854984446
 20
111.9595296363534
 10
126.9604117929258
 20
111.9192973812339
 10
127.0096335939444
 20
111.8830377517871
 10
127.0515776308578
 20
111.8521180202636
 10
127.0844352285632
 20
111.8278731611442
 10
127.1063438823411
 20
111.8116812126027
 10
127.115462619319
 20
111.8048771491198
 10
127.115462619319
 20
111.8048771491198
 10
127.2368484037644
 20
111.7106214912201
 10
127.3441200628521
 20
111.6289081338861
 10
127.4393123560731
 20
111.5597478430411
 10
127.5244708088414
 20
111.5031298527619
 10
127.6015763510319
 20
111.4590433971251
 10
127.6727283376749
 20
111.4274777102077
 10
127.7399076986452
 20
111.4083897283166
 10
127.8051384275103
 20
111.4018225151449
 10
127.8704875815311
 20
111.4077330069995
 10
127.9379576224286
 20
111.4261212038804
 10
128.009594075617
 20
111.4569655739413
 10
128.0874101687409
 20
111.500266117182
 10
128.1734514272143
 20
111.5560120676794
 10
128.2697418446049
 20
111.6241926595103
 10
128.3783054144806
 20
111.7047971267514
 10
128.5011768963321
 20
111.7978147034794
 10
128.5011768963321
 20
111.7978147034794
 10
128.50886376552
 20
111.8036605997946
 10
128.5292113604293
 20
111.819012806324
 10
128.5603894741103
 20
111.8424932848939
 10
128.6006109633066
 20
111.8727670610234
 10
128.6480994506848
 20
111.9084991602318
 10
128.7010462611417
 20
111.9483438421149
 10
128.7576857832674
 20
111.9909553662688
 10
128.8162093419588
 20
112.0349664604429
 10
128.874819028036
 20
112.0790744479261
 10
128.931749230089
 20
112.1219012905446
 10
128.9852020389379
 20
112.1621120138176
 10
129.033379545403
 20
112.1983608773411
 10
129.0744946062275
 20
112.2293129066343
 10
129.1067600781551
 20
112.2536115953699
 10
129.128388817929
 20
112.269921969067
 10
129.1375829163695
 20
112.2768875213984
 10
129.1375829163695
 20
112.2768875213984
 10
129.2073999285316
 20
112.3321382394271
 10
129.2731474217119
 20
112.3829426311608
 10
129.3356436060761
 20
112.4286655071289
 10
129.3956420962503
 20
112.4687147415534
 10
129.453950336477
 20
112.502465910887
 10
129.511343473229
 20
112.5293161234286
 10
129.5686181848254
 20
112.5486301897076
 10
129.6265388518158
 20
112.5598159839461
 10
129.6858913865961
 20
112.5622598485198
 10
129.7474617015622
 20
112.5553265939582
 10
129.8120572409567
 20
112.5384240944833
 10
129.8804316194057
 20
112.5109494583942
 10
129.9533922811517
 20
112.4722567302969
 10
130.0317036067443
 20
112.4217645503369
 10
130.1161622745025
 20
112.3588484949667
 10
130.2075541968225
 20
112.2828841406388
 10
130.2075541968225
 20
112.2828841406388
 10
130.3596659261732
 20
112.1437561147064
 10
130.5003765428208
 20
112.003659155683
 10
130.6313224670965
 20
111.8651447873748
 10
130.7541616511783
 20
111.7307968313576
 10
130.870508983551
 20
111.6031775773606
 10
130.982011650469
 20
111.4848600810365
 10
131.0903383700335
 20
111.3784281639609
 10
131.1970932648061
 20
111.2864225840167
 10
131.3039342869645
 20
111.2114271627797
 10
131.4124978568402
 20
111.1560257218258
 10
131.5244311606875
 20
111.1227697849608
 10
131.6413598529147
 20
111.1142431737608
 10
131.7649418856996
 20
111.1329974120316
 10
131.8968029134501
 20
111.1816163213492
 10
132.0385793564977
 20
111.2626621914428
 10
132.1919291670201
 20
111.3787188438881
 10
132.1919291670201
 20
111.3787188438881
 10
132.3421460938819
 20
111.5084482188387
 10
132.4800252727194
 20
111.6309859570699
 10
132.6076983563325
 20
111.7433283660001
 10
132.7272969975214
 20
111.8424286893545
 10
132.8409528490859
 20
111.9252509367814
 10
132.950786797903
 20
111.9887591179294
 10
133.0589627945422
 20
112.0299280083701
 10
133.167580194034
 20
112.0456893199823
 10
133.2787814151015
 20
112.033028594261
 10
133.3946981105449
 20
111.9889313727011
 10
133.517461933164
 20
111.9103293671813
 10
133.6492045357591
 20
111.7941973532733
 10
133.7920575711299
 20
111.6374993406256
 10
133.9481526920766
 20
111.4371993388866
 10
134.1196215513992
 20
111.1902613577048
 10
134.3085958018976
 20
110.8936494067287
 10
134.3085958018976
 20
110.8936494067287
 10
134.442577716525
 20
110.6730448737734
 10
134.5610674676209
 20
110.4741013783617
 10
134.6661644102157
 20
110.2968296864169
 10
134.7599571334164
 20
110.1412405638621
 10
134.8445449922535
 20
110.0073447766206
 10
134.9219842780642
 20
109.8951423246924
 10
134.9943958777254
 20
109.8046332080776
 10
135.0638468484976
 20
109.7358389586225
 10
135.1324365454113
 20
109.6887488104039
 10
135.2022535575735
 20
109.6633842952684
 10
135.2753864740912
 20
109.6597346472926
 10
135.3539131181485
 20
109.677821398323
 10
135.4399328447754
 20
109.7176445483597
 10
135.5355342430792
 20
109.7792148633259
 10
135.6427843703204
 20
109.8625323432215
 10
135.763804113376
 20
109.9676077539698
 10
135.763804113376
 20
109.9676077539698
 10
135.9274030828157
 20
110.1064666318214
 10
136.0795363440128
 20
110.2183784038223
 10
136.2206130020503
 20
110.3053562976169
 10
136.3510959916271
 20
110.3693812430801
 10
136.4713513541331
 20
110.4124772337794
 10
136.5818420242674
 20
110.4366574973594
 10
136.6829555752661
 20
110.4439029636948
 10
136.775133409982
 20
110.4362268604301
 10
136.8587846334978
 20
110.4156316492865
 10
136.9343183508964
 20
110.3841197919852
 10
137.0021867309535
 20
110.3436937502475
 10
137.0627773469055
 20
110.2963667517179
 10
137.1165208356817
 20
110.2441304921942
 10
137.1638478342114
 20
110.1889874333978
 10
137.2051674475774
 20
110.1329508029731
 10
137.2408887808625
 20
110.0780230626414
 10
137.2408887808625
 20
110.0780230626414
 10
137.5088095464242
 20
109.6353390652479
 10
137.7735974283253
 20
109.1830626302544
 10
138.0330238804567
 20
108.7245957894023
 10
138.2848818885557
 20
108.2633513403562
 10
138.5269429065132
 20
107.8027313148575
 10
138.7569999200666
 20
107.3461377446478
 10
138.9728243831067
 20
106.8969726614685
 10
139.1722092813709
 20
106.4586165652145
 10
139.3529260687501
 20
106.0344930194737
 10
139.5127569650584
 20
105.6280148219109
 10
139.6494949560333
 20
105.2425624724209
 10
139.7609007296422
 20
104.8815487686685
 10
139.8447672716227
 20
104.5483649764719
 10
139.8988768017888
 20
104.246434659419
 10
139.9210007740314
 20
103.979149083328
 10
139.9089429400111
 20
103.7498995140171
 10
139.9089429400111
 20
103.7498995140171
 10
139.884202848423
 20
103.6152178143796
 10
139.8517543558006
 20
103.5000977972555
 10
139.8121249923821
 20
103.4039688687133
 10
139.7658961180221
 20
103.3262496688985
 10
139.713595262959
 20
103.2663480720334
 10
139.6557714892778
 20
103.2237042501098
 10
139.5929953909096
 20
103.1977045455036
 10
139.5257837321697
 20
103.1877891302065
 10
139.454696341066
 20
103.1933766443641
 10
139.3802822796836
 20
103.2138749621986
 10
139.3031121419537
 20
103.2487134897787
 10
139.2236919262683
 20
103.2973108672498
 10
139.1425922265585
 20
103.3590749688341
 10
139.0603621049094
 20
103.4334352006004
 10
138.9775506234057
 20
103.519810202694
 10
138.8947068441323
 20
103.6176078493372
 10
138.8947068441323
 20
103.6176078493372
 10
138.7648590440262
 20
103.7738752250556
 10
138.5971690237582
 20
103.9654332971299
 10
138.3956847704637
 20
104.1874374001054
 10
138.164411207585
 20
104.4350213366811
 10
137.907364024488
 20
104.7033081436328
 10
137.6285804423848
 20
104.9874531555057
 10
137.332076150641
 20
105.2825794090758
 10
137.0218560726991
 20
105.5838207070418
 10
136.7019466638481
 20
105.8863108521028
 10
136.3763743793768
 20
106.1852159447274
 10
136.0491656745742
 20
106.4756374898449
 10
135.7243254728827
 20
106.7527200560774
 10
135.405869463668
 20
107.0116082120472
 10
135.0978348681423
 20
107.2474465263763
 10
134.8042266097481
 20
107.4553472699174
 10
134.5290819096974
 20
107.6304550112925
 10
134.5290819096974
 20
107.6304550112925
 10
134.2507612622932
 20
107.7898122069786
 10
133.947894309919
 20
107.9524099455577
 10
133.624884315177
 20
108.1162995949247
 10
133.286123774746
 20
108.2795540548209
 10
132.9360051853049
 20
108.4402462249879
 10
132.5789210435323
 20
108.5964382392437
 10
132.2192853779537
 20
108.7461922314065
 10
131.8614691534013
 20
108.8875811012177
 10
131.5098756324773
 20
109.0186669824955
 10
131.1689080777837
 20
109.1375120090581
 10
130.8429589859992
 20
109.2421890806468
 10
130.5364208538029
 20
109.3307603310798
 10
130.2536969437966
 20
109.4012986600986
 10
129.9991689867359
 20
109.4518769674444
 10
129.7772402452231
 20
109.4805358550891
 10
129.5923139818599
 20
109.4853589886973
 10
127.0403164751567
 20
109.4931212193478
 10
126.9209116205861
 20
109.4858434552427
 10
126.8101195046014
 20
109.4641608858526
 10
126.707821702047
 20
109.4286333391857
 10
126.6138890218442
 20
109.3798529410196
 10
126.5281922729143
 20
109.3183795193626
 10
126.4505914982551
 20
109.2448159659155
 10
126.3809682727111
 20
109.1597328746098
 10
126.3191934052035
 20
109.0637116052999
 10
126.2651377046536
 20
108.9573227519173
 10
126.2186719799825
 20
108.8411584402396
 10
126.1796670401115
 20
108.7157892641982
 10
126.1479936939617
 20
108.5817965836476
 10
126.1235227504545
 20
108.4397725243657
 10
126.1061357844341
 20
108.2902876802837
 10
126.0956820729755
 20
108.1339126453329
 10
126.0920539568461
 20
107.9712395452912
 10
126.0927537418562
 20
107.4575973478729
 10
126.0968986223007
 20
107.3989661299493
 10
126.1085150534685
 20
107.3442537080821
 10
126.126881718503
 20
107.2934277845019
 10
126.1512557687011
 20
107.2464775932854
 10
126.1808512916671
 20
107.2033923685093
 10
126.2149362046209
 20
107.1641613442504
 10
126.2527461270131
 20
107.1287414568158
 10
126.2935382101407
 20
107.0971434721287
 10
126.3365373075309
 20
107.0693350924194
 10
126.3810005704808
 20
107.0453163176878
 10
126.4261851502872
 20
107.0250440842412
 10
126.4713266664007
 20
107.0085291580027
 10
126.515671504195
 20
106.9957392412026
 10
126.5584660490438
 20
106.9866635679177
 10
126.5989566863209
 20
106.9812806063015
 10
126.6363898014
 20
106.9795795904308
 10
126.6363898014
 20
106.9795795904308
 10
126.6757607826609
 20
106.9817543069237
 10
126.7160145696269
 20
106.9879985423985
 10
126.7567312912918
 20
106.9982154035461
 10
126.7974587788801
 20
107.0123725925967
 10
126.8377233317693
 20
107.030362450318
 10
126.8770943130302
 20
107.0521742107869
 10
126.9150980220406
 20
107.0777002147709
 10
126.9512930559479
 20
107.1068973985772
 10
126.9852164800533
 20
107.1396904007431
 10
127.0164376574273
 20
107.1760253916525
 10
127.0444936533709
 20
107.2158270098428
 10
127.0689322991085
 20
107.2590306597744
 10
127.0893014258642
 20
107.3055825118313
 10
127.1051488648623
 20
107.3554179704742
 10
127.1160116814038
 20
107.4084616742402
 10
127.1214592385594
 20
107.4646490275902
 10
127.1214592385594
 20
107.4646490275902
 10
127.1263684995534
 20
107.5176066039704
 10
127.1357671505353
 20
107.5685509527062
 10
127.1494829367334
 20
107.617277521256
 10
127.1672467100668
 20
107.663646352618
 10
127.188886215764
 20
107.707420596481
 10
127.2141646035137
 20
107.748460295843
 10
127.2428665548513
 20
107.7865501322392
 10
127.2747875172354
 20
107.8215393827446
 10
127.3097014062781
 20
107.8532019629711
 10
127.3473929035147
 20
107.8813871499935
 10
127.387657456404
 20
107.9059011571937
 10
127.4302689805578
 20
107.9265609638767
 10
127.475022923435
 20
107.9431835493476
 10
127.5216932006475
 20
107.9555966588345
 10
127.5700644937307
 20
107.9635957397962
 10
127.6199322501432
 20
107.9670085374609
 10
127.6199322501432
 20
107.9670085374609
 10
127.6681205225315
 20
107.9652106282811
 10
127.7151137774409
 20
107.957932864176
 10
127.760653632714
 20
107.945476690996
 10
127.8044924721164
 20
107.9282189160545
 10
127.8463396157208
 20
107.9064502192786
 10
127.8859366813696
 20
107.8805258761349
 10
127.9230468187517
 20
107.8507688643206
 10
127.9573685820166
 20
107.8175236933789
 10
127.9886435890067
 20
107.7811025750836
 10
128.0166026916413
 20
107.741839253055
 10
128.0409982736859
 20
107.7000782368365
 10
128.0615504211366
 20
107.6561532700483
 10
128.0780007518358
 20
107.6103873303873
 10
128.0900801177025
 20
107.5631141614738
 10
128.0975193706561
 20
107.5146567410047
 10
128.1000601285389
 20
107.4653595785235
 10
128.1000601285389
 20
105.4587529768509
 10
124.5631098371491
 20
103.6617050708972
 10
123.1079015256708
 20
103.6617050708972
 10
123.1079015256708
 20
105.4696911548551
 10
123.3014082298501
 20
105.6019612876884
 10
123.474793423508
 20
105.7940468900011
 10
123.6249780526002
 20
106.0365170130414
 10
123.7489368926981
 20
106.3199407080578
 10
123.8435478260645
 20
106.6348870262987
 10
123.9057856282711
 20
106.9719250190125
 10
123.9325497134269
 20
107.3216345033709
 10
123.9207933252571
 20
107.6745522328525
 10
123.8674374097172
 20
108.0212795564754
 10
123.7694029127629
 20
108.352374759565
 10
123.6236538440426
 20
108.6584068933694
 10
123.4270896176652
 20
108.9299450091373
 10
123.1766527114329
 20
109.1575581581168
 10
122.8692856031476
 20
109.3318153915566
 10
122.5019092387649
 20
109.443285760705
 10
122.0714445642403
 20
109.4825383168103
  0
HATCH
  5
81
330
1F
100
AcDbEntity
  8
ISS138金台
  6
Continuous
 62
     7
420
 16777215
370
    25
100
AcDbHatch
 10
0.0
 20
0.0
 30
0.0
210
0.0
220
0.0
230
1.0
  2
SOLID
 70
     1
 71
     0
 91
        1
 92
        3
 72
     0
 73
     1
 93
      212
 10
122.1237992489195
 20
103.7004623945338
 10
126.5652701125267
 20
103.6796518649256
 10
126.7132154295865
 20
103.687177245265
 10
126.8591152212321
 20
103.7090966649662
 10
127.0018928951403
 20
103.7448179982514
 10
127.140525688604
 20
103.7938029489588
 10
127.2739370093
 20
103.8554270935411
 10
127.401093328598
 20
103.9291413699135
 10
127.5209395860212
 20
104.0143428863747
 10
127.632431487016
 20
104.1104825808401
 10
127.7345032051825
 20
104.2169575616087
 10
127.8261319778135
 20
104.333197234749
 10
127.9062304466627
 20
104.4586310063298
 10
127.973786614946
 20
104.5926559846501
 10
128.0277238903404
 20
104.7347231076249
 10
128.0670087442155
 20
104.8842402494766
 10
128.0905753501712
 20
105.0406260503506
 10
128.0973901795773
 20
105.2032991503923
 10
128.0973901795773
 20
107.4741230400347
 10
128.0945264439975
 20
107.523237181821
 10
128.0862151512621
 20
107.5711886038981
 10
128.0727577472215
 20
107.6176866263389
 10
128.0545202732658
 20
107.6624513351392
 10
128.0318580048616
 20
107.7051812844487
 10
128.0050939197059
 20
107.7456073261864
 10
127.9746048251117
 20
107.7834387804251
 10
127.9407136987761
 20
107.8183849672375
 10
127.9037758161657
 20
107.850187504466
 10
127.8641464527472
 20
107.8785341803369
 10
127.8221485862175
 20
107.9031450808462
 10
127.7781482579667
 20
107.9237402919898
 10
127.732489977538
 20
107.9400291338404
 10
127.6855290203982
 20
107.9517424583173
 10
127.6375883642443
 20
107.9585788195699
 10
127.5890340504662
 20
107.9602583035942
 10
127.5890340504662
 20
107.9602583035942
 10
127.5395431013668
 20
107.957006994778
 10
127.4921084436048
 20
107.9494708485153
 10
127.4468377364125
 20
107.9378005877313
 10
127.4038924686384
 20
107.9221254035049
 10
127.3634018313613
 20
107.9025852528381
 10
127.3255165475065
 20
107.8793200927329
 10
127.2903442763062
 20
107.8524806461145
 10
127.2580357406857
 20
107.8221745722153
 10
127.2287416635704
 20
107.7885956576534
 10
127.2025804701156
 20
107.7518407957379
 10
127.1796813514003
 20
107.712049943471
 10
127.1602057962728
 20
107.6693953556241
 10
127.1442829958121
 20
107.6239846914298
 10
127.1320313751736
 20
107.5759794397365
 10
127.1236016572827
 20
107.525508791623
 10
127.1191337991412
 20
107.4727127040913
 10
127.1191337991412
 20
107.4727127040913
 10
127.1133202005957
 20
107.4164607552019
 10
127.101520748733
 20
107.3630402441227
 10
127.0842737397147
 20
107.3125050004698
 10
127.0621067037791
 20
107.2650165130916
 10
127.0355687030112
 20
107.2206824412206
 10
127.0051657358029
 20
107.1795996781657
 10
126.971446864239
 20
107.1418758831593
 10
126.9349396185579
 20
107.107629481357
 10
126.8961822949212
 20
107.0769896638376
 10
126.8557024235674
 20
107.0500533239101
 10
126.814038300658
 20
107.0269281208069
 10
126.7717174564314
 20
107.0077324796835
 10
126.7292781870492
 20
106.9925740597723
 10
126.6872480227499
 20
106.9815712862288
 10
126.6461544937718
 20
106.9748318182853
 10
126.6065466621997
 20
106.9724740810974
 10
126.6065466621997
 20
106.9724740810974
 10
126.5693503974318
 20
106.974358117663
 10
126.5296887362436
 20
106.9802578435944
 10
126.4882076340291
 20
106.9901301951985
 10
126.445585343952
 20
107.0039536406289
 10
126.4025001191759
 20
107.0216851161927
 10
126.3596302128644
 20
107.0433030900434
 10
126.3176215804116
 20
107.0687752644113
 10
126.2771847727506
 20
107.0980693415267
 10
126.2389657452756
 20
107.1311422576966
 10
126.2036642829965
 20
107.1679724810747
 10
126.1719263413074
 20
107.2085277138912
 10
126.1444301733718
 20
107.2527756583764
 10
126.1218647982767
 20
107.3006732508374
 10
126.1048977032624
 20
107.3522097253509
 10
126.0941856096461
 20
107.4073312523008
 10
126.090428302438
 20
107.4660162998407
 10
126.0893732419613
 20
107.9800137727256
 10
126.0926891463168
 20
108.1424607883794
 10
126.1022600520704
 20
108.2982867612453
 10
126.118268979917
 20
108.4469856929314
 10
126.140963546091
 20
108.5879977554295
 10
126.1705375372104
 20
108.7208061844245
 10
126.2071955058167
 20
108.8448619178315
 10
126.2511635362979
 20
108.959626659489
 10
126.3026354152721
 20
109.0645728791585
 10
126.3618156952806
 20
109.1591730466017
 10
126.4289519925579
 20
109.2428780997337
 10
126.5042273277989
 20
109.3151605083161
 10
126.587846253545
 20
109.375471210264
 10
126.6800456201074
 20
109.4232826753392
 10
126.7810192141042
 20
109.4580673733031
 10
126.8909715880768
 20
109.4792654761477
 10
127.0101288264131
 20
109.4863709854811
 10
129.6012819959126
 20
109.480019090774
 10
129.6069233396863
 20
102.4678610777321
 10
122.2560909135993
 20
102.4678610777321
 10
122.1237992489195
 20
102.6661155540569
 10
121.9915075842396
 20
102.4678610777321
 10
114.6410304336193
 20
102.4678610777321
 10
114.6459719923829
 20
109.480019090774
 10
117.2374696714259
 20
109.4863709854811
 10
117.3566269097622
 20
109.4792762420709
 10
117.466590049658
 20
109.4580566073798
 10
117.5675528777315
 20
109.4232719094159
 10
117.6597522442939
 20
109.375471210264
 10
117.7433819359633
 20
109.3151497423929
 10
117.8186572712042
 20
109.2428780997337
 10
117.8857720366351
 20
109.1591730466017
 10
117.9449738484901
 20
109.0645728791585
 10
117.9964457274643
 20
108.959626659489
 10
118.0404029920222
 20
108.8448619178315
 10
118.0770609606285
 20
108.7207954185012
 10
118.106634951748
 20
108.5879977554295
 10
118.1293187519987
 20
108.4469749270081
 10
118.1453492116917
 20
108.2982867612453
 10
118.1549093515221
 20
108.1424500224562
 10
118.1582252558777
 20
107.9800137727256
 10
118.1571701954009
 20
107.4660162998407
 10
118.1534128881928
 20
107.4073312523008
 10
118.1427007945765
 20
107.3522097253509
 10
118.1257336995623
 20
107.3006732508374
 10
118.1031575585439
 20
107.2527648924531
 10
118.0756829224548
 20
107.2085277138912
 10
118.0439449807657
 20
107.1679724810747
 10
118.0086327525633
 20
107.1311422576966
 10
117.9704137250883
 20
107.0980585756034
 10
117.9299769174274
 20
107.0687752644113
 10
117.8879790508977
 20
107.0433138559666
 10
117.8450983786631
 20
107.0216851161927
 10
117.8020131538869
 20
107.0039536406289
 10
117.7593908638098
 20
106.9901301951985
 10
117.7179097615954
 20
106.9802578435944
 10
117.6782373344839
 20
106.974358117663
 10
117.6410518356392
 20
106.9724740810974
 10
117.6410518356392
 20
106.9724740810974
 10
117.6014440040672
 20
106.9748318182853
 10
117.5603612410123
 20
106.9815605203055
 10
117.5183203107897
 20
106.9925740597723
 10
117.4758810414076
 20
107.0077217137603
 10
117.433560197181
 20
107.0269281208069
 10
117.3918960742715
 20
107.0500425579869
 10
117.3514269688409
 20
107.0769896638376
 10
117.3126696452043
 20
107.107629481357
 10
117.2761516335999
 20
107.1418758831593
 10
117.2424435279593
 20
107.1795889122425
 10
117.2120405607509
 20
107.2206716752973
 10
117.1854917940598
 20
107.2650272790149
 10
117.1633247581243
 20
107.3125050004698
 10
117.1460777491059
 20
107.3630294781995
 10
117.1342782972432
 20
107.4164607552019
 10
117.1284646986977
 20
107.4727127040913
 10
117.1284646986977
 20
107.4727127040913
 10
117.1239968405563
 20
107.525508791623
 10
117.1155671226653
 20
107.5759902056598
 10
117.1033155020268
 20
107.6239846914298
 10
117.0873927015661
 20
107.6693953556241
 10
117.0679063805154
 20
107.712049943471
 10
117.0450072618001
 20
107.7518300298147
 10
117.0188353024221
 20
107.7885956576534
 10
116.9895196934603
 20
107.8221745722153
 10
116.9571896259933
 20
107.8524698801913
 10
116.9220065888698
 20
107.8793200927329
 10
116.884078241322
 20
107.9025852528381
 10
116.8435553062752
 20
107.9221254035049
 10
116.8005777407315
 20
107.9378005877313
 10
116.7552639698463
 20
107.9494816144385
 10
116.7077647165449
 20
107.957006994778
 10
116.6582091719061
 20
107.9602583035942
 10
116.6582091719061
 20
107.9602583035942
 10
116.6097194536673
 20
107.9585680536467
 10
116.561854158976
 20
107.9517424583173
 10
116.5149470314524
 20
107.9400291338404
 10
116.4693533465632
 20
107.9237295260666
 10
116.4254176138517
 20
107.9031450808462
 10
116.3834951087847
 20
107.8785341803369
 10
116.3438980431359
 20
107.850187504466
 10
116.3070139901417
 20
107.8183957331607
 10
116.2731766934222
 20
107.7834387804251
 10
116.242730662521
 20
107.7456073261864
 10
116.2160096410581
 20
107.7051812844487
 10
116.1933689045003
 20
107.6624513351392
 10
116.1751637283144
 20
107.6176866263389
 10
116.1617278561203
 20
107.5711886038981
 10
116.1534165633849
 20
107.5232479477442
 10
116.1505635937283
 20
107.4741230400347
 10
116.1505635937283
 20
105.2032991503923
 10
116.1573784231344
 20
105.0406152844274
 10
116.1809450290902
 20
104.8842402494766
 10
116.2202298829652
 20
104.7347231076249
 10
116.2741671583596
 20
104.5926559846501
 10
116.3417125607197
 20
104.4586310063298
 10
116.4218110295688
 20
104.3332080006722
 10
116.5134290362766
 20
104.2169575616087
 10
116.6154792225967
 20
104.1104825808401
 10
116.7269603576682
 20
104.0143428863747
 10
116.8467743173217
 20
103.9291306039902
 10
116.97389833885
 20
103.8554270935411
 10
117.1072773617764
 20
103.7937921830356
 10
117.2458670915472
 20
103.7448179982514
 10
117.3886017017624
 20
103.7090966649662
 10
117.5344368978686
 20
103.687177245265
 10
117.6823283853122
 20
103.6796518649256
 97
        0
 75
     1
 76
     1
 98
        0
  0
LWPOLYLINE
  5
82
330
1F
100
AcDbEntity
  8
ISS138金台
  6
Continuous
 62
   250
420
  2367521
370
    25
100
AcDbPolyline
 90
      213
 70
     0
 43
0.0
 10
122.1237992489195
 20
103.7004623945338
 10
126.5652701125267
 20
103.6796518649256
 10
126.7132154295865
 20
103.687177245265
 10
126.8591152212321
 20
103.7090966649662
 10
127.0018928951403
 20
103.7448179982514
 10
127.140525688604
 20
103.7938029489588
 10
127.2739370093
 20
103.8554270935411
 10
127.401093328598
 20
103.9291413699135
 10
127.5209395860212
 20
104.0143428863747
 10
127.632431487016
 20
104.1104825808401
 10
127.7345032051825
 20
104.2169575616087
 10
127.8261319778135
 20
104.333197234749
 10
127.9062304466627
 20
104.4586310063298
 10
127.973786614946
 20
104.5926559846501
 10
128.0277238903404
 20
104.7347231076249
 10
128.0670087442155
 20
104.8842402494766
 10
128.0905753501712
 20
105.0406260503506
 10
128.0973901795773
 20
105.2032991503923
 10
128.0973901795773
 20
107.4741230400347
 10
128.0945264439975
 20
107.523237181821
 10
128.0862151512621
 20
107.5711886038981
 10
128.0727577472215
 20
107.6176866263389
 10
128.0545202732658
 20
107.6624513351392
 10
128.0318580048616
 20
107.7051812844487
 10
128.0050939197059
 20
107.7456073261864
 10
127.9746048251117
 20
107.7834387804251
 10
127.9407136987761
 20
107.8183849672375
 10
127.9037758161657
 20
107.850187504466
 10
127.8641464527472
 20
107.8785341803369
 10
127.8221485862175
 20
107.9031450808462
 10
127.7781482579667
 20
107.9237402919898
 10
127.732489977538
 20
107.9400291338404
 10
127.6855290203982
 20
107.9517424583173
 10
127.6375883642443
 20
107.9585788195699
 10
127.5890340504662
 20
107.9602583035942
 10
127.5890340504662
 20
107.9602583035942
 10
127.5395431013668
 20
107.957006994778
 10
127.4921084436048
 20
107.9494708485153
 10
127.4468377364125
 20
107.9378005877313
 10
127.4038924686384
 20
107.9221254035049
 10
127.3634018313613
 20
107.9025852528381
 10
127.3255165475065
 20
107.8793200927329
 10
127.2903442763062
 20
107.8524806461145
 10
127.2580357406857
 20
107.8221745722153
 10
127.2287416635704
 20
107.7885956576534
 10
127.2025804701156
 20
107.7518407957379
 10
127.1796813514003
 20
107.712049943471
 10
127.1602057962728
 20
107.6693953556241
 10
127.1442829958121
 20
107.6239846914298
 10
127.1320313751736
 20
107.5759794397365
 10
127.1236016572827
 20
107.525508791623
 10
127.1191337991412
 20
107.4727127040913
 10
127.1191337991412
 20
107.4727127040913
 10
127.1133202005957
 20
107.4164607552019
 10
127.101520748733
 20
107.3630402441227
 10
127.0842737397147
 20
107.3125050004698
 10
127.0621067037791
 20
107.2650165130916
 10
127.0355687030112
 20
107.2206824412206
 10
127.0051657358029
 20
107.1795996781657
 10
126.971446864239
 20
107.1418758831593
 10
126.9349396185579
 20
107.107629481357
 10
126.8961822949212
 20
107.0769896638376
 10
126.8557024235674
 20
107.0500533239101
 10
126.814038300658
 20
107.0269281208069
 10
126.7717174564314
 20
107.0077324796835
 10
126.7292781870492
 20
106.9925740597723
 10
126.6872480227499
 20
106.9815712862288
 10
126.6461544937718
 20
106.9748318182853
 10
126.6065466621997
 20
106.9724740810974
 10
126.6065466621997
 20
106.9724740810974
 10
126.5693503974318
 20
106.974358117663
 10
126.5296887362436
 20
106.9802578435944
 10
126.4882076340291
 20
106.9901301951985
 10
126.445585343952
 20
107.0039536406289
 10
126.4025001191759
 20
107.0216851161927
 10
126.3596302128644
 20
107.0433030900434
 10
126.3176215804116
 20
107.0687752644113
 10
126.2771847727506
 20
107.0980693415267
 10
126.2389657452756
 20
107.1311422576966
 10
126.2036642829965
 20
107.1679724810747
 10
126.1719263413074
 20
107.2085277138912
 10
126.1444301733718
 20
107.2527756583764
 10
126.1218647982767
 20
107.3006732508374
 10
126.1048977032624
 20
107.3522097253509
 10
126.0941856096461
 20
107.4073312523008
 10
126.090428302438
 20
107.4660162998407
 10
126.0893732419613
 20
107.9800137727256
 10
126.0926891463168
 20
108.1424607883794
 10
126.1022600520704
 20
108.2982867612453
 10
126.118268979917
 20
108.4469856929314
 10
126.140963546091
 20
108.5879977554295
 10
126.1705375372104
 20
108.7208061844245
 10
126.2071955058167
 20
108.8448619178315
 10
126.2511635362979
 20
108.959626659489
 10
126.3026354152721
 20
109.0645728791585
 10
126.3618156952806
 20
109.1591730466017
 10
126.4289519925579
 20
109.2428780997337
 10
126.5042273277989
 20
109.3151605083161
 10
126.587846253545
 20
109.375471210264
 10
126.6800456201074
 20
109.4232826753392
 10
126.7810192141042
 20
109.4580673733031
 10
126.8909715880768
 20
109.4792654761477
 10
127.0101288264131
 20
109.4863709854811
 10
129.6012819959126
 20
109.480019090774
 10
129.6069233396863
 20
102.4678610777321
 10
122.2560909135993
 20
102.4678610777321
 10
122.1237992489195
 20
102.6661155540569
 10
121.9915075842396
 20
102.4678610777321
 10
114.6410304336193
 20
102.4678610777321
 10
114.6459719923829
 20
109.480019090774
 10
117.2374696714259
 20
109.4863709854811
 10
117.3566269097622
 20
109.4792762420709
 10
117.466590049658
 20
109.4580566073798
 10
117.5675528777315
 20
109.4232719094159
 10
117.6597522442939
 20
109.375471210264
 10
117.7433819359633
 20
109.3151497423929
 10
117.8186572712042
 20
109.2428780997337
 10
117.8857720366351
 20
109.1591730466017
 10
117.9449738484901
 20
109.0645728791585
 10
117.9964457274643
 20
108.959626659489
 10
118.0404029920222
 20
108.8448619178315
 10
118.0770609606285
 20
108.7207954185012
 10
118.106634951748
 20
108.5879977554295
 10
118.1293187519987
 20
108.4469749270081
 10
118.1453492116917
 20
108.2982867612453
 10
118.1549093515221
 20
108.1424500224562
 10
118.1582252558777
 20
107.9800137727256
 10
118.1571701954009
 20
107.4660162998407
 10
118.1534128881928
 20
107.4073312523008
 10
118.1427007945765
 20
107.3522097253509
 10
118.1257336995623
 20
107.3006732508374
 10
118.1031575585439
 20
107.2527648924531
 10
118.0756829224548
 20
107.2085277138912
 10
118.0439449807657
 20
107.1679724810747
 10
118.0086327525633
 20
107.1311422576966
 10
117.9704137250883
 20
107.0980585756034
 10
117.9299769174274
 20
107.0687752644113
 10
117.8879790508977
 20
107.0433138559666
 10
117.8450983786631
 20
107.0216851161927
 10
117.8020131538869
 20
107.0039536406289
 10
117.7593908638098
 20
106.9901301951985
 10
117.7179097615954
 20
106.9802578435944
 10
117.6782373344839
 20
106.974358117663
 10
117.6410518356392
 20
106.9724740810974
 10
117.6410518356392
 20
106.9724740810974
 10
117.6014440040672
 20
106.9748318182853
 10
117.5603612410123
 20
106.9815605203055
 10
117.5183203107897
 20
106.9925740597723
 10
117.4758810414076
 20
107.0077217137603
 10
117.433560197181
 20
107.0269281208069
 10
117.3918960742715
 20
107.0500425579869
 10
117.3514269688409
 20
107.0769896638376
 10
117.3126696452043
 20
107.107629481357
 10
117.2761516335999
 20
107.1418758831593
 10
117.2424435279593
 20
107.1795889122425
 10
117.2120405607509
 20
107.2206716752973
 10
117.1854917940598
 20
107.2650272790149
 10
117.1633247581243
 20
107.3125050004698
 10
117.1460777491059
 20
107.3630294781995
 10
117.1342782972432
 20
107.4164607552019
 10
117.1284646986977
 20
107.4727127040913
 10
117.1284646986977
 20
107.4727127040913
 10
117.1239968405563
 20
107.525508791623
 10
117.1155671226653
 20
107.5759902056598
 10
117.1033155020268
 20
107.6239846914298
 10
117.0873927015661
 20
107.6693953556241
 10
117.0679063805154
 20
107.712049943471
 10
117.0450072618001
 20
107.7518300298147
 10
117.0188353024221
 20
107.7885956576534
 10
116.9895196934603
 20
107.8221745722153
 10
116.9571896259933
 20
107.8524698801913
 10
116.9220065888698
 20
107.8793200927329
 10
116.884078241322
 20
107.9025852528381
 10
116.8435553062752
 20
107.9221254035049
 10
116.8005777407315
 20
107.9378005877313
 10
116.7552639698463
 20
107.9494816144385
 10
116.7077647165449
 20
107.957006994778
 10
116.6582091719061
 20
107.9602583035942
 10
116.6582091719061
 20
107.9602583035942
 10
116.6097194536673
 20
107.9585680536467
 10
116.561854158976
 20
107.9517424583173
 10
116.5149470314524
 20
107.9400291338404
 10
116.4693533465632
 20
107.9237295260666
 10
116.4254176138517
 20
107.9031450808462
 10
116.3834951087847
 20
107.8785341803369
 10
116.3438980431359
 20
107.850187504466
 10
116.3070139901417
 20
107.8183957331607
 10
116.2731766934222
 20
107.7834387804251
 10
116.242730662521
 20
107.7456073261864
 10
116.2160096410581
 20
107.7051812844487
 10
116.1933689045003
 20
107.6624513351392
 10
116.1751637283144
 20
107.6176866263389
 10
116.1617278561203
 20
107.5711886038981
 10
116.1534165633849
 20
107.5232479477442
 10
116.1505635937283
 20
107.4741230400347
 10
116.1505635937283
 20
105.2032991503923
 10
116.1573784231344
 20
105.0406152844274
 10
116.1809450290902
 20
104.8842402494766
 10
116.2202298829652
 20
104.7347231076249
 10
116.2741671583596
 20
104.5926559846501
 10
116.3417125607197
 20
104.4586310063298
 10
116.4218110295688
 20
104.3332080006722
 10
116.5134290362766
 20
104.2169575616087
 10
116.6154792225967
 20
104.1104825808401
 10
116.7269603576682
 20
104.0143428863747
 10
116.8467743173217
 20
103.9291306039902
 10
116.97389833885
 20
103.8554270935411
 10
117.1072773617764
 20
103.7937921830356
 10
117.2458670915472
 20
103.7448179982514
 10
117.3886017017624
 20
103.7090966649662
 10
117.5344368978686
 20
103.687177245265
 10
117.6823283853122
 20
103.6796518649256
 10
122.1237992489195
 20
103.7004623945338
  0
LINE
  5
83
330
1F
100
AcDbEntity
  8
ISS138金台
  6
Continuous
 62
   250
420
  2367521
370
    13
100
AcDbLine
 10
141.2689051286523
 20
102.4016937135457
 30
0.0
 11
151.2789744227605
 21
102.4016937135457
 31
0.0
  0
LINE
  5
84
330
1F
100
AcDbEntity
  8
ISS138金台
  6
Continuous
 62
   250
420
  2367521
370
    13
100
AcDbLine
 10
145.766821727767
 20
109.5235241865561
 30
0.0
 11
145.766821727767
 21
102.4016506498528
 31
0.0
  0
LINE
  5
85
330
1F
100
AcDbEntity
  8
ISS138金台
  6
Continuous
 62
   250
420
  2367521
370
    13
100
AcDbLine
 10
141.2689051286523
 20
109.5235241865561
 30
0.0
 11
146.2741120304781
 21
109.5235241865561
 31
0.0
  0
LINE
  5
86
330
1F
100
AcDbEntity
  8
ISS138金台
  6
Continuous
 62
   250
420
  2367521
370
    13
100
AcDbLine
 10
150.7718456088979
 20
112.5223075074043
 30
0.0
 11
150.7718456088979
 21
102.4018229046245
 31
0.0
  0
LINE
  5
87
330
1F
100
AcDbEntity
  8
ISS138金台
  6
Continuous
 62
   250
420
  2367521
370
    13
100
AcDbLine
 10
141.2689051286523
 20
112.5223075074043
 30
0.0
 11
151.2789744227605
 21
112.5223075074043
 31
0.0
  0
LINE
  5
88
330
1F
100
AcDbEntity
  8
ISS138金台
  6
Continuous
 62
   250
420
  2367521
370
    13
100
AcDbLine
 10
139.9900857034138
 20
113.6026894356231
 30
0.0
 11
139.9900857034138
 21
118.6078963374489
 31
0.0
  0
LINE
  5
89
330
1F
100
AcDbEntity
  8
ISS138金台
  6
Continuous
 62
   250
420
  2367521
370
    13
100
AcDbLine
 10
104.1610931859557
 20
118.100616800661
 30
0.0
 11
139.9902579581855
 21
118.100616800661
 31
0.0
  0
LINE
  5
8A
330
1F
100
AcDbEntity
  8
ISS138金台
  6
Continuous
 62
   250
420
  2367521
370
    13
100
AcDbLine
 10
104.1610931859557
 20
118.6077348486005
 30
0.0
 11
104.1610931859557
 21
113.6025279467746
 31
0.0
  0
HATCH
  5
8B
330
1F
100
AcDbEntity
  8
ISS138金台
  6
Continuous
 62
   250
420
  2367521
370
    13
100
AcDbHatch
 10
0.0
 20
0.0
 30
0.0
210
0.0
220
0.0
230
1.0
  2
SOLID
 70
     1
 71
     0
 91
        1
 92
        3
 72
     0
 73
     1
 93
       67
 10
104.1614161636527
 20
117.8503521492005
 10
104.18695293356
 20
117.8516440599884
 10
104.2117468547642
 20
117.8554228990429
 10
104.2356795021098
 20
117.8615917730551
 10
104.2586324504413
 20
117.8699784272531
 10
104.2804657427566
 20
117.8804967342512
 10
104.3010609539003
 20
117.8930067370473
 10
104.3202888927933
 20
117.9073792445625
 10
104.3380311342804
 20
117.9235065975647
 10
104.3541477213593
 20
117.9412380731285
 10
104.3685309947978
 20
117.9604767779448
 10
104.3810409975938
 20
117.9810612231652
 10
104.3915593045919
 20
118.0029052814037
 10
104.3999567247132
 20
118.025847463812
 10
104.4061148328021
 20
118.0497801111576
 10
104.4098936718567
 20
118.0745847982851
 10
104.4111855826446
 20
118.1001215681924
 10
104.4111855826446
 20
118.1001215681924
 10
104.4099044377799
 20
118.125722933639
 10
104.4061148328021
 20
118.1505706844594
 10
104.3999459587899
 20
118.1745571614212
 10
104.3915485386687
 20
118.1975316415992
 10
104.3810409975938
 20
118.2194187635307
 10
104.3685309947978
 20
118.2400247405975
 10
104.3541477213593
 20
118.2592849772603
 10
104.3380311342804
 20
118.2770379846705
 10
104.3202888927933
 20
118.2931653376727
 10
104.3010609539003
 20
118.3075593770344
 10
104.2804657427566
 20
118.3200801457537
 10
104.2586324504413
 20
118.3305984527518
 10
104.2356902680331
 20
118.3390066387963
 10
104.2117468547642
 20
118.3451647468852
 10
104.18695293356
 20
118.3489435859398
 10
104.1614161636527
 20
118.3502354967277
 10
104.1614161636527
 20
118.3502354967277
 10
104.1358686278222
 20
118.3489435859398
 10
104.1110747066179
 20
118.345153980962
 10
104.0871420592723
 20
118.3390174047195
 10
104.064199876864
 20
118.3305984527518
 10
104.0423665845487
 20
118.3200693798305
 10
104.0217713734051
 20
118.3075593770344
 10
104.002543434512
 20
118.2931653376727
 10
103.9848119589482
 20
118.2770379846705
 10
103.9686846059461
 20
118.2592742113371
 10
103.9543120984308
 20
118.2400355065208
 10
103.9417913297115
 20
118.2194079976074
 10
103.9312730227135
 20
118.1975424075224
 10
103.9228756025922
 20
118.1745571614212
 10
103.9167174945032
 20
118.1505706844594
 10
103.9129386554487
 20
118.125722933639
 10
103.9116467446608
 20
118.1001215681924
 10
103.9116467446608
 20
118.1001215681924
 10
103.9129386554487
 20
118.0745847982851
 10
103.9167282604265
 20
118.0497801111576
 10
103.9228756025922
 20
118.025847463812
 10
103.9312730227135
 20
118.0029052814037
 10
103.9418020956348
 20
117.9810612231652
 10
103.9543120984308
 20
117.9604767779448
 10
103.9686846059461
 20
117.9412488390517
 10
103.9848119589482
 20
117.9235065975647
 10
104.002543434512
 20
117.9073792445625
 10
104.0217713734051
 20
117.8930067370473
 10
104.0423665845487
 20
117.8804967342512
 10
104.064199876864
 20
117.8699784272531
 10
104.0871420592723
 20
117.8615810071319
 10
104.1110854725412
 20
117.8554228990429
 10
104.1358793937454
 20
117.8516440599884
 97
        0
 75
     1
 76
     1
 98
        0
  0
LWPOLYLINE
  5
8C
330
1F
100
AcDbEntity
  8
ISS138金台
  6
Continuous
 62
   250
420
  2367521
370
    13
100
AcDbPolyline
 90
       68
 70
     0
 43
0.0
 10
104.1614161636527
 20
117.8503521492005
 10
104.18695293356
 20
117.8516440599884
 10
104.2117468547642
 20
117.8554228990429
 10
104.2356795021098
 20
117.8615917730551
 10
104.2586324504413
 20
117.8699784272531
 10
104.2804657427566
 20
117.8804967342512
 10
104.3010609539003
 20
117.8930067370473
 10
104.3202888927933
 20
117.9073792445625
 10
104.3380311342804
 20
117.9235065975647
 10
104.3541477213593
 20
117.9412380731285
 10
104.3685309947978
 20
117.9604767779448
 10
104.3810409975938
 20
117.9810612231652
 10
104.3915593045919
 20
118.0029052814037
 10
104.3999567247132
 20
118.025847463812
 10
104.4061148328021
 20
118.0497801111576
 10
104.4098936718567
 20
118.0745847982851
 10
104.4111855826446
 20
118.1001215681924
 10
104.4111855826446
 20
118.1001215681924
 10
104.4099044377799
 20
118.125722933639
 10
104.4061148328021
 20
118.1505706844594
 10
104.3999459587899
 20
118.1745571614212
 10
104.3915485386687
 20
118.1975316415992
 10
104.3810409975938
 20
118.2194187635307
 10
104.3685309947978
 20
118.2400247405975
 10
104.3541477213593
 20
118.2592849772603
 10
104.3380311342804
 20
118.2770379846705
 10
104.3202888927933
 20
118.2931653376727
 10
104.3010609539003
 20
118.3075593770344
 10
104.2804657427566
 20
118.3200801457537
 10
104.2586324504413
 20
118.3305984527518
 10
104.2356902680331
 20
118.3390066387963
 10
104.2117468547642
 20
118.3451647468852
 10
104.18695293356
 20
118.3489435859398
 10
104.1614161636527
 20
118.3502354967277
 10
104.1614161636527
 20
118.3502354967277
 10
104.1358686278222
 20
118.3489435859398
 10
104.1110747066179
 20
118.345153980962
 10
104.0871420592723
 20
118.3390174047195
 10
104.064199876864
 20
118.3305984527518
 10
104.0423665845487
 20
118.3200693798305
 10
104.0217713734051
 20
118.3075593770344
 10
104.002543434512
 20
118.2931653376727
 10
103.9848119589482
 20
118.2770379846705
 10
103.9686846059461
 20
118.2592742113371
 10
103.9543120984308
 20
118.2400355065208
 10
103.9417913297115
 20
118.2194079976074
 10
103.9312730227135
 20
118.1975424075224
 10
103.9228756025922
 20
118.1745571614212
 10
103.9167174945032
 20
118.1505706844594
 10
103.9129386554487
 20
118.125722933639
 10
103.9116467446608
 20
118.1001215681924
 10
103.9116467446608
 20
118.1001215681924
 10
103.9129386554487
 20
118.0745847982851
 10
103.9167282604265
 20
118.0497801111576
 10
103.9228756025922
 20
118.025847463812
 10
103.9312730227135
 20
118.0029052814037
 10
103.9418020956348
 20
117.9810612231652
 10
103.9543120984308
 20
117.9604767779448
 10
103.9686846059461
 20
117.9412488390517
 10
103.9848119589482
 20
117.9235065975647
 10
104.002543434512
 20
117.9073792445625
 10
104.0217713734051
 20
117.8930067370473
 10
104.0423665845487
 20
117.8804967342512
 10
104.064199876864
 20
117.8699784272531
 10
104.0871420592723
 20
117.8615810071319
 10
104.1110854725412
 20
117.8554228990429
 10
104.1358793937454
 20
117.8516440599884
 10
104.1614161636527
 20
117.8503521492005
  0
HATCH
  5
8D
330
1F
100
AcDbEntity
  8
ISS138金台
  6
Continuous
 62
   250
420
  2367521
370
    13
100
AcDbHatch
 10
0.0
 20
0.0
 30
0.0
210
0.0
220
0.0
230
1.0
  2
SOLID
 70
     1
 71
     0
 91
        1
 92
        3
 72
     0
 73
     1
 93
       67
 10
139.9900857034138
 20
117.8506643609742
 10
140.0156763029372
 20
117.8519455058389
 10
140.0405348196808
 20
117.8557351108167
 10
140.0645212966427
 20
117.8618932189056
 10
140.0875065427438
 20
117.8703014049501
 10
140.1093828987521
 20
117.880808946025
 10
140.1299996417422
 20
117.8933297147442
 10
140.1492491124817
 20
117.9077022222595
 10
140.1670021198919
 20
117.9238188093384
 10
140.1831510047406
 20
117.9415502849022
 10
140.1975235122558
 20
117.9607889897185
 10
140.2100442809751
 20
117.9813734349389
 10
140.2205733538964
 20
118.0032067272542
 10
140.2289815399409
 20
118.0261596755857
 10
140.2351288821066
 20
118.0500923229313
 10
140.2389184870844
 20
118.0748970100588
 10
140.2402103978723
 20
118.1004337799661
 10
140.2402103978723
 20
118.1004337799661
 10
140.2389184870844
 20
118.1260243794895
 10
140.2351396480299
 20
118.1508936621564
 10
140.2289815399409
 20
118.174869373195
 10
140.2205733538964
 20
118.1978546192962
 10
140.2100442809751
 20
118.2197202093812
 10
140.1975342781791
 20
118.2403477182945
 10
140.1831402388173
 20
118.259597189034
 10
140.1670021198919
 20
118.2773501964443
 10
140.149259878405
 20
118.2934775494464
 10
140.1299996417422
 20
118.3078715888082
 10
140.1093828987521
 20
118.3203923575275
 10
140.0875065427438
 20
118.3309106645255
 10
140.0645212966427
 20
118.33931885057
 10
140.0405348196808
 20
118.345476958659
 10
140.0156870688604
 20
118.3492557977136
 10
139.9900857034138
 20
118.3505477085014
 10
139.9900857034138
 20
118.3505477085014
 10
139.9645489335065
 20
118.3492557977136
 10
139.9397550123023
 20
118.3454661927357
 10
139.9158223649566
 20
118.33931885057
 10
139.8928801825484
 20
118.3309214304488
 10
139.8710361243098
 20
118.3203923575275
 10
139.8504301472429
 20
118.3078823547314
 10
139.8312237401963
 20
118.2934883153697
 10
139.8134707327861
 20
118.2773501964443
 10
139.7973649116304
 20
118.2595864231108
 10
139.7829708722687
 20
118.2403477182945
 10
139.7704608694726
 20
118.2197202093812
 10
139.7599425624746
 20
118.1978546192962
 10
139.7515451423533
 20
118.174869373195
 10
139.7453870342644
 20
118.1508828962332
 10
139.7416081952098
 20
118.1260351454128
 10
139.7403162844219
 20
118.1004337799661
 10
139.7403162844219
 20
118.1004337799661
 10
139.7416081952098
 20
118.0748970100588
 10
139.7453978001876
 20
118.0500923229313
 10
139.7515451423533
 20
118.0261596755857
 10
139.7599425624746
 20
118.0032067272542
 10
139.7704608694726
 20
117.9813734349389
 10
139.7829708722687
 20
117.9607889897185
 10
139.797343379784
 20
117.9415610508254
 10
139.8134707327861
 20
117.9238188093384
 10
139.8312237401963
 20
117.9076914563363
 10
139.8504409131662
 20
117.8933297147442
 10
139.8710361243098
 20
117.880808946025
 10
139.8928694166251
 20
117.8702906390269
 10
139.9158115990334
 20
117.8618932189056
 10
139.9397550123023
 20
117.8557351108167
 10
139.9645489335065
 20
117.8519562717621
 97
        0
 75
     1
 76
     1
 98
        0
  0
LWPOLYLINE
  5
8E
330
1F
100
AcDbEntity
  8
ISS138金台
  6
Continuous
 62
   250
420
  2367521
370
    13
100
AcDbPolyline
 90
       68
 70
     0
 43
0.0
 10
139.9900857034138
 20
117.8506643609742
 10
140.0156763029372
 20
117.8519455058389
 10
140.0405348196808
 20
117.8557351108167
 10
140.0645212966427
 20
117.8618932189056
 10
140.0875065427438
 20
117.8703014049501
 10
140.1093828987521
 20
117.880808946025
 10
140.1299996417422
 20
117.8933297147442
 10
140.1492491124817
 20
117.9077022222595
 10
140.1670021198919
 20
117.9238188093384
 10
140.1831510047406
 20
117.9415502849022
 10
140.1975235122558
 20
117.9607889897185
 10
140.2100442809751
 20
117.9813734349389
 10
140.2205733538964
 20
118.0032067272542
 10
140.2289815399409
 20
118.0261596755857
 10
140.2351288821066
 20
118.0500923229313
 10
140.2389184870844
 20
118.0748970100588
 10
140.2402103978723
 20
118.1004337799661
 10
140.2402103978723
 20
118.1004337799661
 10
140.2389184870844
 20
118.1260243794895
 10
140.2351396480299
 20
118.1508936621564
 10
140.2289815399409
 20
118.174869373195
 10
140.2205733538964
 20
118.1978546192962
 10
140.2100442809751
 20
118.2197202093812
 10
140.1975342781791
 20
118.2403477182945
 10
140.1831402388173
 20
118.259597189034
 10
140.1670021198919
 20
118.2773501964443
 10
140.149259878405
 20
118.2934775494464
 10
140.1299996417422
 20
118.3078715888082
 10
140.1093828987521
 20
118.3203923575275
 10
140.0875065427438
 20
118.3309106645255
 10
140.0645212966427
 20
118.33931885057
 10
140.0405348196808
 20
118.345476958659
 10
140.0156870688604
 20
118.3492557977136
 10
139.9900857034138
 20
118.3505477085014
 10
139.9900857034138
 20
118.3505477085014
 10
139.9645489335065
 20
118.3492557977136
 10
139.9397550123023
 20
118.3454661927357
 10
139.9158223649566
 20
118.33931885057
 10
139.8928801825484
 20
118.3309214304488
 10
139.8710361243098
 20
118.3203923575275
 10
139.8504301472429
 20
118.3078823547314
 10
139.8312237401963
 20
118.2934883153697
 10
139.8134707327861
 20
118.2773501964443
 10
139.7973649116304
 20
118.2595864231108
 10
139.7829708722687
 20
118.2403477182945
 10
139.7704608694726
 20
118.2197202093812
 10
139.7599425624746
 20
118.1978546192962
 10
139.7515451423533
 20
118.174869373195
 10
139.7453870342644
 20
118.1508828962332
 10
139.7416081952098
 20
118.1260351454128
 10
139.7403162844219
 20
118.1004337799661
 10
139.7403162844219
 20
118.1004337799661
 10
139.7416081952098
 20
118.0748970100588
 10
139.7453978001876
 20
118.0500923229313
 10
139.7515451423533
 20
118.0261596755857
 10
139.7599425624746
 20
118.0032067272542
 10
139.7704608694726
 20
117.9813734349389
 10
139.7829708722687
 20
117.9607889897185
 10
139.797343379784
 20
117.9415610508254
 10
139.8134707327861
 20
117.9238188093384
 10
139.8312237401963
 20
117.9076914563363
 10
139.8504409131662
 20
117.8933297147442
 10
139.8710361243098
 20
117.880808946025
 10
139.8928694166251
 20
117.8702906390269
 10
139.9158115990334
 20
117.8618932189056
 10
139.9397550123023
 20
117.8557351108167
 10
139.9645489335065
 20
117.8519562717621
 10
139.9900857034138
 20
117.8506643609742
  0
HATCH
  5
8F
330
1F
100
AcDbEntity
  8
ISS138金台
  6
Continuous
 62
   250
420
  2367521
370
    13
100
AcDbHatch
 10
0.0
 20
0.0
 30
0.0
210
0.0
220
0.0
230
1.0
  2
SOLID
 70
     1
 71
     0
 91
        1
 92
        3
 72
     0
 73
     1
 93
       67
 10
145.767144705464
 20
109.2734425557905
 10
145.7927353049874
 20
109.2747344665784
 10
145.8175830558078
 20
109.2785025397097
 10
145.8415587668464
 20
109.2846498818754
 10
145.8645117151779
 20
109.2930257701503
 10
145.8863450074932
 20
109.3035333112251
 10
145.9069509845601
 20
109.3160325480979
 10
145.9261681575299
 20
109.3303942896899
 10
145.9438888671704
 20
109.3465108767689
 10
145.9599839224029
 20
109.3642531182559
 10
145.9743564299181
 20
109.3835025889954
 10
145.9868341349445
 20
109.4041193319855
 10
145.9973416760193
 20
109.4259956879937
 10
146.0057175642942
 20
109.4490024659414
 10
146.0118541405366
 20
109.4730104747497
 10
146.0156329795912
 20
109.4979120551862
 10
146.0169141244559
 20
109.5235672502491
 10
146.0169141244559
 20
109.5235672502491
 10
146.0156329795912
 20
109.5491040201563
 10
146.0118541405366
 20
109.5738979413606
 10
146.0057067983709
 20
109.5978305887062
 10
145.9973309100961
 20
109.6207727711145
 10
145.9868341349445
 20
109.6426168293531
 10
145.9743456639949
 20
109.6632012745734
 10
145.9599946883261
 20
109.6824292134665
 10
145.9438888671704
 20
109.7001714549535
 10
145.9261681575299
 20
109.7162988079557
 10
145.9069509845601
 20
109.7306713154709
 10
145.8863557734165
 20
109.743181318267
 10
145.8645117151779
 20
109.753699625265
 10
145.8415480009232
 20
109.7620970453863
 10
145.8175830558078
 20
109.7682551534753
 10
145.7927353049874
 20
109.7720339925298
 10
145.767144705464
 20
109.7733259033177
 10
145.767144705464
 20
109.7733259033177
 10
145.7415541059406
 20
109.7720447584531
 10
145.7166848232737
 20
109.768244387552
 10
145.6927198781584
 20
109.7620970453863
 10
145.6697131002107
 20
109.753699625265
 10
145.6478582760489
 20
109.743181318267
 10
145.6272307671356
 20
109.7306713154709
 10
145.607981296396
 20
109.7162988079557
 10
145.5902282889858
 20
109.7001714549535
 10
145.5740901700604
 20
109.6824292134665
 10
145.5596961306987
 20
109.6632120404966
 10
145.5471753619794
 20
109.6426168293531
 10
145.5366570549813
 20
109.6207835370377
 10
145.5282488689368
 20
109.5978305887062
 10
145.5220907608479
 20
109.5738979413606
 10
145.5183119217933
 20
109.5491040201563
 10
145.5170200110054
 20
109.5235672502491
 10
145.5170200110054
 20
109.5235672502491
 10
145.5183119217933
 20
109.4979228211095
 10
145.5221015267711
 20
109.4730104747497
 10
145.52825963486
 20
109.4489917000182
 10
145.5366462890581
 20
109.4259956879937
 10
145.5471753619794
 20
109.4041085660622
 10
145.5597068966219
 20
109.3835025889954
 10
145.5740901700604
 20
109.3642531182559
 10
145.5902282889858
 20
109.3465108767689
 10
145.607981296396
 20
109.3303942896899
 10
145.6272307671356
 20
109.3160217821747
 10
145.6478582760489
 20
109.3035225453019
 10
145.6697238661339
 20
109.2930257701503
 10
145.6927091122351
 20
109.2846391159522
 10
145.7166955891969
 20
109.2785025397097
 10
145.7415433400173
 20
109.2747237006552
 97
        0
 75
     1
 76
     1
 98
        0
  0
LWPOLYLINE
  5
90
330
1F
100
AcDbEntity
  8
ISS138金台
  6
Continuous
 62
   250
420
  2367521
370
    13
100
AcDbPolyline
 90
       68
 70
     0
 43
0.0
 10
145.767144705464
 20
109.2734425557905
 10
145.7927353049874
 20
109.2747344665784
 10
145.8175830558078
 20
109.2785025397097
 10
145.8415587668464
 20
109.2846498818754
 10
145.8645117151779
 20
109.2930257701503
 10
145.8863450074932
 20
109.3035333112251
 10
145.9069509845601
 20
109.3160325480979
 10
145.9261681575299
 20
109.3303942896899
 10
145.9438888671704
 20
109.3465108767689
 10
145.9599839224029
 20
109.3642531182559
 10
145.9743564299181
 20
109.3835025889954
 10
145.9868341349445
 20
109.4041193319855
 10
145.9973416760193
 20
109.4259956879937
 10
146.0057175642942
 20
109.4490024659414
 10
146.0118541405366
 20
109.4730104747497
 10
146.0156329795912
 20
109.4979120551862
 10
146.0169141244559
 20
109.5235672502491
 10
146.0169141244559
 20
109.5235672502491
 10
146.0156329795912
 20
109.5491040201563
 10
146.0118541405366
 20
109.5738979413606
 10
146.0057067983709
 20
109.5978305887062
 10
145.9973309100961
 20
109.6207727711145
 10
145.9868341349445
 20
109.6426168293531
 10
145.9743456639949
 20
109.6632012745734
 10
145.9599946883261
 20
109.6824292134665
 10
145.9438888671704
 20
109.7001714549535
 10
145.9261681575299
 20
109.7162988079557
 10
145.9069509845601
 20
109.7306713154709
 10
145.8863557734165
 20
109.743181318267
 10
145.8645117151779
 20
109.753699625265
 10
145.8415480009232
 20
109.7620970453863
 10
145.8175830558078
 20
109.7682551534753
 10
145.7927353049874
 20
109.7720339925298
 10
145.767144705464
 20
109.7733259033177
 10
145.767144705464
 20
109.7733259033177
 10
145.7415541059406
 20
109.7720447584531
 10
145.7166848232737
 20
109.768244387552
 10
145.6927198781584
 20
109.7620970453863
 10
145.6697131002107
 20
109.753699625265
 10
145.6478582760489
 20
109.743181318267
 10
145.6272307671356
 20
109.7306713154709
 10
145.607981296396
 20
109.7162988079557
 10
145.5902282889858
 20
109.7001714549535
 10
145.5740901700604
 20
109.6824292134665
 10
145.5596961306987
 20
109.6632120404966
 10
145.5471753619794
 20
109.6426168293531
 10
145.5366570549813
 20
109.6207835370377
 10
145.5282488689368
 20
109.5978305887062
 10
145.5220907608479
 20
109.5738979413606
 10
145.5183119217933
 20
109.5491040201563
 10
145.5170200110054
 20
109.5235672502491
 10
145.5170200110054
 20
109.5235672502491
 10
145.5183119217933
 20
109.4979228211095
 10
145.5221015267711
 20
109.4730104747497
 10
145.52825963486
 20
109.4489917000182
 10
145.5366462890581
 20
109.4259956879937
 10
145.5471753619794
 20
109.4041085660622
 10
145.5597068966219
 20
109.3835025889954
 10
145.5740901700604
 20
109.3642531182559
 10
145.5902282889858
 20
109.3465108767689
 10
145.607981296396
 20
109.3303942896899
 10
145.6272307671356
 20
109.3160217821747
 10
145.6478582760489
 20
109.3035225453019
 10
145.6697238661339
 20
109.2930257701503
 10
145.6927091122351
 20
109.2846391159522
 10
145.7166955891969
 20
109.2785025397097
 10
145.7415433400173
 20
109.2747237006552
 10
145.767144705464
 20
109.2734425557905
  0
HATCH
  5
91
330
1F
100
AcDbEntity
  8
ISS138金台
  6
Continuous
 62
   250
420
  2367521
370
    13
100
AcDbHatch
 10
0.0
 20
0.0
 30
0.0
210
0.0
220
0.0
230
1.0
  2
SOLID
 70
     1
 71
     0
 91
        1
 92
        3
 72
     0
 73
     1
 93
       67
 10
150.7721685865949
 20
112.272053621867
 10
150.7977591861183
 20
112.2733455326549
 10
150.8225961710155
 20
112.2771243717095
 10
150.8465611161308
 20
112.2832824797984
 10
150.8695355963088
 20
112.2916798999197
 10
150.8913688886241
 20
112.3021982069177
 10
150.9119640997677
 20
112.3147082097138
 10
150.9311920386608
 20
112.3290914831523
 10
150.9489127483014
 20
112.3452080702312
 10
150.9650078035338
 20
112.3629503117182
 10
150.9793803110491
 20
112.3821782506113
 10
150.9918687819987
 20
112.4027626958317
 10
151.002354791227
 20
112.4246067540702
 10
151.0107414454251
 20
112.4475489364785
 10
151.0168780216675
 20
112.4714815838241
 10
151.0206568607221
 20
112.4962862709516
 10
151.0219380055868
 20
112.5218230408589
 10
151.0219380055868
 20
112.5218230408589
 10
151.0206568607221
 20
112.5474244063056
 10
151.0168780216675
 20
112.572272157126
 10
151.0107414454251
 20
112.5962478681645
 10
151.002354791227
 20
112.6192331142657
 10
150.9918687819987
 20
112.641109470274
 10
150.9793695451258
 20
112.661726213264
 10
150.9650078035338
 20
112.6809756840036
 10
150.9489127483014
 20
112.6987394573371
 10
150.9311812727376
 20
112.7148775762625
 10
150.9119640997677
 20
112.7292608497009
 10
150.8913796545474
 20
112.7417816184202
 10
150.8695355963088
 20
112.7522999254183
 10
150.8465718820541
 20
112.7607081114628
 10
150.8226069369387
 20
112.7668662195517
 10
150.7977591861183
 20
112.7706450586063
 10
150.7721685865949
 20
112.7719369693942
 10
150.7721685865949
 20
112.7719369693942
 10
150.7465672211482
 20
112.7706558245296
 10
150.7217087044046
 20
112.7668554536285
 10
150.697732993366
 20
112.7607081114628
 10
150.6747369813416
 20
112.7522999254183
 10
150.6528821571798
 20
112.7417816184202
 10
150.6322546482665
 20
112.7292608497009
 10
150.613005177527
 20
112.7148775762625
 10
150.5952521701167
 20
112.6987394573371
 10
150.5791140511913
 20
112.6809864499268
 10
150.5647200118296
 20
112.6617369791873
 10
150.5521992431103
 20
112.641109470274
 10
150.5416809361122
 20
112.619243880189
 10
150.5332835159909
 20
112.5962586340878
 10
150.527125407902
 20
112.572272157126
 10
150.5233358029242
 20
112.5474244063056
 10
150.5220438921363
 20
112.5218230408589
 10
150.5220438921363
 20
112.5218230408589
 10
150.5233358029242
 20
112.4962970368749
 10
150.527125407902
 20
112.4714815838241
 10
150.5332727500677
 20
112.4475381705553
 10
150.541670170189
 20
112.4246067540702
 10
150.5521992431103
 20
112.4027626958317
 10
150.5647092459064
 20
112.3821782506113
 10
150.5791140511913
 20
112.3629503117182
 10
150.5952521701167
 20
112.3452080702312
 10
150.613005177527
 20
112.3290914831523
 10
150.6322546482665
 20
112.3147082097138
 10
150.6528821571798
 20
112.3021982069177
 10
150.6747477472648
 20
112.2916798999197
 10
150.697732993366
 20
112.2832824797984
 10
150.7217194703278
 20
112.2771243717095
 10
150.7465672211482
 20
112.2733455326549
 97
        0
 75
     1
 76
     1
 98
        0
  0
LWPOLYLINE
  5
92
330
1F
100
AcDbEntity
  8
ISS138金台
  6
Continuous
 62
   250
420
  2367521
370
    13
100
AcDbPolyline
 90
       68
 70
     0
 43
0.0
 10
150.7721685865949
 20
112.272053621867
 10
150.7977591861183
 20
112.2733455326549
 10
150.8225961710155
 20
112.2771243717095
 10
150.8465611161308
 20
112.2832824797984
 10
150.8695355963088
 20
112.2916798999197
 10
150.8913688886241
 20
112.3021982069177
 10
150.9119640997677
 20
112.3147082097138
 10
150.9311920386608
 20
112.3290914831523
 10
150.9489127483014
 20
112.3452080702312
 10
150.9650078035338
 20
112.3629503117182
 10
150.9793803110491
 20
112.3821782506113
 10
150.9918687819987
 20
112.4027626958317
 10
151.002354791227
 20
112.4246067540702
 10
151.0107414454251
 20
112.4475489364785
 10
151.0168780216675
 20
112.4714815838241
 10
151.0206568607221
 20
112.4962862709516
 10
151.0219380055868
 20
112.5218230408589
 10
151.0219380055868
 20
112.5218230408589
 10
151.0206568607221
 20
112.5474244063056
 10
151.0168780216675
 20
112.572272157126
 10
151.0107414454251
 20
112.5962478681645
 10
151.002354791227
 20
112.6192331142657
 10
150.9918687819987
 20
112.641109470274
 10
150.9793695451258
 20
112.661726213264
 10
150.9650078035338
 20
112.6809756840036
 10
150.9489127483014
 20
112.6987394573371
 10
150.9311812727376
 20
112.7148775762625
 10
150.9119640997677
 20
112.7292608497009
 10
150.8913796545474
 20
112.7417816184202
 10
150.8695355963088
 20
112.7522999254183
 10
150.8465718820541
 20
112.7607081114628
 10
150.8226069369387
 20
112.7668662195517
 10
150.7977591861183
 20
112.7706450586063
 10
150.7721685865949
 20
112.7719369693942
 10
150.7721685865949
 20
112.7719369693942
 10
150.7465672211482
 20
112.7706558245296
 10
150.7217087044046
 20
112.7668554536285
 10
150.697732993366
 20
112.7607081114628
 10
150.6747369813416
 20
112.7522999254183
 10
150.6528821571798
 20
112.7417816184202
 10
150.6322546482665
 20
112.7292608497009
 10
150.613005177527
 20
112.7148775762625
 10
150.5952521701167
 20
112.6987394573371
 10
150.5791140511913
 20
112.6809864499268
 10
150.5647200118296
 20
112.6617369791873
 10
150.5521992431103
 20
112.641109470274
 10
150.5416809361122
 20
112.619243880189
 10
150.5332835159909
 20
112.5962586340878
 10
150.527125407902
 20
112.572272157126
 10
150.5233358029242
 20
112.5474244063056
 10
150.5220438921363
 20
112.5218230408589
 10
150.5220438921363
 20
112.5218230408589
 10
150.5233358029242
 20
112.4962970368749
 10
150.527125407902
 20
112.4714815838241
 10
150.5332727500677
 20
112.4475381705553
 10
150.541670170189
 20
112.4246067540702
 10
150.5521992431103
 20
112.4027626958317
 10
150.5647092459064
 20
112.3821782506113
 10
150.5791140511913
 20
112.3629503117182
 10
150.5952521701167
 20
112.3452080702312
 10
150.613005177527
 20
112.3290914831523
 10
150.6322546482665
 20
112.3147082097138
 10
150.6528821571798
 20
112.3021982069177
 10
150.6747477472648
 20
112.2916798999197
 10
150.697732993366
 20
112.2832824797984
 10
150.7217194703278
 20
112.2771243717095
 10
150.7465672211482
 20
112.2733455326549
 10
150.7721685865949
 20
112.272053621867
  0
HATCH
  5
93
330
1F
100
AcDbEntity
  8
ISS138金台
  6
Continuous
 62
   250
420
  2367521
370
    13
100
AcDbHatch
 10
0.0
 20
0.0
 30
0.0
210
0.0
220
0.0
230
1.0
  2
SOLID
 70
     1
 71
     0
 91
        1
 92
        3
 72
     0
 73
     1
 93
       67
 10
150.7718456088979
 20
102.1522365063275
 10
150.7974577402678
 20
102.1535176511922
 10
150.822294725165
 20
102.1572964902468
 10
150.8462704362036
 20
102.1634330664892
 10
150.869266448228
 20
102.171808954764
 10
150.8911428042363
 20
102.1822949639924
 10
150.9117487813031
 20
102.194783434942
 10
150.9310090179659
 20
102.2091236446876
 10
150.9487620253761
 20
102.22521869992
 10
150.9649001443015
 20
102.2429178777141
 10
150.97928341774
 20
102.2621242847607
 10
150.9918149523825
 20
102.2826871981346
 10
151.0023332593806
 20
102.3044881926803
 10
151.0107414454251
 20
102.3274088432421
 10
151.016899553514
 20
102.3513307246645
 10
151.0206783925686
 20
102.3761138799455
 10
151.0219703033565
 20
102.4016506498528
 10
151.0219703033565
 20
102.4016506498528
 10
151.0206783925686
 20
102.4273058449156
 10
151.016899553514
 20
102.4522074253521
 10
151.0107414454251
 20
102.4762154341604
 10
151.0023332593806
 20
102.4992222121081
 10
150.9918149523825
 20
102.5210878021931
 10
150.9792941836632
 20
102.5417153111064
 10
150.9649001443015
 20
102.5609540159227
 10
150.9487620253761
 20
102.5786962574097
 10
150.9310090179659
 20
102.5948128444886
 10
150.9117595472263
 20
102.6091853520039
 10
150.891132038313
 20
102.6216738229535
 10
150.869266448228
 20
102.6321813640283
 10
150.8462812021268
 20
102.6405680182264
 10
150.822294725165
 20
102.6467045944689
 10
150.7974469743446
 20
102.6504834335234
 10
150.7718456088979
 20
102.6517645783881
 10
150.7718456088979
 20
102.6517645783881
 10
150.7463088389906
 20
102.6504834335234
 10
150.7215041518632
 20
102.6466938285456
 10
150.6975715045175
 20
102.6405572523032
 10
150.6746293221093
 20
102.6321813640283
 10
150.6528067957172
 20
102.6216738229535
 10
150.6321900527271
 20
102.6091853520039
 10
150.6129728797573
 20
102.5948128444886
 10
150.5952414041935
 20
102.5786962574097
 10
150.5791140511913
 20
102.5609647818459
 10
150.5647307777528
 20
102.5417153111064
 10
150.5522207749568
 20
102.5210985681163
 10
150.5417132338819
 20
102.4992222121081
 10
150.5333050478374
 20
102.4762154341604
 10
150.5271469397485
 20
102.4522074253521
 10
150.5233681006939
 20
102.4273058449156
 10
150.522076189906
 20
102.4016506498528
 10
150.522076189906
 20
102.4016506498528
 10
150.5233573347707
 20
102.3761354117919
 10
150.5271577056717
 20
102.3513307246645
 10
150.5333050478374
 20
102.3274088432421
 10
150.5417024679587
 20
102.3044881926803
 10
150.55223154088
 20
102.2826764322114
 10
150.5647307777528
 20
102.2621242847607
 10
150.5791140511913
 20
102.2429178777141
 10
150.5952414041935
 20
102.22521869992
 10
150.6129728797573
 20
102.2091236446876
 10
150.6322008186503
 20
102.194783434942
 10
150.6527960297939
 20
102.1823057299156
 10
150.6746293221093
 20
102.171808954764
 10
150.6975715045175
 20
102.1634330664892
 10
150.7215149177864
 20
102.1572964902468
 10
150.7463088389906
 20
102.1535176511922
 97
        0
 75
     1
 76
     1
 98
        0
  0
LWPOLYLINE
  5
94
330
1F
100
AcDbEntity
  8
ISS138金台
  6
Continuous
 62
   250
420
  2367521
370
    13
100
AcDbPolyline
 90
       68
 70
     0
 43
0.0
 10
150.7718456088979
 20
102.1522365063275
 10
150.7974577402678
 20
102.1535176511922
 10
150.822294725165
 20
102.1572964902468
 10
150.8462704362036
 20
102.1634330664892
 10
150.869266448228
 20
102.171808954764
 10
150.8911428042363
 20
102.1822949639924
 10
150.9117487813031
 20
102.194783434942
 10
150.9310090179659
 20
102.2091236446876
 10
150.9487620253761
 20
102.22521869992
 10
150.9649001443015
 20
102.2429178777141
 10
150.97928341774
 20
102.2621242847607
 10
150.9918149523825
 20
102.2826871981346
 10
151.0023332593806
 20
102.3044881926803
 10
151.0107414454251
 20
102.3274088432421
 10
151.016899553514
 20
102.3513307246645
 10
151.0206783925686
 20
102.3761138799455
 10
151.0219703033565
 20
102.4016506498528
 10
151.0219703033565
 20
102.4016506498528
 10
151.0206783925686
 20
102.4273058449156
 10
151.016899553514
 20
102.4522074253521
 10
151.0107414454251
 20
102.4762154341604
 10
151.0023332593806
 20
102.4992222121081
 10
150.9918149523825
 20
102.5210878021931
 10
150.9792941836632
 20
102.5417153111064
 10
150.9649001443015
 20
102.5609540159227
 10
150.9487620253761
 20
102.5786962574097
 10
150.9310090179659
 20
102.5948128444886
 10
150.9117595472263
 20
102.6091853520039
 10
150.891132038313
 20
102.6216738229535
 10
150.869266448228
 20
102.6321813640283
 10
150.8462812021268
 20
102.6405680182264
 10
150.822294725165
 20
102.6467045944689
 10
150.7974469743446
 20
102.6504834335234
 10
150.7718456088979
 20
102.6517645783881
 10
150.7718456088979
 20
102.6517645783881
 10
150.7463088389906
 20
102.6504834335234
 10
150.7215041518632
 20
102.6466938285456
 10
150.6975715045175
 20
102.6405572523032
 10
150.6746293221093
 20
102.6321813640283
 10
150.6528067957172
 20
102.6216738229535
 10
150.6321900527271
 20
102.6091853520039
 10
150.6129728797573
 20
102.5948128444886
 10
150.5952414041935
 20
102.5786962574097
 10
150.5791140511913
 20
102.5609647818459
 10
150.5647307777528
 20
102.5417153111064
 10
150.5522207749568
 20
102.5210985681163
 10
150.5417132338819
 20
102.4992222121081
 10
150.5333050478374
 20
102.4762154341604
 10
150.5271469397485
 20
102.4522074253521
 10
150.5233681006939
 20
102.4273058449156
 10
150.522076189906
 20
102.4016506498528
 10
150.522076189906
 20
102.4016506498528
 10
150.5233573347707
 20
102.3761354117919
 10
150.5271577056717
 20
102.3513307246645
 10
150.5333050478374
 20
102.3274088432421
 10
150.5417024679587
 20
102.3044881926803
 10
150.55223154088
 20
102.2826764322114
 10
150.5647307777528
 20
102.2621242847607
 10
150.5791140511913
 20
102.2429178777141
 10
150.5952414041935
 20
102.22521869992
 10
150.6129728797573
 20
102.2091236446876
 10
150.6322008186503
 20
102.194783434942
 10
150.6527960297939
 20
102.1823057299156
 10
150.6746293221093
 20
102.171808954764
 10
150.6975715045175
 20
102.1634330664892
 10
150.7215149177864
 20
102.1572964902468
 10
150.7463088389906
 20
102.1535176511922
 10
150.7718456088979
 20
102.1522365063275
  0
HATCH
  5
95
330
1F
100
AcDbEntity
  8
ISS138金台
  6
Continuous
 62
   250
420
  2367521
370
    13
100
AcDbHatch
 10
0.0
 20
0.0
 30
0.0
210
0.0
220
0.0
230
1.0
  2
SOLID
 70
     1
 71
     0
 91
        1
 92
        3
 72
     0
 73
     1
 93
       67
 10
145.767144705464
 20
102.1515582531639
 10
145.7927353049874
 20
102.1528501639518
 10
145.8175830558078
 20
102.1566505348528
 10
145.8415587668464
 20
102.162819408865
 10
145.8645117151779
 20
102.171249126756
 10
145.8863450074932
 20
102.1817781996773
 10
145.9069509845601
 20
102.1943312661663
 10
145.9261681575299
 20
102.2087360714512
 10
145.9438888671704
 20
102.2248957222231
 10
145.9599839224029
 20
102.2426594955565
 10
145.9743564299181
 20
102.2619197322193
 10
145.9868341349445
 20
102.2825472411326
 10
145.9973416760193
 20
102.3044020652944
 10
146.0057175642942
 20
102.3273765454724
 10
146.0118541405366
 20
102.3513307246645
 10
146.0156329795912
 20
102.3761461777152
 10
146.0169141244559
 20
102.4016829476225
 10
146.0169141244559
 20
102.4016829476225
 10
146.0156329795912
 20
102.4272197175297
 10
146.0118541405366
 20
102.4520351705804
 10
146.0057067983709
 20
102.4759893497725
 10
145.9973309100961
 20
102.4989638299505
 10
145.9868341349445
 20
102.5208078881891
 10
145.9743456639949
 20
102.5414353971024
 10
145.9599946883261
 20
102.5606956337651
 10
145.9438888671704
 20
102.5784701730218
 10
145.9261681575299
 20
102.5946190578704
 10
145.9069509845601
 20
102.6090238631554
 10
145.8863557734165
 20
102.6215661637212
 10
145.8645117151779
 20
102.6321167684889
 10
145.8415480009232
 20
102.6405357204567
 10
145.8175830558078
 20
102.6467045944689
 10
145.7927353049874
 20
102.6505049653699
 10
145.767144705464
 20
102.6517968761578
 10
145.767144705464
 20
102.6517968761578
 10
145.7415541059406
 20
102.6505049653699
 10
145.7166848232737
 20
102.6467045944689
 10
145.6927198781584
 20
102.6405357204567
 10
145.6697131002107
 20
102.6321167684889
 10
145.6478582760489
 20
102.6215661637212
 10
145.6272307671356
 20
102.6090238631554
 10
145.607981296396
 20
102.5946190578704
 10
145.5902282889858
 20
102.5784701730218
 10
145.5740901700604
 20
102.5606956337651
 10
145.5596961306987
 20
102.5414353971024
 10
145.5471753619794
 20
102.5208078881891
 10
145.5366570549813
 20
102.4989530640273
 10
145.5282488689368
 20
102.4759893497725
 10
145.5220907608479
 20
102.4520351705804
 10
145.5183119217933
 20
102.4272197175297
 10
145.5170200110054
 20
102.4016829476225
 10
145.5170200110054
 20
102.4016829476225
 10
145.5183119217933
 20
102.3761461777152
 10
145.5221015267711
 20
102.3513199587412
 10
145.52825963486
 20
102.3273765454724
 10
145.5366462890581
 20
102.3044128312176
 10
145.5471753619794
 20
102.2825364752094
 10
145.5597068966219
 20
102.2619197322193
 10
145.5740901700604
 20
102.2426594955565
 10
145.5902282889858
 20
102.2248957222231
 10
145.607981296396
 20
102.2087360714512
 10
145.6272307671356
 20
102.1943312661663
 10
145.6478582760489
 20
102.1817889656005
 10
145.6697238661339
 20
102.1712383608327
 10
145.6927091122351
 20
102.162819408865
 10
145.7166955891969
 20
102.1566505348528
 10
145.7415433400173
 20
102.1528501639518
 97
        0
 75
     1
 76
     1
 98
        0
  0
LWPOLYLINE
  5
96
330
1F
100
AcDbEntity
  8
ISS138金台
  6
Continuous
 62
   250
420
  2367521
370
    13
100
AcDbPolyline
 90
       68
 70
     0
 43
0.0
 10
145.767144705464
 20
102.1515582531639
 10
145.7927353049874
 20
102.1528501639518
 10
145.8175830558078
 20
102.1566505348528
 10
145.8415587668464
 20
102.162819408865
 10
145.8645117151779
 20
102.171249126756
 10
145.8863450074932
 20
102.1817781996773
 10
145.9069509845601
 20
102.1943312661663
 10
145.9261681575299
 20
102.2087360714512
 10
145.9438888671704
 20
102.2248957222231
 10
145.9599839224029
 20
102.2426594955565
 10
145.9743564299181
 20
102.2619197322193
 10
145.9868341349445
 20
102.2825472411326
 10
145.9973416760193
 20
102.3044020652944
 10
146.0057175642942
 20
102.3273765454724
 10
146.0118541405366
 20
102.3513307246645
 10
146.0156329795912
 20
102.3761461777152
 10
146.0169141244559
 20
102.4016829476225
 10
146.0169141244559
 20
102.4016829476225
 10
146.0156329795912
 20
102.4272197175297
 10
146.0118541405366
 20
102.4520351705804
 10
146.0057067983709
 20
102.4759893497725
 10
145.9973309100961
 20
102.4989638299505
 10
145.9868341349445
 20
102.5208078881891
 10
145.9743456639949
 20
102.5414353971024
 10
145.9599946883261
 20
102.5606956337651
 10
145.9438888671704
 20
102.5784701730218
 10
145.9261681575299
 20
102.5946190578704
 10
145.9069509845601
 20
102.6090238631554
 10
145.8863557734165
 20
102.6215661637212
 10
145.8645117151779
 20
102.6321167684889
 10
145.8415480009232
 20
102.6405357204567
 10
145.8175830558078
 20
102.6467045944689
 10
145.7927353049874
 20
102.6505049653699
 10
145.767144705464
 20
102.6517968761578
 10
145.767144705464
 20
102.6517968761578
 10
145.7415541059406
 20
102.6505049653699
 10
145.7166848232737
 20
102.6467045944689
 10
145.6927198781584
 20
102.6405357204567
 10
145.6697131002107
 20
102.6321167684889
 10
145.6478582760489
 20
102.6215661637212
 10
145.6272307671356
 20
102.6090238631554
 10
145.607981296396
 20
102.5946190578704
 10
145.5902282889858
 20
102.5784701730218
 10
145.5740901700604
 20
102.5606956337651
 10
145.5596961306987
 20
102.5414353971024
 10
145.5471753619794
 20
102.5208078881891
 10
145.5366570549813
 20
102.4989530640273
 10
145.5282488689368
 20
102.4759893497725
 10
145.5220907608479
 20
102.4520351705804
 10
145.5183119217933
 20
102.4272197175297
 10
145.5170200110054
 20
102.4016829476225
 10
145.5170200110054
 20
102.4016829476225
 10
145.5183119217933
 20
102.3761461777152
 10
145.5221015267711
 20
102.3513199587412
 10
145.52825963486
 20
102.3273765454724
 10
145.5366462890581
 20
102.3044128312176
 10
145.5471753619794
 20
102.2825364752094
 10
145.5597068966219
 20
102.2619197322193
 10
145.5740901700604
 20
102.2426594955565
 10
145.5902282889858
 20
102.2248957222231
 10
145.607981296396
 20
102.2087360714512
 10
145.6272307671356
 20
102.1943312661663
 10
145.6478582760489
 20
102.1817889656005
 10
145.6697238661339
 20
102.1712383608327
 10
145.6927091122351
 20
102.162819408865
 10
145.7166955891969
 20
102.1566505348528
 10
145.7415433400173
 20
102.1528501639518
 10
145.767144705464
 20
102.1515582531639
  0
TEXT
  5
97
330
1F
100
AcDbEntity
  8
ISS138金台
  6
Continuous
 62
   250
420
  2367521
100
AcDbText
 10
144.7294679218676
 20
105.2679915657016
 30
0.0
 40
2.150533301035563
  1
7
 50
90.00000250447816
 41
1.024999618530273
  7
MS Gothic
100
AcDbText
  0
TEXT
  5
98
330
1F
100
AcDbEntity
  8
ISS138金台
  6
Continuous
 62
   250
420
  2367521
100
AcDbText
 10
149.7135090186185
 20
105.9283948286241
 30
0.0
 40
2.150533301035563
  1
10
 50
90.00000250447816
 41
0.9978761672973631
  7
MS Gothic
100
AcDbText
  0
TEXT
  5
99
330
1F
100
AcDbEntity
  8
ISS138金台
  6
Continuous
 62
   250
420
  2367521
100
AcDbText
 10
120.168384612217
 20
119.0938518531541
 30
0.0
 40
2.150533301035563
  1
35
 41
0.916999816894531
  7
MS Gothic
100
AcDbText
  0
LINE
  5
9A
330
1F
100
AcDbEntity
  8
ISS138金台
  6
Continuous
 62
   250
420
  2367521
370
    13
100
AcDbLine
 10
129.6561666725514
 20
101.4074068734165
 30
0.0
 11
129.6561666725514
 21
91.39733757930824
 31
0.0
  0
LINE
  5
9B
330
1F
100
AcDbEntity
  8
ISS138金台
  6
Continuous
 62
   250
420
  2367521
370
    13
100
AcDbLine
 10
129.6561666725514
 20
91.90447715909411
 30
0.0
 11
114.574916899049
 21
91.90447715909411
 31
0.0
  0
LINE
  5
9C
330
1F
100
AcDbEntity
  8
ISS138金台
  6
Continuous
 62
   250
420
  2367521
370
    13
100
AcDbLine
 10
114.5749276649723
 20
91.39734834523148
 30
0.0
 11
114.5749276649723
 21
101.4074176393398
 31
0.0
  0
HATCH
  5
9D
330
1F
100
AcDbEntity
  8
ISS138金台
  6
Continuous
 62
   250
420
  2367521
370
    13
100
AcDbHatch
 10
0.0
 20
0.0
 30
0.0
210
0.0
220
0.0
230
1.0
  2
SOLID
 70
     1
 71
     0
 91
        1
 92
        3
 72
     0
 73
     1
 93
       67
 10
129.6496102253029
 20
91.63438167703943
 10
129.6752115907495
 20
91.63567358782731
 10
129.7000485756467
 20
91.63946319280512
 10
129.724013520762
 20
91.64564283274052
 10
129.7469772350167
 20
91.6540725506315
 10
129.7688212932553
 20
91.66461238947603
 10
129.7894165043989
 20
91.67714392411855
 10
129.8086229114455
 20
91.69155949532674
 10
129.8263543870093
 20
91.7077191460986
 10
129.842460208165
 20
91.72548291943207
 10
129.856821949757
 20
91.74474315609486
 10
129.8692996547834
 20
91.76537066500815
 10
129.879796429935
 20
91.78722548916994
 10
129.888183084133
 20
91.8101999693479
 10
129.8943196603755
 20
91.83415414854002
 10
129.8980984994301
 20
91.85896960159072
 10
129.8993796442948
 20
91.88450637149799
 10
129.8993796442948
 20
91.88450637149799
 10
129.8980877335069
 20
91.91004314140527
 10
129.8943196603755
 20
91.93485859445596
 10
129.8881723182098
 20
91.95881277364808
 10
129.879796429935
 20
91.9817764879028
 10
129.8693104207066
 20
92.00364207798783
 10
129.856821949757
 20
92.0242588209779
 10
129.8424494422418
 20
92.04351905764068
 10
129.8263543870093
 20
92.06128283097415
 10
129.8086229114455
 20
92.077442481746
 10
129.7894165043989
 20
92.0918580529542
 10
129.7688212932553
 20
92.10438958759673
 10
129.7469772350167
 20
92.11494019236449
 10
129.724013520762
 20
92.12335914433223
 10
129.7000485756467
 20
92.12952801834439
 10
129.6752008248263
 20
92.13332838924543
 10
129.6496102253029
 20
92.13462030003333
 10
129.6496102253029
 20
92.13462030003333
 10
129.6240088598562
 20
92.13332838924543
 10
129.5991503431125
 20
92.12952801834439
 10
129.575174632074
 20
92.12335914433223
 10
129.5521786200495
 20
92.11494019236449
 10
129.5303237958877
 20
92.10438958759673
 10
129.5096962869745
 20
92.09184728703096
 10
129.4904468162349
 20
92.077442481746
 10
129.4726938088247
 20
92.06128283097415
 10
129.4565449239761
 20
92.04351905764068
 10
129.4421724164608
 20
92.0242588209779
 10
129.4296408818183
 20
92.0036313120646
 10
129.4191225748202
 20
91.9817764879028
 10
129.4107143887757
 20
91.95881277364808
 10
129.4045562806867
 20
91.93485859445596
 10
129.4007774416322
 20
91.91004314140527
 10
129.3994855308443
 20
91.88450637149799
 10
129.3994855308443
 20
91.88450637149799
 10
129.4007774416322
 20
91.8589588356675
 10
129.40456704661
 20
91.83415414854002
 10
129.4107143887757
 20
91.8101999693479
 10
129.419111808897
 20
91.78723625509318
 10
129.4296516477415
 20
91.76537066500815
 10
129.4421724164608
 20
91.74474315609486
 10
129.4565449239761
 20
91.72548291943207
 10
129.4726938088247
 20
91.7077191460986
 10
129.4904360503117
 20
91.69155949532674
 10
129.5096962869745
 20
91.67715469004179
 10
129.5303237958877
 20
91.66461238947603
 10
129.5521893859728
 20
91.65406178470826
 10
129.575174632074
 20
91.64564283274052
 10
129.5991611090358
 20
91.63947395872836
 10
129.6240088598562
 20
91.63567358782731
 97
        0
 75
     1
 76
     1
 98
        0
  0
LWPOLYLINE
  5
9E
330
1F
100
AcDbEntity
  8
ISS138金台
  6
Continuous
 62
   250
420
  2367521
370
    13
100
AcDbPolyline
 90
       68
 70
     0
 43
0.0
 10
129.6496102253029
 20
91.63438167703943
 10
129.6752115907495
 20
91.63567358782731
 10
129.7000485756467
 20
91.63946319280512
 10
129.724013520762
 20
91.64564283274052
 10
129.7469772350167
 20
91.6540725506315
 10
129.7688212932553
 20
91.66461238947603
 10
129.7894165043989
 20
91.67714392411855
 10
129.8086229114455
 20
91.69155949532674
 10
129.8263543870093
 20
91.7077191460986
 10
129.842460208165
 20
91.72548291943207
 10
129.856821949757
 20
91.74474315609486
 10
129.8692996547834
 20
91.76537066500815
 10
129.879796429935
 20
91.78722548916994
 10
129.888183084133
 20
91.8101999693479
 10
129.8943196603755
 20
91.83415414854002
 10
129.8980984994301
 20
91.85896960159072
 10
129.8993796442948
 20
91.88450637149799
 10
129.8993796442948
 20
91.88450637149799
 10
129.8980877335069
 20
91.91004314140527
 10
129.8943196603755
 20
91.93485859445596
 10
129.8881723182098
 20
91.95881277364808
 10
129.879796429935
 20
91.9817764879028
 10
129.8693104207066
 20
92.00364207798783
 10
129.856821949757
 20
92.0242588209779
 10
129.8424494422418
 20
92.04351905764068
 10
129.8263543870093
 20
92.06128283097415
 10
129.8086229114455
 20
92.077442481746
 10
129.7894165043989
 20
92.0918580529542
 10
129.7688212932553
 20
92.10438958759673
 10
129.7469772350167
 20
92.11494019236449
 10
129.724013520762
 20
92.12335914433223
 10
129.7000485756467
 20
92.12952801834439
 10
129.6752008248263
 20
92.13332838924543
 10
129.6496102253029
 20
92.13462030003333
 10
129.6496102253029
 20
92.13462030003333
 10
129.6240088598562
 20
92.13332838924543
 10
129.5991503431125
 20
92.12952801834439
 10
129.575174632074
 20
92.12335914433223
 10
129.5521786200495
 20
92.11494019236449
 10
129.5303237958877
 20
92.10438958759673
 10
129.5096962869745
 20
92.09184728703096
 10
129.4904468162349
 20
92.077442481746
 10
129.4726938088247
 20
92.06128283097415
 10
129.4565449239761
 20
92.04351905764068
 10
129.4421724164608
 20
92.0242588209779
 10
129.4296408818183
 20
92.0036313120646
 10
129.4191225748202
 20
91.9817764879028
 10
129.4107143887757
 20
91.95881277364808
 10
129.4045562806867
 20
91.93485859445596
 10
129.4007774416322
 20
91.91004314140527
 10
129.3994855308443
 20
91.88450637149799
 10
129.3994855308443
 20
91.88450637149799
 10
129.4007774416322
 20
91.8589588356675
 10
129.40456704661
 20
91.83415414854002
 10
129.4107143887757
 20
91.8101999693479
 10
129.419111808897
 20
91.78723625509318
 10
129.4296516477415
 20
91.76537066500815
 10
129.4421724164608
 20
91.74474315609486
 10
129.4565449239761
 20
91.72548291943207
 10
129.4726938088247
 20
91.7077191460986
 10
129.4904360503117
 20
91.69155949532674
 10
129.5096962869745
 20
91.67715469004179
 10
129.5303237958877
 20
91.66461238947603
 10
129.5521893859728
 20
91.65406178470826
 10
129.575174632074
 20
91.64564283274052
 10
129.5991611090358
 20
91.63947395872836
 10
129.6240088598562
 20
91.63567358782731
 10
129.6496102253029
 20
91.63438167703943
  0
HATCH
  5
9F
330
1F
100
AcDbEntity
  8
ISS138金台
  6
Continuous
 62
   250
420
  2367521
370
    13
100
AcDbHatch
 10
0.0
 20
0.0
 30
0.0
210
0.0
220
0.0
230
1.0
  2
SOLID
 70
     1
 71
     0
 91
        1
 92
        3
 72
     0
 73
     1
 93
       67
 10
114.5683604518005
 20
91.65641952189617
 10
114.5938972217078
 20
91.65771143268407
 10
114.618691142912
 20
91.66150103766186
 10
114.6426237902576
 20
91.66768067759728
 10
114.6655767385892
 20
91.67611039548825
 10
114.6874100309045
 20
91.68663946840954
 10
114.7080052420481
 20
91.69919253489853
 10
114.7272331809412
 20
91.7135973401835
 10
114.7449754224282
 20
91.72975699095534
 10
114.7610920095071
 20
91.74752076428882
 10
114.7754752829456
 20
91.7667810009516
 10
114.7879852857416
 20
91.78740850986489
 10
114.7985035927397
 20
91.80926333402668
 10
114.806901012861
 20
91.83223781420465
 10
114.8130591209499
 20
91.85619199339675
 10
114.8168379600045
 20
91.88100744644746
 10
114.8181298707924
 20
91.90654421635473
 10
114.8181298707924
 20
91.90654421635473
 10
114.8168379600045
 20
91.93208098626201
 10
114.8130591209499
 20
91.95689643931271
 10
114.8068902469378
 20
91.98085061850483
 10
114.7984928268165
 20
92.00382509868278
 10
114.7879852857416
 20
92.02566915692134
 10
114.7754752829456
 20
92.04629666583463
 10
114.7610920095071
 20
92.06555690249742
 10
114.7449754224282
 20
92.08333144175413
 10
114.7272224150179
 20
92.09948032660273
 10
114.7080052420481
 20
92.11388513188771
 10
114.6874100309045
 20
92.12642743245345
 10
114.6655767385892
 20
92.13697803722121
 10
114.6426345561809
 20
92.14539698918897
 10
114.618691142912
 20
92.15156586320114
 10
114.5938972217078
 20
92.15536623410217
 10
114.5683604518005
 20
92.15665814489006
 10
114.5683604518005
 20
92.15665814489006
 10
114.54281291597
 20
92.15536623410217
 10
114.5180189947657
 20
92.15156586320114
 10
114.4940863474201
 20
92.14539698918897
 10
114.4711441650118
 20
92.13697803722121
 10
114.4493108726965
 20
92.12642743245345
 10
114.4287156615529
 20
92.11388513188771
 10
114.4094877226598
 20
92.09948032660273
 10
114.3917562470961
 20
92.08333144175413
 10
114.3756288940939
 20
92.06555690249742
 10
114.3612563865786
 20
92.04629666583463
 10
114.3487356178593
 20
92.02566915692134
 10
114.3382173108613
 20
92.00381433275956
 10
114.32981989074
 20
91.98085061850483
 10
114.3236617826511
 20
91.95689643931271
 10
114.3198829435965
 20
91.93208098626201
 10
114.3185910328086
 20
91.90654421635473
 10
114.3185910328086
 20
91.90654421635473
 10
114.3198829435965
 20
91.88100744644746
 10
114.3236725485743
 20
91.85619199339675
 10
114.32981989074
 20
91.83223781420465
 10
114.3382173108613
 20
91.80927409994992
 10
114.3487463837826
 20
91.78740850986489
 10
114.3612563865786
 20
91.7667810009516
 10
114.3756288940939
 20
91.74752076428882
 10
114.3917562470961
 20
91.72975699095534
 10
114.4094877226598
 20
91.7135973401835
 10
114.4287156615529
 20
91.69919253489853
 10
114.4493108726965
 20
91.68665023433277
 10
114.4711441650118
 20
91.67609962956502
 10
114.4940863474201
 20
91.66768067759728
 10
114.518029760689
 20
91.6615118035851
 10
114.5428236818932
 20
91.65771143268407
 97
        0
 75
     1
 76
     1
 98
        0
  0
LWPOLYLINE
  5
A0
330
1F
100
AcDbEntity
  8
ISS138金台
  6
Continuous
 62
   250
420
  2367521
370
    13
100
AcDbPolyline
 90
       68
 70
     0
 43
0.0
 10
114.5683604518005
 20
91.65641952189617
 10
114.5938972217078
 20
91.65771143268407
 10
114.618691142912
 20
91.66150103766186
 10
114.6426237902576
 20
91.66768067759728
 10
114.6655767385892
 20
91.67611039548825
 10
114.6874100309045
 20
91.68663946840954
 10
114.7080052420481
 20
91.69919253489853
 10
114.7272331809412
 20
91.7135973401835
 10
114.7449754224282
 20
91.72975699095534
 10
114.7610920095071
 20
91.74752076428882
 10
114.7754752829456
 20
91.7667810009516
 10
114.7879852857416
 20
91.78740850986489
 10
114.7985035927397
 20
91.80926333402668
 10
114.806901012861
 20
91.83223781420465
 10
114.8130591209499
 20
91.85619199339675
 10
114.8168379600045
 20
91.88100744644746
 10
114.8181298707924
 20
91.90654421635473
 10
114.8181298707924
 20
91.90654421635473
 10
114.8168379600045
 20
91.93208098626201
 10
114.8130591209499
 20
91.95689643931271
 10
114.8068902469378
 20
91.98085061850483
 10
114.7984928268165
 20
92.00382509868278
 10
114.7879852857416
 20
92.02566915692134
 10
114.7754752829456
 20
92.04629666583463
 10
114.7610920095071
 20
92.06555690249742
 10
114.7449754224282
 20
92.08333144175413
 10
114.7272224150179
 20
92.09948032660273
 10
114.7080052420481
 20
92.11388513188771
 10
114.6874100309045
 20
92.12642743245345
 10
114.6655767385892
 20
92.13697803722121
 10
114.6426345561809
 20
92.14539698918897
 10
114.618691142912
 20
92.15156586320114
 10
114.5938972217078
 20
92.15536623410217
 10
114.5683604518005
 20
92.15665814489006
 10
114.5683604518005
 20
92.15665814489006
 10
114.54281291597
 20
92.15536623410217
 10
114.5180189947657
 20
92.15156586320114
 10
114.4940863474201
 20
92.14539698918897
 10
114.4711441650118
 20
92.13697803722121
 10
114.4493108726965
 20
92.12642743245345
 10
114.4287156615529
 20
92.11388513188771
 10
114.4094877226598
 20
92.09948032660273
 10
114.3917562470961
 20
92.08333144175413
 10
114.3756288940939
 20
92.06555690249742
 10
114.3612563865786
 20
92.04629666583463
 10
114.3487356178593
 20
92.02566915692134
 10
114.3382173108613
 20
92.00381433275956
 10
114.32981989074
 20
91.98085061850483
 10
114.3236617826511
 20
91.95689643931271
 10
114.3198829435965
 20
91.93208098626201
 10
114.3185910328086
 20
91.90654421635473
 10
114.3185910328086
 20
91.90654421635473
 10
114.3198829435965
 20
91.88100744644746
 10
114.3236725485743
 20
91.85619199339675
 10
114.32981989074
 20
91.83223781420465
 10
114.3382173108613
 20
91.80927409994992
 10
114.3487463837826
 20
91.78740850986489
 10
114.3612563865786
 20
91.7667810009516
 10
114.3756288940939
 20
91.74752076428882
 10
114.3917562470961
 20
91.72975699095534
 10
114.4094877226598
 20
91.7135973401835
 10
114.4287156615529
 20
91.69919253489853
 10
114.4493108726965
 20
91.68665023433277
 10
114.4711441650118
 20
91.67609962956502
 10
114.4940863474201
 20
91.66768067759728
 10
114.518029760689
 20
91.6615118035851
 10
114.5428236818932
 20
91.65771143268407
 10
114.5683604518005
 20
91.65641952189617
  0
TEXT
  5
A1
330
1F
100
AcDbEntity
  8
ISS138金台
  6
Continuous
 62
   250
420
  2367521
100
AcDbText
 10
120.5501011863453
 20
92.80950700254402
 30
0.0
 40
2.150533301035563
  1
15
 41
0.9618744850158689
  7
MS Gothic
100
AcDbText
  0
LINE
  5
A2
330
1F
100
AcDbEntity
  8
ISS138金台
  6
UserDefined01
 62
   140
420
    44526
370
    13
100
AcDbLine
 10
122.1522320521763
 20
97.46072707564761
 30
0.0
 11
129.6780430285596
 21
97.46072707564761
 31
0.0
  0
TEXT
  5
A3
330
1F
100
AcDbEntity
  8
ISS138金台
  6
Continuous
 62
   140
420
    44526
100
AcDbText
 10
124.2078989660189
 20
98.95544649764362
 30
0.0
 40
1.881716638406118
  1
7.5
 41
0.9092796870640345
  7
MS Gothic
100
AcDbText
  0
HATCH
  5
A4
330
1F
100
AcDbEntity
  8
ISS138金台
  6
Continuous
 62
   140
420
    44526
370
    50
100
AcDbHatch
 10
0.0
 20
0.0
 30
0.0
210
0.0
220
0.0
230
1.0
  2
SOLID
 70
     1
 71
     0
 91
        1
 92
        3
 72
     0
 73
     1
 93
        3
 10
121.2862965488239
 20
106.6329491601169
 10
123.0184367036094
 20
106.6322386091835
 10
122.1534270696551
 20
105.1336436270786
 97
        0
 75
     1
 76
     1
 98
        0
  0
LWPOLYLINE
  5
A5
330
1F
100
AcDbEntity
  8
ISS138金台
  6
Continuous
 62
   140
420
    44526
370
    50
100
AcDbPolyline
 90
        4
 70
     0
 43
0.0
 10
121.2862965488239
 20
106.6329491601169
 10
123.0184367036094
 20
106.6322386091835
 10
122.1534270696551
 20
105.1336436270786
 10
121.2862965488239
 20
106.6329491601169
  0
ENDSEC
  0
SECTION
  2
OBJECTS
  0
DICTIONARY
  5
C
330
0
100
AcDbDictionary
281
     1
  3
ACAD_DETAILVIEWSTYLE
350
AD
  3
ACAD_GROUP
350
D
  3
ACAD_LAYOUT
350
1A
  3
ACAD_MATERIAL
350
43
  3
ACAD_MLEADERSTYLE
350
5B
  3
ACAD_MLINESTYLE
350
17
  3
ACAD_PLOTSETTINGS
350
19
  3
ACAD_PLOTSTYLENAME
350
E
  3
ACAD_SCALELIST
350
47
  3
ACAD_SECTIONVIEWSTYLE
350
AE
  3
ACAD_TABLESTYLE
350
59
  3
ACAD_VISUALSTYLE
350
2A
  3
ACDB_RECOMPOSE_DATA
350
AA
  3
AcDbVariableDictionary
350
A6
  0
SUN
  5
5D
330
29
100
AcDbSun
 90
        1
290
     0
 63
     7
421
 16777215
 40
1.0
291
     1
 91
  2455826
 92
 54000000
292
     0
 70
     2
 71
   256
280
     1
  0
DICTIONARY
  5
AD
102
{ACAD_REACTORS
330
C
102
}
330
C
100
AcDbDictionary
281
     1
  0
DICTIONARY
  5
D
102
{ACAD_REACTORS
330
C
102
}
330
C
100
AcDbDictionary
281
     1
  0
DICTIONARY
  5
1A
102
{ACAD_REACTORS
330
C
102
}
330
C
100
AcDbDictionary
281
     1
  3
Layout1
350
1E
  3
Layout2
350
26
  3
Model
350
22
  0
DICTIONARY
  5
43
102
{ACAD_REACTORS
330
C
102
}
330
C
100
AcDbDictionary
281
     1
  3
ByBlock
350
45
  3
ByLayer
350
44
  3
Global
350
46
  0
DICTIONARY
  5
5B
102
{ACAD_REACTORS
330
C
102
}
330
C
100
AcDbDictionary
281
     1
  3
Standard
350
5C
  0
DICTIONARY
  5
17
102
{ACAD_REACTORS
330
C
102
}
330
C
100
AcDbDictionary
281
     1
  3
Standard
350
18
  0
DICTIONARY
  5
19
102
{ACAD_REACTORS
330
C
102
}
330
C
100
AcDbDictionary
281
     1
  0
ACDBDICTIONARYWDFLT
  5
E
102
{ACAD_REACTORS
330
C
102
}
330
C
100
AcDbDictionary
281
     1
  3
Normal
350
F
100
AcDbDictionaryWithDefault
340
F
  0
DICTIONARY
  5
47
102
{ACAD_REACTORS
330
C
102
}
330
C
100
AcDbDictionary
281
     1
  3
A0
350
48
  3
A1
350
49
  3
A2
350
4A
  3
A3
350
4B
  3
A4
350
4C
  3
A5
350
4D
  3
A6
350
4E
  3
A7
350
4F
  3
A8
350
50
  3
A9
350
51
  3
B0
350
52
  3
B1
350
53
  3
B2
350
54
  3
B3
350
55
  3
B4
350
56
  3
B5
350
57
  3
B6
350
58
  0
DICTIONARY
  5
AE
102
{ACAD_REACTORS
330
C
102
}
330
C
100
AcDbDictionary
281
     1
  0
DICTIONARY
  5
59
102
{ACAD_REACTORS
330
C
102
}
330
C
100
AcDbDictionary
281
     1
  3
Standard
350
5A
  0
DICTIONARY
  5
2A
102
{ACAD_REACTORS
330
C
102
}
330
C
100
AcDbDictionary
281
     1
  3
2dWireframe
350
2F
  3
Basic
350
32
  3
Brighten
350
36
  3
ColorChange
350
3A
  3
Conceptual
350
34
  3
Dim
350
35
  3
EdgeColorOff
350
3D
  3
Facepattern
350
39
  3
Flat
350
2B
  3
FlatWithEdges
350
2C
  3
Gouraud
350
2D
  3
GouraudWithEdges
350
2E
  3
Hidden
350
31
  3
JitterOff
350
3B
  3
Linepattern
350
38
  3
OverhangOff
350
3C
  3
Realistic
350
33
  3
Shaded
350
42
  3
Shaded with edges
350
41
  3
Shades of Gray
350
3E
  3
Sketchy
350
3F
  3
Thicken
350
37
  3
Wireframe
350
30
  3
X-Ray
350
40
  0
XRECORD
  5
AA
102
{ACAD_REACTORS
330
C
102
}
330
C
100
AcDbXrecord
280
     1
 90
        1
330
5A
  0
DICTIONARY
  5
A6
102
{ACAD_REACTORS
330
C
102
}
330
C
100
AcDbDictionary
281
     1
  3
CANNOSCALE
350
A7
  3
CENTEREXE
350
AF
  3
CENTERLTYPEFILE
350
B0
  3
CMLEADERSTYLE
350
AC
  3
CTABLESTYLE
350
AB
  0
LAYOUT
  5
1E
102
{ACAD_REACTORS
330
1A
102
}
330
1A
100
AcDbPlotSettings
  1

  2
none_device
  4

  6

 40
0.0
 41
0.0
 42
0.0
 43
0.0
 44
0.0
 45
0.0
 46
0.0
 47
0.0
 48
0.0
 49
0.0
140
0.0
141
0.0
142
1.0
143
1.0
 70
   688
 72
     1
 73
     0
 74
     5
  7

 75
    16
 76
     0
 77
     5
 78
   300
147
1.0
148
0.0
149
0.0
100
AcDbLayout
  1
Layout1
 70
     1
 71
     1
 10
0.0
 20
0.0
 11
420.0
 21
297.0
 12
0.0
 22
0.0
 32
0.0
 14
1.000000000000000E+20
 24
1.000000000000000E+20
 34
1.000000000000000E+20
 15
-1.000000000000000E+20
 25
-1.000000000000000E+20
 35
-1.000000000000000E+20
146
0.0
 13
0.0
 23
0.0
 33
0.0
 16
1.0
 26
0.0
 36
0.0
 17
0.0
 27
1.0
 37
0.0
 76
     0
330
1B
  0
LAYOUT
  5
26
102
{ACAD_REACTORS
330
1A
102
}
330
1A
100
AcDbPlotSettings
  1

  2
none_device
  4

  6

 40
0.0
 41
0.0
 42
0.0
 43
0.0
 44
0.0
 45
0.0
 46
0.0
 47
0.0
 48
0.0
 49
0.0
140
0.0
141
0.0
142
1.0
143
1.0
 70
   688
 72
     1
 73
     0
 74
     5
  7

 75
    16
 76
     0
 77
     5
 78
   300
147
1.0
148
0.0
149
0.0
100
AcDbLayout
  1
Layout2
 70
     1
 71
     2
 10
0.0
 20
0.0
 11
0.0
 21
0.0
 12
0.0
 22
0.0
 32
0.0
 14
0.0
 24
0.0
 34
0.0
 15
0.0
 25
0.0
 35
0.0
146
0.0
 13
0.0
 23
0.0
 33
0.0
 16
1.0
 26
0.0
 36
0.0
 17
0.0
 27
1.0
 37
0.0
 76
     0
330
23
  0
LAYOUT
  5
22
102
{ACAD_REACTORS
330
1A
102
}
330
1A
100
AcDbPlotSettings
  1

  2
none_device
  4
Letter_(8.50_x_11.00_Inches)
  6

 40
6.35
 41
6.35
 42
6.35000508
 43
6.35000508
 44
215.9
 45
279.4
 46
0.0
 47
0.0
 48
0.0
 49
0.0
140
0.0
141
0.0
142
1.0
143
1.0
 70
  1712
 72
     1
 73
     0
 74
     0
  7

 75
     0
 76
     0
 77
     5
 78
   300
147
1.0
148
0.0
149
0.0
100
AcDbLayout
  1
Model
 70
     1
 71
     0
 10
0.0
 20
0.0
 11
302.9997823349792
 21
216.0016055409748
 12
0.0
 22
0.0
 32
0.0
 14
0.0
 24
0.0
 34
0.0
 15
302.9997823349792
 25
216.0016055409748
 35
0.0
146
0.0
 13
0.0
 23
0.0
 33
0.0
 16
1.0
 26
0.0
 36
0.0
 17
0.0
 27
1.0
 37
0.0
 76
     0
330
1F
331
29
  0
MATERIAL
  5
45
102
{ACAD_REACTORS
330
43
102
}
330
43
100
AcDbMaterial
  1
ByBlock
 72
     1
 94
      127
  0
MATERIAL
  5
44
102
{ACAD_REACTORS
330
43
102
}
330
43
100
AcDbMaterial
  1
ByLayer
 72
     1
 94
      127
  0
MATERIAL
  5
46
102
{ACAD_REACTORS
330
43
102
}
330
43
100
AcDbMaterial
  1
Global
 72
     1
 94
      127
  0
MLEADERSTYLE
  5
5C
102
{ACAD_REACTORS
330
5B
102
}
330
5B
100
AcDbMLeaderStyle
179
     2
170
     2
171
     1
172
     0
 90
        2
 40
0.0
 41
0.0
173
     1
 91
-1056964608
340
14
 92
       -2
290
     1
 42
2.0
291
     1
 43
8.0
  3
Standard
341
0
 44
4.0
300

342
11
174
     1
178
     6
175
     1
176
     0
 93
-1056964608
 45
4.0
292
     0
297
     0
 46
4.0
343
0
 94
-1056964608
 47
1.0
 49
1.0
140
1.0
293
     1
141
0.0
294
     1
177
     0
142
1.0
295
     0
296
     0
143
3.75
271
     0
272
     9
273
     9
298
     0
  0
MLINESTYLE
  5
18
102
{ACAD_REACTORS
330
17
102
}
330
17
100
AcDbMlineStyle
  2
Standard
 70
     0
  3

 62
   256
 51
90.0
 52
90.0
 71
     2
 49
0.5
 62
   256
  6
BYLAYER
 49
-0.5
 62
   256
  6
BYLAYER
  0
ACDBPLACEHOLDER
  5
F
102
{ACAD_REACTORS
330
E
102
}
330
E
  0
SCALE
  5
48
102
{ACAD_REACTORS
330
47
102
}
330
47
100
AcDbScale
 70
     0
300
1:1
140
1.0
141
1.0
290
     1
  0
SCALE
  5
49
102
{ACAD_REACTORS
330
47
102
}
330
47
100
AcDbScale
 70
     0
300
1:2
140
1.0
141
2.0
290
     0
  0
SCALE
  5
4A
102
{ACAD_REACTORS
330
47
102
}
330
47
100
AcDbScale
 70
     0
300
1:4
140
1.0
141
4.0
290
     0
  0
SCALE
  5
4B
102
{ACAD_REACTORS
330
47
102
}
330
47
100
AcDbScale
 70
     0
300
1:5
140
1.0
141
5.0
290
     0
  0
SCALE
  5
4C
102
{ACAD_REACTORS
330
47
102
}
330
47
100
AcDbScale
 70
     0
300
1:8
140
1.0
141
8.0
290
     0
  0
SCALE
  5
4D
102
{ACAD_REACTORS
330
47
102
}
330
47
100
AcDbScale
 70
     0
300
1:10
140
1.0
141
10.0
290
     0
  0
SCALE
  5
4E
102
{ACAD_REACTORS
330
47
102
}
330
47
100
AcDbScale
 70
     0
300
1:16
140
1.0
141
16.0
290
     0
  0
SCALE
  5
4F
102
{ACAD_REACTORS
330
47
102
}
330
47
100
AcDbScale
 70
     0
300
1:20
140
1.0
141
20.0
290
     0
  0
SCALE
  5
50
102
{ACAD_REACTORS
330
47
102
}
330
47
100
AcDbScale
 70
     0
300
1:30
140
1.0
141
30.0
290
     0
  0
SCALE
  5
51
102
{ACAD_REACTORS
330
47
102
}
330
47
100
AcDbScale
 70
     0
300
1:40
140
1.0
141
40.0
290
     0
  0
SCALE
  5
52
102
{ACAD_REACTORS
330
47
102
}
330
47
100
AcDbScale
 70
     0
300
1:50
140
1.0
141
50.0
290
     0
  0
SCALE
  5
53
102
{ACAD_REACTORS
330
47
102
}
330
47
100
AcDbScale
 70
     0
300
1:100
140
1.0
141
100.0
290
     0
  0
SCALE
  5
54
102
{ACAD_REACTORS
330
47
102
}
330
47
100
AcDbScale
 70
     0
300
2:1
140
2.0
141
1.0
290
     0
  0
SCALE
  5
55
102
{ACAD_REACTORS
330
47
102
}
330
47
100
AcDbScale
 70
     0
300
4:1
140
4.0
141
1.0
290
     0
  0
SCALE
  5
56
102
{ACAD_REACTORS
330
47
102
}
330
47
100
AcDbScale
 70
     0
300
8:1
140
8.0
141
1.0
290
     0
  0
SCALE
  5
57
102
{ACAD_REACTORS
330
47
102
}
330
47
100
AcDbScale
 70
     0
300
10:1
140
10.0
141
1.0
290
     0
  0
SCALE
  5
58
102
{ACAD_REACTORS
330
47
102
}
330
47
100
AcDbScale
 70
     0
300
100:1
140
100.0
141
1.0
290
     0
  0
TABLESTYLE
  5
5A
102
{ACAD_REACTORS
330
59
102
}
102
{ACAD_XDICTIONARY
360
A8
102
}
330
59
100
AcDbTableStyle
  3
Standard
 70
     0
 71
     0
 40
0.06
 41
0.06
280
     0
281
     0
  7
Standard
140
4.5
170
     2
 62
     0
 63
   257
283
     0
 90
        4
 91
        0
  1

274
    -2
284
     1
 64
     0
275
    -2
285
     1
 65
     0
276
    -2
286
     1
 66
     0
277
    -2
287
     1
 67
     0
278
    -2
288
     1
 68
     0
279
    -2
289
     1
 69
     0
  7
Standard
140
6.0
170
     5
 62
     0
 63
   257
283
     0
 90
        4
 91
        0
  1

274
    -2
284
     1
 64
     0
275
    -2
285
     1
 65
     0
276
    -2
286
     1
 66
     0
277
    -2
287
     1
 67
     0
278
    -2
288
     1
 68
     0
279
    -2
289
     1
 69
     0
  7
Standard
140
4.5
170
     5
 62
     0
 63
   257
283
     0
 90
        4
 91
        0
  1

274
    -2
284
     1
 64
     0
275
    -2
285
     1
 65
     0
276
    -2
286
     1
 66
     0
277
    -2
287
     1
 67
     0
278
    -2
288
     1
 68
     0
279
    -2
289
     1
 69
     0
  0
VISUALSTYLE
  5
2F
102
{ACAD_REACTORS
330
2A
102
}
330
2A
100
AcDbVisualStyle
  2
2dWireframe
 70
     4
177
     3
291
     0
 70
    58
 90
        0
176
     1
 90
        2
176
     1
 90
        0
176
     1
 90
        0
176
     1
 40
0.6
176
     1
 40
30.0
176
     1
 62
     7
420
 16777215
176
     1
 90
        1
176
     1
 90
        4
176
     1
 62
     7
176
     1
 62
   257
176
     1
 90
        1
176
     1
 90
        1
176
     1
 40
1.0
176
     1
 90
        0
176
     1
 62
   257
176
     1
 40
1.0
176
     1
 90
        1
176
     1
 90
        6
176
     1
 90
        2
176
     1
 62
     7
176
     1
 90
        5
176
     1
 90
        0
176
     1
 90
        0
176
     1
290
     0
176
     1
 90
        1
176
     1
 40
0.0
176
     1
 90
        0
176
     1
290
     1
176
     1
290
     1
176
     1
290
     0
176
     1
290
     0
176
     1
290
     0
176
     1
290
     0
176
     1
290
     0
176
     1
290
     0
176
     1
290
     0
176
     1
 90
       50
176
     1
 40
0.0
176
     1
 40
1.0
176
     1
 90
        0
176
     1
 62
    18
420
        0
176
     1
 90
       50
176
     1
 90
        3
176
     1
 62
     5
420
      255
176
     1
290
     0
176
     1
 90
       50
176
     1
 90
       50
176
     1
 90
       50
176
     1
290
     0
176
     1
 90
       50
176
     1
 62
   256
176
     0
 40
1.0
176
     0
 90
        2
176
     1
  1
strokes_ogs.tif
176
     1
290
     0
176
     1
 40
1.0
176
     1
 40
1.0
176
     1
  0
VISUALSTYLE
  5
32
102
{ACAD_REACTORS
330
2A
102
}
330
2A
100
AcDbVisualStyle
  2
Basic
 70
     7
177
     3
291
     1
 70
    58
 90
        1
176
     1
 90
        0
176
     1
 90
        1
176
     1
 90
        0
176
     1
 40
0.6
176
     1
 40
30.0
176
     1
 62
     7
420
 16777215
176
     1
 90
        0
176
     1
 90
        4
176
     1
 62
     7
176
     1
 62
   257
176
     1
 90
        1
176
     1
 90
        1
176
     1
 40
1.0
176
     1
 90
        8
176
     1
 62
     7
176
     1
 40
1.0
176
     1
 90
        1
176
     1
 90
        6
176
     1
 90
        2
176
     1
 62
     7
176
     1
 90
        5
176
     1
 90
        0
176
     1
 90
        0
176
     1
290
     0
176
     1
 90
        1
176
     1
 40
0.0
176
     1
 90
        0
176
     1
290
     0
176
     1
290
     1
176
     1
290
     1
176
     1
290
     0
176
     1
290
     0
176
     1
290
     0
176
     1
290
     0
176
     1
290
     0
176
     1
290
     0
176
     1
 90
       50
176
     1
 40
0.0
176
     1
 40
1.0
176
     1
 90
        0
176
     1
 62
    18
420
        0
176
     1
 90
       50
176
     1
 90
        3
176
     1
 62
     5
420
      255
176
     1
290
     0
176
     1
 90
       50
176
     1
 90
       50
176
     1
 90
       50
176
     1
290
     0
176
     1
 90
       50
176
     1
 62
   256
176
     0
 40
1.0
176
     0
 90
        2
176
     1
  1
strokes_ogs.tif
176
     1
290
     0
176
     1
 40
1.0
176
     1
 40
1.0
176
     1
  0
VISUALSTYLE
  5
36
102
{ACAD_REACTORS
330
2A
102
}
330
2A
100
AcDbVisualStyle
  2
Brighten
 70
    12
177
     3
291
     1
 70
    58
 90
        2
176
     1
 90
        2
176
     1
 90
        0
176
     1
 90
        0
176
     1
 40
0.6
176
     1
 40
30.0
176
     1
 62
     7
420
 16777215
176
     1
 90
        1
176
     1
 90
        4
176
     1
 62
     7
176
     1
 62
   257
176
     1
 90
        1
176
     1
 90
        1
176
     1
 40
1.0
176
     1
 90
        8
176
     1
 62
     7
176
     1
 40
1.0
176
     1
 90
        1
176
     1
 90
        6
176
     1
 90
        2
176
     1
 62
     7
176
     1
 90
        5
176
     1
 90
        0
176
     1
 90
        0
176
     1
290
     0
176
     1
 90
        1
176
     1
 40
50.0
176
     1
 90
        0
176
     1
290
     0
176
     1
290
     1
176
     1
290
     1
176
     1
290
     0
176
     1
290
     0
176
     1
290
     0
176
     1
290
     0
176
     1
290
     0
176
     1
290
     0
176
     1
 90
       50
176
     1
 40
0.0
176
     1
 40
1.0
176
     1
 90
        0
176
     1
 62
    18
420
        0
176
     1
 90
       50
176
     1
 90
        3
176
     1
 62
     5
420
      255
176
     1
290
     0
176
     1
 90
       50
176
     1
 90
       50
176
     1
 90
       50
176
     1
290
     0
176
     1
 90
       50
176
     1
 62
   256
176
     0
 40
1.0
176
     0
 90
        2
176
     1
  1
strokes_ogs.tif
176
     1
290
     0
176
     1
 40
1.0
176
     1
 40
1.0
176
     1
  0
VISUALSTYLE
  5
3A
102
{ACAD_REACTORS
330
2A
102
}
330
2A
100
AcDbVisualStyle
  2
ColorChange
 70
    16
177
     3
291
     1
 70
    58
 90
        2
176
     1
 90
        2
176
     1
 90
        3
176
     1
 90
        0
176
     1
 40
0.6
176
     1
 40
30.0
176
     1
 62
     8
420
  8421504
176
     1
 90
        1
176
     1
 90
        4
176
     1
 62
     7
176
     1
 62
   257
176
     1
 90
        1
176
     1
 90
        1
176
     1
 40
1.0
176
     1
 90
        8
176
     1
 62
     8
420
  8421504
176
     1
 40
1.0
176
     1
 90
        1
176
     1
 90
        6
176
     1
 90
        2
176
     1
 62
     7
176
     1
 90
        5
176
     1
 90
        0
176
     1
 90
        0
176
     1
290
     0
176
     1
 90
        1
176
     1
 40
0.0
176
     1
 90
        0
176
     1
290
     0
176
     1
290
     1
176
     1
290
     1
176
     1
290
     0
176
     1
290
     0
176
     1
290
     0
176
     1
290
     0
176
     1
290
     0
176
     1
290
     0
176
     1
 90
       50
176
     1
 40
0.0
176
     1
 40
1.0
176
     1
 90
        0
176
     1
 62
    18
420
        0
176
     1
 90
       50
176
     1
 90
        3
176
     1
 62
     5
420
      255
176
     1
290
     0
176
     1
 90
       50
176
     1
 90
       50
176
     1
 90
       50
176
     1
290
     0
176
     1
 90
       50
176
     1
 62
   256
176
     0
 40
1.0
176
     0
 90
        2
176
     1
  1
strokes_ogs.tif
176
     1
290
     0
176
     1
 40
1.0
176
     1
 40
1.0
176
     1
  0
VISUALSTYLE
  5
34
102
{ACAD_REACTORS
330
2A
102
}
330
2A
100
AcDbVisualStyle
  2
Conceptual
 70
     9
177
     3
291
     0
 70
    58
 90
        3
176
     1
 90
        2
176
     1
 90
        0
176
     1
 90
        0
176
     1
 40
0.6
176
     1
 40
30.0
176
     1
 62
     7
420
 16777215
176
     1
 90
        2
176
     1
 90
        2
176
     1
 62
     7
176
     1
 62
   257
176
     1
 90
        1
176
     1
 90
        1
176
     1
 40
179.0
176
     1
 90
        8
176
     1
 62
     7
176
     1
 40
1.0
176
     1
 90
        1
176
     1
 90
        6
176
     1
 90
        2
176
     1
 62
     7
176
     1
 90
        3
176
     1
 90
        0
176
     1
 90
        0
176
     1
290
     0
176
     1
 90
        1
176
     1
 40
0.0
176
     1
 90
        0
176
     1
290
     0
176
     1
290
     1
176
     1
290
     1
176
     1
290
     0
176
     1
290
     0
176
     1
290
     0
176
     1
290
     0
176
     1
290
     0
176
     1
290
     0
176
     1
 90
       50
176
     1
 40
0.0
176
     1
 40
1.0
176
     1
 90
        0
176
     1
 62
    18
420
        0
176
     1
 90
       50
176
     1
 90
        3
176
     1
 62
     5
420
      255
176
     1
290
     0
176
     1
 90
       50
176
     1
 90
       50
176
     1
 90
       50
176
     1
290
     0
176
     1
 90
       50
176
     1
 62
   256
176
     0
 40
1.0
176
     0
 90
        2
176
     1
  1
strokes_ogs.tif
176
     1
290
     0
176
     1
 40
1.0
176
     1
 40
1.0
176
     1
  0
VISUALSTYLE
  5
35
102
{ACAD_REACTORS
330
2A
102
}
330
2A
100
AcDbVisualStyle
  2
Dim
 70
    11
177
     3
291
     1
 70
    58
 90
        2
176
     1
 90
        2
176
     1
 90
        0
176
     1
 90
        0
176
     1
 40
0.6
176
     1
 40
30.0
176
     1
 62
     7
420
 16777215
176
     1
 90
        1
176
     1
 90
        4
176
     1
 62
     7
176
     1
 62
   257
176
     1
 90
        1
176
     1
 90
        1
176
     1
 40
1.0
176
     1
 90
        8
176
     1
 62
     7
176
     1
 40
1.0
176
     1
 90
        1
176
     1
 90
        6
176
     1
 90
        2
176
     1
 62
     7
176
     1
 90
        5
176
     1
 90
        0
176
     1
 90
        0
176
     1
290
     0
176
     1
 90
        1
176
     1
 40
-50.0
176
     1
 90
        0
176
     1
290
     0
176
     1
290
     1
176
     1
290
     1
176
     1
290
     0
176
     1
290
     0
176
     1
290
     0
176
     1
290
     0
176
     1
290
     0
176
     1
290
     0
176
     1
 90
       50
176
     1
 40
0.0
176
     1
 40
1.0
176
     1
 90
        0
176
     1
 62
    18
420
        0
176
     1
 90
       50
176
     1
 90
        3
176
     1
 62
     5
420
      255
176
     1
290
     0
176
     1
 90
       50
176
     1
 90
       50
176
     1
 90
       50
176
     1
290
     0
176
     1
 90
       50
176
     1
 62
   256
176
     0
 40
1.0
176
     0
 90
        2
176
     1
  1
strokes_ogs.tif
176
     1
290
     0
176
     1
 40
1.0
176
     1
 40
1.0
176
     1
  0
VISUALSTYLE
  5
3D
102
{ACAD_REACTORS
330
2A
102
}
330
2A
100
AcDbVisualStyle
  2
EdgeColorOff
 70
    22
177
     3
291
     1
 70
    58
 90
        2
176
     0
 90
        2
176
     0
 90
        0
176
     0
 90
        0
176
     0
 40
0.6
176
     0
 40
30.0
176
     0
 62
     7
420
 16777215
176
     0
 90
        1
176
     0
 90
        4
176
     0
 62
     7
176
     0
 62
   257
176
     0
 90
        1
176
     0
 90
        1
176
     0
 40
1.0
176
     0
 90
        8
176
     2
 62
     7
176
     0
 40
1.0
176
     0
 90
        1
176
     0
 90
        6
176
     0
 90
        2
176
     0
 62
     7
176
     0
 90
        5
176
     0
 90
        0
176
     0
 90
        0
176
     0
290
     0
176
     0
 90
        1
176
     0
 40
0.0
176
     0
 90
        0
176
     0
290
     0
176
     0
290
     1
176
     0
290
     1
176
     0
290
     0
176
     0
290
     0
176
     0
290
     0
176
     0
290
     0
176
     0
290
     0
176
     0
290
     0
176
     0
 90
       50
176
     0
 40
0.0
176
     0
 40
1.0
176
     0
 90
        0
176
     0
 62
    18
420
        0
176
     0
 90
       50
176
     0
 90
        3
176
     0
 62
     5
420
      255
176
     0
290
     0
176
     0
 90
       50
176
     0
 90
       50
176
     0
 90
       50
176
     0
290
     0
176
     0
 90
       50
176
     0
 62
   256
176
     0
 40
1.0
176
     0
 90
        2
176
     0
  1
strokes_ogs.tif
176
     0
290
     0
176
     0
 40
1.0
176
     0
 40
1.0
176
     0
  0
VISUALSTYLE
  5
39
102
{ACAD_REACTORS
330
2A
102
}
330
2A
100
AcDbVisualStyle
  2
Facepattern
 70
    15
177
     3
291
     1
 70
    58
 90
        2
176
     1
 90
        2
176
     1
 90
        0
176
     1
 90
        0
176
     1
 40
0.6
176
     1
 40
30.0
176
     1
 62
     7
420
 16777215
176
     1
 90
        1
176
     1
 90
        4
176
     1
 62
     7
176
     1
 62
   257
176
     1
 90
        1
176
     1
 90
        1
176
     1
 40
1.0
176
     1
 90
        8
176
     1
 62
     7
176
     1
 40
1.0
176
     1
 90
        1
176
     1
 90
        6
176
     1
 90
        2
176
     1
 62
     7
176
     1
 90
        5
176
     1
 90
        0
176
     1
 90
        0
176
     1
290
     0
176
     1
 90
        1
176
     1
 40
0.0
176
     1
 90
        0
176
     1
290
     0
176
     1
290
     1
176
     1
290
     1
176
     1
290
     0
176
     1
290
     0
176
     1
290
     0
176
     1
290
     0
176
     1
290
     0
176
     1
290
     0
176
     1
 90
       50
176
     1
 40
0.0
176
     1
 40
1.0
176
     1
 90
        0
176
     1
 62
    18
420
        0
176
     1
 90
       50
176
     1
 90
        3
176
     1
 62
     5
420
      255
176
     1
290
     0
176
     1
 90
       50
176
     1
 90
       50
176
     1
 90
       50
176
     1
290
     0
176
     1
 90
       50
176
     1
 62
   256
176
     0
 40
1.0
176
     0
 90
        2
176
     1
  1
strokes_ogs.tif
176
     1
290
     0
176
     1
 40
1.0
176
     1
 40
1.0
176
     1
  0
VISUALSTYLE
  5
2B
102
{ACAD_REACTORS
330
2A
102
}
330
2A
100
AcDbVisualStyle
  2
Flat
 70
     0
177
     3
291
     1
 70
    58
 90
        2
176
     1
 90
        1
176
     1
 90
        1
176
     1
 90
        2
176
     1
 40
0.6
176
     1
 40
30.0
176
     1
 62
     7
420
 16777215
176
     1
 90
        0
176
     1
 90
        0
176
     1
 62
     7
176
     1
 62
   257
176
     1
 90
        1
176
     1
 90
        1
176
     1
 40
1.0
176
     1
 90
        8
176
     1
 62
     7
176
     1
 40
1.0
176
     1
 90
        1
176
     1
 90
        6
176
     1
 90
        2
176
     1
 62
     7
176
     1
 90
        5
176
     1
 90
        0
176
     1
 90
        0
176
     1
290
     0
176
     1
 90
       13
176
     1
 40
0.0
176
     1
 90
        0
176
     1
290
     0
176
     1
290
     1
176
     1
290
     1
176
     1
290
     0
176
     1
290
     0
176
     1
290
     0
176
     1
290
     0
176
     1
290
     0
176
     1
290
     0
176
     1
 90
       50
176
     1
 40
0.0
176
     1
 40
1.0
176
     1
 90
        0
176
     1
 62
    18
420
        0
176
     1
 90
       50
176
     1
 90
        3
176
     1
 62
     5
420
      255
176
     1
290
     0
176
     1
 90
       50
176
     1
 90
       50
176
     1
 90
       50
176
     1
290
     0
176
     1
 90
       50
176
     1
 62
   256
176
     0
 40
1.0
176
     0
 90
        2
176
     1
  1
strokes_ogs.tif
176
     1
290
     0
176
     1
 40
1.0
176
     1
 40
1.0
176
     1
  0
VISUALSTYLE
  5
2C
102
{ACAD_REACTORS
330
2A
102
}
330
2A
100
AcDbVisualStyle
  2
FlatWithEdges
 70
     1
177
     3
291
     1
 70
    58
 90
        2
176
     1
 90
        1
176
     1
 90
        1
176
     1
 90
        2
176
     1
 40
0.6
176
     1
 40
30.0
176
     1
 62
     7
420
 16777215
176
     1
 90
        1
176
     1
 90
        0
176
     1
 62
     7
176
     1
 62
   257
176
     1
 90
        1
176
     1
 90
        1
176
     1
 40
1.0
176
     1
 90
        0
176
     1
 62
   257
176
     1
 40
1.0
176
     1
 90
        1
176
     1
 90
        6
176
     1
 90
        2
176
     1
 62
     7
176
     1
 90
        5
176
     1
 90
        0
176
     1
 90
        0
176
     1
290
     0
176
     1
 90
       13
176
     1
 40
0.0
176
     1
 90
        0
176
     1
290
     0
176
     1
290
     1
176
     1
290
     1
176
     1
290
     0
176
     1
290
     0
176
     1
290
     0
176
     1
290
     0
176
     1
290
     0
176
     1
290
     0
176
     1
 90
       50
176
     1
 40
0.0
176
     1
 40
1.0
176
     1
 90
        0
176
     1
 62
    18
420
        0
176
     1
 90
       50
176
     1
 90
        3
176
     1
 62
     5
420
      255
176
     1
290
     0
176
     1
 90
       50
176
     1
 90
       50
176
     1
 90
       50
176
     1
290
     0
176
     1
 90
       50
176
     1
 62
   256
176
     0
 40
1.0
176
     0
 90
        2
176
     1
  1
strokes_ogs.tif
176
     1
290
     0
176
     1
 40
1.0
176
     1
 40
1.0
176
     1
  0
VISUALSTYLE
  5
2D
102
{ACAD_REACTORS
330
2A
102
}
330
2A
100
AcDbVisualStyle
  2
Gouraud
 70
     2
177
     3
291
     1
 70
    58
 90
        2
176
     1
 90
        2
176
     1
 90
        1
176
     1
 90
        2
176
     1
 40
0.6
176
     1
 40
30.0
176
     1
 62
     7
420
 16777215
176
     1
 90
        0
176
     1
 90
        0
176
     1
 62
     7
176
     1
 62
   257
176
     1
 90
        1
176
     1
 90
        1
176
     1
 40
1.0
176
     1
 90
        0
176
     1
 62
     7
176
     1
 40
1.0
176
     1
 90
        1
176
     1
 90
        6
176
     1
 90
        2
176
     1
 62
     7
176
     1
 90
        5
176
     1
 90
        0
176
     1
 90
        0
176
     1
290
     0
176
     1
 90
       13
176
     1
 40
0.0
176
     1
 90
        0
176
     1
290
     0
176
     1
290
     1
176
     1
290
     1
176
     1
290
     0
176
     1
290
     0
176
     1
290
     0
176
     1
290
     0
176
     1
290
     0
176
     1
290
     0
176
     1
 90
       50
176
     1
 40
0.0
176
     1
 40
1.0
176
     1
 90
        0
176
     1
 62
    18
420
        0
176
     1
 90
       50
176
     1
 90
        3
176
     1
 62
     5
420
      255
176
     1
290
     0
176
     1
 90
       50
176
     1
 90
       50
176
     1
 90
       50
176
     1
290
     0
176
     1
 90
       50
176
     1
 62
   256
176
     0
 40
1.0
176
     0
 90
        2
176
     1
  1
strokes_ogs.tif
176
     1
290
     0
176
     1
 40
1.0
176
     1
 40
1.0
176
     1
  0
VISUALSTYLE
  5
2E
102
{ACAD_REACTORS
330
2A
102
}
330
2A
100
AcDbVisualStyle
  2
GouraudWithEdges
 70
     3
177
     3
291
     1
 70
    58
 90
        2
176
     1
 90
        2
176
     1
 90
        1
176
     1
 90
        2
176
     1
 40
0.6
176
     1
 40
30.0
176
     1
 62
     7
420
 16777215
176
     1
 90
        1
176
     1
 90
        0
176
     1
 62
     7
176
     1
 62
   257
176
     1
 90
        1
176
     1
 90
        1
176
     1
 40
1.0
176
     1
 90
        0
176
     1
 62
   257
176
     1
 40
1.0
176
     1
 90
        1
176
     1
 90
        6
176
     1
 90
        2
176
     1
 62
     7
176
     1
 90
        5
176
     1
 90
        0
176
     1
 90
        0
176
     1
290
     0
176
     1
 90
       13
176
     1
 40
0.0
176
     1
 90
        0
176
     1
290
     0
176
     1
290
     1
176
     1
290
     1
176
     1
290
     0
176
     1
290
     0
176
     1
290
     0
176
     1
290
     0
176
     1
290
     0
176
     1
290
     0
176
     1
 90
       50
176
     1
 40
0.0
176
     1
 40
1.0
176
     1
 90
        0
176
     1
 62
    18
420
        0
176
     1
 90
       50
176
     1
 90
        3
176
     1
 62
     5
420
      255
176
     1
290
     0
176
     1
 90
       50
176
     1
 90
       50
176
     1
 90
       50
176
     1
290
     0
176
     1
 90
       50
176
     1
 62
   256
176
     0
 40
1.0
176
     0
 90
        2
176
     1
  1
strokes_ogs.tif
176
     1
290
     0
176
     1
 40
1.0
176
     1
 40
1.0
176
     1
  0
VISUALSTYLE
  5
31
102
{ACAD_REACTORS
330
2A
102
}
330
2A
100
AcDbVisualStyle
  2
Hidden
 70
     6
177
     3
291
     0
 70
    58
 90
        1
176
     1
 90
        2
176
     1
 90
        2
176
     1
 90
        0
176
     1
 40
0.6
176
     1
 40
30.0
176
     1
 62
     7
420
 16777215
176
     1
 90
        2
176
     1
 90
        2
176
     1
 62
     7
176
     1
 62
   257
176
     1
 90
        2
176
     1
 90
        1
176
     1
 40
40.0
176
     1
 90
        0
176
     1
 62
   257
176
     1
 40
1.0
176
     1
 90
        1
176
     1
 90
        6
176
     1
 90
        2
176
     1
 62
     7
176
     1
 90
        3
176
     1
 90
        0
176
     1
 90
        0
176
     1
290
     0
176
     1
 90
        1
176
     1
 40
0.0
176
     1
 90
        0
176
     1
290
     0
176
     1
290
     1
176
     1
290
     1
176
     1
290
     0
176
     1
290
     0
176
     1
290
     0
176
     1
290
     0
176
     1
290
     0
176
     1
290
     0
176
     1
 90
       50
176
     1
 40
0.0
176
     1
 40
1.0
176
     1
 90
        0
176
     1
 62
    18
420
        0
176
     1
 90
       50
176
     1
 90
        3
176
     1
 62
     5
420
      255
176
     1
290
     0
176
     1
 90
       50
176
     1
 90
       50
176
     1
 90
       50
176
     1
290
     0
176
     1
 90
       50
176
     1
 62
   256
176
     0
 40
1.0
176
     0
 90
        2
176
     1
  1
strokes_ogs.tif
176
     1
290
     0
176
     1
 40
1.0
176
     1
 40
1.0
176
     1
  0
VISUALSTYLE
  5
3B
102
{ACAD_REACTORS
330
2A
102
}
330
2A
100
AcDbVisualStyle
  2
JitterOff
 70
    20
177
     3
291
     1
 70
    58
 90
        2
176
     0
 90
        2
176
     0
 90
        0
176
     0
 90
        0
176
     0
 40
0.6
176
     0
 40
30.0
176
     0
 62
     7
420
 16777215
176
     0
 90
        1
176
     0
 90
        4
176
     0
 62
     7
176
     0
 62
   257
176
     0
 90
        1
176
     0
 90
        1
176
     0
 40
1.0
176
     0
 90
       10
176
     2
 62
     7
176
     0
 40
1.0
176
     0
 90
        1
176
     0
 90
        6
176
     0
 90
        2
176
     0
 62
     7
176
     0
 90
        5
176
     0
 90
        0
176
     0
 90
        0
176
     0
290
     0
176
     0
 90
        1
176
     0
 40
0.0
176
     0
 90
        0
176
     0
290
     0
176
     0
290
     1
176
     0
290
     1
176
     0
290
     0
176
     0
290
     0
176
     0
290
     0
176
     0
290
     0
176
     0
290
     0
176
     0
290
     0
176
     0
 90
       50
176
     0
 40
0.0
176
     0
 40
1.0
176
     0
 90
        0
176
     0
 62
    18
420
        0
176
     0
 90
       50
176
     0
 90
        3
176
     0
 62
     5
420
      255
176
     0
290
     0
176
     0
 90
       50
176
     0
 90
       50
176
     0
 90
       50
176
     0
290
     0
176
     0
 90
       50
176
     0
 62
   256
176
     0
 40
1.0
176
     0
 90
        2
176
     0
  1
strokes_ogs.tif
176
     0
290
     0
176
     0
 40
1.0
176
     0
 40
1.0
176
     0
  0
VISUALSTYLE
  5
38
102
{ACAD_REACTORS
330
2A
102
}
330
2A
100
AcDbVisualStyle
  2
Linepattern
 70
    14
177
     3
291
     1
 70
    58
 90
        2
176
     1
 90
        2
176
     1
 90
        0
176
     1
 90
        0
176
     1
 40
0.6
176
     1
 40
30.0
176
     1
 62
     7
420
 16777215
176
     1
 90
        1
176
     1
 90
        4
176
     1
 62
     7
176
     1
 62
   257
176
     1
 90
        7
176
     1
 90
        7
176
     1
 40
1.0
176
     1
 90
        8
176
     1
 62
     7
176
     1
 40
1.0
176
     1
 90
        1
176
     1
 90
        6
176
     1
 90
        2
176
     1
 62
     7
176
     1
 90
        5
176
     1
 90
        0
176
     1
 90
        0
176
     1
290
     0
176
     1
 90
        1
176
     1
 40
0.0
176
     1
 90
        0
176
     1
290
     0
176
     1
290
     1
176
     1
290
     1
176
     1
290
     0
176
     1
290
     0
176
     1
290
     0
176
     1
290
     0
176
     1
290
     0
176
     1
290
     0
176
     1
 90
       50
176
     1
 40
0.0
176
     1
 40
1.0
176
     1
 90
        0
176
     1
 62
    18
420
        0
176
     1
 90
       50
176
     1
 90
        3
176
     1
 62
     5
420
      255
176
     1
290
     0
176
     1
 90
       50
176
     1
 90
       50
176
     1
 90
       50
176
     1
290
     0
176
     1
 90
       50
176
     1
 62
   256
176
     0
 40
1.0
176
     0
 90
        2
176
     1
  1
strokes_ogs.tif
176
     1
290
     0
176
     1
 40
1.0
176
     1
 40
1.0
176
     1
  0
VISUALSTYLE
  5
3C
102
{ACAD_REACTORS
330
2A
102
}
330
2A
100
AcDbVisualStyle
  2
OverhangOff
 70
    21
177
     3
291
     1
 70
    58
 90
        2
176
     0
 90
        2
176
     0
 90
        0
176
     0
 90
        0
176
     0
 40
0.6
176
     0
 40
30.0
176
     0
 62
     7
420
 16777215
176
     0
 90
        1
176
     0
 90
        4
176
     0
 62
     7
176
     0
 62
   257
176
     0
 90
        1
176
     0
 90
        1
176
     0
 40
1.0
176
     0
 90
        9
176
     2
 62
     7
176
     0
 40
1.0
176
     0
 90
        1
176
     0
 90
        6
176
     0
 90
        2
176
     0
 62
     7
176
     0
 90
        5
176
     0
 90
        0
176
     0
 90
        0
176
     0
290
     0
176
     0
 90
        1
176
     0
 40
0.0
176
     0
 90
        0
176
     0
290
     0
176
     0
290
     1
176
     0
290
     1
176
     0
290
     0
176
     0
290
     0
176
     0
290
     0
176
     0
290
     0
176
     0
290
     0
176
     0
290
     0
176
     0
 90
       50
176
     0
 40
0.0
176
     0
 40
1.0
176
     0
 90
        0
176
     0
 62
    18
420
        0
176
     0
 90
       50
176
     0
 90
        3
176
     0
 62
     5
420
      255
176
     0
290
     0
176
     0
 90
       50
176
     0
 90
       50
176
     0
 90
       50
176
     0
290
     0
176
     0
 90
       50
176
     0
 62
   256
176
     0
 40
1.0
176
     0
 90
        2
176
     0
  1
strokes_ogs.tif
176
     0
290
     0
176
     0
 40
1.0
176
     0
 40
1.0
176
     0
  0
VISUALSTYLE
  5
33
102
{ACAD_REACTORS
330
2A
102
}
330
2A
100
AcDbVisualStyle
  2
Realistic
 70
     8
177
     3
291
     0
 70
    58
 90
        2
176
     1
 90
        3
176
     1
 90
        0
176
     1
 90
        2
176
     1
 40
0.6
176
     1
 40
30.0
176
     1
 62
     7
420
 16777215
176
     1
 90
        0
176
     1
 90
        0
176
     1
 62
     7
176
     1
 62
   257
176
     1
 90
        1
176
     1
 90
        1
176
     1
 40
1.0
176
     1
 90
        8
176
     1
 62
   257
176
     1
 40
1.0
176
     1
 90
        1
176
     1
 90
        6
176
     1
 90
        2
176
     1
 62
     7
176
     1
 90
        3
176
     1
 90
        0
176
     1
 90
        0
176
     1
290
     0
176
     1
 90
       13
176
     1
 40
0.0
176
     1
 90
        0
176
     1
290
     0
176
     1
290
     1
176
     1
290
     1
176
     1
290
     0
176
     1
290
     0
176
     1
290
     0
176
     1
290
     0
176
     1
290
     0
176
     1
290
     0
176
     1
 90
       50
176
     1
 40
0.0
176
     1
 40
1.0
176
     1
 90
        0
176
     1
 62
    18
420
        0
176
     1
 90
       50
176
     1
 90
        3
176
     1
 62
     5
420
      255
176
     1
290
     0
176
     1
 90
       50
176
     1
 90
       50
176
     1
 90
       50
176
     1
290
     0
176
     1
 90
       50
176
     1
 62
   256
176
     0
 40
1.0
176
     0
 90
        2
176
     1
  1
strokes_ogs.tif
176
     1
290
     0
176
     1
 40
1.0
176
     1
 40
1.0
176
     1
  0
VISUALSTYLE
  5
42
102
{ACAD_REACTORS
330
2A
102
}
330
2A
100
AcDbVisualStyle
  2
Shaded
 70
    27
177
     3
291
     0
 70
    58
 90
        2
176
     1
 90
        2
176
     1
 90
        1
176
     1
 90
        2
176
     1
 40
0.6
176
     1
 40
30.0
176
     1
 62
     7
420
 16777215
176
     1
 90
        0
176
     1
 90
        4
176
     1
 62
     7
176
     1
 62
   257
176
     1
 90
        1
176
     1
 90
        1
176
     1
 40
1.0
176
     1
 90
        8
176
     1
 62
   257
176
     1
 40
1.0
176
     1
 90
        1
176
     1
 90
        6
176
     1
 90
        2
176
     1
 62
     8
420
  7895160
176
     1
 90
        3
176
     1
 90
        0
176
     1
 90
        0
176
     1
290
     0
176
     1
 90
        5
176
     1
 40
0.0
176
     1
 90
        0
176
     1
290
     0
176
     1
290
     1
176
     1
290
     1
176
     1
290
     0
176
     1
290
     0
176
     1
290
     0
176
     1
290
     0
176
     1
290
     0
176
     1
290
     0
176
     1
 90
       50
176
     1
 40
0.0
176
     1
 40
1.0
176
     1
 90
        0
176
     1
 62
    18
420
        0
176
     1
 90
       50
176
     1
 90
        3
176
     1
 62
     5
420
      255
176
     1
290
     0
176
     1
 90
       50
176
     1
 90
       50
176
     1
 90
       50
176
     1
290
     0
176
     1
 90
       50
176
     1
 62
   256
176
     0
 40
1.0
176
     0
 90
        2
176
     1
  1
strokes_ogs.tif
176
     1
290
     0
176
     1
 40
1.0
176
     1
 40
1.0
176
     1
  0
VISUALSTYLE
  5
41
102
{ACAD_REACTORS
330
2A
102
}
330
2A
100
AcDbVisualStyle
  2
Shaded with edges
 70
    26
177
     3
291
     0
 70
    58
 90
        2
176
     1
 90
        2
176
     1
 90
        1
176
     1
 90
        2
176
     1
 40
0.6
176
     1
 40
30.0
176
     1
 62
     7
420
 16777215
176
     1
 90
        1
176
     1
 90
       10
176
     1
 62
     7
176
     1
 62
   257
176
     1
 90
        2
176
     1
 90
        1
176
     1
 40
1.0
176
     1
 90
        8
176
     1
 62
   257
176
     1
 40
1.0
176
     1
 90
        1
176
     1
 90
        6
176
     1
 90
        2
176
     1
 62
     7
176
     1
 90
        3
176
     1
 90
        0
176
     1
 90
        0
176
     1
290
     0
176
     1
 90
        5
176
     1
 40
0.0
176
     1
 90
        0
176
     1
290
     0
176
     1
290
     1
176
     1
290
     1
176
     1
290
     0
176
     1
290
     0
176
     1
290
     0
176
     1
290
     0
176
     1
290
     0
176
     1
290
     0
176
     1
 90
       50
176
     1
 40
0.0
176
     1
 40
1.0
176
     1
 90
        0
176
     1
 62
    18
420
        0
176
     1
 90
       50
176
     1
 90
        3
176
     1
 62
     5
420
      255
176
     1
290
     0
176
     1
 90
       50
176
     1
 90
       50
176
     1
 90
       50
176
     1
290
     0
176
     1
 90
       50
176
     1
 62
   256
176
     0
 40
1.0
176
     0
 90
        2
176
     1
  1
strokes_ogs.tif
176
     1
290
     0
176
     1
 40
1.0
176
     1
 40
1.0
176
     1
  0
VISUALSTYLE
  5
3E
102
{ACAD_REACTORS
330
2A
102
}
330
2A
100
AcDbVisualStyle
  2
Shades of Gray
 70
    23
177
     3
291
     0
 70
    58
 90
        2
176
     1
 90
        2
176
     1
 90
        3
176
     1
 90
        0
176
     1
 40
0.6
176
     1
 40
30.0
176
     1
 62
     7
420
 16777215
176
     1
 90
        2
176
     1
 90
        2
176
     1
 62
     7
176
     1
 62
     7
176
     1
 90
        1
176
     1
 90
        1
176
     1
 40
40.0
176
     1
 90
        8
176
     1
 62
     7
176
     1
 40
1.0
176
     1
 90
        1
176
     1
 90
        6
176
     1
 90
        2
176
     1
 62
     7
176
     1
 90
        3
176
     1
 90
        0
176
     1
 90
        0
176
     1
290
     0
176
     1
 90
        1
176
     1
 40
0.0
176
     1
 90
        0
176
     1
290
     0
176
     1
290
     1
176
     1
290
     1
176
     1
290
     0
176
     1
290
     0
176
     1
290
     0
176
     1
290
     0
176
     1
290
     0
176
     1
290
     0
176
     1
 90
       50
176
     1
 40
0.0
176
     1
 40
1.0
176
     1
 90
        0
176
     1
 62
    18
420
        0
176
     1
 90
       50
176
     1
 90
        3
176
     1
 62
     5
420
      255
176
     1
290
     0
176
     1
 90
       50
176
     1
 90
       50
176
     1
 90
       50
176
     1
290
     0
176
     1
 90
       50
176
     1
 62
   256
176
     0
 40
1.0
176
     0
 90
        2
176
     1
  1
strokes_ogs.tif
176
     1
290
     0
176
     1
 40
1.0
176
     1
 40
1.0
176
     1
  0
VISUALSTYLE
  5
3F
102
{ACAD_REACTORS
330
2A
102
}
330
2A
100
AcDbVisualStyle
  2
Sketchy
 70
    24
177
     3
291
     0
 70
    58
 90
        1
176
     1
 90
        2
176
     1
 90
        2
176
     1
 90
        0
176
     1
 40
0.6
176
     1
 40
30.0
176
     1
 62
     7
420
 16777215
176
     1
 90
        2
176
     1
 90
        2
176
     1
 62
     7
176
     1
 62
     7
176
     1
 90
        1
176
     1
 90
        1
176
     1
 40
40.0
176
     1
 90
       11
176
     1
 62
     7
176
     1
 40
1.0
176
     1
 90
        1
176
     1
 90
        6
176
     1
 90
        2
176
     1
 62
     7
176
     1
 90
        6
176
     1
 90
        0
176
     1
 90
        0
176
     1
290
     0
176
     1
 90
        1
176
     1
 40
0.0
176
     1
 90
        0
176
     1
290
     0
176
     1
290
     1
176
     1
290
     1
176
     1
290
     0
176
     1
290
     0
176
     1
290
     0
176
     1
290
     0
176
     1
290
     0
176
     1
290
     0
176
     1
 90
       50
176
     1
 40
0.0
176
     1
 40
1.0
176
     1
 90
        0
176
     1
 62
    18
420
        0
176
     1
 90
       50
176
     1
 90
        3
176
     1
 62
     5
420
      255
176
     1
290
     0
176
     1
 90
       50
176
     1
 90
       50
176
     1
 90
       50
176
     1
290
     0
176
     1
 90
       50
176
     1
 62
   256
176
     0
 40
1.0
176
     0
 90
        2
176
     1
  1
strokes_ogs.tif
176
     1
290
     0
176
     1
 40
1.0
176
     1
 40
1.0
176
     1
  0
VISUALSTYLE
  5
37
102
{ACAD_REACTORS
330
2A
102
}
330
2A
100
AcDbVisualStyle
  2
Thicken
 70
    13
177
     3
291
     1
 70
    58
 90
        2
176
     1
 90
        2
176
     1
 90
        0
176
     1
 90
        0
176
     1
 40
0.6
176
     1
 40
30.0
176
     1
 62
     7
420
 16777215
176
     1
 90
        1
176
     1
 90
        4
176
     1
 62
     7
176
     1
 62
   257
176
     1
 90
        1
176
     1
 90
        1
176
     1
 40
1.0
176
     1
 90
       12
176
     1
 62
     7
176
     1
 40
1.0
176
     1
 90
        1
176
     1
 90
        6
176
     1
 90
        2
176
     1
 62
     7
176
     1
 90
        5
176
     1
 90
        0
176
     1
 90
        0
176
     1
290
     0
176
     1
 90
        1
176
     1
 40
0.0
176
     1
 90
        0
176
     1
290
     0
176
     1
290
     1
176
     1
290
     1
176
     1
290
     0
176
     1
290
     0
176
     1
290
     0
176
     1
290
     0
176
     1
290
     0
176
     1
290
     0
176
     1
 90
       50
176
     1
 40
0.0
176
     1
 40
1.0
176
     1
 90
        0
176
     1
 62
    18
420
        0
176
     1
 90
       50
176
     1
 90
        3
176
     1
 62
     5
420
      255
176
     1
290
     0
176
     1
 90
       50
176
     1
 90
       50
176
     1
 90
       50
176
     1
290
     0
176
     1
 90
       50
176
     1
 62
   256
176
     0
 40
1.0
176
     0
 90
        2
176
     1
  1
strokes_ogs.tif
176
     1
290
     0
176
     1
 40
1.0
176
     1
 40
1.0
176
     1
  0
VISUALSTYLE
  5
30
102
{ACAD_REACTORS
330
2A
102
}
330
2A
100
AcDbVisualStyle
  2
Wireframe
 70
     5
177
     3
291
     0
 70
    58
 90
        0
176
     1
 90
        2
176
     1
 90
        0
176
     1
 90
        0
176
     1
 40
0.6
176
     1
 40
30.0
176
     1
 62
     7
420
 16777215
176
     1
 90
        1
176
     1
 90
        4
176
     1
 62
     7
176
     1
 62
   257
176
     1
 90
        1
176
     1
 90
        1
176
     1
 40
1.0
176
     1
 90
        0
176
     1
 62
   257
176
     1
 40
1.0
176
     1
 90
        1
176
     1
 90
        6
176
     1
 90
        2
176
     1
 62
     7
176
     1
 90
        3
176
     1
 90
        0
176
     1
 90
        0
176
     1
290
     0
176
     1
 90
        1
176
     1
 40
0.0
176
     1
 90
        0
176
     1
290
     0
176
     1
290
     1
176
     1
290
     1
176
     1
290
     0
176
     1
290
     0
176
     1
290
     0
176
     1
290
     0
176
     1
290
     0
176
     1
290
     0
176
     1
 90
       50
176
     1
 40
0.0
176
     1
 40
1.0
176
     1
 90
        0
176
     1
 62
    18
420
        0
176
     1
 90
       50
176
     1
 90
        3
176
     1
 62
     5
420
      255
176
     1
290
     0
176
     1
 90
       50
176
     1
 90
       50
176
     1
 90
       50
176
     1
290
     0
176
     1
 90
       50
176
     1
 62
   256
176
     0
 40
1.0
176
     0
 90
        2
176
     1
  1
strokes_ogs.tif
176
     1
290
     0
176
     1
 40
1.0
176
     1
 40
1.0
176
     1
  0
VISUALSTYLE
  5
40
102
{ACAD_REACTORS
330
2A
102
}
330
2A
100
AcDbVisualStyle
  2
X-Ray
 70
    25
177
     3
291
     0
 70
    58
 90
        2
176
     1
 90
        2
176
     1
 90
        1
176
     1
 90
        1
176
     1
 40
0.5
176
     1
 40
30.0
176
     1
 62
     7
420
 16777215
176
     1
 90
        1
176
     1
 90
        0
176
     1
 62
     7
176
     1
 62
   257
176
     1
 90
        1
176
     1
 90
        1
176
     1
 40
1.0
176
     1
 90
        8
176
     1
 62
     7
176
     1
 40
1.0
176
     1
 90
        1
176
     1
 90
        6
176
     1
 90
        2
176
     1
 62
     7
176
     1
 90
        3
176
     1
 90
        0
176
     1
 90
        0
176
     1
290
     0
176
     1
 90
       13
176
     1
 40
0.0
176
     1
 90
        0
176
     1
290
     0
176
     1
290
     1
176
     1
290
     1
176
     1
290
     0
176
     1
290
     0
176
     1
290
     0
176
     1
290
     0
176
     1
290
     0
176
     1
290
     0
176
     1
 90
       50
176
     1
 40
0.0
176
     1
 40
1.0
176
     1
 90
        0
176
     1
 62
    18
420
        0
176
     1
 90
       50
176
     1
 90
        3
176
     1
 62
     5
420
      255
176
     1
290
     0
176
     1
 90
       50
176
     1
 90
       50
176
     1
 90
       50
176
     1
290
     0
176
     1
 90
       50
176
     1
 62
   256
176
     0
 40
1.0
176
     0
 90
        2
176
     1
  1
strokes_ogs.tif
176
     1
290
     0
176
     1
 40
1.0
176
     1
 40
1.0
176
     1
  0
DICTIONARYVAR
  5
A7
102
{ACAD_REACTORS
330
A6
102
}
330
A6
100
DictionaryVariables
280
     0
  1
1:1
  0
DICTIONARYVAR
  5
AF
102
{ACAD_REACTORS
330
A6
102
}
330
A6
100
DictionaryVariables
280
     0
  1
3.500000
  0
DICTIONARYVAR
  5
B0
102
{ACAD_REACTORS
330
A6
102
}
330
A6
100
DictionaryVariables
280
     0
  1
acadiso.lin
  0
DICTIONARYVAR
  5
AC
102
{ACAD_REACTORS
330
A6
102
}
330
A6
100
DictionaryVariables
280
     0
  1
Standard
  0
DICTIONARYVAR
  5
AB
102
{ACAD_REACTORS
330
A6
102
}
330
A6
100
DictionaryVariables
280
     0
  1
Standard
  0
DICTIONARY
  5
A8
330
5A
100
AcDbDictionary
280
     1
281
     1
  3
ACAD_ROUNDTRIP_2008_TABLESTYLE_CELLSTYLEMAP
360
A9
  0
CELLSTYLEMAP
  5
A9
102
{ACAD_REACTORS
330
A8
102
}
330
A8
100
AcDbCellStyleMap
 90
        3
300
CELLSTYLE
  1
TABLEFORMAT_BEGIN
 90
        5
170
     1
 91
        0
 92
    32768
 62
   257
 93
        1
300
CONTENTFORMAT
  1
CONTENTFORMAT_BEGIN
 90
        0
 91
        0
 92
        4
 93
        0
300

 40
0.0
140
1.0
 94
        5
 62
     0
340
11
144
6.0
309
CONTENTFORMAT_END
171
     1
301
MARGIN
  1
CELLMARGIN_BEGIN
 40
1.5
 40
1.5
 40
1.5
 40
1.5
 40
1.5
 40
1.5
309
CELLMARGIN_END
 94
        6
 95
        1
302
GRIDFORMAT
  1
GRIDFORMAT_BEGIN
 90
        0
 91
        1
 62
     0
 92
       -2
340
14
 93
        0
 40
0.045
309
GRIDFORMAT_END
 95
        2
302
GRIDFORMAT
  1
GRIDFORMAT_BEGIN
 90
        0
 91
        1
 62
     0
 92
       -2
340
14
 93
        0
 40
0.045
309
GRIDFORMAT_END
 95
        4
302
GRIDFORMAT
  1
GRIDFORMAT_BEGIN
 90
        0
 91
        1
 62
     0
 92
       -2
340
14
 93
        0
 40
0.045
309
GRIDFORMAT_END
 95
        8
302
GRIDFORMAT
  1
GRIDFORMAT_BEGIN
 90
        0
 91
        1
 62
     0
 92
       -2
340
14
 93
        0
 40
0.045
309
GRIDFORMAT_END
 95
       16
302
GRIDFORMAT
  1
GRIDFORMAT_BEGIN
 90
        0
 91
        1
 62
     0
 92
       -2
340
14
 93
        0
 40
0.045
309
GRIDFORMAT_END
 95
       32
302
GRIDFORMAT
  1
GRIDFORMAT_BEGIN
 90
        0
 91
        1
 62
     0
 92
       -2
340
14
 93
        0
 40
0.045
309
GRIDFORMAT_END
309
TABLEFORMAT_END
  1
CELLSTYLE_BEGIN
 90
        1
 91
        1
300
_TITLE
309
CELLSTYLE_END
300
CELLSTYLE
  1
TABLEFORMAT_BEGIN
 90
        5
170
     1
 91
        0
 92
        0
 62
   257
 93
        1
300
CONTENTFORMAT
  1
CONTENTFORMAT_BEGIN
 90
        0
 91
        0
 92
        4
 93
        0
300

 40
0.0
140
1.0
 94
        5
 62
     0
340
11
144
4.5
309
CONTENTFORMAT_END
171
     1
301
MARGIN
  1
CELLMARGIN_BEGIN
 40
1.5
 40
1.5
 40
1.5
 40
1.5
 40
1.5
 40
1.5
309
CELLMARGIN_END
 94
        6
 95
        1
302
GRIDFORMAT
  1
GRIDFORMAT_BEGIN
 90
        0
 91
        1
 62
     0
 92
       -2
340
14
 93
        0
 40
0.045
309
GRIDFORMAT_END
 95
        2
302
GRIDFORMAT
  1
GRIDFORMAT_BEGIN
 90
        0
 91
        1
 62
     0
 92
       -2
340
14
 93
        0
 40
0.045
309
GRIDFORMAT_END
 95
        4
302
GRIDFORMAT
  1
GRIDFORMAT_BEGIN
 90
        0
 91
        1
 62
     0
 92
       -2
340
14
 93
        0
 40
0.045
309
GRIDFORMAT_END
 95
        8
302
GRIDFORMAT
  1
GRIDFORMAT_BEGIN
 90
        0
 91
        1
 62
     0
 92
       -2
340
14
 93
        0
 40
0.045
309
GRIDFORMAT_END
 95
       16
302
GRIDFORMAT
  1
GRIDFORMAT_BEGIN
 90
        0
 91
        1
 62
     0
 92
       -2
340
14
 93
        0
 40
0.045
309
GRIDFORMAT_END
 95
       32
302
GRIDFORMAT
  1
GRIDFORMAT_BEGIN
 90
        0
 91
        1
 62
     0
 92
       -2
340
14
 93
        0
 40
0.045
309
GRIDFORMAT_END
309
TABLEFORMAT_END
  1
CELLSTYLE_BEGIN
 90
        2
 91
        1
300
_HEADER
309
CELLSTYLE_END
300
CELLSTYLE
  1
TABLEFORMAT_BEGIN
 90
        5
170
     1
 91
        0
 92
        0
 62
   257
 93
        1
300
CONTENTFORMAT
  1
CONTENTFORMAT_BEGIN
 90
        0
 91
        0
 92
        4
 93
        0
300

 40
0.0
140
1.0
 94
        2
 62
     0
340
11
144
4.5
309
CONTENTFORMAT_END
171
     1
301
MARGIN
  1
CELLMARGIN_BEGIN
 40
1.5
 40
1.5
 40
1.5
 40
1.5
 40
1.5
 40
1.5
309
CELLMARGIN_END
 94
        6
 95
        1
302
GRIDFORMAT
  1
GRIDFORMAT_BEGIN
 90
        0
 91
        1
 62
     0
 92
       -2
340
14
 93
        0
 40
0.045
309
GRIDFORMAT_END
 95
        2
302
GRIDFORMAT
  1
GRIDFORMAT_BEGIN
 90
        0
 91
        1
 62
     0
 92
       -2
340
14
 93
        0
 40
0.045
309
GRIDFORMAT_END
 95
        4
302
GRIDFORMAT
  1
GRIDFORMAT_BEGIN
 90
        0
 91
        1
 62
     0
 92
       -2
340
14
 93
        0
 40
0.045
309
GRIDFORMAT_END
 95
        8
302
GRIDFORMAT
  1
GRIDFORMAT_BEGIN
 90
        0
 91
        1
 62
     0
 92
       -2
340
14
 93
        0
 40
0.045
309
GRIDFORMAT_END
 95
       16
302
GRIDFORMAT
  1
GRIDFORMAT_BEGIN
 90
        0
 91
        1
 62
     0
 92
       -2
340
14
 93
        0
 40
0.045
309
GRIDFORMAT_END
 95
       32
302
GRIDFORMAT
  1
GRIDFORMAT_BEGIN
 90
        0
 91
        1
 62
     0
 92
       -2
340
14
 93
        0
 40
0.045
309
GRIDFORMAT_END
309
TABLEFORMAT_END
  1
CELLSTYLE_BEGIN
 90
        3
 91
        2
300
_DATA
309
CELLSTYLE_END
  0
ENDSEC
  0
EOF
