  0
SECTION
  2
HEADER
  9
$ACADVER
  1
AC1027
  9
$ACADMAINTVER
 70
   105
  9
$DWGCODEPAGE
  3
ANSI_932
  9
$LASTSAVEDBY
  1
a.yasuda
  9
$REQUIREDVERSIONS
160
                 0
  9
$INSBASE
 10
0.0
 20
0.0
 30
0.0
  9
$EXTMIN
 10
0.0
 20
0.0
 30
0.0
  9
$EXTMAX
 10
302.9997823349792
 20
216.0016055409748
 30
0.0
  9
$LIMMIN
 10
0.0
 20
0.0
  9
$LIMMAX
 10
302.9997823349792
 20
216.0016055409748
  9
$ORTHOMODE
 70
     0
  9
$REGENMODE
 70
     1
  9
$FILLMODE
 70
     1
  9
$QTEXTMODE
 70
     0
  9
$MIRRTEXT
 70
     1
  9
$LTSCALE
 40
1.0
  9
$ATTMODE
 70
     1
  9
$TEXTSIZE
 40
2.5
  9
$TRACEWID
 40
1.0
  9
$TEXTSTYLE
  7
Standard
  9
$CLAYER
  8
0
  9
$CELTYPE
  6
ByLayer
  9
$CECOLOR
 62
   256
  9
$CELTSCALE
 40
1.0
  9
$DISPSILH
 70
     0
  9
$DIMSCALE
 40
1.0
  9
$DIMASZ
 40
2.5
  9
$DIMEXO
 40
0.625
  9
$DIMDLI
 40
3.75
  9
$DIMRND
 40
0.0
  9
$DIMDLE
 40
0.0
  9
$DIMEXE
 40
1.25
  9
$DIMTP
 40
0.0
  9
$DIMTM
 40
0.0
  9
$DIMTXT
 40
2.5
  9
$DIMCEN
 40
2.5
  9
$DIMTSZ
 40
0.0
  9
$DIMTOL
 70
     0
  9
$DIMLIM
 70
     0
  9
$DIMTIH
 70
     0
  9
$DIMTOH
 70
     0
  9
$DIMSE1
 70
     0
  9
$DIMSE2
 70
     0
  9
$DIMTAD
 70
     1
  9
$DIMZIN
 70
     8
  9
$DIMBLK
  1

  9
$DIMASO
 70
     1
  9
$DIMSHO
 70
     1
  9
$DIMPOST
  1

  9
$DIMAPOST
  1

  9
$DIMALT
 70
     0
  9
$DIMALTD
 70
     3
  9
$DIMALTF
 40
0.03937007874016
  9
$DIMLFAC
 40
1.0
  9
$DIMTOFL
 70
     1
  9
$DIMTVP
 40
0.0
  9
$DIMTIX
 70
     0
  9
$DIMSOXD
 70
     0
  9
$DIMSAH
 70
     0
  9
$DIMBLK1
  1

  9
$DIMBLK2
  1

  9
$DIMSTYLE
  2
ISO-25
  9
$DIMCLRD
 70
     0
  9
$DIMCLRE
 70
     0
  9
$DIMCLRT
 70
     0
  9
$DIMTFAC
 40
1.0
  9
$DIMGAP
 40
0.625
  9
$DIMJUST
 70
     0
  9
$DIMSD1
 70
     0
  9
$DIMSD2
 70
     0
  9
$DIMTOLJ
 70
     0
  9
$DIMTZIN
 70
     8
  9
$DIMALTZ
 70
     0
  9
$DIMALTTZ
 70
     0
  9
$DIMUPT
 70
     0
  9
$DIMDEC
 70
     2
  9
$DIMTDEC
 70
     2
  9
$DIMALTU
 70
     2
  9
$DIMALTTD
 70
     3
  9
$DIMTXSTY
  7
Standard
  9
$DIMAUNIT
 70
     0
  9
$DIMADEC
 70
     0
  9
$DIMALTRND
 40
0.0
  9
$DIMAZIN
 70
     0
  9
$DIMDSEP
 70
    44
  9
$DIMATFIT
 70
     3
  9
$DIMFRAC
 70
     0
  9
$DIMLDRBLK
  1

  9
$DIMLUNIT
 70
     2
  9
$DIMLWD
 70
    -2
  9
$DIMLWE
 70
    -2
  9
$DIMTMOVE
 70
     0
  9
$DIMFXL
 40
1.0
  9
$DIMFXLON
 70
     0
  9
$DIMJOGANG
 40
0.7853981633974483
  9
$DIMTFILL
 70
     0
  9
$DIMTFILLCLR
 70
     0
  9
$DIMARCSYM
 70
     0
  9
$DIMLTYPE
  6

  9
$DIMLTEX1
  6

  9
$DIMLTEX2
  6

  9
$DIMTXTDIRECTION
 70
     0
  9
$LUNITS
 70
     2
  9
$LUPREC
 70
     4
  9
$SKETCHINC
 40
1.0
  9
$FILLETRAD
 40
0.0
  9
$AUNITS
 70
     0
  9
$AUPREC
 70
     0
  9
$MENU
  1
.
  9
$ELEVATION
 40
0.0
  9
$PELEVATION
 40
0.0
  9
$THICKNESS
 40
0.0
  9
$LIMCHECK
 70
     0
  9
$CHAMFERA
 40
0.0
  9
$CHAMFERB
 40
0.0
  9
$CHAMFERC
 40
0.0
  9
$CHAMFERD
 40
0.0
  9
$SKPOLY
 70
     0
  9
$TDCREATE
 40
2459866.618874629
  9
$TDUCREATE
 40
2459866.243874629
  9
$TDUPDATE
 40
2459866.618874664
  9
$TDUUPDATE
 40
2459866.243874664
  9
$TDINDWG
 40
0.0000000116
  9
$TDUSRTIMER
 40
0.0000000116
  9
$USRTIMER
 70
     1
  9
$ANGBASE
 50
0.0
  9
$ANGDIR
 70
     0
  9
$PDMODE
 70
     0
  9
$PDSIZE
 40
0.0
  9
$PLINEWID
 40
0.0
  9
$SPLFRAME
 70
     0
  9
$SPLINETYPE
 70
     6
  9
$SPLINESEGS
 70
     8
  9
$HANDSEED
  5
A0
  9
$SURFTAB1
 70
     6
  9
$SURFTAB2
 70
     6
  9
$SURFTYPE
 70
     6
  9
$SURFU
 70
     6
  9
$SURFV
 70
     6
  9
$UCSBASE
  2

  9
$UCSNAME
  2

  9
$UCSORG
 10
0.0
 20
0.0
 30
0.0
  9
$UCSXDIR
 10
1.0
 20
0.0
 30
0.0
  9
$UCSYDIR
 10
0.0
 20
1.0
 30
0.0
  9
$UCSORTHOREF
  2

  9
$UCSORTHOVIEW
 70
     0
  9
$UCSORGTOP
 10
0.0
 20
0.0
 30
0.0
  9
$UCSORGBOTTOM
 10
0.0
 20
0.0
 30
0.0
  9
$UCSORGLEFT
 10
0.0
 20
0.0
 30
0.0
  9
$UCSORGRIGHT
 10
0.0
 20
0.0
 30
0.0
  9
$UCSORGFRONT
 10
0.0
 20
0.0
 30
0.0
  9
$UCSORGBACK
 10
0.0
 20
0.0
 30
0.0
  9
$PUCSBASE
  2

  9
$PUCSNAME
  2

  9
$PUCSORG
 10
0.0
 20
0.0
 30
0.0
  9
$PUCSXDIR
 10
1.0
 20
0.0
 30
0.0
  9
$PUCSYDIR
 10
0.0
 20
1.0
 30
0.0
  9
$PUCSORTHOREF
  2

  9
$PUCSORTHOVIEW
 70
     0
  9
$PUCSORGTOP
 10
0.0
 20
0.0
 30
0.0
  9
$PUCSORGBOTTOM
 10
0.0
 20
0.0
 30
0.0
  9
$PUCSORGLEFT
 10
0.0
 20
0.0
 30
0.0
  9
$PUCSORGRIGHT
 10
0.0
 20
0.0
 30
0.0
  9
$PUCSORGFRONT
 10
0.0
 20
0.0
 30
0.0
  9
$PUCSORGBACK
 10
0.0
 20
0.0
 30
0.0
  9
$USERI1
 70
     0
  9
$USERI2
 70
     0
  9
$USERI3
 70
     0
  9
$USERI4
 70
     0
  9
$USERI5
 70
     0
  9
$USERR1
 40
0.0
  9
$USERR2
 40
0.0
  9
$USERR3
 40
0.0
  9
$USERR4
 40
0.0
  9
$USERR5
 40
0.0
  9
$WORLDVIEW
 70
     1
  9
$SHADEDGE
 70
     3
  9
$SHADEDIF
 70
    70
  9
$TILEMODE
 70
     1
  9
$MAXACTVP
 70
    64
  9
$PINSBASE
 10
0.0
 20
0.0
 30
0.0
  9
$PLIMCHECK
 70
     0
  9
$PEXTMIN
 10
1.000000000000000E+20
 20
1.000000000000000E+20
 30
1.000000000000000E+20
  9
$PEXTMAX
 10
-1.000000000000000E+20
 20
-1.000000000000000E+20
 30
-1.000000000000000E+20
  9
$PLIMMIN
 10
0.0
 20
0.0
  9
$PLIMMAX
 10
420.0
 20
297.0
  9
$UNITMODE
 70
     0
  9
$VISRETAIN
 70
     1
  9
$PLINEGEN
 70
     0
  9
$PSLTSCALE
 70
     1
  9
$TREEDEPTH
 70
  3020
  9
$CMLSTYLE
  2
Standard
  9
$CMLJUST
 70
     0
  9
$CMLSCALE
 40
20.0
  9
$PROXYGRAPHICS
 70
     1
  9
$MEASUREMENT
 70
     1
  9
$CELWEIGHT
370
    -1
  9
$ENDCAPS
280
     0
  9
$JOINSTYLE
280
     0
  9
$LWDISPLAY
290
     0
  9
$INSUNITS
 70
     4
  9
$HYPERLINKBASE
  1

  9
$STYLESHEET
  1

  9
$XEDIT
290
     1
  9
$CEPSNTYPE
380
     0
  9
$PSTYLEMODE
290
     1
  9
$FINGERPRINTGUID
  2
{4badab97-eddd-4341-82f8-68e6df34c53c}
  9
$VERSIONGUID
  2
{FAEB1C32-E019-11D5-929B-00C0DF256EC4}
  9
$EXTNAMES
290
     1
  9
$PSVPSCALE
 40
0.0
  9
$OLESTARTUP
290
     0
  9
$SORTENTS
280
   127
  9
$INDEXCTL
280
     0
  9
$HIDETEXT
280
     1
  9
$XCLIPFRAME
280
     2
  9
$HALOGAP
280
     0
  9
$OBSCOLOR
 70
   257
  9
$OBSLTYPE
280
     0
  9
$INTERSECTIONDISPLAY
280
     0
  9
$INTERSECTIONCOLOR
 70
   257
  9
$DIMASSOC
280
     2
  9
$PROJECTNAME
  1

  9
$CAMERADISPLAY
290
     0
  9
$LENSLENGTH
 40
50.0
  9
$CAMERAHEIGHT
 40
0.0
  9
$STEPSPERSEC
 40
2.0
  9
$STEPSIZE
 40
6.0
  9
$3DDWFPREC
 40
2.0
  9
$PSOLWIDTH
 40
5.0
  9
$PSOLHEIGHT
 40
80.0
  9
$LOFTANG1
 40
1.570796326794897
  9
$LOFTANG2
 40
1.570796326794897
  9
$LOFTMAG1
 40
0.0
  9
$LOFTMAG2
 40
0.0
  9
$LOFTPARAM
 70
     7
  9
$LOFTNORMALS
280
     1
  9
$LATITUDE
 40
37.795
  9
$LONGITUDE
 40
-122.394
  9
$NORTHDIRECTION
 40
0.0
  9
$TIMEZONE
 70
 -8000
  9
$LIGHTGLYPHDISPLAY
280
     1
  9
$TILEMODELIGHTSYNCH
280
     1
  9
$CMATERIAL
347
44
  9
$SOLIDHIST
280
     0
  9
$SHOWHIST
280
     1
  9
$DWFFRAME
280
     2
  9
$DGNFRAME
280
     2
  9
$REALWORLDSCALE
290
     1
  9
$INTERFERECOLOR
 62
   256
  9
$CSHADOW
280
     0
  9
$SHADOWPLANELOCATION
 40
0.0
  0
ENDSEC
  0
SECTION
  2
CLASSES
  0
CLASS
  1
ACDBDICTIONARYWDFLT
  2
AcDbDictionaryWithDefault
  3
ObjectDBX Classes
 90
        0
 91
        3
280
     0
281
     0
  0
CLASS
  1
VISUALSTYLE
  2
AcDbVisualStyle
  3
ObjectDBX Classes
 90
     4095
 91
        3
280
     0
281
     0
  0
CLASS
  1
MATERIAL
  2
AcDbMaterial
  3
ObjectDBX Classes
 90
     1153
 91
        3
280
     0
281
     0
  0
CLASS
  1
SCALE
  2
AcDbScale
  3
ObjectDBX Classes
 90
     1153
 91
        3
280
     0
281
     0
  0
CLASS
  1
TABLESTYLE
  2
AcDbTableStyle
  3
ObjectDBX Classes
 90
     4095
 91
        3
280
     0
281
     0
  0
CLASS
  1
MLEADERSTYLE
  2
AcDbMLeaderStyle
  3
ACDB_MLEADERSTYLE_CLASS
 90
     4095
 91
        3
280
     0
281
     0
  0
CLASS
  1
SUN
  2
AcDbSun
  3
SCENEOE
 90
     1153
 91
        3
280
     0
281
     0
  0
CLASS
  1
DICTIONARYVAR
  2
AcDbDictionaryVar
  3
ObjectDBX Classes
 90
        0
 91
        3
280
     0
281
     0
  0
CLASS
  1
CELLSTYLEMAP
  2
AcDbCellStyleMap
  3
ObjectDBX Classes
 90
     1152
 91
        3
280
     0
281
     0
  0
ENDSEC
  0
SECTION
  2
TABLES
  0
TABLE
  2
VPORT
  5
8
330
0
100
AcDbSymbolTable
 70
     1
  0
VPORT
  5
29
330
8
100
AcDbSymbolTableRecord
100
AcDbViewportTableRecord
  2
*Active
 70
     0
 10
0.0
 20
0.0
 11
1.0
 21
1.0
 12
151.4998911674896
 22
108.0008027704874
 13
0.0
 23
0.0
 14
10.0
 24
10.0
 15
10.0
 25
10.0
 16
0.0
 26
0.0
 36
1.0
 17
0.0
 27
0.0
 37
0.0
 40
237.6017660950723
 41
1.402766343222857
 42
50.0
 43
0.0
 44
0.0
 50
0.0
 51
0.0
 71
     0
 72
 10000
 73
     1
 74
     3
 75
     0
 76
     0
 77
     0
 78
     0
281
     0
 65
     1
110
0.0
120
0.0
130
0.0
111
1.0
121
0.0
131
0.0
112
0.0
122
1.0
132
0.0
 79
     0
146
0.0
348
2F
 60
     3
 61
     5
292
     1
282
     1
141
0.0
142
0.0
 63
   250
361
5D
  0
ENDTAB
  0
TABLE
  2
LTYPE
  5
5
330
0
100
AcDbSymbolTable
 70
     2
  0
LTYPE
  5
14
330
5
100
AcDbSymbolTableRecord
100
AcDbLinetypeTableRecord
  2
ByBlock
 70
     0
  3

 72
    65
 73
     0
 40
0.0
  0
LTYPE
  5
15
330
5
100
AcDbSymbolTableRecord
100
AcDbLinetypeTableRecord
  2
ByLayer
 70
     0
  3

 72
    65
 73
     0
 40
0.0
  0
LTYPE
  5
16
330
5
100
AcDbSymbolTableRecord
100
AcDbLinetypeTableRecord
  2
Continuous
 70
     0
  3
Solid line
 72
    65
 73
     0
 40
0.0
  0
LTYPE
  5
5F
330
5
100
AcDbSymbolTableRecord
100
AcDbLinetypeTableRecord
  2
UserDefined01
 70
     0
  3
----------------                
 72
    65
 73
     2
 40
0.7055555449591743
 49
0.3527777724795871
 74
     0
 49
-0.3527777724795871
 74
     0
  0
ENDTAB
  0
TABLE
  2
LAYER
  5
2
330
0
100
AcDbSymbolTable
 70
     3
  0
LAYER
  5
10
330
2
100
AcDbSymbolTableRecord
100
AcDbLayerTableRecord
  2
0
 70
     0
 62
     7
  6
Continuous
370
    -3
390
F
347
46
348
0
  0
LAYER
  5
60
330
2
100
AcDbSymbolTableRecord
100
AcDbLayerTableRecord
  2
外枠
 70
     0
 62
     7
  6
Continuous
370
    -3
390
F
347
46
348
0
  0
LAYER
  5
61
330
2
100
AcDbSymbolTableRecord
100
AcDbLayerTableRecord
  2
ISS138金台
 70
     0
 62
     7
  6
Continuous
370
    -3
390
F
347
46
348
0
  0
ENDTAB
  0
TABLE
  2
STYLE
  5
3
330
0
100
AcDbSymbolTable
 70
     2
  0
STYLE
  5
11
330
3
100
AcDbSymbolTableRecord
100
AcDbTextStyleTableRecord
  2
Standard
 70
     0
 40
0.0
 41
1.0
 50
0.0
 71
     0
 42
2.5
  3

  4

  0
STYLE
  5
5E
330
3
100
AcDbSymbolTableRecord
100
AcDbTextStyleTableRecord
  2
MS Gothic
 70
     0
 40
1.0
 41
1.0
 50
0.0
 71
     0
 42
2.5
  3
msgothic.ttc
  4

1001
ACAD
1000
MS Gothic
1071
    32817
  0
ENDTAB
  0
TABLE
  2
VIEW
  5
6
330
0
100
AcDbSymbolTable
 70
     0
  0
ENDTAB
  0
TABLE
  2
UCS
  5
7
330
0
100
AcDbSymbolTable
 70
     0
  0
ENDTAB
  0
TABLE
  2
APPID
  5
9
330
0
100
AcDbSymbolTable
 70
     1
  0
APPID
  5
12
330
9
100
AcDbSymbolTableRecord
100
AcDbRegAppTableRecord
  2
ACAD
 70
     0
  0
ENDTAB
  0
TABLE
  2
DIMSTYLE
  5
A
330
0
100
AcDbSymbolTable
 70
     1
100
AcDbDimStyleTable
  0
DIMSTYLE
105
27
330
A
100
AcDbSymbolTableRecord
100
AcDbDimStyleTableRecord
  2
ISO-25
 70
     0
 41
2.5
 42
0.625
 43
3.75
 44
1.25
 73
     0
 74
     0
 77
     1
 78
     8
140
2.5
141
2.5
143
0.03937007874016
147
0.625
171
     3
172
     1
178
     0
271
     2
272
     2
274
     3
278
    44
283
     0
284
     8
340
11
  0
ENDTAB
  0
TABLE
  2
BLOCK_RECORD
  5
1
330
0
100
AcDbSymbolTable
 70
     1
  0
BLOCK_RECORD
  5
1F
330
1
100
AcDbSymbolTableRecord
100
AcDbBlockTableRecord
  2
*Model_Space
340
22
 70
     0
280
     1
281
     0
  0
BLOCK_RECORD
  5
1B
330
1
100
AcDbSymbolTableRecord
100
AcDbBlockTableRecord
  2
*Paper_Space
340
1E
 70
     0
280
     1
281
     0
  0
BLOCK_RECORD
  5
23
330
1
100
AcDbSymbolTableRecord
100
AcDbBlockTableRecord
  2
*Paper_Space0
340
26
 70
     0
280
     1
281
     0
  0
ENDTAB
  0
ENDSEC
  0
SECTION
  2
BLOCKS
  0
BLOCK
  5
20
330
1F
100
AcDbEntity
  8
0
100
AcDbBlockBegin
  2
*Model_Space
 70
     0
 10
0.0
 20
0.0
 30
0.0
  3
*Model_Space
  1

  0
ENDBLK
  5
21
330
1F
100
AcDbEntity
  8
0
100
AcDbBlockEnd
  0
BLOCK
  5
1C
330
1B
100
AcDbEntity
 67
     1
  8
0
100
AcDbBlockBegin
  2
*Paper_Space
 70
     0
 10
0.0
 20
0.0
 30
0.0
  3
*Paper_Space
  1

  0
ENDBLK
  5
1D
330
1B
100
AcDbEntity
 67
     1
  8
0
100
AcDbBlockEnd
  0
BLOCK
  5
24
330
23
100
AcDbEntity
  8
0
100
AcDbBlockBegin
  2
*Paper_Space0
 70
     0
 10
0.0
 20
0.0
 30
0.0
  3
*Paper_Space0
  1

  0
ENDBLK
  5
25
330
23
100
AcDbEntity
  8
0
100
AcDbBlockEnd
  0
ENDSEC
  0
SECTION
  2
ENTITIES
  0
LWPOLYLINE
  5
62
330
1F
100
AcDbEntity
  8
外枠
  6
Continuous
 62
   250
420
  2367521
370
   100
100
AcDbPolyline
 90
        5
 70
     0
 43
0.0
 10
281.9999662644599
 20
13.29407825637392
 10
20.99981607051935
 20
13.29407825637392
 10
20.99981607051935
 20
193.0018900389566
 10
281.9999662644599
 20
193.0018900389566
 10
281.9999662644599
 20
13.29407825637392
  0
LINE
  5
63
330
1F
100
AcDbEntity
  8
外枠
  6
Continuous
 62
   250
420
  2367521
370
    25
100
AcDbLine
 10
223.3097080177524
 20
174.0786160074276
 30
0.0
 11
281.9999232007669
 21
174.0786160074276
 31
0.0
  0
LINE
  5
64
330
1F
100
AcDbEntity
  8
外枠
  6
Continuous
 62
   250
420
  2367521
370
    25
100
AcDbLine
 10
223.3097080177524
 20
50.37109023844297
 30
0.0
 11
281.9999232007669
 21
50.37109023844297
 31
0.0
  0
LINE
  5
65
330
1F
100
AcDbEntity
  8
外枠
  6
Continuous
 62
   250
420
  2367521
370
    25
100
AcDbLine
 10
223.3097080177524
 20
36.25997933925949
 30
0.0
 11
281.9999232007669
 21
36.25997933925949
 31
0.0
  0
LINE
  5
66
330
1F
100
AcDbEntity
  8
外枠
  6
Continuous
 62
   250
420
  2367521
370
    50
100
AcDbLine
 10
223.0158413772006
 20
193.3637327187979
 30
0.0
 11
223.0158413772006
 21
13.29396655992039
 31
0.0
  0
TEXT
  5
67
330
1F
100
AcDbEntity
  8
外枠
  6
Continuous
 62
   250
420
  2367521
100
AcDbText
 10
224.7190965599536
 20
186.6888051931772
 30
0.0
 40
2.688166626294454
  1
品名：
 41
0.974166170756022
  7
MS Gothic
100
AcDbText
  0
TEXT
  5
68
330
1F
100
AcDbEntity
  8
外枠
  6
Continuous
 62
   250
420
  2367521
100
AcDbText
 10
224.7190965599536
 20
168.1080059455944
 30
0.0
 40
2.688166626294454
  1
仕様：
 41
0.9978878657023111
  7
MS Gothic
100
AcDbText
  0
TEXT
  5
69
330
1F
100
AcDbEntity
  8
外枠
  6
Continuous
 62
   250
420
  2367521
100
AcDbText
 10
224.7190965599536
 20
44.16660664327048
 30
0.0
 40
2.688166626294454
  1
縮尺：
 41
0.9939999262491861
  7
MS Gothic
100
AcDbText
  0
TEXT
  5
6A
330
1F
100
AcDbEntity
  8
外枠
  6
Continuous
 62
   250
420
  2367521
100
AcDbText
 10
250.2379519709696
 20
40.59738467878129
 30
0.0
 40
2.150533301035563
  1
1/1
 41
1.000003814697266
  7
MS Gothic
100
AcDbText
  0
TEXT
  5
6B
330
1F
100
AcDbEntity
  8
外枠
  6
Continuous
 62
   250
420
  2367521
100
AcDbText
 10
232.7757967427735
 20
181.9845273775436
 30
0.0
 40
2.688166626294454
  1
巻上見切　MAL-1 (G)
 41
1.012024728875411
  7
MS Gothic
100
AcDbText
  0
TEXT
  5
6C
330
1F
100
AcDbEntity
  8
外枠
  6
Continuous
 62
   250
420
  2367521
100
AcDbText
 10
226.1633020978884
 20
24.25683874973963
 30
0.0
 40
2.553758294979732
  1
ヤスダインテリアサプライ株式会社
 41
1.0194908945184
  7
MS Gothic
100
AcDbText
  0
TEXT
  5
6D
330
1F
100
AcDbEntity
  8
外枠
  6
Continuous
 62
   250
420
  2367521
100
AcDbText
 10
227.7635273953072
 20
161.7763665048245
 30
0.0
 40
2.150533301035563
  1
材質
 41
1.028502464294433
  7
MS Gothic
100
AcDbText
  0
TEXT
  5
6E
330
1F
100
AcDbEntity
  8
外枠
  6
Continuous
 62
   250
420
  2367521
100
AcDbText
 10
232.7757967427735
 20
156.199681315683
 30
0.0
 40
2.016124969720841
  1
アルミ押出形材（A6063S-T5）/
 41
1.030580357142857
  7
MS Gothic
100
AcDbText
  0
TEXT
  5
6F
330
1F
100
AcDbEntity
  8
外枠
  6
Continuous
 62
   250
420
  2367521
100
AcDbText
 10
232.7757967427735
 20
151.9663480459279
 30
0.0
 40
2.016124969720841
  1
ゴールド仕上（アルマイト）
 41
0.9980146359174675
  7
MS Gothic
100
AcDbText
  0
LWPOLYLINE
  5
70
330
1F
100
AcDbEntity
  8
ISS138金台
  6
Continuous
 62
   250
420
  2367521
370
    25
100
AcDbPolyline
 90
      109
 70
     0
 43
0.0
 10
119.7608190564076
 20
94.32186832762252
 10
119.8236166866223
 20
100.3321387587332
 10
119.6327583995581
 20
100.517700211567
 10
119.827492418986
 20
100.7177310652252
 10
119.9604946345992
 20
113.5217942884548
 10
119.9656730436739
 20
113.6240059636232
 10
119.9808206976619
 20
113.7232785417493
 10
120.0054746618641
 20
113.819106024441
 10
120.0391289378887
 20
113.9109824133063
 10
120.0812667614203
 20
113.9984017099535
 10
120.1313821340672
 20
114.0808579159905
 10
120.1889905892838
 20
114.1578557989487
 10
120.2535645968318
 20
114.2289001263594
 10
120.3246196901657
 20
114.2934633679842
 10
120.4016391049703
 20
114.3510502913543
 10
120.4841276087771
 20
114.4011656640012
 10
120.5715792031939
 20
114.4432927216096
 10
120.6634986557522
 20
114.4769362317109
 10
120.7593692021368
 20
114.5016009618363
 10
120.8586956098791
 20
114.5167593817475
 10
120.9609718805869
 20
114.5219270248991
 10
121.4608552281142
 20
114.5219270248991
 10
121.5631207328988
 20
114.5167486158243
 10
121.662447140641
 20
114.5016009618363
 10
121.7583069211024
 20
114.4769469976341
 10
121.8501833099678
 20
114.4433034875328
 10
121.9376133725382
 20
114.4011656640012
 10
122.0200803444984
 20
114.3510502913543
 10
122.0970674615334
 20
114.2934633679842
 10
122.1680902570976
 20
114.2289001263594
 10
122.2326212009527
 20
114.157866564872
 10
122.2901973583996
 20
114.0808686819138
 10
122.3402911992
 20
113.9984017099535
 10
122.3823967249619
 20
113.9109824133063
 10
122.4160187032167
 20
113.819106024441
 10
122.4406619014957
 20
113.7232785417493
 10
122.4558095554837
 20
113.6240059636232
 10
122.4609771986353
 20
113.5217942884548
 10
122.7132120140474
 20
108.5896126439143
 10
122.7202529278414
 20
108.5821087954213
 10
122.7276491171021
 20
108.574960222395
 10
122.7353790499829
 20
108.5681669248354
 10
122.7433996627911
 20
108.5617612005121
 10
122.751732487373
 20
108.5557753471949
 10
122.7603559918821
 20
108.5501985989605
 10
122.7692809422418
 20
108.5450740195019
 10
122.7784858066055
 20
108.540401608819
 10
122.7879382872036
 20
108.5362136646816
 10
122.7976491499592
 20
108.5325209530129
 10
122.8075968630259
 20
108.5293450056593
 10
122.817792192327
 20
108.5267073544674
 10
122.8282028400928
 20
108.5246295312835
 10
122.8388288063231
 20
108.5231115361077
 10
122.8496485591717
 20
108.522196432633
 10
122.8606728645617
 20
108.5218842208592
 10
122.9605160366191
 20
108.5218842208592
 10
123.0117080015892
 20
108.5244572765118
 10
123.0614142691532
 20
108.5320257205442
 10
123.1093872230768
 20
108.544341936722
 10
123.1553577152792
 20
108.5611367769646
 10
123.199078129526
 20
108.5821733909607
 10
123.2403439132759
 20
108.6071933965529
 10
123.278842854755
 20
108.6359599434299
 10
123.3143596354987
 20
108.6681931175877
 10
123.346614341503
 20
108.7036668346385
 10
123.3754024202265
 20
108.7421227124246
 10
123.4004331917418
 20
108.7833131347118
 10
123.4214913375844
 20
108.8269797193425
 10
123.438286177827
 20
108.8728748500823
 10
123.4506023940048
 20
108.9207401447735
 10
123.4581708380372
 20
108.9703387531053
 10
123.460754659613
 20
109.0214122929198
 10
123.460754659613
 20
114.5219270248991
 10
123.4555762505382
 20
114.6240848704514
 10
123.4404501283967
 20
114.7233036189613
 10
123.4158069301177
 20
114.8190665061136
 10
123.3821741859396
 20
114.9109105972093
 10
123.3400686601777
 20
114.9982868301635
 10
123.2899963512237
 20
115.0807215043541
 10
123.2324309597
 20
115.157708621389
 10
123.167900015845
 20
115.22872065103
 10
123.0968987521272
 20
115.2932731267315
 10
123.0199331669388
 20
115.3508385182552
 10
122.9374984927482
 20
115.4009431249789
 10
122.8501114938707
 20
115.4430701825873
 10
122.7582566368518
 20
115.4767029267653
 10
122.6624506860066
 20
115.5013676568908
 10
122.5631888738038
 20
115.516526076802
 10
122.4609771986353
 20
115.5216937199536
 10
119.9608391441426
 20
115.5216937199536
 10
118.9607171736215
 20
115.5216937199536
 10
118.9607171736215
 20
114.5219270248991
 10
118.9607171736215
 20
93.52141116936966
 10
119.042548956111
 20
93.5255452838909
 10
119.1220014695662
 20
93.53767847937382
 10
119.1986979066739
 20
93.55740165073561
 10
119.272218396428
 20
93.58431645881663
 10
119.3421538337457
 20
93.61803533038054
 10
119.4081274113139
 20
93.65812762849802
 10
119.4697192581265
 20
93.70421654585597
 10
119.526531035024
 20
93.7558822114483
 10
119.5781536369234
 20
93.81272628611542
 10
119.6242102565116
 20
93.87435043069773
 10
119.6642810227826
 20
93.9403455401124
 10
119.6979675965768
 20
94.01031327519982
 10
119.7248608728114
 20
94.08385529680041
 10
119.7445732782499
 20
94.16056249983134
 10
119.7566849418864
 20
94.24003654513298
 10
119.7608190564076
 20
94.32186832762252
  0
LINE
  5
71
330
1F
100
AcDbEntity
  8
ISS138金台
  6
Continuous
 62
   250
420
  2367521
370
    13
100
AcDbLine
 10
125.6608894973114
 20
115.5216291244142
 30
0.0
 11
130.6660963991372
 21
115.5216291244142
 31
0.0
  0
LINE
  5
72
330
1F
100
AcDbEntity
  8
ISS138金台
  6
Continuous
 62
   250
420
  2367521
370
    13
100
AcDbLine
 10
130.1591506059696
 20
108.5218842208592
 30
0.0
 11
130.1591506059696
 21
115.2719350668849
 31
0.0
  0
LINE
  5
73
330
1F
100
AcDbEntity
  8
ISS138金台
  6
Continuous
 62
   250
420
  2367521
370
    13
100
AcDbLine
 10
130.6662794198322
 20
108.5218842208592
 30
0.0
 11
125.6610725180063
 21
108.5218842208592
 31
0.0
  0
LINE
  5
74
330
1F
100
AcDbEntity
  8
ISS138金台
  6
Continuous
 62
   250
420
  2367521
370
    13
100
AcDbLine
 10
117.9610796696458
 20
115.5216291244142
 30
0.0
 11
108.0169839531057
 21
115.5216291244142
 31
0.0
  0
LINE
  5
75
330
1F
100
AcDbEntity
  8
ISS138金台
  6
Continuous
 62
   250
420
  2367521
370
    13
100
AcDbLine
 10
108.5239620440431
 20
93.52160495598784
 30
0.0
 11
108.5239620440431
 21
115.2717628121132
 31
0.0
  0
LINE
  5
76
330
1F
100
AcDbEntity
  8
ISS138金台
  6
Continuous
 62
   250
420
  2367521
370
    13
100
AcDbLine
 10
117.9610796696458
 20
93.52160495598784
 30
0.0
 11
108.0169839531057
 21
93.52160495598784
 31
0.0
  0
LINE
  5
77
330
1F
100
AcDbEntity
  8
ISS138金台
  6
Continuous
 62
   250
420
  2367521
370
    13
100
AcDbLine
 10
122.4610848578676
 20
92.52148298546672
 30
0.0
 11
122.4610848578676
 21
87.51627070067924
 31
0.0
  0
LINE
  5
78
330
1F
100
AcDbEntity
  8
ISS138金台
  6
Continuous
 62
   250
420
  2367521
370
    13
100
AcDbLine
 10
119.9606345916012
 20
92.52148298546672
 30
0.0
 11
119.9606345916012
 21
87.51627070067924
 31
0.0
  0
HATCH
  5
79
330
1F
100
AcDbEntity
  8
ISS138金台
  6
Continuous
 62
   250
420
  2367521
370
    13
100
AcDbHatch
 10
0.0
 20
0.0
 30
0.0
210
0.0
220
0.0
230
1.0
  2
SOLID
 70
     1
 71
     0
 91
        1
 92
        3
 72
     0
 73
     1
 93
       67
 10
129.9090474433575
 20
115.5216291244142
 10
129.9103393541453
 20
115.4960923545069
 10
129.9141289591232
 20
115.4712984333027
 10
129.9202763012889
 20
115.447365785957
 10
129.9286844873334
 20
115.4244128376255
 10
129.9392027943314
 20
115.4025795453102
 10
129.9517127971275
 20
115.3819843341666
 10
129.9661176024125
 20
115.3627563952735
 10
129.9822449554146
 20
115.3450249197097
 10
129.9999979628248
 20
115.3288868007843
 10
130.0192581994876
 20
115.3145250591923
 10
130.0398749424777
 20
115.302004290473
 10
130.0617405325627
 20
115.2914967493982
 10
130.0847365445871
 20
115.2830885633537
 10
130.1087122556257
 20
115.2769304552647
 10
130.1335707723694
 20
115.2731516162102
 10
130.159172137816
 20
115.2718597054223
 10
130.159172137816
 20
115.2718597054223
 10
130.1847089077233
 20
115.2731516162102
 10
130.2094920630043
 20
115.276941221188
 10
130.2334354762732
 20
115.2830885633537
 10
130.2563991905279
 20
115.291485983475
 10
130.27822171692
 20
115.3020150563963
 10
130.2988169280636
 20
115.3145250591923
 10
130.3180448669567
 20
115.3288975667076
 10
130.3357763425204
 20
115.3450249197097
 10
130.3518929295994
 20
115.3627563952735
 10
130.3662762030379
 20
115.3819843341666
 10
130.3787862058339
 20
115.4025795453102
 10
130.389304512832
 20
115.4244128376255
 10
130.3977019329533
 20
115.4473550200338
 10
130.4038600410422
 20
115.4712984333027
 10
130.4076388800968
 20
115.4960923545069
 10
130.4089307908847
 20
115.5216291244142
 10
130.4089307908847
 20
115.5216291244142
 10
130.40764964602
 20
115.547284319477
 10
130.403849275119
 20
115.5721858999136
 10
130.3977019329533
 20
115.5962046746451
 10
130.389304512832
 20
115.6192006866695
 10
130.3787754399107
 20
115.6410770426778
 10
130.3662762030379
 20
115.6616937856678
 10
130.3518929295994
 20
115.6809432564074
 10
130.3357763425204
 20
115.6986747319712
 10
130.3180341010334
 20
115.7148020849733
 10
130.2988169280636
 20
115.7291638265653
 10
130.27822171692
 20
115.7416630634382
 10
130.2563884246047
 20
115.752170604513
 10
130.2334462421964
 20
115.7605464927878
 10
130.2095028289275
 20
115.7666938349535
 10
130.1847089077233
 20
115.7704726740081
 10
130.159172137816
 20
115.7717538188727
 10
130.159172137816
 20
115.7717538188727
 10
130.1335815382926
 20
115.7704619080848
 10
130.1087230215489
 20
115.7666938349535
 10
130.0847257786639
 20
115.7605464927878
 10
130.0617405325627
 20
115.752170604513
 10
130.0398749424777
 20
115.7416630634382
 10
130.0192581994876
 20
115.7291638265653
 10
129.9999979628248
 20
115.7148020849733
 10
129.9822449554146
 20
115.6986854978944
 10
129.9661068364892
 20
115.6809432564074
 10
129.9517235630507
 20
115.6616937856678
 10
129.9392027943314
 20
115.6410770426778
 10
129.9286844873334
 20
115.6192006866695
 10
129.9202763012889
 20
115.5961939087218
 10
129.9141181931999
 20
115.5721858999136
 10
129.9103393541453
 20
115.547284319477
 97
        0
 75
     1
 76
     1
 98
        0
  0
LWPOLYLINE
  5
7A
330
1F
100
AcDbEntity
  8
ISS138金台
  6
Continuous
 62
   250
420
  2367521
370
    13
100
AcDbPolyline
 90
       68
 70
     0
 43
0.0
 10
129.9090474433575
 20
115.5216291244142
 10
129.9103393541453
 20
115.4960923545069
 10
129.9141289591232
 20
115.4712984333027
 10
129.9202763012889
 20
115.447365785957
 10
129.9286844873334
 20
115.4244128376255
 10
129.9392027943314
 20
115.4025795453102
 10
129.9517127971275
 20
115.3819843341666
 10
129.9661176024125
 20
115.3627563952735
 10
129.9822449554146
 20
115.3450249197097
 10
129.9999979628248
 20
115.3288868007843
 10
130.0192581994876
 20
115.3145250591923
 10
130.0398749424777
 20
115.302004290473
 10
130.0617405325627
 20
115.2914967493982
 10
130.0847365445871
 20
115.2830885633537
 10
130.1087122556257
 20
115.2769304552647
 10
130.1335707723694
 20
115.2731516162102
 10
130.159172137816
 20
115.2718597054223
 10
130.159172137816
 20
115.2718597054223
 10
130.1847089077233
 20
115.2731516162102
 10
130.2094920630043
 20
115.276941221188
 10
130.2334354762732
 20
115.2830885633537
 10
130.2563991905279
 20
115.291485983475
 10
130.27822171692
 20
115.3020150563963
 10
130.2988169280636
 20
115.3145250591923
 10
130.3180448669567
 20
115.3288975667076
 10
130.3357763425204
 20
115.3450249197097
 10
130.3518929295994
 20
115.3627563952735
 10
130.3662762030379
 20
115.3819843341666
 10
130.3787862058339
 20
115.4025795453102
 10
130.389304512832
 20
115.4244128376255
 10
130.3977019329533
 20
115.4473550200338
 10
130.4038600410422
 20
115.4712984333027
 10
130.4076388800968
 20
115.4960923545069
 10
130.4089307908847
 20
115.5216291244142
 10
130.4089307908847
 20
115.5216291244142
 10
130.40764964602
 20
115.547284319477
 10
130.403849275119
 20
115.5721858999136
 10
130.3977019329533
 20
115.5962046746451
 10
130.389304512832
 20
115.6192006866695
 10
130.3787754399107
 20
115.6410770426778
 10
130.3662762030379
 20
115.6616937856678
 10
130.3518929295994
 20
115.6809432564074
 10
130.3357763425204
 20
115.6986747319712
 10
130.3180341010334
 20
115.7148020849733
 10
130.2988169280636
 20
115.7291638265653
 10
130.27822171692
 20
115.7416630634382
 10
130.2563884246047
 20
115.752170604513
 10
130.2334462421964
 20
115.7605464927878
 10
130.2095028289275
 20
115.7666938349535
 10
130.1847089077233
 20
115.7704726740081
 10
130.159172137816
 20
115.7717538188727
 10
130.159172137816
 20
115.7717538188727
 10
130.1335815382926
 20
115.7704619080848
 10
130.1087230215489
 20
115.7666938349535
 10
130.0847257786639
 20
115.7605464927878
 10
130.0617405325627
 20
115.752170604513
 10
130.0398749424777
 20
115.7416630634382
 10
130.0192581994876
 20
115.7291638265653
 10
129.9999979628248
 20
115.7148020849733
 10
129.9822449554146
 20
115.6986854978944
 10
129.9661068364892
 20
115.6809432564074
 10
129.9517235630507
 20
115.6616937856678
 10
129.9392027943314
 20
115.6410770426778
 10
129.9286844873334
 20
115.6192006866695
 10
129.9202763012889
 20
115.5961939087218
 10
129.9141181931999
 20
115.5721858999136
 10
129.9103393541453
 20
115.547284319477
 10
129.9090474433575
 20
115.5216291244142
  0
HATCH
  5
7B
330
1F
100
AcDbEntity
  8
ISS138金台
  6
Continuous
 62
   250
420
  2367521
370
    13
100
AcDbHatch
 10
0.0
 20
0.0
 30
0.0
210
0.0
220
0.0
230
1.0
  2
SOLID
 70
     1
 71
     0
 91
        1
 92
        3
 72
     0
 73
     1
 93
       67
 10
119.7105098971426
 20
88.02355562042875
 10
119.7118018079305
 20
87.99801885052148
 10
119.7156021788315
 20
87.97320339747077
 10
119.7217710528437
 20
87.94924921827865
 10
119.7302007707347
 20
87.92628550402392
 10
119.7407406095792
 20
87.90441991393891
 10
119.7532721442217
 20
87.88380317094885
 10
119.7676877154299
 20
87.86454293428606
 10
119.7838473662018
 20
87.84676839502936
 10
119.8016219054585
 20
87.83061412721912
 10
119.820871376198
 20
87.81620932193417
 10
119.8414988851113
 20
87.8036616384068
 10
119.8633537092731
 20
87.79312179956227
 10
119.8863281894511
 20
87.7846974646329
 10
119.9102823686432
 20
87.77852859062074
 10
119.9350978216939
 20
87.77472821971969
 10
119.9606345916012
 20
87.77343630893179
 10
119.9606345916012
 20
87.77343630893179
 10
119.9861713615085
 20
87.77472821971969
 10
120.0109868145591
 20
87.77852859062074
 10
120.0349409937513
 20
87.7846974646329
 10
120.0578939420827
 20
87.79311641660064
 10
120.0797595321678
 20
87.8036670213684
 10
120.1003870410811
 20
87.81620393897255
 10
120.1196472777439
 20
87.83061412721912
 10
120.1374110510773
 20
87.84676839502936
 10
120.1535599359259
 20
87.86453755132445
 10
120.1679755071341
 20
87.88380317094885
 10
120.1805178076999
 20
87.90441991393891
 10
120.1910684124677
 20
87.92628012106232
 10
120.1994873644354
 20
87.94924921827865
 10
120.2056562384476
 20
87.97320339747077
 10
120.2094566093486
 20
87.99801346755986
 10
120.2107485201365
 20
88.02355562042875
 10
120.2107485201365
 20
88.02355562042875
 10
120.2094458434254
 20
88.04909777329763
 10
120.2056562384476
 20
88.07391322634834
 10
120.1994873644354
 20
88.09785663961722
 10
120.1910684124677
 20
88.12083111979518
 10
120.1805178076999
 20
88.1426913269186
 10
120.1679755071341
 20
88.16331345287027
 10
120.1535707018492
 20
88.18257368953306
 10
120.1374110510773
 20
88.20034284582815
 10
120.1196472777439
 20
88.21649711363838
 10
120.1003870410811
 20
88.23090730188495
 10
120.0797595321678
 20
88.24344421948909
 10
120.057904708006
 20
88.25399482425686
 10
120.0349409937513
 20
88.2624137762246
 10
120.0109868145591
 20
88.26858803319838
 10
119.9861713615085
 20
88.27238302113781
 10
119.9606345916012
 20
88.2736749319257
 10
119.9606345916012
 20
88.2736749319257
 10
119.9350870557707
 20
88.27238302113781
 10
119.9102931345664
 20
88.26858803319838
 10
119.8863281894511
 20
88.2624137762246
 10
119.8633537092731
 20
88.25398944129523
 10
119.8414988851113
 20
88.24344421948909
 10
119.820871376198
 20
88.23090730188495
 10
119.8016111395352
 20
88.21649711363838
 10
119.7838473662018
 20
88.20034284582815
 10
119.7676877154299
 20
88.18257368953306
 10
119.753282910145
 20
88.16331345287027
 10
119.7407406095792
 20
88.14268594395698
 10
119.7301900048114
 20
88.12082573683357
 10
119.7217710528437
 20
88.09786202257884
 10
119.7156021788315
 20
88.07390784338673
 10
119.7118018079305
 20
88.04909777329763
 97
        0
 75
     1
 76
     1
 98
        0
  0
LWPOLYLINE
  5
7C
330
1F
100
AcDbEntity
  8
ISS138金台
  6
Continuous
 62
   250
420
  2367521
370
    13
100
AcDbPolyline
 90
       68
 70
     0
 43
0.0
 10
119.7105098971426
 20
88.02355562042875
 10
119.7118018079305
 20
87.99801885052148
 10
119.7156021788315
 20
87.97320339747077
 10
119.7217710528437
 20
87.94924921827865
 10
119.7302007707347
 20
87.92628550402392
 10
119.7407406095792
 20
87.90441991393891
 10
119.7532721442217
 20
87.88380317094885
 10
119.7676877154299
 20
87.86454293428606
 10
119.7838473662018
 20
87.84676839502936
 10
119.8016219054585
 20
87.83061412721912
 10
119.820871376198
 20
87.81620932193417
 10
119.8414988851113
 20
87.8036616384068
 10
119.8633537092731
 20
87.79312179956227
 10
119.8863281894511
 20
87.7846974646329
 10
119.9102823686432
 20
87.77852859062074
 10
119.9350978216939
 20
87.77472821971969
 10
119.9606345916012
 20
87.77343630893179
 10
119.9606345916012
 20
87.77343630893179
 10
119.9861713615085
 20
87.77472821971969
 10
120.0109868145591
 20
87.77852859062074
 10
120.0349409937513
 20
87.7846974646329
 10
120.0578939420827
 20
87.79311641660064
 10
120.0797595321678
 20
87.8036670213684
 10
120.1003870410811
 20
87.81620393897255
 10
120.1196472777439
 20
87.83061412721912
 10
120.1374110510773
 20
87.84676839502936
 10
120.1535599359259
 20
87.86453755132445
 10
120.1679755071341
 20
87.88380317094885
 10
120.1805178076999
 20
87.90441991393891
 10
120.1910684124677
 20
87.92628012106232
 10
120.1994873644354
 20
87.94924921827865
 10
120.2056562384476
 20
87.97320339747077
 10
120.2094566093486
 20
87.99801346755986
 10
120.2107485201365
 20
88.02355562042875
 10
120.2107485201365
 20
88.02355562042875
 10
120.2094458434254
 20
88.04909777329763
 10
120.2056562384476
 20
88.07391322634834
 10
120.1994873644354
 20
88.09785663961722
 10
120.1910684124677
 20
88.12083111979518
 10
120.1805178076999
 20
88.1426913269186
 10
120.1679755071341
 20
88.16331345287027
 10
120.1535707018492
 20
88.18257368953306
 10
120.1374110510773
 20
88.20034284582815
 10
120.1196472777439
 20
88.21649711363838
 10
120.1003870410811
 20
88.23090730188495
 10
120.0797595321678
 20
88.24344421948909
 10
120.057904708006
 20
88.25399482425686
 10
120.0349409937513
 20
88.2624137762246
 10
120.0109868145591
 20
88.26858803319838
 10
119.9861713615085
 20
88.27238302113781
 10
119.9606345916012
 20
88.2736749319257
 10
119.9606345916012
 20
88.2736749319257
 10
119.9350870557707
 20
88.27238302113781
 10
119.9102931345664
 20
88.26858803319838
 10
119.8863281894511
 20
88.2624137762246
 10
119.8633537092731
 20
88.25398944129523
 10
119.8414988851113
 20
88.24344421948909
 10
119.820871376198
 20
88.23090730188495
 10
119.8016111395352
 20
88.21649711363838
 10
119.7838473662018
 20
88.20034284582815
 10
119.7676877154299
 20
88.18257368953306
 10
119.753282910145
 20
88.16331345287027
 10
119.7407406095792
 20
88.14268594395698
 10
119.7301900048114
 20
88.12082573683357
 10
119.7217710528437
 20
88.09786202257884
 10
119.7156021788315
 20
88.07390784338673
 10
119.7118018079305
 20
88.04909777329763
 10
119.7105098971426
 20
88.02355562042875
  0
HATCH
  5
7D
330
1F
100
AcDbEntity
  8
ISS138金台
  6
Continuous
 62
   250
420
  2367521
370
    13
100
AcDbHatch
 10
0.0
 20
0.0
 30
0.0
210
0.0
220
0.0
230
1.0
  2
SOLID
 70
     1
 71
     0
 91
        1
 92
        3
 72
     0
 73
     1
 93
       67
 10
108.2741603272815
 20
115.5216291244142
 10
108.2754522380694
 20
115.4960923545069
 10
108.279231077124
 20
115.4712984333027
 10
108.2853784192897
 20
115.447365785957
 10
108.2937866053342
 20
115.4244128376255
 10
108.3043049123323
 20
115.4025795453102
 10
108.3168149151283
 20
115.3819843341666
 10
108.3311874226436
 20
115.3627563952735
 10
108.3473147756457
 20
115.3450249197097
 10
108.3650570171327
 20
115.3288868007843
 10
108.3842849560258
 20
115.3145250591923
 10
108.4048801671694
 20
115.302004290473
 10
108.4267134594847
 20
115.2914967493982
 10
108.449655641893
 20
115.2830885633537
 10
108.4735882892386
 20
115.2769304552647
 10
108.4983929763661
 20
115.2731516162102
 10
108.5239297462734
 20
115.2718597054223
 10
108.5239297462734
 20
115.2718597054223
 10
108.5495311117201
 20
115.2731516162102
 10
108.5743680966172
 20
115.276941221188
 10
108.5983653395023
 20
115.2830885633537
 10
108.6213505856035
 20
115.291485983475
 10
108.6432161756885
 20
115.3020150563963
 10
108.6638329186786
 20
115.3145250591923
 10
108.6830931553413
 20
115.3288975667076
 10
108.7008461627516
 20
115.3450249197097
 10
108.7169735157537
 20
115.3627563952735
 10
108.7313675551155
 20
115.3819843341666
 10
108.7438883238348
 20
115.4025795453102
 10
108.7544066308328
 20
115.4244128376255
 10
108.7628148168773
 20
115.4473550200338
 10
108.7689729249663
 20
115.4712984333027
 10
108.7727517640208
 20
115.4960923545069
 10
108.7740436748087
 20
115.5216291244142
 10
108.7740436748087
 20
115.5216291244142
 10
108.7727517640208
 20
115.547284319477
 10
108.768962159043
 20
115.5721858999136
 10
108.7628040509541
 20
115.5962046746451
 10
108.7544066308328
 20
115.6192006866695
 10
108.7438883238348
 20
115.6410770426778
 10
108.7313675551155
 20
115.6616937856678
 10
108.7169735157537
 20
115.6809432564074
 10
108.7008461627516
 20
115.6986747319712
 10
108.6830931553413
 20
115.7148020849733
 10
108.6638436846018
 20
115.7291638265653
 10
108.6432161756885
 20
115.7416630634382
 10
108.6213505856035
 20
115.752170604513
 10
108.5983653395023
 20
115.7605464927878
 10
108.5743788625405
 20
115.7666938349535
 10
108.5495311117201
 20
115.7704726740081
 10
108.5239297462734
 20
115.7717538188727
 10
108.5239297462734
 20
115.7717538188727
 10
108.4983929763661
 20
115.7704619080848
 10
108.4735990551619
 20
115.7666938349535
 10
108.449655641893
 20
115.7605464927878
 10
108.4267026935615
 20
115.752170604513
 10
108.4048801671694
 20
115.7416630634382
 10
108.3842849560258
 20
115.7291638265653
 10
108.3650462512095
 20
115.7148020849733
 10
108.3473147756457
 20
115.6986854978944
 10
108.3311981885668
 20
115.6809432564074
 10
108.3168149151283
 20
115.6616937856678
 10
108.3043049123323
 20
115.6410770426778
 10
108.2937866053342
 20
115.6192006866695
 10
108.2853891852129
 20
115.5961939087218
 10
108.279231077124
 20
115.5721858999136
 10
108.2754522380694
 20
115.547284319477
 97
        0
 75
     1
 76
     1
 98
        0
  0
LWPOLYLINE
  5
7E
330
1F
100
AcDbEntity
  8
ISS138金台
  6
Continuous
 62
   250
420
  2367521
370
    13
100
AcDbPolyline
 90
       68
 70
     0
 43
0.0
 10
108.2741603272815
 20
115.5216291244142
 10
108.2754522380694
 20
115.4960923545069
 10
108.279231077124
 20
115.4712984333027
 10
108.2853784192897
 20
115.447365785957
 10
108.2937866053342
 20
115.4244128376255
 10
108.3043049123323
 20
115.4025795453102
 10
108.3168149151283
 20
115.3819843341666
 10
108.3311874226436
 20
115.3627563952735
 10
108.3473147756457
 20
115.3450249197097
 10
108.3650570171327
 20
115.3288868007843
 10
108.3842849560258
 20
115.3145250591923
 10
108.4048801671694
 20
115.302004290473
 10
108.4267134594847
 20
115.2914967493982
 10
108.449655641893
 20
115.2830885633537
 10
108.4735882892386
 20
115.2769304552647
 10
108.4983929763661
 20
115.2731516162102
 10
108.5239297462734
 20
115.2718597054223
 10
108.5239297462734
 20
115.2718597054223
 10
108.5495311117201
 20
115.2731516162102
 10
108.5743680966172
 20
115.276941221188
 10
108.5983653395023
 20
115.2830885633537
 10
108.6213505856035
 20
115.291485983475
 10
108.6432161756885
 20
115.3020150563963
 10
108.6638329186786
 20
115.3145250591923
 10
108.6830931553413
 20
115.3288975667076
 10
108.7008461627516
 20
115.3450249197097
 10
108.7169735157537
 20
115.3627563952735
 10
108.7313675551155
 20
115.3819843341666
 10
108.7438883238348
 20
115.4025795453102
 10
108.7544066308328
 20
115.4244128376255
 10
108.7628148168773
 20
115.4473550200338
 10
108.7689729249663
 20
115.4712984333027
 10
108.7727517640208
 20
115.4960923545069
 10
108.7740436748087
 20
115.5216291244142
 10
108.7740436748087
 20
115.5216291244142
 10
108.7727517640208
 20
115.547284319477
 10
108.768962159043
 20
115.5721858999136
 10
108.7628040509541
 20
115.5962046746451
 10
108.7544066308328
 20
115.6192006866695
 10
108.7438883238348
 20
115.6410770426778
 10
108.7313675551155
 20
115.6616937856678
 10
108.7169735157537
 20
115.6809432564074
 10
108.7008461627516
 20
115.6986747319712
 10
108.6830931553413
 20
115.7148020849733
 10
108.6638436846018
 20
115.7291638265653
 10
108.6432161756885
 20
115.7416630634382
 10
108.6213505856035
 20
115.752170604513
 10
108.5983653395023
 20
115.7605464927878
 10
108.5743788625405
 20
115.7666938349535
 10
108.5495311117201
 20
115.7704726740081
 10
108.5239297462734
 20
115.7717538188727
 10
108.5239297462734
 20
115.7717538188727
 10
108.4983929763661
 20
115.7704619080848
 10
108.4735990551619
 20
115.7666938349535
 10
108.449655641893
 20
115.7605464927878
 10
108.4267026935615
 20
115.752170604513
 10
108.4048801671694
 20
115.7416630634382
 10
108.3842849560258
 20
115.7291638265653
 10
108.3650462512095
 20
115.7148020849733
 10
108.3473147756457
 20
115.6986854978944
 10
108.3311981885668
 20
115.6809432564074
 10
108.3168149151283
 20
115.6616937856678
 10
108.3043049123323
 20
115.6410770426778
 10
108.2937866053342
 20
115.6192006866695
 10
108.2853891852129
 20
115.5961939087218
 10
108.279231077124
 20
115.5721858999136
 10
108.2754522380694
 20
115.547284319477
 10
108.2741603272815
 20
115.5216291244142
  0
HATCH
  5
7F
330
1F
100
AcDbEntity
  8
ISS138金台
  6
Continuous
 62
   250
420
  2367521
370
    13
100
AcDbHatch
 10
0.0
 20
0.0
 30
0.0
210
0.0
220
0.0
230
1.0
  2
SOLID
 70
     1
 71
     0
 91
        1
 92
        3
 72
     0
 73
     1
 93
       67
 10
129.9090474433575
 20
108.5218842208592
 10
129.9103393541453
 20
108.4962828554126
 10
129.9141289591232
 20
108.4714243386689
 10
129.9202763012889
 20
108.4474486276304
 10
129.9286844873334
 20
108.4244633815292
 10
129.9392027943314
 20
108.4025977914441
 10
129.9517127971275
 20
108.3819702825309
 10
129.9661176024125
 20
108.3627208117913
 10
129.9822449554146
 20
108.3449678043811
 10
129.9999979628248
 20
108.3288296854557
 10
130.0192581994876
 20
108.314435646094
 10
130.0398749424777
 20
108.3019148773747
 10
130.0617405325627
 20
108.2913965703766
 10
130.0847365445871
 20
108.2829883843321
 10
130.1087122556257
 20
108.2768302762431
 10
130.1335707723694
 20
108.2730514371886
 10
130.159172137816
 20
108.2717595264007
 10
130.159172137816
 20
108.2717595264007
 10
130.1847089077233
 20
108.2730406712653
 10
130.2094920630043
 20
108.2768410421664
 10
130.2334354762732
 20
108.2829883843321
 10
130.2563991905279
 20
108.2913965703766
 10
130.27822171692
 20
108.3019148773747
 10
130.2988169280636
 20
108.314435646094
 10
130.3180448669567
 20
108.3288296854557
 10
130.3357763425204
 20
108.3449678043811
 10
130.3518929295994
 20
108.3627208117913
 10
130.3662762030379
 20
108.3819702825309
 10
130.3787862058339
 20
108.4025870255209
 10
130.389304512832
 20
108.4244633815292
 10
130.3977019329533
 20
108.4474486276304
 10
130.4038600410422
 20
108.4714351045922
 10
130.4076388800968
 20
108.4962828554126
 10
130.4089307908847
 20
108.5218842208592
 10
130.4089307908847
 20
108.5218842208592
 10
130.40764964602
 20
108.5474209907665
 10
130.403849275119
 20
108.5722149119708
 10
130.3977019329533
 20
108.5961583252396
 10
130.389304512832
 20
108.6191005076479
 10
130.3787754399107
 20
108.6409337999632
 10
130.3662762030379
 20
108.6615290111068
 10
130.3518929295994
 20
108.6807569499999
 10
130.3357763425204
 20
108.6984884255637
 10
130.3180341010334
 20
108.7146157785658
 10
130.2988169280636
 20
108.7289990520043
 10
130.27822171692
 20
108.7415090548004
 10
130.2563884246047
 20
108.7520165958752
 10
130.2334462421964
 20
108.7604247819197
 10
130.2095028289275
 20
108.7665828900087
 10
130.1847089077233
 20
108.7703617290633
 10
130.159172137816
 20
108.7716536398511
 10
130.159172137816
 20
108.7716536398511
 10
130.1335815382926
 20
108.7703617290633
 10
130.1087230215489
 20
108.7665828900087
 10
130.0847257786639
 20
108.7604247819197
 10
130.0617405325627
 20
108.7520273617985
 10
130.0398749424777
 20
108.7415090548004
 10
130.0192581994876
 20
108.7289882860811
 10
129.9999979628248
 20
108.7146157785658
 10
129.9822449554146
 20
108.6984884255637
 10
129.9661068364892
 20
108.6807569499999
 10
129.9517235630507
 20
108.6615290111068
 10
129.9392027943314
 20
108.6409337999632
 10
129.9286844873334
 20
108.6191005076479
 10
129.9202763012889
 20
108.5961475593164
 10
129.9141181931999
 20
108.5722149119708
 10
129.9103393541453
 20
108.5474209907665
 97
        0
 75
     1
 76
     1
 98
        0
  0
LWPOLYLINE
  5
80
330
1F
100
AcDbEntity
  8
ISS138金台
  6
Continuous
 62
   250
420
  2367521
370
    13
100
AcDbPolyline
 90
       68
 70
     0
 43
0.0
 10
129.9090474433575
 20
108.5218842208592
 10
129.9103393541453
 20
108.4962828554126
 10
129.9141289591232
 20
108.4714243386689
 10
129.9202763012889
 20
108.4474486276304
 10
129.9286844873334
 20
108.4244633815292
 10
129.9392027943314
 20
108.4025977914441
 10
129.9517127971275
 20
108.3819702825309
 10
129.9661176024125
 20
108.3627208117913
 10
129.9822449554146
 20
108.3449678043811
 10
129.9999979628248
 20
108.3288296854557
 10
130.0192581994876
 20
108.314435646094
 10
130.0398749424777
 20
108.3019148773747
 10
130.0617405325627
 20
108.2913965703766
 10
130.0847365445871
 20
108.2829883843321
 10
130.1087122556257
 20
108.2768302762431
 10
130.1335707723694
 20
108.2730514371886
 10
130.159172137816
 20
108.2717595264007
 10
130.159172137816
 20
108.2717595264007
 10
130.1847089077233
 20
108.2730406712653
 10
130.2094920630043
 20
108.2768410421664
 10
130.2334354762732
 20
108.2829883843321
 10
130.2563991905279
 20
108.2913965703766
 10
130.27822171692
 20
108.3019148773747
 10
130.2988169280636
 20
108.314435646094
 10
130.3180448669567
 20
108.3288296854557
 10
130.3357763425204
 20
108.3449678043811
 10
130.3518929295994
 20
108.3627208117913
 10
130.3662762030379
 20
108.3819702825309
 10
130.3787862058339
 20
108.4025870255209
 10
130.389304512832
 20
108.4244633815292
 10
130.3977019329533
 20
108.4474486276304
 10
130.4038600410422
 20
108.4714351045922
 10
130.4076388800968
 20
108.4962828554126
 10
130.4089307908847
 20
108.5218842208592
 10
130.4089307908847
 20
108.5218842208592
 10
130.40764964602
 20
108.5474209907665
 10
130.403849275119
 20
108.5722149119708
 10
130.3977019329533
 20
108.5961583252396
 10
130.389304512832
 20
108.6191005076479
 10
130.3787754399107
 20
108.6409337999632
 10
130.3662762030379
 20
108.6615290111068
 10
130.3518929295994
 20
108.6807569499999
 10
130.3357763425204
 20
108.6984884255637
 10
130.3180341010334
 20
108.7146157785658
 10
130.2988169280636
 20
108.7289990520043
 10
130.27822171692
 20
108.7415090548004
 10
130.2563884246047
 20
108.7520165958752
 10
130.2334462421964
 20
108.7604247819197
 10
130.2095028289275
 20
108.7665828900087
 10
130.1847089077233
 20
108.7703617290633
 10
130.159172137816
 20
108.7716536398511
 10
130.159172137816
 20
108.7716536398511
 10
130.1335815382926
 20
108.7703617290633
 10
130.1087230215489
 20
108.7665828900087
 10
130.0847257786639
 20
108.7604247819197
 10
130.0617405325627
 20
108.7520273617985
 10
130.0398749424777
 20
108.7415090548004
 10
130.0192581994876
 20
108.7289882860811
 10
129.9999979628248
 20
108.7146157785658
 10
129.9822449554146
 20
108.6984884255637
 10
129.9661068364892
 20
108.6807569499999
 10
129.9517235630507
 20
108.6615290111068
 10
129.9392027943314
 20
108.6409337999632
 10
129.9286844873334
 20
108.6191005076479
 10
129.9202763012889
 20
108.5961475593164
 10
129.9141181931999
 20
108.5722149119708
 10
129.9103393541453
 20
108.5474209907665
 10
129.9090474433575
 20
108.5218842208592
  0
HATCH
  5
81
330
1F
100
AcDbEntity
  8
ISS138金台
  6
Continuous
 62
   250
420
  2367521
370
    13
100
AcDbHatch
 10
0.0
 20
0.0
 30
0.0
210
0.0
220
0.0
230
1.0
  2
SOLID
 70
     1
 71
     0
 91
        1
 92
        3
 72
     0
 73
     1
 93
       67
 10
108.2738481155078
 20
93.52160495598784
 10
108.2751400262957
 20
93.49605742015734
 10
108.2789296312735
 20
93.47125273302987
 10
108.2850769734392
 20
93.44730931976099
 10
108.2934851594837
 20
93.42433483958303
 10
108.3040034664817
 20
93.40248001542123
 10
108.3165134692778
 20
93.38185250650794
 10
108.3309182745628
 20
93.36259226984515
 10
108.3470456275649
 20
93.34481773058846
 10
108.3647986349752
 20
93.3286580798166
 10
108.3840588716379
 20
93.31425327453164
 10
108.404675614628
 20
93.30171097396588
 10
108.426541204713
 20
93.29116036919812
 10
108.4495372167375
 20
93.28274141723037
 10
108.473512927776
 20
93.27657254321821
 10
108.4983714445197
 20
93.27277217231716
 10
108.5239728099663
 20
93.27148026152928
 10
108.5239728099663
 20
93.27148026152928
 10
108.5495203457968
 20
93.27277217231716
 10
108.5742927351546
 20
93.27656177729497
 10
108.5982469143467
 20
93.2827521831536
 10
108.6211998626782
 20
93.29117113512135
 10
108.6430223890703
 20
93.30172173988912
 10
108.6636176002139
 20
93.31425327453164
 10
108.682845539107
 20
93.32866884573983
 10
108.7005770146708
 20
93.34481773058846
 10
108.7166936017497
 20
93.36259226984515
 10
108.7310768751882
 20
93.3818417405847
 10
108.7435868779842
 20
93.40246924949801
 10
108.7541051849823
 20
93.42433483958303
 10
108.7625026051036
 20
93.44729855383775
 10
108.7686607131925
 20
93.47125273302987
 10
108.7724395522471
 20
93.49606818608058
 10
108.773731463035
 20
93.52160495598784
 10
108.773731463035
 20
93.52160495598784
 10
108.7724395522471
 20
93.5471309599719
 10
108.7686499472693
 20
93.57195717894582
 10
108.7625026051036
 20
93.59591135813793
 10
108.7541051849823
 20
93.61888583831589
 10
108.7435868779842
 20
93.64074066247768
 10
108.7310768751882
 20
93.66135740546775
 10
108.7167043676729
 20
93.68061764213053
 10
108.7005770146708
 20
93.69839218138723
 10
108.682845539107
 20
93.71454106623585
 10
108.6636176002139
 20
93.72895663744404
 10
108.6430223890703
 20
93.74149893800981
 10
108.621189096755
 20
93.75203877685433
 10
108.5982361484235
 20
93.76046849474531
 10
108.5743035010778
 20
93.76663736875747
 10
108.5495095798736
 20
93.77043773965852
 10
108.5239728099663
 20
93.77172965044642
 10
108.5239728099663
 20
93.77172965044642
 10
108.4983606785964
 20
93.77043773965852
 10
108.4735236936992
 20
93.76663736875747
 10
108.4495372167375
 20
93.76046849474531
 10
108.426541204713
 20
93.75204954277757
 10
108.404675614628
 20
93.74150970393303
 10
108.3840588716379
 20
93.72895663744404
 10
108.3648094008984
 20
93.71454106623585
 10
108.3470456275649
 20
93.69839218138723
 10
108.3309075086395
 20
93.68061764213053
 10
108.316524235201
 20
93.66135740546775
 10
108.3040034664817
 20
93.64074066247768
 10
108.2934851594837
 20
93.61887507239265
 10
108.2850769734392
 20
93.59591135813793
 10
108.2789188653502
 20
93.57195717894582
 10
108.2751400262957
 20
93.54714172589512
 97
        0
 75
     1
 76
     1
 98
        0
  0
LWPOLYLINE
  5
82
330
1F
100
AcDbEntity
  8
ISS138金台
  6
Continuous
 62
   250
420
  2367521
370
    13
100
AcDbPolyline
 90
       68
 70
     0
 43
0.0
 10
108.2738481155078
 20
93.52160495598784
 10
108.2751400262957
 20
93.49605742015734
 10
108.2789296312735
 20
93.47125273302987
 10
108.2850769734392
 20
93.44730931976099
 10
108.2934851594837
 20
93.42433483958303
 10
108.3040034664817
 20
93.40248001542123
 10
108.3165134692778
 20
93.38185250650794
 10
108.3309182745628
 20
93.36259226984515
 10
108.3470456275649
 20
93.34481773058846
 10
108.3647986349752
 20
93.3286580798166
 10
108.3840588716379
 20
93.31425327453164
 10
108.404675614628
 20
93.30171097396588
 10
108.426541204713
 20
93.29116036919812
 10
108.4495372167375
 20
93.28274141723037
 10
108.473512927776
 20
93.27657254321821
 10
108.4983714445197
 20
93.27277217231716
 10
108.5239728099663
 20
93.27148026152928
 10
108.5239728099663
 20
93.27148026152928
 10
108.5495203457968
 20
93.27277217231716
 10
108.5742927351546
 20
93.27656177729497
 10
108.5982469143467
 20
93.2827521831536
 10
108.6211998626782
 20
93.29117113512135
 10
108.6430223890703
 20
93.30172173988912
 10
108.6636176002139
 20
93.31425327453164
 10
108.682845539107
 20
93.32866884573983
 10
108.7005770146708
 20
93.34481773058846
 10
108.7166936017497
 20
93.36259226984515
 10
108.7310768751882
 20
93.3818417405847
 10
108.7435868779842
 20
93.40246924949801
 10
108.7541051849823
 20
93.42433483958303
 10
108.7625026051036
 20
93.44729855383775
 10
108.7686607131925
 20
93.47125273302987
 10
108.7724395522471
 20
93.49606818608058
 10
108.773731463035
 20
93.52160495598784
 10
108.773731463035
 20
93.52160495598784
 10
108.7724395522471
 20
93.5471309599719
 10
108.7686499472693
 20
93.57195717894582
 10
108.7625026051036
 20
93.59591135813793
 10
108.7541051849823
 20
93.61888583831589
 10
108.7435868779842
 20
93.64074066247768
 10
108.7310768751882
 20
93.66135740546775
 10
108.7167043676729
 20
93.68061764213053
 10
108.7005770146708
 20
93.69839218138723
 10
108.682845539107
 20
93.71454106623585
 10
108.6636176002139
 20
93.72895663744404
 10
108.6430223890703
 20
93.74149893800981
 10
108.621189096755
 20
93.75203877685433
 10
108.5982361484235
 20
93.76046849474531
 10
108.5743035010778
 20
93.76663736875747
 10
108.5495095798736
 20
93.77043773965852
 10
108.5239728099663
 20
93.77172965044642
 10
108.5239728099663
 20
93.77172965044642
 10
108.4983606785964
 20
93.77043773965852
 10
108.4735236936992
 20
93.76663736875747
 10
108.4495372167375
 20
93.76046849474531
 10
108.426541204713
 20
93.75204954277757
 10
108.404675614628
 20
93.74150970393303
 10
108.3840588716379
 20
93.72895663744404
 10
108.3648094008984
 20
93.71454106623585
 10
108.3470456275649
 20
93.69839218138723
 10
108.3309075086395
 20
93.68061764213053
 10
108.316524235201
 20
93.66135740546775
 10
108.3040034664817
 20
93.64074066247768
 10
108.2934851594837
 20
93.61887507239265
 10
108.2850769734392
 20
93.59591135813793
 10
108.2789188653502
 20
93.57195717894582
 10
108.2751400262957
 20
93.54714172589512
 10
108.2738481155078
 20
93.52160495598784
  0
HATCH
  5
83
330
1F
100
AcDbEntity
  8
ISS138金台
  6
Continuous
 62
   250
420
  2367521
370
    13
100
AcDbHatch
 10
0.0
 20
0.0
 30
0.0
210
0.0
220
0.0
230
1.0
  2
SOLID
 70
     1
 71
     0
 91
        1
 92
        3
 72
     0
 73
     1
 93
       67
 10
122.210960163409
 20
88.02355562042875
 10
122.2122520741969
 20
87.9980242334831
 10
122.2160309132515
 20
87.97323569524048
 10
122.222167489494
 20
87.94931381381807
 10
122.2305433777688
 20
87.92639316325625
 10
122.2410509188436
 20
87.90458140278739
 10
122.2535393897932
 20
87.88401848941349
 10
122.2679118973085
 20
87.86482823125172
 10
122.2840284843874
 20
87.84712367049602
 10
122.3017707258744
 20
87.8310339982252
 10
122.3210094306908
 20
87.81668840551801
 10
122.341636939604
 20
87.80420531753003
 10
122.3635132956123
 20
87.79371392534004
 10
122.38652007356
 20
87.78533803706523
 10
122.4105280823682
 20
87.77920146082275
 10
122.4354296628048
 20
87.7754280047298
 10
122.4610848578676
 20
87.77414147690352
 10
122.4610848578676
 20
87.77414147690352
 10
122.4866216277749
 20
87.7754280047298
 10
122.5114047830559
 20
87.77919607786114
 10
122.5353266644783
 20
87.78534342002685
 10
122.5582365491169
 20
87.79371392534004
 10
122.5800483095857
 20
87.80421070049164
 10
122.6006112229596
 20
87.81668840551801
 10
122.619806864083
 20
87.8310339982252
 10
122.6375168078003
 20
87.84712367049602
 10
122.6536010971096
 20
87.86482823125172
 10
122.6679413068551
 20
87.88402387237511
 10
122.6804190118815
 20
87.90458678574902
 10
122.6909157870331
 20
87.92639316325625
 10
122.6992916753079
 20
87.94931919677967
 10
122.7054282515504
 20
87.97323569524048
 10
122.7092070906049
 20
87.9980242334831
 10
122.7104882354696
 20
88.02355562042875
 10
122.7104882354696
 20
88.02355562042875
 10
122.7092070906049
 20
88.0492161984532
 10
122.7054282515504
 20
88.07411239592815
 10
122.6992916753079
 20
88.09812040473642
 10
122.6909157870331
 20
88.12112718268408
 10
122.6804297778047
 20
88.14300353869234
 10
122.6679413068551
 20
88.1636202816824
 10
122.6536010971096
 20
88.18286436946033
 10
122.6375168078003
 20
88.20060661094735
 10
122.619806864083
 20
88.21672858098788
 10
122.6006112229596
 20
88.23109570554152
 10
122.5800483095857
 20
88.24358955945273
 10
122.5582473150401
 20
88.25409171756596
 10
122.5353158985551
 20
88.26247298880239
 10
122.5114047830559
 20
88.26861494800647
 10
122.4866216277749
 20
88.27238840409942
 10
122.4610848578676
 20
88.2736749319257
 10
122.4610848578676
 20
88.2736749319257
 10
122.4354188968816
 20
88.27238840409942
 10
122.4105280823682
 20
88.26861494800647
 10
122.38652007356
 20
88.26247837176399
 10
122.3635025296891
 20
88.25409171756596
 10
122.3416477055273
 20
88.24358955945273
 10
122.321020196614
 20
88.23109570554152
 10
122.3017814917977
 20
88.21672319802624
 10
122.2840392503106
 20
88.20060661094735
 10
122.2679118973085
 20
88.18286436946033
 10
122.2535393897932
 20
88.163625664644
 10
122.2410401529204
 20
88.14299815573071
 10
122.2305433777688
 20
88.12112718268408
 10
122.2221567235708
 20
88.09812040473642
 10
122.2160201473283
 20
88.07410701296652
 10
122.2122413082737
 20
88.04921081549159
 97
        0
 75
     1
 76
     1
 98
        0
  0
LWPOLYLINE
  5
84
330
1F
100
AcDbEntity
  8
ISS138金台
  6
Continuous
 62
   250
420
  2367521
370
    13
100
AcDbPolyline
 90
       68
 70
     0
 43
0.0
 10
122.210960163409
 20
88.02355562042875
 10
122.2122520741969
 20
87.9980242334831
 10
122.2160309132515
 20
87.97323569524048
 10
122.222167489494
 20
87.94931381381807
 10
122.2305433777688
 20
87.92639316325625
 10
122.2410509188436
 20
87.90458140278739
 10
122.2535393897932
 20
87.88401848941349
 10
122.2679118973085
 20
87.86482823125172
 10
122.2840284843874
 20
87.84712367049602
 10
122.3017707258744
 20
87.8310339982252
 10
122.3210094306908
 20
87.81668840551801
 10
122.341636939604
 20
87.80420531753003
 10
122.3635132956123
 20
87.79371392534004
 10
122.38652007356
 20
87.78533803706523
 10
122.4105280823682
 20
87.77920146082275
 10
122.4354296628048
 20
87.7754280047298
 10
122.4610848578676
 20
87.77414147690352
 10
122.4610848578676
 20
87.77414147690352
 10
122.4866216277749
 20
87.7754280047298
 10
122.5114047830559
 20
87.77919607786114
 10
122.5353266644783
 20
87.78534342002685
 10
122.5582365491169
 20
87.79371392534004
 10
122.5800483095857
 20
87.80421070049164
 10
122.6006112229596
 20
87.81668840551801
 10
122.619806864083
 20
87.8310339982252
 10
122.6375168078003
 20
87.84712367049602
 10
122.6536010971096
 20
87.86482823125172
 10
122.6679413068551
 20
87.88402387237511
 10
122.6804190118815
 20
87.90458678574902
 10
122.6909157870331
 20
87.92639316325625
 10
122.6992916753079
 20
87.94931919677967
 10
122.7054282515504
 20
87.97323569524048
 10
122.7092070906049
 20
87.9980242334831
 10
122.7104882354696
 20
88.02355562042875
 10
122.7104882354696
 20
88.02355562042875
 10
122.7092070906049
 20
88.0492161984532
 10
122.7054282515504
 20
88.07411239592815
 10
122.6992916753079
 20
88.09812040473642
 10
122.6909157870331
 20
88.12112718268408
 10
122.6804297778047
 20
88.14300353869234
 10
122.6679413068551
 20
88.1636202816824
 10
122.6536010971096
 20
88.18286436946033
 10
122.6375168078003
 20
88.20060661094735
 10
122.619806864083
 20
88.21672858098788
 10
122.6006112229596
 20
88.23109570554152
 10
122.5800483095857
 20
88.24358955945273
 10
122.5582473150401
 20
88.25409171756596
 10
122.5353158985551
 20
88.26247298880239
 10
122.5114047830559
 20
88.26861494800647
 10
122.4866216277749
 20
88.27238840409942
 10
122.4610848578676
 20
88.2736749319257
 10
122.4610848578676
 20
88.2736749319257
 10
122.4354188968816
 20
88.27238840409942
 10
122.4105280823682
 20
88.26861494800647
 10
122.38652007356
 20
88.26247837176399
 10
122.3635025296891
 20
88.25409171756596
 10
122.3416477055273
 20
88.24358955945273
 10
122.321020196614
 20
88.23109570554152
 10
122.3017814917977
 20
88.21672319802624
 10
122.2840392503106
 20
88.20060661094735
 10
122.2679118973085
 20
88.18286436946033
 10
122.2535393897932
 20
88.163625664644
 10
122.2410401529204
 20
88.14299815573071
 10
122.2305433777688
 20
88.12112718268408
 10
122.2221567235708
 20
88.09812040473642
 10
122.2160201473283
 20
88.07410701296652
 10
122.2122413082737
 20
88.04921081549159
 10
122.210960163409
 20
88.02355562042875
  0
TEXT
  5
85
330
1F
100
AcDbEntity
  8
ISS138金台
  6
Continuous
 62
   250
420
  2367521
100
AcDbText
 10
124.5186681060457
 20
87.95847350436789
 30
0.0
 40
2.150533301035563
  1
2 .  5
 41
0.418999989827474
  7
MS Gothic
100
AcDbText
  0
TEXT
  5
86
330
1F
100
AcDbEntity
  8
ISS138金台
  6
Continuous
 62
   250
420
  2367521
100
AcDbText
 10
118.6710277112838
 20
121.8872321246512
 30
0.0
 40
2.150533301035563
  1
4.5
 41
0.767333984375
  7
MS Gothic
100
AcDbText
  0
TEXT
  5
87
330
1F
100
AcDbEntity
  8
ISS138金台
  6
Continuous
 62
   250
420
  2367521
100
AcDbText
 10
134.1693891416619
 20
111.1729820335226
 30
0.0
 40
2.150533301035563
  1
7
 50
90.00000250447816
 41
1.024999618530273
  7
MS Gothic
100
AcDbText
  0
TEXT
  5
88
330
1F
100
AcDbEntity
  8
ISS138金台
  6
Continuous
 62
   250
420
  2367521
100
AcDbText
 10
106.6357880910096
 20
102.8276689806882
 30
0.0
 40
2.150533301035563
  1
22
 50
90.00000250447816
 41
0.9280014038085936
  7
MS Gothic
100
AcDbText
  0
LINE
  5
89
330
1F
100
AcDbEntity
  8
ISS138金台
  6
Continuous
 62
   250
420
  2367521
370
    13
100
AcDbLine
 10
120.0619096314484
 20
88.02355562042875
 30
0.0
 11
123.8137046868643
 21
88.02355562042875
 31
0.0
  0
LINE
  5
8A
330
1F
100
AcDbEntity
  8
ISS138金台
  6
Continuous
 62
   250
420
  2367521
370
    13
100
AcDbLine
 10
123.4608515529221
 20
116.5217510949353
 30
0.0
 11
123.4608515529221
 21
121.5269579967612
 31
0.0
  0
LINE
  5
8B
330
1F
100
AcDbEntity
  8
ISS138金台
  6
Continuous
 62
   250
420
  2367521
370
    13
100
AcDbLine
 10
118.9612231720134
 20
116.5217510949353
 30
0.0
 11
118.9612231720134
 21
121.5269579967612
 31
0.0
  0
HATCH
  5
8C
330
1F
100
AcDbEntity
  8
ISS138金台
  6
Continuous
 62
   250
420
  2367521
370
    13
100
AcDbHatch
 10
0.0
 20
0.0
 30
0.0
210
0.0
220
0.0
230
1.0
  2
SOLID
 70
     1
 71
     0
 91
        1
 92
        3
 72
     0
 73
     1
 93
       67
 10
118.7110877116316
 20
121.01966769405
 10
118.7123903883427
 20
121.0452044639573
 10
118.7161584614741
 20
121.0700091510848
 10
118.722316569563
 20
121.0939633302769
 10
118.7307247556075
 20
121.1169485763781
 10
118.7412538285288
 20
121.1388034005399
 10
118.7537638313249
 20
121.1594309094532
 10
118.7681578706866
 20
121.1786803801927
 10
118.7842852236887
 20
121.1964549194494
 10
118.8020489970222
 20
121.212603804298
 10
118.8212984677618
 20
121.2270193755062
 10
118.8419152107518
 20
121.239561676072
 10
118.8637808008368
 20
121.2501015149165
 10
118.8867768128613
 20
121.2585312328075
 10
118.9107632898231
 20
121.2647001068197
 10
118.9356110406435
 20
121.2685004777207
 10
118.9612124060902
 20
121.2697923885086
 10
118.9612124060902
 20
121.2697923885086
 10
118.9867491759974
 20
121.2684897117975
 10
119.0115538631249
 20
121.2647001068197
 10
119.0354865104705
 20
121.2585204668843
 10
119.0584179269556
 20
121.2501122808398
 10
119.0802619851941
 20
121.2395724419952
 10
119.1008464304145
 20
121.2270193755062
 10
119.1200743693076
 20
121.212603804298
 10
119.1378166107946
 20
121.1964549194494
 10
119.1539439637967
 20
121.1786803801927
 10
119.168316471312
 20
121.1594201435299
 10
119.1808264741081
 20
121.1388034005399
 10
119.1913447811061
 20
121.1169378104548
 10
119.1997422012274
 20
121.0939740962001
 10
119.2059003093163
 20
121.070019917008
 10
119.2096791483709
 20
121.0452044639573
 10
119.2109710591588
 20
121.01966769405
 10
119.2109710591588
 20
121.01966769405
 10
119.2096791483709
 20
120.9941309241428
 10
119.2059110752396
 20
120.9693154710921
 10
119.1997422012274
 20
120.9453720578232
 10
119.1913447811061
 20
120.9223975776452
 10
119.1808372400313
 20
120.9005427534834
 10
119.168316471312
 20
120.8799152445701
 10
119.1539331978735
 20
120.8606550079073
 10
119.1378166107946
 20
120.8428804686506
 10
119.1200851352308
 20
120.8267208178788
 10
119.1008571963377
 20
120.8123160125938
 10
119.0802619851941
 20
120.7997737120281
 10
119.0584286928788
 20
120.7892231072603
 10
119.0354757445473
 20
120.7808041552926
 10
119.0115430972017
 20
120.7746352812804
 10
118.9867491759974
 20
120.7708349103793
 10
118.9612124060902
 20
120.7695429995915
 10
118.9612124060902
 20
120.7695429995915
 10
118.9356110406435
 20
120.7708241444561
 10
118.9107525238999
 20
120.7746352812804
 10
118.8867768128613
 20
120.7808041552926
 10
118.8637915667601
 20
120.7892338731835
 10
118.8419259766751
 20
120.7997737120281
 10
118.8212984677618
 20
120.8123160125938
 10
118.8020489970222
 20
120.8267208178788
 10
118.784295989612
 20
120.8428804686506
 10
118.7681578706866
 20
120.8606442419841
 10
118.7537638313249
 20
120.8799152445701
 10
118.7412430626056
 20
120.9005319875602
 10
118.7307247556075
 20
120.9223975776452
 10
118.722316569563
 20
120.9453720578232
 10
118.7161584614741
 20
120.9693154710921
 10
118.7123796224195
 20
120.9941309241428
 97
        0
 75
     1
 76
     1
 98
        0
  0
LWPOLYLINE
  5
8D
330
1F
100
AcDbEntity
  8
ISS138金台
  6
Continuous
 62
   250
420
  2367521
370
    13
100
AcDbPolyline
 90
       68
 70
     0
 43
0.0
 10
118.7110877116316
 20
121.01966769405
 10
118.7123903883427
 20
121.0452044639573
 10
118.7161584614741
 20
121.0700091510848
 10
118.722316569563
 20
121.0939633302769
 10
118.7307247556075
 20
121.1169485763781
 10
118.7412538285288
 20
121.1388034005399
 10
118.7537638313249
 20
121.1594309094532
 10
118.7681578706866
 20
121.1786803801927
 10
118.7842852236887
 20
121.1964549194494
 10
118.8020489970222
 20
121.212603804298
 10
118.8212984677618
 20
121.2270193755062
 10
118.8419152107518
 20
121.239561676072
 10
118.8637808008368
 20
121.2501015149165
 10
118.8867768128613
 20
121.2585312328075
 10
118.9107632898231
 20
121.2647001068197
 10
118.9356110406435
 20
121.2685004777207
 10
118.9612124060902
 20
121.2697923885086
 10
118.9612124060902
 20
121.2697923885086
 10
118.9867491759974
 20
121.2684897117975
 10
119.0115538631249
 20
121.2647001068197
 10
119.0354865104705
 20
121.2585204668843
 10
119.0584179269556
 20
121.2501122808398
 10
119.0802619851941
 20
121.2395724419952
 10
119.1008464304145
 20
121.2270193755062
 10
119.1200743693076
 20
121.212603804298
 10
119.1378166107946
 20
121.1964549194494
 10
119.1539439637967
 20
121.1786803801927
 10
119.168316471312
 20
121.1594201435299
 10
119.1808264741081
 20
121.1388034005399
 10
119.1913447811061
 20
121.1169378104548
 10
119.1997422012274
 20
121.0939740962001
 10
119.2059003093163
 20
121.070019917008
 10
119.2096791483709
 20
121.0452044639573
 10
119.2109710591588
 20
121.01966769405
 10
119.2109710591588
 20
121.01966769405
 10
119.2096791483709
 20
120.9941309241428
 10
119.2059110752396
 20
120.9693154710921
 10
119.1997422012274
 20
120.9453720578232
 10
119.1913447811061
 20
120.9223975776452
 10
119.1808372400313
 20
120.9005427534834
 10
119.168316471312
 20
120.8799152445701
 10
119.1539331978735
 20
120.8606550079073
 10
119.1378166107946
 20
120.8428804686506
 10
119.1200851352308
 20
120.8267208178788
 10
119.1008571963377
 20
120.8123160125938
 10
119.0802619851941
 20
120.7997737120281
 10
119.0584286928788
 20
120.7892231072603
 10
119.0354757445473
 20
120.7808041552926
 10
119.0115430972017
 20
120.7746352812804
 10
118.9867491759974
 20
120.7708349103793
 10
118.9612124060902
 20
120.7695429995915
 10
118.9612124060902
 20
120.7695429995915
 10
118.9356110406435
 20
120.7708241444561
 10
118.9107525238999
 20
120.7746352812804
 10
118.8867768128613
 20
120.7808041552926
 10
118.8637915667601
 20
120.7892338731835
 10
118.8419259766751
 20
120.7997737120281
 10
118.8212984677618
 20
120.8123160125938
 10
118.8020489970222
 20
120.8267208178788
 10
118.784295989612
 20
120.8428804686506
 10
118.7681578706866
 20
120.8606442419841
 10
118.7537638313249
 20
120.8799152445701
 10
118.7412430626056
 20
120.9005319875602
 10
118.7307247556075
 20
120.9223975776452
 10
118.722316569563
 20
120.9453720578232
 10
118.7161584614741
 20
120.9693154710921
 10
118.7123796224195
 20
120.9941309241428
 10
118.7110877116316
 20
121.01966769405
  0
HATCH
  5
8E
330
1F
100
AcDbEntity
  8
ISS138金台
  6
Continuous
 62
   250
420
  2367521
370
    13
100
AcDbHatch
 10
0.0
 20
0.0
 30
0.0
210
0.0
220
0.0
230
1.0
  2
SOLID
 70
     1
 71
     0
 91
        1
 92
        3
 72
     0
 73
     1
 93
       67
 10
123.2110928998534
 20
121.01966769405
 10
123.2123848106413
 20
121.0452044639573
 10
123.2161636496959
 20
121.0699876192383
 10
123.2223217577848
 20
121.0939095006607
 10
123.2307299438293
 20
121.1168301512225
 10
123.2412482508274
 20
121.1386311457682
 10
123.2537690195467
 20
121.1591940591421
 10
123.2681522929852
 20
121.1783897002654
 10
123.2842904119106
 20
121.1960996439827
 10
123.3020434193208
 20
121.212183933292
 10
123.3212928900603
 20
121.2265349089608
 10
123.3419203989736
 20
121.2390126139871
 10
123.3637859890587
 20
121.2495093891387
 10
123.3867820010831
 20
121.2578852774135
 10
123.4107684780449
 20
121.264021853656
 10
123.4356162288653
 20
121.2678006927106
 10
123.461217594312
 20
121.2690818375753
 10
123.461217594312
 20
121.2690818375753
 10
123.4867543642192
 20
121.2677899267874
 10
123.5115590513467
 20
121.264021853656
 10
123.5354809327691
 20
121.2578745114903
 10
123.5584446470239
 20
121.2495093891387
 10
123.580267173416
 20
121.2390233799104
 10
123.6008516186363
 20
121.2265349089608
 10
123.6200903234526
 20
121.212183933292
 10
123.6378217990164
 20
121.1960996439827
 10
123.6539383860953
 20
121.1783897002654
 10
123.6683216595338
 20
121.1591940591421
 10
123.6808316623299
 20
121.1386311457682
 10
123.691349969328
 20
121.1168301512225
 10
123.6997473894492
 20
121.0939095006607
 10
123.7059054975382
 20
121.0699876192383
 10
123.7096843365928
 20
121.0452044639573
 10
123.7109762473806
 20
121.01966769405
 10
123.7109762473806
 20
121.01966769405
 10
123.709695102516
 20
120.9940124989872
 10
123.7059054975382
 20
120.9691109185506
 10
123.699736623526
 20
120.9451029097424
 10
123.691349969328
 20
120.9220961317947
 10
123.6808316623299
 20
120.9002305417097
 10
123.6683216595338
 20
120.8796030327964
 10
123.6539383860953
 20
120.8603643279801
 10
123.6378217990164
 20
120.8426113205698
 10
123.6200903234526
 20
120.8264947334909
 10
123.6008516186363
 20
120.8121329918989
 10
123.580267173416
 20
120.7996337550261
 10
123.5584338811006
 20
120.7891369798745
 10
123.5354809327691
 20
120.7807395597532
 10
123.5115482854235
 20
120.7746029835107
 10
123.4867543642192
 20
120.7708241444561
 10
123.461217594312
 20
120.7695429995915
 10
123.461217594312
 20
120.7695429995915
 10
123.4356269947885
 20
120.7708241444561
 10
123.4107684780449
 20
120.7746029835107
 10
123.3867820010831
 20
120.7807395597532
 10
123.3637859890587
 20
120.7891369798745
 10
123.3419311648969
 20
120.7996337550261
 10
123.3213036559836
 20
120.8121329918989
 10
123.302054185244
 20
120.8264947334909
 10
123.2842904119106
 20
120.8426113205698
 10
123.2681522929852
 20
120.8603535620568
 10
123.2537690195467
 20
120.8796030327964
 10
123.2412482508274
 20
120.9002197757865
 10
123.2307299438293
 20
120.9220961317947
 10
123.2223217577848
 20
120.9451029097424
 10
123.2161636496959
 20
120.9691109185506
 10
123.2123848106413
 20
120.9940124989872
 97
        0
 75
     1
 76
     1
 98
        0
  0
LWPOLYLINE
  5
8F
330
1F
100
AcDbEntity
  8
ISS138金台
  6
Continuous
 62
   250
420
  2367521
370
    13
100
AcDbPolyline
 90
       68
 70
     0
 43
0.0
 10
123.2110928998534
 20
121.01966769405
 10
123.2123848106413
 20
121.0452044639573
 10
123.2161636496959
 20
121.0699876192383
 10
123.2223217577848
 20
121.0939095006607
 10
123.2307299438293
 20
121.1168301512225
 10
123.2412482508274
 20
121.1386311457682
 10
123.2537690195467
 20
121.1591940591421
 10
123.2681522929852
 20
121.1783897002654
 10
123.2842904119106
 20
121.1960996439827
 10
123.3020434193208
 20
121.212183933292
 10
123.3212928900603
 20
121.2265349089608
 10
123.3419203989736
 20
121.2390126139871
 10
123.3637859890587
 20
121.2495093891387
 10
123.3867820010831
 20
121.2578852774135
 10
123.4107684780449
 20
121.264021853656
 10
123.4356162288653
 20
121.2678006927106
 10
123.461217594312
 20
121.2690818375753
 10
123.461217594312
 20
121.2690818375753
 10
123.4867543642192
 20
121.2677899267874
 10
123.5115590513467
 20
121.264021853656
 10
123.5354809327691
 20
121.2578745114903
 10
123.5584446470239
 20
121.2495093891387
 10
123.580267173416
 20
121.2390233799104
 10
123.6008516186363
 20
121.2265349089608
 10
123.6200903234526
 20
121.212183933292
 10
123.6378217990164
 20
121.1960996439827
 10
123.6539383860953
 20
121.1783897002654
 10
123.6683216595338
 20
121.1591940591421
 10
123.6808316623299
 20
121.1386311457682
 10
123.691349969328
 20
121.1168301512225
 10
123.6997473894492
 20
121.0939095006607
 10
123.7059054975382
 20
121.0699876192383
 10
123.7096843365928
 20
121.0452044639573
 10
123.7109762473806
 20
121.01966769405
 10
123.7109762473806
 20
121.01966769405
 10
123.709695102516
 20
120.9940124989872
 10
123.7059054975382
 20
120.9691109185506
 10
123.699736623526
 20
120.9451029097424
 10
123.691349969328
 20
120.9220961317947
 10
123.6808316623299
 20
120.9002305417097
 10
123.6683216595338
 20
120.8796030327964
 10
123.6539383860953
 20
120.8603643279801
 10
123.6378217990164
 20
120.8426113205698
 10
123.6200903234526
 20
120.8264947334909
 10
123.6008516186363
 20
120.8121329918989
 10
123.580267173416
 20
120.7996337550261
 10
123.5584338811006
 20
120.7891369798745
 10
123.5354809327691
 20
120.7807395597532
 10
123.5115482854235
 20
120.7746029835107
 10
123.4867543642192
 20
120.7708241444561
 10
123.461217594312
 20
120.7695429995915
 10
123.461217594312
 20
120.7695429995915
 10
123.4356269947885
 20
120.7708241444561
 10
123.4107684780449
 20
120.7746029835107
 10
123.3867820010831
 20
120.7807395597532
 10
123.3637859890587
 20
120.7891369798745
 10
123.3419311648969
 20
120.7996337550261
 10
123.3213036559836
 20
120.8121329918989
 10
123.302054185244
 20
120.8264947334909
 10
123.2842904119106
 20
120.8426113205698
 10
123.2681522929852
 20
120.8603535620568
 10
123.2537690195467
 20
120.8796030327964
 10
123.2412482508274
 20
120.9002197757865
 10
123.2307299438293
 20
120.9220961317947
 10
123.2223217577848
 20
120.9451029097424
 10
123.2161636496959
 20
120.9691109185506
 10
123.2123848106413
 20
120.9940124989872
 10
123.2110928998534
 20
121.01966769405
  0
LINE
  5
90
330
1F
100
AcDbEntity
  8
ISS138金台
  6
Continuous
 62
   250
420
  2367521
370
    13
100
AcDbLine
 10
118.9612231720134
 20
121.01966769405
 30
0.0
 11
123.4609053825382
 21
121.01966769405
 31
0.0
  0
LINE
  5
91
330
1F
100
AcDbEntity
  8
ISS138金台
  6
UserDefined01
 62
   140
420
    44526
370
    13
100
AcDbLine
 10
114.0071544055415
 20
100.5216943690862
 30
0.0
 11
114.0071544055415
 21
93.52152959452522
 31
0.0
  0
TEXT
  5
92
330
1F
100
AcDbEntity
  8
ISS138金台
  6
Continuous
 62
   140
420
    44526
100
AcDbText
 10
112.9935533268786
 20
96.3877413214696
 30
0.0
 40
1.881716638406118
  1
7
 50
90.00000250447816
 41
1.025009155273438
  7
MS Gothic
100
AcDbText
  0
HATCH
  5
93
330
1F
100
AcDbEntity
  8
ISS138金台
  6
Continuous
 62
   140
420
    44526
370
    50
100
AcDbHatch
 10
0.0
 20
0.0
 30
0.0
210
0.0
220
0.0
230
1.0
  2
SOLID
 70
     1
 71
     0
 91
        1
 92
        3
 72
     0
 73
     1
 93
        3
 10
123.460151767912
 20
101.3877590635174
 10
123.4594412169786
 20
99.65561890873181
 10
121.9608462348737
 20
100.5206285426862
 97
        0
 75
     1
 76
     1
 98
        0
  0
LWPOLYLINE
  5
94
330
1F
100
AcDbEntity
  8
ISS138金台
  6
Continuous
 62
   140
420
    44526
370
    50
100
AcDbPolyline
 90
        4
 70
     0
 43
0.0
 10
123.460151767912
 20
101.3877590635174
 10
123.4594412169786
 20
99.65561890873181
 10
121.9608462348737
 20
100.5206285426862
 10
123.460151767912
 20
101.3877590635174
  0
ENDSEC
  0
SECTION
  2
OBJECTS
  0
DICTIONARY
  5
C
330
0
100
AcDbDictionary
281
     1
  3
ACAD_DETAILVIEWSTYLE
350
9C
  3
ACAD_GROUP
350
D
  3
ACAD_LAYOUT
350
1A
  3
ACAD_MATERIAL
350
43
  3
ACAD_MLEADERSTYLE
350
5B
  3
ACAD_MLINESTYLE
350
17
  3
ACAD_PLOTSETTINGS
350
19
  3
ACAD_PLOTSTYLENAME
350
E
  3
ACAD_SCALELIST
350
47
  3
ACAD_SECTIONVIEWSTYLE
350
9D
  3
ACAD_TABLESTYLE
350
59
  3
ACAD_VISUALSTYLE
350
2A
  3
ACDB_RECOMPOSE_DATA
350
99
  3
AcDbVariableDictionary
350
95
  0
SUN
  5
5D
330
29
100
AcDbSun
 90
        1
290
     0
 63
     7
421
 16777215
 40
1.0
291
     1
 91
  2455826
 92
 54000000
292
     0
 70
     2
 71
   256
280
     1
  0
DICTIONARY
  5
9C
102
{ACAD_REACTORS
330
C
102
}
330
C
100
AcDbDictionary
281
     1
  0
DICTIONARY
  5
D
102
{ACAD_REACTORS
330
C
102
}
330
C
100
AcDbDictionary
281
     1
  0
DICTIONARY
  5
1A
102
{ACAD_REACTORS
330
C
102
}
330
C
100
AcDbDictionary
281
     1
  3
Layout1
350
1E
  3
Layout2
350
26
  3
Model
350
22
  0
DICTIONARY
  5
43
102
{ACAD_REACTORS
330
C
102
}
330
C
100
AcDbDictionary
281
     1
  3
ByBlock
350
45
  3
ByLayer
350
44
  3
Global
350
46
  0
DICTIONARY
  5
5B
102
{ACAD_REACTORS
330
C
102
}
330
C
100
AcDbDictionary
281
     1
  3
Standard
350
5C
  0
DICTIONARY
  5
17
102
{ACAD_REACTORS
330
C
102
}
330
C
100
AcDbDictionary
281
     1
  3
Standard
350
18
  0
DICTIONARY
  5
19
102
{ACAD_REACTORS
330
C
102
}
330
C
100
AcDbDictionary
281
     1
  0
ACDBDICTIONARYWDFLT
  5
E
102
{ACAD_REACTORS
330
C
102
}
330
C
100
AcDbDictionary
281
     1
  3
Normal
350
F
100
AcDbDictionaryWithDefault
340
F
  0
DICTIONARY
  5
47
102
{ACAD_REACTORS
330
C
102
}
330
C
100
AcDbDictionary
281
     1
  3
A0
350
48
  3
A1
350
49
  3
A2
350
4A
  3
A3
350
4B
  3
A4
350
4C
  3
A5
350
4D
  3
A6
350
4E
  3
A7
350
4F
  3
A8
350
50
  3
A9
350
51
  3
B0
350
52
  3
B1
350
53
  3
B2
350
54
  3
B3
350
55
  3
B4
350
56
  3
B5
350
57
  3
B6
350
58
  0
DICTIONARY
  5
9D
102
{ACAD_REACTORS
330
C
102
}
330
C
100
AcDbDictionary
281
     1
  0
DICTIONARY
  5
59
102
{ACAD_REACTORS
330
C
102
}
330
C
100
AcDbDictionary
281
     1
  3
Standard
350
5A
  0
DICTIONARY
  5
2A
102
{ACAD_REACTORS
330
C
102
}
330
C
100
AcDbDictionary
281
     1
  3
2dWireframe
350
2F
  3
Basic
350
32
  3
Brighten
350
36
  3
ColorChange
350
3A
  3
Conceptual
350
34
  3
Dim
350
35
  3
EdgeColorOff
350
3D
  3
Facepattern
350
39
  3
Flat
350
2B
  3
FlatWithEdges
350
2C
  3
Gouraud
350
2D
  3
GouraudWithEdges
350
2E
  3
Hidden
350
31
  3
JitterOff
350
3B
  3
Linepattern
350
38
  3
OverhangOff
350
3C
  3
Realistic
350
33
  3
Shaded
350
42
  3
Shaded with edges
350
41
  3
Shades of Gray
350
3E
  3
Sketchy
350
3F
  3
Thicken
350
37
  3
Wireframe
350
30
  3
X-Ray
350
40
  0
XRECORD
  5
99
102
{ACAD_REACTORS
330
C
102
}
330
C
100
AcDbXrecord
280
     1
 90
        1
330
5A
  0
DICTIONARY
  5
95
102
{ACAD_REACTORS
330
C
102
}
330
C
100
AcDbDictionary
281
     1
  3
CANNOSCALE
350
96
  3
CENTEREXE
350
9E
  3
CENTERLTYPEFILE
350
9F
  3
CMLEADERSTYLE
350
9B
  3
CTABLESTYLE
350
9A
  0
LAYOUT
  5
1E
102
{ACAD_REACTORS
330
1A
102
}
330
1A
100
AcDbPlotSettings
  1

  2
none_device
  4

  6

 40
0.0
 41
0.0
 42
0.0
 43
0.0
 44
0.0
 45
0.0
 46
0.0
 47
0.0
 48
0.0
 49
0.0
140
0.0
141
0.0
142
1.0
143
1.0
 70
   688
 72
     1
 73
     0
 74
     5
  7

 75
    16
 76
     0
 77
     5
 78
   300
147
1.0
148
0.0
149
0.0
100
AcDbLayout
  1
Layout1
 70
     1
 71
     1
 10
0.0
 20
0.0
 11
420.0
 21
297.0
 12
0.0
 22
0.0
 32
0.0
 14
1.000000000000000E+20
 24
1.000000000000000E+20
 34
1.000000000000000E+20
 15
-1.000000000000000E+20
 25
-1.000000000000000E+20
 35
-1.000000000000000E+20
146
0.0
 13
0.0
 23
0.0
 33
0.0
 16
1.0
 26
0.0
 36
0.0
 17
0.0
 27
1.0
 37
0.0
 76
     0
330
1B
  0
LAYOUT
  5
26
102
{ACAD_REACTORS
330
1A
102
}
330
1A
100
AcDbPlotSettings
  1

  2
none_device
  4

  6

 40
0.0
 41
0.0
 42
0.0
 43
0.0
 44
0.0
 45
0.0
 46
0.0
 47
0.0
 48
0.0
 49
0.0
140
0.0
141
0.0
142
1.0
143
1.0
 70
   688
 72
     1
 73
     0
 74
     5
  7

 75
    16
 76
     0
 77
     5
 78
   300
147
1.0
148
0.0
149
0.0
100
AcDbLayout
  1
Layout2
 70
     1
 71
     2
 10
0.0
 20
0.0
 11
0.0
 21
0.0
 12
0.0
 22
0.0
 32
0.0
 14
0.0
 24
0.0
 34
0.0
 15
0.0
 25
0.0
 35
0.0
146
0.0
 13
0.0
 23
0.0
 33
0.0
 16
1.0
 26
0.0
 36
0.0
 17
0.0
 27
1.0
 37
0.0
 76
     0
330
23
  0
LAYOUT
  5
22
102
{ACAD_REACTORS
330
1A
102
}
330
1A
100
AcDbPlotSettings
  1

  2
none_device
  4
Letter_(8.50_x_11.00_Inches)
  6

 40
6.35
 41
6.35
 42
6.35000508
 43
6.35000508
 44
215.9
 45
279.4
 46
0.0
 47
0.0
 48
0.0
 49
0.0
140
0.0
141
0.0
142
1.0
143
1.0
 70
  1712
 72
     1
 73
     0
 74
     0
  7

 75
     0
 76
     0
 77
     5
 78
   300
147
1.0
148
0.0
149
0.0
100
AcDbLayout
  1
Model
 70
     1
 71
     0
 10
0.0
 20
0.0
 11
302.9997823349792
 21
216.0016055409748
 12
0.0
 22
0.0
 32
0.0
 14
0.0
 24
0.0
 34
0.0
 15
302.9997823349792
 25
216.0016055409748
 35
0.0
146
0.0
 13
0.0
 23
0.0
 33
0.0
 16
1.0
 26
0.0
 36
0.0
 17
0.0
 27
1.0
 37
0.0
 76
     0
330
1F
331
29
  0
MATERIAL
  5
45
102
{ACAD_REACTORS
330
43
102
}
330
43
100
AcDbMaterial
  1
ByBlock
 72
     1
 94
      127
  0
MATERIAL
  5
44
102
{ACAD_REACTORS
330
43
102
}
330
43
100
AcDbMaterial
  1
ByLayer
 72
     1
 94
      127
  0
MATERIAL
  5
46
102
{ACAD_REACTORS
330
43
102
}
330
43
100
AcDbMaterial
  1
Global
 72
     1
 94
      127
  0
MLEADERSTYLE
  5
5C
102
{ACAD_REACTORS
330
5B
102
}
330
5B
100
AcDbMLeaderStyle
179
     2
170
     2
171
     1
172
     0
 90
        2
 40
0.0
 41
0.0
173
     1
 91
-1056964608
340
14
 92
       -2
290
     1
 42
2.0
291
     1
 43
8.0
  3
Standard
341
0
 44
4.0
300

342
11
174
     1
178
     6
175
     1
176
     0
 93
-1056964608
 45
4.0
292
     0
297
     0
 46
4.0
343
0
 94
-1056964608
 47
1.0
 49
1.0
140
1.0
293
     1
141
0.0
294
     1
177
     0
142
1.0
295
     0
296
     0
143
3.75
271
     0
272
     9
273
     9
298
     0
  0
MLINESTYLE
  5
18
102
{ACAD_REACTORS
330
17
102
}
330
17
100
AcDbMlineStyle
  2
Standard
 70
     0
  3

 62
   256
 51
90.0
 52
90.0
 71
     2
 49
0.5
 62
   256
  6
BYLAYER
 49
-0.5
 62
   256
  6
BYLAYER
  0
ACDBPLACEHOLDER
  5
F
102
{ACAD_REACTORS
330
E
102
}
330
E
  0
SCALE
  5
48
102
{ACAD_REACTORS
330
47
102
}
330
47
100
AcDbScale
 70
     0
300
1:1
140
1.0
141
1.0
290
     1
  0
SCALE
  5
49
102
{ACAD_REACTORS
330
47
102
}
330
47
100
AcDbScale
 70
     0
300
1:2
140
1.0
141
2.0
290
     0
  0
SCALE
  5
4A
102
{ACAD_REACTORS
330
47
102
}
330
47
100
AcDbScale
 70
     0
300
1:4
140
1.0
141
4.0
290
     0
  0
SCALE
  5
4B
102
{ACAD_REACTORS
330
47
102
}
330
47
100
AcDbScale
 70
     0
300
1:5
140
1.0
141
5.0
290
     0
  0
SCALE
  5
4C
102
{ACAD_REACTORS
330
47
102
}
330
47
100
AcDbScale
 70
     0
300
1:8
140
1.0
141
8.0
290
     0
  0
SCALE
  5
4D
102
{ACAD_REACTORS
330
47
102
}
330
47
100
AcDbScale
 70
     0
300
1:10
140
1.0
141
10.0
290
     0
  0
SCALE
  5
4E
102
{ACAD_REACTORS
330
47
102
}
330
47
100
AcDbScale
 70
     0
300
1:16
140
1.0
141
16.0
290
     0
  0
SCALE
  5
4F
102
{ACAD_REACTORS
330
47
102
}
330
47
100
AcDbScale
 70
     0
300
1:20
140
1.0
141
20.0
290
     0
  0
SCALE
  5
50
102
{ACAD_REACTORS
330
47
102
}
330
47
100
AcDbScale
 70
     0
300
1:30
140
1.0
141
30.0
290
     0
  0
SCALE
  5
51
102
{ACAD_REACTORS
330
47
102
}
330
47
100
AcDbScale
 70
     0
300
1:40
140
1.0
141
40.0
290
     0
  0
SCALE
  5
52
102
{ACAD_REACTORS
330
47
102
}
330
47
100
AcDbScale
 70
     0
300
1:50
140
1.0
141
50.0
290
     0
  0
SCALE
  5
53
102
{ACAD_REACTORS
330
47
102
}
330
47
100
AcDbScale
 70
     0
300
1:100
140
1.0
141
100.0
290
     0
  0
SCALE
  5
54
102
{ACAD_REACTORS
330
47
102
}
330
47
100
AcDbScale
 70
     0
300
2:1
140
2.0
141
1.0
290
     0
  0
SCALE
  5
55
102
{ACAD_REACTORS
330
47
102
}
330
47
100
AcDbScale
 70
     0
300
4:1
140
4.0
141
1.0
290
     0
  0
SCALE
  5
56
102
{ACAD_REACTORS
330
47
102
}
330
47
100
AcDbScale
 70
     0
300
8:1
140
8.0
141
1.0
290
     0
  0
SCALE
  5
57
102
{ACAD_REACTORS
330
47
102
}
330
47
100
AcDbScale
 70
     0
300
10:1
140
10.0
141
1.0
290
     0
  0
SCALE
  5
58
102
{ACAD_REACTORS
330
47
102
}
330
47
100
AcDbScale
 70
     0
300
100:1
140
100.0
141
1.0
290
     0
  0
TABLESTYLE
  5
5A
102
{ACAD_REACTORS
330
59
102
}
102
{ACAD_XDICTIONARY
360
97
102
}
330
59
100
AcDbTableStyle
  3
Standard
 70
     0
 71
     0
 40
0.06
 41
0.06
280
     0
281
     0
  7
Standard
140
4.5
170
     2
 62
     0
 63
   257
283
     0
 90
        4
 91
        0
  1

274
    -2
284
     1
 64
     0
275
    -2
285
     1
 65
     0
276
    -2
286
     1
 66
     0
277
    -2
287
     1
 67
     0
278
    -2
288
     1
 68
     0
279
    -2
289
     1
 69
     0
  7
Standard
140
6.0
170
     5
 62
     0
 63
   257
283
     0
 90
        4
 91
        0
  1

274
    -2
284
     1
 64
     0
275
    -2
285
     1
 65
     0
276
    -2
286
     1
 66
     0
277
    -2
287
     1
 67
     0
278
    -2
288
     1
 68
     0
279
    -2
289
     1
 69
     0
  7
Standard
140
4.5
170
     5
 62
     0
 63
   257
283
     0
 90
        4
 91
        0
  1

274
    -2
284
     1
 64
     0
275
    -2
285
     1
 65
     0
276
    -2
286
     1
 66
     0
277
    -2
287
     1
 67
     0
278
    -2
288
     1
 68
     0
279
    -2
289
     1
 69
     0
  0
VISUALSTYLE
  5
2F
102
{ACAD_REACTORS
330
2A
102
}
330
2A
100
AcDbVisualStyle
  2
2dWireframe
 70
     4
177
     3
291
     0
 70
    58
 90
        0
176
     1
 90
        2
176
     1
 90
        0
176
     1
 90
        0
176
     1
 40
0.6
176
     1
 40
30.0
176
     1
 62
     7
420
 16777215
176
     1
 90
        1
176
     1
 90
        4
176
     1
 62
     7
176
     1
 62
   257
176
     1
 90
        1
176
     1
 90
        1
176
     1
 40
1.0
176
     1
 90
        0
176
     1
 62
   257
176
     1
 40
1.0
176
     1
 90
        1
176
     1
 90
        6
176
     1
 90
        2
176
     1
 62
     7
176
     1
 90
        5
176
     1
 90
        0
176
     1
 90
        0
176
     1
290
     0
176
     1
 90
        1
176
     1
 40
0.0
176
     1
 90
        0
176
     1
290
     1
176
     1
290
     1
176
     1
290
     0
176
     1
290
     0
176
     1
290
     0
176
     1
290
     0
176
     1
290
     0
176
     1
290
     0
176
     1
290
     0
176
     1
 90
       50
176
     1
 40
0.0
176
     1
 40
1.0
176
     1
 90
        0
176
     1
 62
    18
420
        0
176
     1
 90
       50
176
     1
 90
        3
176
     1
 62
     5
420
      255
176
     1
290
     0
176
     1
 90
       50
176
     1
 90
       50
176
     1
 90
       50
176
     1
290
     0
176
     1
 90
       50
176
     1
 62
   256
176
     0
 40
1.0
176
     0
 90
        2
176
     1
  1
strokes_ogs.tif
176
     1
290
     0
176
     1
 40
1.0
176
     1
 40
1.0
176
     1
  0
VISUALSTYLE
  5
32
102
{ACAD_REACTORS
330
2A
102
}
330
2A
100
AcDbVisualStyle
  2
Basic
 70
     7
177
     3
291
     1
 70
    58
 90
        1
176
     1
 90
        0
176
     1
 90
        1
176
     1
 90
        0
176
     1
 40
0.6
176
     1
 40
30.0
176
     1
 62
     7
420
 16777215
176
     1
 90
        0
176
     1
 90
        4
176
     1
 62
     7
176
     1
 62
   257
176
     1
 90
        1
176
     1
 90
        1
176
     1
 40
1.0
176
     1
 90
        8
176
     1
 62
     7
176
     1
 40
1.0
176
     1
 90
        1
176
     1
 90
        6
176
     1
 90
        2
176
     1
 62
     7
176
     1
 90
        5
176
     1
 90
        0
176
     1
 90
        0
176
     1
290
     0
176
     1
 90
        1
176
     1
 40
0.0
176
     1
 90
        0
176
     1
290
     0
176
     1
290
     1
176
     1
290
     1
176
     1
290
     0
176
     1
290
     0
176
     1
290
     0
176
     1
290
     0
176
     1
290
     0
176
     1
290
     0
176
     1
 90
       50
176
     1
 40
0.0
176
     1
 40
1.0
176
     1
 90
        0
176
     1
 62
    18
420
        0
176
     1
 90
       50
176
     1
 90
        3
176
     1
 62
     5
420
      255
176
     1
290
     0
176
     1
 90
       50
176
     1
 90
       50
176
     1
 90
       50
176
     1
290
     0
176
     1
 90
       50
176
     1
 62
   256
176
     0
 40
1.0
176
     0
 90
        2
176
     1
  1
strokes_ogs.tif
176
     1
290
     0
176
     1
 40
1.0
176
     1
 40
1.0
176
     1
  0
VISUALSTYLE
  5
36
102
{ACAD_REACTORS
330
2A
102
}
330
2A
100
AcDbVisualStyle
  2
Brighten
 70
    12
177
     3
291
     1
 70
    58
 90
        2
176
     1
 90
        2
176
     1
 90
        0
176
     1
 90
        0
176
     1
 40
0.6
176
     1
 40
30.0
176
     1
 62
     7
420
 16777215
176
     1
 90
        1
176
     1
 90
        4
176
     1
 62
     7
176
     1
 62
   257
176
     1
 90
        1
176
     1
 90
        1
176
     1
 40
1.0
176
     1
 90
        8
176
     1
 62
     7
176
     1
 40
1.0
176
     1
 90
        1
176
     1
 90
        6
176
     1
 90
        2
176
     1
 62
     7
176
     1
 90
        5
176
     1
 90
        0
176
     1
 90
        0
176
     1
290
     0
176
     1
 90
        1
176
     1
 40
50.0
176
     1
 90
        0
176
     1
290
     0
176
     1
290
     1
176
     1
290
     1
176
     1
290
     0
176
     1
290
     0
176
     1
290
     0
176
     1
290
     0
176
     1
290
     0
176
     1
290
     0
176
     1
 90
       50
176
     1
 40
0.0
176
     1
 40
1.0
176
     1
 90
        0
176
     1
 62
    18
420
        0
176
     1
 90
       50
176
     1
 90
        3
176
     1
 62
     5
420
      255
176
     1
290
     0
176
     1
 90
       50
176
     1
 90
       50
176
     1
 90
       50
176
     1
290
     0
176
     1
 90
       50
176
     1
 62
   256
176
     0
 40
1.0
176
     0
 90
        2
176
     1
  1
strokes_ogs.tif
176
     1
290
     0
176
     1
 40
1.0
176
     1
 40
1.0
176
     1
  0
VISUALSTYLE
  5
3A
102
{ACAD_REACTORS
330
2A
102
}
330
2A
100
AcDbVisualStyle
  2
ColorChange
 70
    16
177
     3
291
     1
 70
    58
 90
        2
176
     1
 90
        2
176
     1
 90
        3
176
     1
 90
        0
176
     1
 40
0.6
176
     1
 40
30.0
176
     1
 62
     8
420
  8421504
176
     1
 90
        1
176
     1
 90
        4
176
     1
 62
     7
176
     1
 62
   257
176
     1
 90
        1
176
     1
 90
        1
176
     1
 40
1.0
176
     1
 90
        8
176
     1
 62
     8
420
  8421504
176
     1
 40
1.0
176
     1
 90
        1
176
     1
 90
        6
176
     1
 90
        2
176
     1
 62
     7
176
     1
 90
        5
176
     1
 90
        0
176
     1
 90
        0
176
     1
290
     0
176
     1
 90
        1
176
     1
 40
0.0
176
     1
 90
        0
176
     1
290
     0
176
     1
290
     1
176
     1
290
     1
176
     1
290
     0
176
     1
290
     0
176
     1
290
     0
176
     1
290
     0
176
     1
290
     0
176
     1
290
     0
176
     1
 90
       50
176
     1
 40
0.0
176
     1
 40
1.0
176
     1
 90
        0
176
     1
 62
    18
420
        0
176
     1
 90
       50
176
     1
 90
        3
176
     1
 62
     5
420
      255
176
     1
290
     0
176
     1
 90
       50
176
     1
 90
       50
176
     1
 90
       50
176
     1
290
     0
176
     1
 90
       50
176
     1
 62
   256
176
     0
 40
1.0
176
     0
 90
        2
176
     1
  1
strokes_ogs.tif
176
     1
290
     0
176
     1
 40
1.0
176
     1
 40
1.0
176
     1
  0
VISUALSTYLE
  5
34
102
{ACAD_REACTORS
330
2A
102
}
330
2A
100
AcDbVisualStyle
  2
Conceptual
 70
     9
177
     3
291
     0
 70
    58
 90
        3
176
     1
 90
        2
176
     1
 90
        0
176
     1
 90
        0
176
     1
 40
0.6
176
     1
 40
30.0
176
     1
 62
     7
420
 16777215
176
     1
 90
        2
176
     1
 90
        2
176
     1
 62
     7
176
     1
 62
   257
176
     1
 90
        1
176
     1
 90
        1
176
     1
 40
179.0
176
     1
 90
        8
176
     1
 62
     7
176
     1
 40
1.0
176
     1
 90
        1
176
     1
 90
        6
176
     1
 90
        2
176
     1
 62
     7
176
     1
 90
        3
176
     1
 90
        0
176
     1
 90
        0
176
     1
290
     0
176
     1
 90
        1
176
     1
 40
0.0
176
     1
 90
        0
176
     1
290
     0
176
     1
290
     1
176
     1
290
     1
176
     1
290
     0
176
     1
290
     0
176
     1
290
     0
176
     1
290
     0
176
     1
290
     0
176
     1
290
     0
176
     1
 90
       50
176
     1
 40
0.0
176
     1
 40
1.0
176
     1
 90
        0
176
     1
 62
    18
420
        0
176
     1
 90
       50
176
     1
 90
        3
176
     1
 62
     5
420
      255
176
     1
290
     0
176
     1
 90
       50
176
     1
 90
       50
176
     1
 90
       50
176
     1
290
     0
176
     1
 90
       50
176
     1
 62
   256
176
     0
 40
1.0
176
     0
 90
        2
176
     1
  1
strokes_ogs.tif
176
     1
290
     0
176
     1
 40
1.0
176
     1
 40
1.0
176
     1
  0
VISUALSTYLE
  5
35
102
{ACAD_REACTORS
330
2A
102
}
330
2A
100
AcDbVisualStyle
  2
Dim
 70
    11
177
     3
291
     1
 70
    58
 90
        2
176
     1
 90
        2
176
     1
 90
        0
176
     1
 90
        0
176
     1
 40
0.6
176
     1
 40
30.0
176
     1
 62
     7
420
 16777215
176
     1
 90
        1
176
     1
 90
        4
176
     1
 62
     7
176
     1
 62
   257
176
     1
 90
        1
176
     1
 90
        1
176
     1
 40
1.0
176
     1
 90
        8
176
     1
 62
     7
176
     1
 40
1.0
176
     1
 90
        1
176
     1
 90
        6
176
     1
 90
        2
176
     1
 62
     7
176
     1
 90
        5
176
     1
 90
        0
176
     1
 90
        0
176
     1
290
     0
176
     1
 90
        1
176
     1
 40
-50.0
176
     1
 90
        0
176
     1
290
     0
176
     1
290
     1
176
     1
290
     1
176
     1
290
     0
176
     1
290
     0
176
     1
290
     0
176
     1
290
     0
176
     1
290
     0
176
     1
290
     0
176
     1
 90
       50
176
     1
 40
0.0
176
     1
 40
1.0
176
     1
 90
        0
176
     1
 62
    18
420
        0
176
     1
 90
       50
176
     1
 90
        3
176
     1
 62
     5
420
      255
176
     1
290
     0
176
     1
 90
       50
176
     1
 90
       50
176
     1
 90
       50
176
     1
290
     0
176
     1
 90
       50
176
     1
 62
   256
176
     0
 40
1.0
176
     0
 90
        2
176
     1
  1
strokes_ogs.tif
176
     1
290
     0
176
     1
 40
1.0
176
     1
 40
1.0
176
     1
  0
VISUALSTYLE
  5
3D
102
{ACAD_REACTORS
330
2A
102
}
330
2A
100
AcDbVisualStyle
  2
EdgeColorOff
 70
    22
177
     3
291
     1
 70
    58
 90
        2
176
     0
 90
        2
176
     0
 90
        0
176
     0
 90
        0
176
     0
 40
0.6
176
     0
 40
30.0
176
     0
 62
     7
420
 16777215
176
     0
 90
        1
176
     0
 90
        4
176
     0
 62
     7
176
     0
 62
   257
176
     0
 90
        1
176
     0
 90
        1
176
     0
 40
1.0
176
     0
 90
        8
176
     2
 62
     7
176
     0
 40
1.0
176
     0
 90
        1
176
     0
 90
        6
176
     0
 90
        2
176
     0
 62
     7
176
     0
 90
        5
176
     0
 90
        0
176
     0
 90
        0
176
     0
290
     0
176
     0
 90
        1
176
     0
 40
0.0
176
     0
 90
        0
176
     0
290
     0
176
     0
290
     1
176
     0
290
     1
176
     0
290
     0
176
     0
290
     0
176
     0
290
     0
176
     0
290
     0
176
     0
290
     0
176
     0
290
     0
176
     0
 90
       50
176
     0
 40
0.0
176
     0
 40
1.0
176
     0
 90
        0
176
     0
 62
    18
420
        0
176
     0
 90
       50
176
     0
 90
        3
176
     0
 62
     5
420
      255
176
     0
290
     0
176
     0
 90
       50
176
     0
 90
       50
176
     0
 90
       50
176
     0
290
     0
176
     0
 90
       50
176
     0
 62
   256
176
     0
 40
1.0
176
     0
 90
        2
176
     0
  1
strokes_ogs.tif
176
     0
290
     0
176
     0
 40
1.0
176
     0
 40
1.0
176
     0
  0
VISUALSTYLE
  5
39
102
{ACAD_REACTORS
330
2A
102
}
330
2A
100
AcDbVisualStyle
  2
Facepattern
 70
    15
177
     3
291
     1
 70
    58
 90
        2
176
     1
 90
        2
176
     1
 90
        0
176
     1
 90
        0
176
     1
 40
0.6
176
     1
 40
30.0
176
     1
 62
     7
420
 16777215
176
     1
 90
        1
176
     1
 90
        4
176
     1
 62
     7
176
     1
 62
   257
176
     1
 90
        1
176
     1
 90
        1
176
     1
 40
1.0
176
     1
 90
        8
176
     1
 62
     7
176
     1
 40
1.0
176
     1
 90
        1
176
     1
 90
        6
176
     1
 90
        2
176
     1
 62
     7
176
     1
 90
        5
176
     1
 90
        0
176
     1
 90
        0
176
     1
290
     0
176
     1
 90
        1
176
     1
 40
0.0
176
     1
 90
        0
176
     1
290
     0
176
     1
290
     1
176
     1
290
     1
176
     1
290
     0
176
     1
290
     0
176
     1
290
     0
176
     1
290
     0
176
     1
290
     0
176
     1
290
     0
176
     1
 90
       50
176
     1
 40
0.0
176
     1
 40
1.0
176
     1
 90
        0
176
     1
 62
    18
420
        0
176
     1
 90
       50
176
     1
 90
        3
176
     1
 62
     5
420
      255
176
     1
290
     0
176
     1
 90
       50
176
     1
 90
       50
176
     1
 90
       50
176
     1
290
     0
176
     1
 90
       50
176
     1
 62
   256
176
     0
 40
1.0
176
     0
 90
        2
176
     1
  1
strokes_ogs.tif
176
     1
290
     0
176
     1
 40
1.0
176
     1
 40
1.0
176
     1
  0
VISUALSTYLE
  5
2B
102
{ACAD_REACTORS
330
2A
102
}
330
2A
100
AcDbVisualStyle
  2
Flat
 70
     0
177
     3
291
     1
 70
    58
 90
        2
176
     1
 90
        1
176
     1
 90
        1
176
     1
 90
        2
176
     1
 40
0.6
176
     1
 40
30.0
176
     1
 62
     7
420
 16777215
176
     1
 90
        0
176
     1
 90
        0
176
     1
 62
     7
176
     1
 62
   257
176
     1
 90
        1
176
     1
 90
        1
176
     1
 40
1.0
176
     1
 90
        8
176
     1
 62
     7
176
     1
 40
1.0
176
     1
 90
        1
176
     1
 90
        6
176
     1
 90
        2
176
     1
 62
     7
176
     1
 90
        5
176
     1
 90
        0
176
     1
 90
        0
176
     1
290
     0
176
     1
 90
       13
176
     1
 40
0.0
176
     1
 90
        0
176
     1
290
     0
176
     1
290
     1
176
     1
290
     1
176
     1
290
     0
176
     1
290
     0
176
     1
290
     0
176
     1
290
     0
176
     1
290
     0
176
     1
290
     0
176
     1
 90
       50
176
     1
 40
0.0
176
     1
 40
1.0
176
     1
 90
        0
176
     1
 62
    18
420
        0
176
     1
 90
       50
176
     1
 90
        3
176
     1
 62
     5
420
      255
176
     1
290
     0
176
     1
 90
       50
176
     1
 90
       50
176
     1
 90
       50
176
     1
290
     0
176
     1
 90
       50
176
     1
 62
   256
176
     0
 40
1.0
176
     0
 90
        2
176
     1
  1
strokes_ogs.tif
176
     1
290
     0
176
     1
 40
1.0
176
     1
 40
1.0
176
     1
  0
VISUALSTYLE
  5
2C
102
{ACAD_REACTORS
330
2A
102
}
330
2A
100
AcDbVisualStyle
  2
FlatWithEdges
 70
     1
177
     3
291
     1
 70
    58
 90
        2
176
     1
 90
        1
176
     1
 90
        1
176
     1
 90
        2
176
     1
 40
0.6
176
     1
 40
30.0
176
     1
 62
     7
420
 16777215
176
     1
 90
        1
176
     1
 90
        0
176
     1
 62
     7
176
     1
 62
   257
176
     1
 90
        1
176
     1
 90
        1
176
     1
 40
1.0
176
     1
 90
        0
176
     1
 62
   257
176
     1
 40
1.0
176
     1
 90
        1
176
     1
 90
        6
176
     1
 90
        2
176
     1
 62
     7
176
     1
 90
        5
176
     1
 90
        0
176
     1
 90
        0
176
     1
290
     0
176
     1
 90
       13
176
     1
 40
0.0
176
     1
 90
        0
176
     1
290
     0
176
     1
290
     1
176
     1
290
     1
176
     1
290
     0
176
     1
290
     0
176
     1
290
     0
176
     1
290
     0
176
     1
290
     0
176
     1
290
     0
176
     1
 90
       50
176
     1
 40
0.0
176
     1
 40
1.0
176
     1
 90
        0
176
     1
 62
    18
420
        0
176
     1
 90
       50
176
     1
 90
        3
176
     1
 62
     5
420
      255
176
     1
290
     0
176
     1
 90
       50
176
     1
 90
       50
176
     1
 90
       50
176
     1
290
     0
176
     1
 90
       50
176
     1
 62
   256
176
     0
 40
1.0
176
     0
 90
        2
176
     1
  1
strokes_ogs.tif
176
     1
290
     0
176
     1
 40
1.0
176
     1
 40
1.0
176
     1
  0
VISUALSTYLE
  5
2D
102
{ACAD_REACTORS
330
2A
102
}
330
2A
100
AcDbVisualStyle
  2
Gouraud
 70
     2
177
     3
291
     1
 70
    58
 90
        2
176
     1
 90
        2
176
     1
 90
        1
176
     1
 90
        2
176
     1
 40
0.6
176
     1
 40
30.0
176
     1
 62
     7
420
 16777215
176
     1
 90
        0
176
     1
 90
        0
176
     1
 62
     7
176
     1
 62
   257
176
     1
 90
        1
176
     1
 90
        1
176
     1
 40
1.0
176
     1
 90
        0
176
     1
 62
     7
176
     1
 40
1.0
176
     1
 90
        1
176
     1
 90
        6
176
     1
 90
        2
176
     1
 62
     7
176
     1
 90
        5
176
     1
 90
        0
176
     1
 90
        0
176
     1
290
     0
176
     1
 90
       13
176
     1
 40
0.0
176
     1
 90
        0
176
     1
290
     0
176
     1
290
     1
176
     1
290
     1
176
     1
290
     0
176
     1
290
     0
176
     1
290
     0
176
     1
290
     0
176
     1
290
     0
176
     1
290
     0
176
     1
 90
       50
176
     1
 40
0.0
176
     1
 40
1.0
176
     1
 90
        0
176
     1
 62
    18
420
        0
176
     1
 90
       50
176
     1
 90
        3
176
     1
 62
     5
420
      255
176
     1
290
     0
176
     1
 90
       50
176
     1
 90
       50
176
     1
 90
       50
176
     1
290
     0
176
     1
 90
       50
176
     1
 62
   256
176
     0
 40
1.0
176
     0
 90
        2
176
     1
  1
strokes_ogs.tif
176
     1
290
     0
176
     1
 40
1.0
176
     1
 40
1.0
176
     1
  0
VISUALSTYLE
  5
2E
102
{ACAD_REACTORS
330
2A
102
}
330
2A
100
AcDbVisualStyle
  2
GouraudWithEdges
 70
     3
177
     3
291
     1
 70
    58
 90
        2
176
     1
 90
        2
176
     1
 90
        1
176
     1
 90
        2
176
     1
 40
0.6
176
     1
 40
30.0
176
     1
 62
     7
420
 16777215
176
     1
 90
        1
176
     1
 90
        0
176
     1
 62
     7
176
     1
 62
   257
176
     1
 90
        1
176
     1
 90
        1
176
     1
 40
1.0
176
     1
 90
        0
176
     1
 62
   257
176
     1
 40
1.0
176
     1
 90
        1
176
     1
 90
        6
176
     1
 90
        2
176
     1
 62
     7
176
     1
 90
        5
176
     1
 90
        0
176
     1
 90
        0
176
     1
290
     0
176
     1
 90
       13
176
     1
 40
0.0
176
     1
 90
        0
176
     1
290
     0
176
     1
290
     1
176
     1
290
     1
176
     1
290
     0
176
     1
290
     0
176
     1
290
     0
176
     1
290
     0
176
     1
290
     0
176
     1
290
     0
176
     1
 90
       50
176
     1
 40
0.0
176
     1
 40
1.0
176
     1
 90
        0
176
     1
 62
    18
420
        0
176
     1
 90
       50
176
     1
 90
        3
176
     1
 62
     5
420
      255
176
     1
290
     0
176
     1
 90
       50
176
     1
 90
       50
176
     1
 90
       50
176
     1
290
     0
176
     1
 90
       50
176
     1
 62
   256
176
     0
 40
1.0
176
     0
 90
        2
176
     1
  1
strokes_ogs.tif
176
     1
290
     0
176
     1
 40
1.0
176
     1
 40
1.0
176
     1
  0
VISUALSTYLE
  5
31
102
{ACAD_REACTORS
330
2A
102
}
330
2A
100
AcDbVisualStyle
  2
Hidden
 70
     6
177
     3
291
     0
 70
    58
 90
        1
176
     1
 90
        2
176
     1
 90
        2
176
     1
 90
        0
176
     1
 40
0.6
176
     1
 40
30.0
176
     1
 62
     7
420
 16777215
176
     1
 90
        2
176
     1
 90
        2
176
     1
 62
     7
176
     1
 62
   257
176
     1
 90
        2
176
     1
 90
        1
176
     1
 40
40.0
176
     1
 90
        0
176
     1
 62
   257
176
     1
 40
1.0
176
     1
 90
        1
176
     1
 90
        6
176
     1
 90
        2
176
     1
 62
     7
176
     1
 90
        3
176
     1
 90
        0
176
     1
 90
        0
176
     1
290
     0
176
     1
 90
        1
176
     1
 40
0.0
176
     1
 90
        0
176
     1
290
     0
176
     1
290
     1
176
     1
290
     1
176
     1
290
     0
176
     1
290
     0
176
     1
290
     0
176
     1
290
     0
176
     1
290
     0
176
     1
290
     0
176
     1
 90
       50
176
     1
 40
0.0
176
     1
 40
1.0
176
     1
 90
        0
176
     1
 62
    18
420
        0
176
     1
 90
       50
176
     1
 90
        3
176
     1
 62
     5
420
      255
176
     1
290
     0
176
     1
 90
       50
176
     1
 90
       50
176
     1
 90
       50
176
     1
290
     0
176
     1
 90
       50
176
     1
 62
   256
176
     0
 40
1.0
176
     0
 90
        2
176
     1
  1
strokes_ogs.tif
176
     1
290
     0
176
     1
 40
1.0
176
     1
 40
1.0
176
     1
  0
VISUALSTYLE
  5
3B
102
{ACAD_REACTORS
330
2A
102
}
330
2A
100
AcDbVisualStyle
  2
JitterOff
 70
    20
177
     3
291
     1
 70
    58
 90
        2
176
     0
 90
        2
176
     0
 90
        0
176
     0
 90
        0
176
     0
 40
0.6
176
     0
 40
30.0
176
     0
 62
     7
420
 16777215
176
     0
 90
        1
176
     0
 90
        4
176
     0
 62
     7
176
     0
 62
   257
176
     0
 90
        1
176
     0
 90
        1
176
     0
 40
1.0
176
     0
 90
       10
176
     2
 62
     7
176
     0
 40
1.0
176
     0
 90
        1
176
     0
 90
        6
176
     0
 90
        2
176
     0
 62
     7
176
     0
 90
        5
176
     0
 90
        0
176
     0
 90
        0
176
     0
290
     0
176
     0
 90
        1
176
     0
 40
0.0
176
     0
 90
        0
176
     0
290
     0
176
     0
290
     1
176
     0
290
     1
176
     0
290
     0
176
     0
290
     0
176
     0
290
     0
176
     0
290
     0
176
     0
290
     0
176
     0
290
     0
176
     0
 90
       50
176
     0
 40
0.0
176
     0
 40
1.0
176
     0
 90
        0
176
     0
 62
    18
420
        0
176
     0
 90
       50
176
     0
 90
        3
176
     0
 62
     5
420
      255
176
     0
290
     0
176
     0
 90
       50
176
     0
 90
       50
176
     0
 90
       50
176
     0
290
     0
176
     0
 90
       50
176
     0
 62
   256
176
     0
 40
1.0
176
     0
 90
        2
176
     0
  1
strokes_ogs.tif
176
     0
290
     0
176
     0
 40
1.0
176
     0
 40
1.0
176
     0
  0
VISUALSTYLE
  5
38
102
{ACAD_REACTORS
330
2A
102
}
330
2A
100
AcDbVisualStyle
  2
Linepattern
 70
    14
177
     3
291
     1
 70
    58
 90
        2
176
     1
 90
        2
176
     1
 90
        0
176
     1
 90
        0
176
     1
 40
0.6
176
     1
 40
30.0
176
     1
 62
     7
420
 16777215
176
     1
 90
        1
176
     1
 90
        4
176
     1
 62
     7
176
     1
 62
   257
176
     1
 90
        7
176
     1
 90
        7
176
     1
 40
1.0
176
     1
 90
        8
176
     1
 62
     7
176
     1
 40
1.0
176
     1
 90
        1
176
     1
 90
        6
176
     1
 90
        2
176
     1
 62
     7
176
     1
 90
        5
176
     1
 90
        0
176
     1
 90
        0
176
     1
290
     0
176
     1
 90
        1
176
     1
 40
0.0
176
     1
 90
        0
176
     1
290
     0
176
     1
290
     1
176
     1
290
     1
176
     1
290
     0
176
     1
290
     0
176
     1
290
     0
176
     1
290
     0
176
     1
290
     0
176
     1
290
     0
176
     1
 90
       50
176
     1
 40
0.0
176
     1
 40
1.0
176
     1
 90
        0
176
     1
 62
    18
420
        0
176
     1
 90
       50
176
     1
 90
        3
176
     1
 62
     5
420
      255
176
     1
290
     0
176
     1
 90
       50
176
     1
 90
       50
176
     1
 90
       50
176
     1
290
     0
176
     1
 90
       50
176
     1
 62
   256
176
     0
 40
1.0
176
     0
 90
        2
176
     1
  1
strokes_ogs.tif
176
     1
290
     0
176
     1
 40
1.0
176
     1
 40
1.0
176
     1
  0
VISUALSTYLE
  5
3C
102
{ACAD_REACTORS
330
2A
102
}
330
2A
100
AcDbVisualStyle
  2
OverhangOff
 70
    21
177
     3
291
     1
 70
    58
 90
        2
176
     0
 90
        2
176
     0
 90
        0
176
     0
 90
        0
176
     0
 40
0.6
176
     0
 40
30.0
176
     0
 62
     7
420
 16777215
176
     0
 90
        1
176
     0
 90
        4
176
     0
 62
     7
176
     0
 62
   257
176
     0
 90
        1
176
     0
 90
        1
176
     0
 40
1.0
176
     0
 90
        9
176
     2
 62
     7
176
     0
 40
1.0
176
     0
 90
        1
176
     0
 90
        6
176
     0
 90
        2
176
     0
 62
     7
176
     0
 90
        5
176
     0
 90
        0
176
     0
 90
        0
176
     0
290
     0
176
     0
 90
        1
176
     0
 40
0.0
176
     0
 90
        0
176
     0
290
     0
176
     0
290
     1
176
     0
290
     1
176
     0
290
     0
176
     0
290
     0
176
     0
290
     0
176
     0
290
     0
176
     0
290
     0
176
     0
290
     0
176
     0
 90
       50
176
     0
 40
0.0
176
     0
 40
1.0
176
     0
 90
        0
176
     0
 62
    18
420
        0
176
     0
 90
       50
176
     0
 90
        3
176
     0
 62
     5
420
      255
176
     0
290
     0
176
     0
 90
       50
176
     0
 90
       50
176
     0
 90
       50
176
     0
290
     0
176
     0
 90
       50
176
     0
 62
   256
176
     0
 40
1.0
176
     0
 90
        2
176
     0
  1
strokes_ogs.tif
176
     0
290
     0
176
     0
 40
1.0
176
     0
 40
1.0
176
     0
  0
VISUALSTYLE
  5
33
102
{ACAD_REACTORS
330
2A
102
}
330
2A
100
AcDbVisualStyle
  2
Realistic
 70
     8
177
     3
291
     0
 70
    58
 90
        2
176
     1
 90
        3
176
     1
 90
        0
176
     1
 90
        2
176
     1
 40
0.6
176
     1
 40
30.0
176
     1
 62
     7
420
 16777215
176
     1
 90
        0
176
     1
 90
        0
176
     1
 62
     7
176
     1
 62
   257
176
     1
 90
        1
176
     1
 90
        1
176
     1
 40
1.0
176
     1
 90
        8
176
     1
 62
   257
176
     1
 40
1.0
176
     1
 90
        1
176
     1
 90
        6
176
     1
 90
        2
176
     1
 62
     7
176
     1
 90
        3
176
     1
 90
        0
176
     1
 90
        0
176
     1
290
     0
176
     1
 90
       13
176
     1
 40
0.0
176
     1
 90
        0
176
     1
290
     0
176
     1
290
     1
176
     1
290
     1
176
     1
290
     0
176
     1
290
     0
176
     1
290
     0
176
     1
290
     0
176
     1
290
     0
176
     1
290
     0
176
     1
 90
       50
176
     1
 40
0.0
176
     1
 40
1.0
176
     1
 90
        0
176
     1
 62
    18
420
        0
176
     1
 90
       50
176
     1
 90
        3
176
     1
 62
     5
420
      255
176
     1
290
     0
176
     1
 90
       50
176
     1
 90
       50
176
     1
 90
       50
176
     1
290
     0
176
     1
 90
       50
176
     1
 62
   256
176
     0
 40
1.0
176
     0
 90
        2
176
     1
  1
strokes_ogs.tif
176
     1
290
     0
176
     1
 40
1.0
176
     1
 40
1.0
176
     1
  0
VISUALSTYLE
  5
42
102
{ACAD_REACTORS
330
2A
102
}
330
2A
100
AcDbVisualStyle
  2
Shaded
 70
    27
177
     3
291
     0
 70
    58
 90
        2
176
     1
 90
        2
176
     1
 90
        1
176
     1
 90
        2
176
     1
 40
0.6
176
     1
 40
30.0
176
     1
 62
     7
420
 16777215
176
     1
 90
        0
176
     1
 90
        4
176
     1
 62
     7
176
     1
 62
   257
176
     1
 90
        1
176
     1
 90
        1
176
     1
 40
1.0
176
     1
 90
        8
176
     1
 62
   257
176
     1
 40
1.0
176
     1
 90
        1
176
     1
 90
        6
176
     1
 90
        2
176
     1
 62
     8
420
  7895160
176
     1
 90
        3
176
     1
 90
        0
176
     1
 90
        0
176
     1
290
     0
176
     1
 90
        5
176
     1
 40
0.0
176
     1
 90
        0
176
     1
290
     0
176
     1
290
     1
176
     1
290
     1
176
     1
290
     0
176
     1
290
     0
176
     1
290
     0
176
     1
290
     0
176
     1
290
     0
176
     1
290
     0
176
     1
 90
       50
176
     1
 40
0.0
176
     1
 40
1.0
176
     1
 90
        0
176
     1
 62
    18
420
        0
176
     1
 90
       50
176
     1
 90
        3
176
     1
 62
     5
420
      255
176
     1
290
     0
176
     1
 90
       50
176
     1
 90
       50
176
     1
 90
       50
176
     1
290
     0
176
     1
 90
       50
176
     1
 62
   256
176
     0
 40
1.0
176
     0
 90
        2
176
     1
  1
strokes_ogs.tif
176
     1
290
     0
176
     1
 40
1.0
176
     1
 40
1.0
176
     1
  0
VISUALSTYLE
  5
41
102
{ACAD_REACTORS
330
2A
102
}
330
2A
100
AcDbVisualStyle
  2
Shaded with edges
 70
    26
177
     3
291
     0
 70
    58
 90
        2
176
     1
 90
        2
176
     1
 90
        1
176
     1
 90
        2
176
     1
 40
0.6
176
     1
 40
30.0
176
     1
 62
     7
420
 16777215
176
     1
 90
        1
176
     1
 90
       10
176
     1
 62
     7
176
     1
 62
   257
176
     1
 90
        2
176
     1
 90
        1
176
     1
 40
1.0
176
     1
 90
        8
176
     1
 62
   257
176
     1
 40
1.0
176
     1
 90
        1
176
     1
 90
        6
176
     1
 90
        2
176
     1
 62
     7
176
     1
 90
        3
176
     1
 90
        0
176
     1
 90
        0
176
     1
290
     0
176
     1
 90
        5
176
     1
 40
0.0
176
     1
 90
        0
176
     1
290
     0
176
     1
290
     1
176
     1
290
     1
176
     1
290
     0
176
     1
290
     0
176
     1
290
     0
176
     1
290
     0
176
     1
290
     0
176
     1
290
     0
176
     1
 90
       50
176
     1
 40
0.0
176
     1
 40
1.0
176
     1
 90
        0
176
     1
 62
    18
420
        0
176
     1
 90
       50
176
     1
 90
        3
176
     1
 62
     5
420
      255
176
     1
290
     0
176
     1
 90
       50
176
     1
 90
       50
176
     1
 90
       50
176
     1
290
     0
176
     1
 90
       50
176
     1
 62
   256
176
     0
 40
1.0
176
     0
 90
        2
176
     1
  1
strokes_ogs.tif
176
     1
290
     0
176
     1
 40
1.0
176
     1
 40
1.0
176
     1
  0
VISUALSTYLE
  5
3E
102
{ACAD_REACTORS
330
2A
102
}
330
2A
100
AcDbVisualStyle
  2
Shades of Gray
 70
    23
177
     3
291
     0
 70
    58
 90
        2
176
     1
 90
        2
176
     1
 90
        3
176
     1
 90
        0
176
     1
 40
0.6
176
     1
 40
30.0
176
     1
 62
     7
420
 16777215
176
     1
 90
        2
176
     1
 90
        2
176
     1
 62
     7
176
     1
 62
     7
176
     1
 90
        1
176
     1
 90
        1
176
     1
 40
40.0
176
     1
 90
        8
176
     1
 62
     7
176
     1
 40
1.0
176
     1
 90
        1
176
     1
 90
        6
176
     1
 90
        2
176
     1
 62
     7
176
     1
 90
        3
176
     1
 90
        0
176
     1
 90
        0
176
     1
290
     0
176
     1
 90
        1
176
     1
 40
0.0
176
     1
 90
        0
176
     1
290
     0
176
     1
290
     1
176
     1
290
     1
176
     1
290
     0
176
     1
290
     0
176
     1
290
     0
176
     1
290
     0
176
     1
290
     0
176
     1
290
     0
176
     1
 90
       50
176
     1
 40
0.0
176
     1
 40
1.0
176
     1
 90
        0
176
     1
 62
    18
420
        0
176
     1
 90
       50
176
     1
 90
        3
176
     1
 62
     5
420
      255
176
     1
290
     0
176
     1
 90
       50
176
     1
 90
       50
176
     1
 90
       50
176
     1
290
     0
176
     1
 90
       50
176
     1
 62
   256
176
     0
 40
1.0
176
     0
 90
        2
176
     1
  1
strokes_ogs.tif
176
     1
290
     0
176
     1
 40
1.0
176
     1
 40
1.0
176
     1
  0
VISUALSTYLE
  5
3F
102
{ACAD_REACTORS
330
2A
102
}
330
2A
100
AcDbVisualStyle
  2
Sketchy
 70
    24
177
     3
291
     0
 70
    58
 90
        1
176
     1
 90
        2
176
     1
 90
        2
176
     1
 90
        0
176
     1
 40
0.6
176
     1
 40
30.0
176
     1
 62
     7
420
 16777215
176
     1
 90
        2
176
     1
 90
        2
176
     1
 62
     7
176
     1
 62
     7
176
     1
 90
        1
176
     1
 90
        1
176
     1
 40
40.0
176
     1
 90
       11
176
     1
 62
     7
176
     1
 40
1.0
176
     1
 90
        1
176
     1
 90
        6
176
     1
 90
        2
176
     1
 62
     7
176
     1
 90
        6
176
     1
 90
        0
176
     1
 90
        0
176
     1
290
     0
176
     1
 90
        1
176
     1
 40
0.0
176
     1
 90
        0
176
     1
290
     0
176
     1
290
     1
176
     1
290
     1
176
     1
290
     0
176
     1
290
     0
176
     1
290
     0
176
     1
290
     0
176
     1
290
     0
176
     1
290
     0
176
     1
 90
       50
176
     1
 40
0.0
176
     1
 40
1.0
176
     1
 90
        0
176
     1
 62
    18
420
        0
176
     1
 90
       50
176
     1
 90
        3
176
     1
 62
     5
420
      255
176
     1
290
     0
176
     1
 90
       50
176
     1
 90
       50
176
     1
 90
       50
176
     1
290
     0
176
     1
 90
       50
176
     1
 62
   256
176
     0
 40
1.0
176
     0
 90
        2
176
     1
  1
strokes_ogs.tif
176
     1
290
     0
176
     1
 40
1.0
176
     1
 40
1.0
176
     1
  0
VISUALSTYLE
  5
37
102
{ACAD_REACTORS
330
2A
102
}
330
2A
100
AcDbVisualStyle
  2
Thicken
 70
    13
177
     3
291
     1
 70
    58
 90
        2
176
     1
 90
        2
176
     1
 90
        0
176
     1
 90
        0
176
     1
 40
0.6
176
     1
 40
30.0
176
     1
 62
     7
420
 16777215
176
     1
 90
        1
176
     1
 90
        4
176
     1
 62
     7
176
     1
 62
   257
176
     1
 90
        1
176
     1
 90
        1
176
     1
 40
1.0
176
     1
 90
       12
176
     1
 62
     7
176
     1
 40
1.0
176
     1
 90
        1
176
     1
 90
        6
176
     1
 90
        2
176
     1
 62
     7
176
     1
 90
        5
176
     1
 90
        0
176
     1
 90
        0
176
     1
290
     0
176
     1
 90
        1
176
     1
 40
0.0
176
     1
 90
        0
176
     1
290
     0
176
     1
290
     1
176
     1
290
     1
176
     1
290
     0
176
     1
290
     0
176
     1
290
     0
176
     1
290
     0
176
     1
290
     0
176
     1
290
     0
176
     1
 90
       50
176
     1
 40
0.0
176
     1
 40
1.0
176
     1
 90
        0
176
     1
 62
    18
420
        0
176
     1
 90
       50
176
     1
 90
        3
176
     1
 62
     5
420
      255
176
     1
290
     0
176
     1
 90
       50
176
     1
 90
       50
176
     1
 90
       50
176
     1
290
     0
176
     1
 90
       50
176
     1
 62
   256
176
     0
 40
1.0
176
     0
 90
        2
176
     1
  1
strokes_ogs.tif
176
     1
290
     0
176
     1
 40
1.0
176
     1
 40
1.0
176
     1
  0
VISUALSTYLE
  5
30
102
{ACAD_REACTORS
330
2A
102
}
330
2A
100
AcDbVisualStyle
  2
Wireframe
 70
     5
177
     3
291
     0
 70
    58
 90
        0
176
     1
 90
        2
176
     1
 90
        0
176
     1
 90
        0
176
     1
 40
0.6
176
     1
 40
30.0
176
     1
 62
     7
420
 16777215
176
     1
 90
        1
176
     1
 90
        4
176
     1
 62
     7
176
     1
 62
   257
176
     1
 90
        1
176
     1
 90
        1
176
     1
 40
1.0
176
     1
 90
        0
176
     1
 62
   257
176
     1
 40
1.0
176
     1
 90
        1
176
     1
 90
        6
176
     1
 90
        2
176
     1
 62
     7
176
     1
 90
        3
176
     1
 90
        0
176
     1
 90
        0
176
     1
290
     0
176
     1
 90
        1
176
     1
 40
0.0
176
     1
 90
        0
176
     1
290
     0
176
     1
290
     1
176
     1
290
     1
176
     1
290
     0
176
     1
290
     0
176
     1
290
     0
176
     1
290
     0
176
     1
290
     0
176
     1
290
     0
176
     1
 90
       50
176
     1
 40
0.0
176
     1
 40
1.0
176
     1
 90
        0
176
     1
 62
    18
420
        0
176
     1
 90
       50
176
     1
 90
        3
176
     1
 62
     5
420
      255
176
     1
290
     0
176
     1
 90
       50
176
     1
 90
       50
176
     1
 90
       50
176
     1
290
     0
176
     1
 90
       50
176
     1
 62
   256
176
     0
 40
1.0
176
     0
 90
        2
176
     1
  1
strokes_ogs.tif
176
     1
290
     0
176
     1
 40
1.0
176
     1
 40
1.0
176
     1
  0
VISUALSTYLE
  5
40
102
{ACAD_REACTORS
330
2A
102
}
330
2A
100
AcDbVisualStyle
  2
X-Ray
 70
    25
177
     3
291
     0
 70
    58
 90
        2
176
     1
 90
        2
176
     1
 90
        1
176
     1
 90
        1
176
     1
 40
0.5
176
     1
 40
30.0
176
     1
 62
     7
420
 16777215
176
     1
 90
        1
176
     1
 90
        0
176
     1
 62
     7
176
     1
 62
   257
176
     1
 90
        1
176
     1
 90
        1
176
     1
 40
1.0
176
     1
 90
        8
176
     1
 62
     7
176
     1
 40
1.0
176
     1
 90
        1
176
     1
 90
        6
176
     1
 90
        2
176
     1
 62
     7
176
     1
 90
        3
176
     1
 90
        0
176
     1
 90
        0
176
     1
290
     0
176
     1
 90
       13
176
     1
 40
0.0
176
     1
 90
        0
176
     1
290
     0
176
     1
290
     1
176
     1
290
     1
176
     1
290
     0
176
     1
290
     0
176
     1
290
     0
176
     1
290
     0
176
     1
290
     0
176
     1
290
     0
176
     1
 90
       50
176
     1
 40
0.0
176
     1
 40
1.0
176
     1
 90
        0
176
     1
 62
    18
420
        0
176
     1
 90
       50
176
     1
 90
        3
176
     1
 62
     5
420
      255
176
     1
290
     0
176
     1
 90
       50
176
     1
 90
       50
176
     1
 90
       50
176
     1
290
     0
176
     1
 90
       50
176
     1
 62
   256
176
     0
 40
1.0
176
     0
 90
        2
176
     1
  1
strokes_ogs.tif
176
     1
290
     0
176
     1
 40
1.0
176
     1
 40
1.0
176
     1
  0
DICTIONARYVAR
  5
96
102
{ACAD_REACTORS
330
95
102
}
330
95
100
DictionaryVariables
280
     0
  1
1:1
  0
DICTIONARYVAR
  5
9E
102
{ACAD_REACTORS
330
95
102
}
330
95
100
DictionaryVariables
280
     0
  1
3.500000
  0
DICTIONARYVAR
  5
9F
102
{ACAD_REACTORS
330
95
102
}
330
95
100
DictionaryVariables
280
     0
  1
acadiso.lin
  0
DICTIONARYVAR
  5
9B
102
{ACAD_REACTORS
330
95
102
}
330
95
100
DictionaryVariables
280
     0
  1
Standard
  0
DICTIONARYVAR
  5
9A
102
{ACAD_REACTORS
330
95
102
}
330
95
100
DictionaryVariables
280
     0
  1
Standard
  0
DICTIONARY
  5
97
330
5A
100
AcDbDictionary
280
     1
281
     1
  3
ACAD_ROUNDTRIP_2008_TABLESTYLE_CELLSTYLEMAP
360
98
  0
CELLSTYLEMAP
  5
98
102
{ACAD_REACTORS
330
97
102
}
330
97
100
AcDbCellStyleMap
 90
        3
300
CELLSTYLE
  1
TABLEFORMAT_BEGIN
 90
        5
170
     1
 91
        0
 92
    32768
 62
   257
 93
        1
300
CONTENTFORMAT
  1
CONTENTFORMAT_BEGIN
 90
        0
 91
        0
 92
        4
 93
        0
300

 40
0.0
140
1.0
 94
        5
 62
     0
340
11
144
6.0
309
CONTENTFORMAT_END
171
     1
301
MARGIN
  1
CELLMARGIN_BEGIN
 40
1.5
 40
1.5
 40
1.5
 40
1.5
 40
1.5
 40
1.5
309
CELLMARGIN_END
 94
        6
 95
        1
302
GRIDFORMAT
  1
GRIDFORMAT_BEGIN
 90
        0
 91
        1
 62
     0
 92
       -2
340
14
 93
        0
 40
0.045
309
GRIDFORMAT_END
 95
        2
302
GRIDFORMAT
  1
GRIDFORMAT_BEGIN
 90
        0
 91
        1
 62
     0
 92
       -2
340
14
 93
        0
 40
0.045
309
GRIDFORMAT_END
 95
        4
302
GRIDFORMAT
  1
GRIDFORMAT_BEGIN
 90
        0
 91
        1
 62
     0
 92
       -2
340
14
 93
        0
 40
0.045
309
GRIDFORMAT_END
 95
        8
302
GRIDFORMAT
  1
GRIDFORMAT_BEGIN
 90
        0
 91
        1
 62
     0
 92
       -2
340
14
 93
        0
 40
0.045
309
GRIDFORMAT_END
 95
       16
302
GRIDFORMAT
  1
GRIDFORMAT_BEGIN
 90
        0
 91
        1
 62
     0
 92
       -2
340
14
 93
        0
 40
0.045
309
GRIDFORMAT_END
 95
       32
302
GRIDFORMAT
  1
GRIDFORMAT_BEGIN
 90
        0
 91
        1
 62
     0
 92
       -2
340
14
 93
        0
 40
0.045
309
GRIDFORMAT_END
309
TABLEFORMAT_END
  1
CELLSTYLE_BEGIN
 90
        1
 91
        1
300
_TITLE
309
CELLSTYLE_END
300
CELLSTYLE
  1
TABLEFORMAT_BEGIN
 90
        5
170
     1
 91
        0
 92
        0
 62
   257
 93
        1
300
CONTENTFORMAT
  1
CONTENTFORMAT_BEGIN
 90
        0
 91
        0
 92
        4
 93
        0
300

 40
0.0
140
1.0
 94
        5
 62
     0
340
11
144
4.5
309
CONTENTFORMAT_END
171
     1
301
MARGIN
  1
CELLMARGIN_BEGIN
 40
1.5
 40
1.5
 40
1.5
 40
1.5
 40
1.5
 40
1.5
309
CELLMARGIN_END
 94
        6
 95
        1
302
GRIDFORMAT
  1
GRIDFORMAT_BEGIN
 90
        0
 91
        1
 62
     0
 92
       -2
340
14
 93
        0
 40
0.045
309
GRIDFORMAT_END
 95
        2
302
GRIDFORMAT
  1
GRIDFORMAT_BEGIN
 90
        0
 91
        1
 62
     0
 92
       -2
340
14
 93
        0
 40
0.045
309
GRIDFORMAT_END
 95
        4
302
GRIDFORMAT
  1
GRIDFORMAT_BEGIN
 90
        0
 91
        1
 62
     0
 92
       -2
340
14
 93
        0
 40
0.045
309
GRIDFORMAT_END
 95
        8
302
GRIDFORMAT
  1
GRIDFORMAT_BEGIN
 90
        0
 91
        1
 62
     0
 92
       -2
340
14
 93
        0
 40
0.045
309
GRIDFORMAT_END
 95
       16
302
GRIDFORMAT
  1
GRIDFORMAT_BEGIN
 90
        0
 91
        1
 62
     0
 92
       -2
340
14
 93
        0
 40
0.045
309
GRIDFORMAT_END
 95
       32
302
GRIDFORMAT
  1
GRIDFORMAT_BEGIN
 90
        0
 91
        1
 62
     0
 92
       -2
340
14
 93
        0
 40
0.045
309
GRIDFORMAT_END
309
TABLEFORMAT_END
  1
CELLSTYLE_BEGIN
 90
        2
 91
        1
300
_HEADER
309
CELLSTYLE_END
300
CELLSTYLE
  1
TABLEFORMAT_BEGIN
 90
        5
170
     1
 91
        0
 92
        0
 62
   257
 93
        1
300
CONTENTFORMAT
  1
CONTENTFORMAT_BEGIN
 90
        0
 91
        0
 92
        4
 93
        0
300

 40
0.0
140
1.0
 94
        2
 62
     0
340
11
144
4.5
309
CONTENTFORMAT_END
171
     1
301
MARGIN
  1
CELLMARGIN_BEGIN
 40
1.5
 40
1.5
 40
1.5
 40
1.5
 40
1.5
 40
1.5
309
CELLMARGIN_END
 94
        6
 95
        1
302
GRIDFORMAT
  1
GRIDFORMAT_BEGIN
 90
        0
 91
        1
 62
     0
 92
       -2
340
14
 93
        0
 40
0.045
309
GRIDFORMAT_END
 95
        2
302
GRIDFORMAT
  1
GRIDFORMAT_BEGIN
 90
        0
 91
        1
 62
     0
 92
       -2
340
14
 93
        0
 40
0.045
309
GRIDFORMAT_END
 95
        4
302
GRIDFORMAT
  1
GRIDFORMAT_BEGIN
 90
        0
 91
        1
 62
     0
 92
       -2
340
14
 93
        0
 40
0.045
309
GRIDFORMAT_END
 95
        8
302
GRIDFORMAT
  1
GRIDFORMAT_BEGIN
 90
        0
 91
        1
 62
     0
 92
       -2
340
14
 93
        0
 40
0.045
309
GRIDFORMAT_END
 95
       16
302
GRIDFORMAT
  1
GRIDFORMAT_BEGIN
 90
        0
 91
        1
 62
     0
 92
       -2
340
14
 93
        0
 40
0.045
309
GRIDFORMAT_END
 95
       32
302
GRIDFORMAT
  1
GRIDFORMAT_BEGIN
 90
        0
 91
        1
 62
     0
 92
       -2
340
14
 93
        0
 40
0.045
309
GRIDFORMAT_END
309
TABLEFORMAT_END
  1
CELLSTYLE_BEGIN
 90
        3
 91
        2
300
_DATA
309
CELLSTYLE_END
  0
ENDSEC
  0
EOF
