  0
SECTION
  2
HEADER
  9
$ACADVER
  1
AC1027
  9
$ACADMAINTVER
 70
   105
  9
$DWGCODEPAGE
  3
ANSI_932
  9
$LASTSAVEDBY
  1
a.yasuda
  9
$REQUIREDVERSIONS
160
                 0
  9
$INSBASE
 10
0.0
 20
0.0
 30
0.0
  9
$EXTMIN
 10
0.0
 20
0.0
 30
0.0
  9
$EXTMAX
 10
302.9997823349792
 20
216.0016055409748
 30
0.0
  9
$LIMMIN
 10
0.0
 20
0.0
  9
$LIMMAX
 10
302.9997823349792
 20
216.0016055409748
  9
$ORTHOMODE
 70
     0
  9
$REGENMODE
 70
     1
  9
$FILLMODE
 70
     1
  9
$QTEXTMODE
 70
     0
  9
$MIRRTEXT
 70
     1
  9
$LTSCALE
 40
1.0
  9
$ATTMODE
 70
     1
  9
$TEXTSIZE
 40
2.5
  9
$TRACEWID
 40
1.0
  9
$TEXTSTYLE
  7
Standard
  9
$CLAYER
  8
0
  9
$CELTYPE
  6
ByLayer
  9
$CECOLOR
 62
   256
  9
$CELTSCALE
 40
1.0
  9
$DISPSILH
 70
     0
  9
$DIMSCALE
 40
1.0
  9
$DIMASZ
 40
2.5
  9
$DIMEXO
 40
0.625
  9
$DIMDLI
 40
3.75
  9
$DIMRND
 40
0.0
  9
$DIMDLE
 40
0.0
  9
$DIMEXE
 40
1.25
  9
$DIMTP
 40
0.0
  9
$DIMTM
 40
0.0
  9
$DIMTXT
 40
2.5
  9
$DIMCEN
 40
2.5
  9
$DIMTSZ
 40
0.0
  9
$DIMTOL
 70
     0
  9
$DIMLIM
 70
     0
  9
$DIMTIH
 70
     0
  9
$DIMTOH
 70
     0
  9
$DIMSE1
 70
     0
  9
$DIMSE2
 70
     0
  9
$DIMTAD
 70
     1
  9
$DIMZIN
 70
     8
  9
$DIMBLK
  1

  9
$DIMASO
 70
     1
  9
$DIMSHO
 70
     1
  9
$DIMPOST
  1

  9
$DIMAPOST
  1

  9
$DIMALT
 70
     0
  9
$DIMALTD
 70
     3
  9
$DIMALTF
 40
0.03937007874016
  9
$DIMLFAC
 40
1.0
  9
$DIMTOFL
 70
     1
  9
$DIMTVP
 40
0.0
  9
$DIMTIX
 70
     0
  9
$DIMSOXD
 70
     0
  9
$DIMSAH
 70
     0
  9
$DIMBLK1
  1

  9
$DIMBLK2
  1

  9
$DIMSTYLE
  2
ISO-25
  9
$DIMCLRD
 70
     0
  9
$DIMCLRE
 70
     0
  9
$DIMCLRT
 70
     0
  9
$DIMTFAC
 40
1.0
  9
$DIMGAP
 40
0.625
  9
$DIMJUST
 70
     0
  9
$DIMSD1
 70
     0
  9
$DIMSD2
 70
     0
  9
$DIMTOLJ
 70
     0
  9
$DIMTZIN
 70
     8
  9
$DIMALTZ
 70
     0
  9
$DIMALTTZ
 70
     0
  9
$DIMUPT
 70
     0
  9
$DIMDEC
 70
     2
  9
$DIMTDEC
 70
     2
  9
$DIMALTU
 70
     2
  9
$DIMALTTD
 70
     3
  9
$DIMTXSTY
  7
Standard
  9
$DIMAUNIT
 70
     0
  9
$DIMADEC
 70
     0
  9
$DIMALTRND
 40
0.0
  9
$DIMAZIN
 70
     0
  9
$DIMDSEP
 70
    44
  9
$DIMATFIT
 70
     3
  9
$DIMFRAC
 70
     0
  9
$DIMLDRBLK
  1

  9
$DIMLUNIT
 70
     2
  9
$DIMLWD
 70
    -2
  9
$DIMLWE
 70
    -2
  9
$DIMTMOVE
 70
     0
  9
$DIMFXL
 40
1.0
  9
$DIMFXLON
 70
     0
  9
$DIMJOGANG
 40
0.7853981633974483
  9
$DIMTFILL
 70
     0
  9
$DIMTFILLCLR
 70
     0
  9
$DIMARCSYM
 70
     0
  9
$DIMLTYPE
  6

  9
$DIMLTEX1
  6

  9
$DIMLTEX2
  6

  9
$DIMTXTDIRECTION
 70
     0
  9
$LUNITS
 70
     2
  9
$LUPREC
 70
     4
  9
$SKETCHINC
 40
1.0
  9
$FILLETRAD
 40
0.0
  9
$AUNITS
 70
     0
  9
$AUPREC
 70
     0
  9
$MENU
  1
.
  9
$ELEVATION
 40
0.0
  9
$PELEVATION
 40
0.0
  9
$THICKNESS
 40
0.0
  9
$LIMCHECK
 70
     0
  9
$CHAMFERA
 40
0.0
  9
$CHAMFERB
 40
0.0
  9
$CHAMFERC
 40
0.0
  9
$CHAMFERD
 40
0.0
  9
$SKPOLY
 70
     0
  9
$TDCREATE
 40
2459866.618878391
  9
$TDUCREATE
 40
2459866.243878391
  9
$TDUPDATE
 40
2459866.618878438
  9
$TDUUPDATE
 40
2459866.243878438
  9
$TDINDWG
 40
0.0000000116
  9
$TDUSRTIMER
 40
0.0000000116
  9
$USRTIMER
 70
     1
  9
$ANGBASE
 50
0.0
  9
$ANGDIR
 70
     0
  9
$PDMODE
 70
     0
  9
$PDSIZE
 40
0.0
  9
$PLINEWID
 40
0.0
  9
$SPLFRAME
 70
     0
  9
$SPLINETYPE
 70
     6
  9
$SPLINESEGS
 70
     8
  9
$HANDSEED
  5
A0
  9
$SURFTAB1
 70
     6
  9
$SURFTAB2
 70
     6
  9
$SURFTYPE
 70
     6
  9
$SURFU
 70
     6
  9
$SURFV
 70
     6
  9
$UCSBASE
  2

  9
$UCSNAME
  2

  9
$UCSORG
 10
0.0
 20
0.0
 30
0.0
  9
$UCSXDIR
 10
1.0
 20
0.0
 30
0.0
  9
$UCSYDIR
 10
0.0
 20
1.0
 30
0.0
  9
$UCSORTHOREF
  2

  9
$UCSORTHOVIEW
 70
     0
  9
$UCSORGTOP
 10
0.0
 20
0.0
 30
0.0
  9
$UCSORGBOTTOM
 10
0.0
 20
0.0
 30
0.0
  9
$UCSORGLEFT
 10
0.0
 20
0.0
 30
0.0
  9
$UCSORGRIGHT
 10
0.0
 20
0.0
 30
0.0
  9
$UCSORGFRONT
 10
0.0
 20
0.0
 30
0.0
  9
$UCSORGBACK
 10
0.0
 20
0.0
 30
0.0
  9
$PUCSBASE
  2

  9
$PUCSNAME
  2

  9
$PUCSORG
 10
0.0
 20
0.0
 30
0.0
  9
$PUCSXDIR
 10
1.0
 20
0.0
 30
0.0
  9
$PUCSYDIR
 10
0.0
 20
1.0
 30
0.0
  9
$PUCSORTHOREF
  2

  9
$PUCSORTHOVIEW
 70
     0
  9
$PUCSORGTOP
 10
0.0
 20
0.0
 30
0.0
  9
$PUCSORGBOTTOM
 10
0.0
 20
0.0
 30
0.0
  9
$PUCSORGLEFT
 10
0.0
 20
0.0
 30
0.0
  9
$PUCSORGRIGHT
 10
0.0
 20
0.0
 30
0.0
  9
$PUCSORGFRONT
 10
0.0
 20
0.0
 30
0.0
  9
$PUCSORGBACK
 10
0.0
 20
0.0
 30
0.0
  9
$USERI1
 70
     0
  9
$USERI2
 70
     0
  9
$USERI3
 70
     0
  9
$USERI4
 70
     0
  9
$USERI5
 70
     0
  9
$USERR1
 40
0.0
  9
$USERR2
 40
0.0
  9
$USERR3
 40
0.0
  9
$USERR4
 40
0.0
  9
$USERR5
 40
0.0
  9
$WORLDVIEW
 70
     1
  9
$SHADEDGE
 70
     3
  9
$SHADEDIF
 70
    70
  9
$TILEMODE
 70
     1
  9
$MAXACTVP
 70
    64
  9
$PINSBASE
 10
0.0
 20
0.0
 30
0.0
  9
$PLIMCHECK
 70
     0
  9
$PEXTMIN
 10
1.000000000000000E+20
 20
1.000000000000000E+20
 30
1.000000000000000E+20
  9
$PEXTMAX
 10
-1.000000000000000E+20
 20
-1.000000000000000E+20
 30
-1.000000000000000E+20
  9
$PLIMMIN
 10
0.0
 20
0.0
  9
$PLIMMAX
 10
420.0
 20
297.0
  9
$UNITMODE
 70
     0
  9
$VISRETAIN
 70
     1
  9
$PLINEGEN
 70
     0
  9
$PSLTSCALE
 70
     1
  9
$TREEDEPTH
 70
  3020
  9
$CMLSTYLE
  2
Standard
  9
$CMLJUST
 70
     0
  9
$CMLSCALE
 40
20.0
  9
$PROXYGRAPHICS
 70
     1
  9
$MEASUREMENT
 70
     1
  9
$CELWEIGHT
370
    -1
  9
$ENDCAPS
280
     0
  9
$JOINSTYLE
280
     0
  9
$LWDISPLAY
290
     0
  9
$INSUNITS
 70
     4
  9
$HYPERLINKBASE
  1

  9
$STYLESHEET
  1

  9
$XEDIT
290
     1
  9
$CEPSNTYPE
380
     0
  9
$PSTYLEMODE
290
     1
  9
$FINGERPRINTGUID
  2
{a350288b-0e72-4139-a3e1-30c9c85afb31}
  9
$VERSIONGUID
  2
{FAEB1C32-E019-11D5-929B-00C0DF256EC4}
  9
$EXTNAMES
290
     1
  9
$PSVPSCALE
 40
0.0
  9
$OLESTARTUP
290
     0
  9
$SORTENTS
280
   127
  9
$INDEXCTL
280
     0
  9
$HIDETEXT
280
     1
  9
$XCLIPFRAME
280
     2
  9
$HALOGAP
280
     0
  9
$OBSCOLOR
 70
   257
  9
$OBSLTYPE
280
     0
  9
$INTERSECTIONDISPLAY
280
     0
  9
$INTERSECTIONCOLOR
 70
   257
  9
$DIMASSOC
280
     2
  9
$PROJECTNAME
  1

  9
$CAMERADISPLAY
290
     0
  9
$LENSLENGTH
 40
50.0
  9
$CAMERAHEIGHT
 40
0.0
  9
$STEPSPERSEC
 40
2.0
  9
$STEPSIZE
 40
6.0
  9
$3DDWFPREC
 40
2.0
  9
$PSOLWIDTH
 40
5.0
  9
$PSOLHEIGHT
 40
80.0
  9
$LOFTANG1
 40
1.570796326794897
  9
$LOFTANG2
 40
1.570796326794897
  9
$LOFTMAG1
 40
0.0
  9
$LOFTMAG2
 40
0.0
  9
$LOFTPARAM
 70
     7
  9
$LOFTNORMALS
280
     1
  9
$LATITUDE
 40
37.795
  9
$LONGITUDE
 40
-122.394
  9
$NORTHDIRECTION
 40
0.0
  9
$TIMEZONE
 70
 -8000
  9
$LIGHTGLYPHDISPLAY
280
     1
  9
$TILEMODELIGHTSYNCH
280
     1
  9
$CMATERIAL
347
44
  9
$SOLIDHIST
280
     0
  9
$SHOWHIST
280
     1
  9
$DWFFRAME
280
     2
  9
$DGNFRAME
280
     2
  9
$REALWORLDSCALE
290
     1
  9
$INTERFERECOLOR
 62
   256
  9
$CSHADOW
280
     0
  9
$SHADOWPLANELOCATION
 40
0.0
  0
ENDSEC
  0
SECTION
  2
CLASSES
  0
CLASS
  1
ACDBDICTIONARYWDFLT
  2
AcDbDictionaryWithDefault
  3
ObjectDBX Classes
 90
        0
 91
        3
280
     0
281
     0
  0
CLASS
  1
VISUALSTYLE
  2
AcDbVisualStyle
  3
ObjectDBX Classes
 90
     4095
 91
        3
280
     0
281
     0
  0
CLASS
  1
MATERIAL
  2
AcDbMaterial
  3
ObjectDBX Classes
 90
     1153
 91
        3
280
     0
281
     0
  0
CLASS
  1
SCALE
  2
AcDbScale
  3
ObjectDBX Classes
 90
     1153
 91
        3
280
     0
281
     0
  0
CLASS
  1
TABLESTYLE
  2
AcDbTableStyle
  3
ObjectDBX Classes
 90
     4095
 91
        3
280
     0
281
     0
  0
CLASS
  1
MLEADERSTYLE
  2
AcDbMLeaderStyle
  3
ACDB_MLEADERSTYLE_CLASS
 90
     4095
 91
        3
280
     0
281
     0
  0
CLASS
  1
SUN
  2
AcDbSun
  3
SCENEOE
 90
     1153
 91
        3
280
     0
281
     0
  0
CLASS
  1
DICTIONARYVAR
  2
AcDbDictionaryVar
  3
ObjectDBX Classes
 90
        0
 91
        3
280
     0
281
     0
  0
CLASS
  1
CELLSTYLEMAP
  2
AcDbCellStyleMap
  3
ObjectDBX Classes
 90
     1152
 91
        3
280
     0
281
     0
  0
ENDSEC
  0
SECTION
  2
TABLES
  0
TABLE
  2
VPORT
  5
8
330
0
100
AcDbSymbolTable
 70
     1
  0
VPORT
  5
29
330
8
100
AcDbSymbolTableRecord
100
AcDbViewportTableRecord
  2
*Active
 70
     0
 10
0.0
 20
0.0
 11
1.0
 21
1.0
 12
151.4998911674896
 22
108.0008027704874
 13
0.0
 23
0.0
 14
10.0
 24
10.0
 15
10.0
 25
10.0
 16
0.0
 26
0.0
 36
1.0
 17
0.0
 27
0.0
 37
0.0
 40
237.6017660950723
 41
1.402766343222857
 42
50.0
 43
0.0
 44
0.0
 50
0.0
 51
0.0
 71
     0
 72
 10000
 73
     1
 74
     3
 75
     0
 76
     0
 77
     0
 78
     0
281
     0
 65
     1
110
0.0
120
0.0
130
0.0
111
1.0
121
0.0
131
0.0
112
0.0
122
1.0
132
0.0
 79
     0
146
0.0
348
2F
 60
     3
 61
     5
292
     1
282
     1
141
0.0
142
0.0
 63
   250
361
5D
  0
ENDTAB
  0
TABLE
  2
LTYPE
  5
5
330
0
100
AcDbSymbolTable
 70
     2
  0
LTYPE
  5
14
330
5
100
AcDbSymbolTableRecord
100
AcDbLinetypeTableRecord
  2
ByBlock
 70
     0
  3

 72
    65
 73
     0
 40
0.0
  0
LTYPE
  5
15
330
5
100
AcDbSymbolTableRecord
100
AcDbLinetypeTableRecord
  2
ByLayer
 70
     0
  3

 72
    65
 73
     0
 40
0.0
  0
LTYPE
  5
16
330
5
100
AcDbSymbolTableRecord
100
AcDbLinetypeTableRecord
  2
Continuous
 70
     0
  3
Solid line
 72
    65
 73
     0
 40
0.0
  0
LTYPE
  5
5F
330
5
100
AcDbSymbolTableRecord
100
AcDbLinetypeTableRecord
  2
UserDefined01
 70
     0
  3
----------------                
 72
    65
 73
     2
 40
0.7055555449591743
 49
0.3527777724795871
 74
     0
 49
-0.3527777724795871
 74
     0
  0
ENDTAB
  0
TABLE
  2
LAYER
  5
2
330
0
100
AcDbSymbolTable
 70
     3
  0
LAYER
  5
10
330
2
100
AcDbSymbolTableRecord
100
AcDbLayerTableRecord
  2
0
 70
     0
 62
     7
  6
Continuous
370
    -3
390
F
347
46
348
0
  0
LAYER
  5
60
330
2
100
AcDbSymbolTableRecord
100
AcDbLayerTableRecord
  2
外枠
 70
     0
 62
     7
  6
Continuous
370
    -3
390
F
347
46
348
0
  0
LAYER
  5
61
330
2
100
AcDbSymbolTableRecord
100
AcDbLayerTableRecord
  2
ISS138金台
 70
     0
 62
     7
  6
Continuous
370
    -3
390
F
347
46
348
0
  0
ENDTAB
  0
TABLE
  2
STYLE
  5
3
330
0
100
AcDbSymbolTable
 70
     2
  0
STYLE
  5
11
330
3
100
AcDbSymbolTableRecord
100
AcDbTextStyleTableRecord
  2
Standard
 70
     0
 40
0.0
 41
1.0
 50
0.0
 71
     0
 42
2.5
  3

  4

  0
STYLE
  5
5E
330
3
100
AcDbSymbolTableRecord
100
AcDbTextStyleTableRecord
  2
MS Gothic
 70
     0
 40
1.0
 41
1.0
 50
0.0
 71
     0
 42
2.5
  3
msgothic.ttc
  4

1001
ACAD
1000
MS Gothic
1071
    32817
  0
ENDTAB
  0
TABLE
  2
VIEW
  5
6
330
0
100
AcDbSymbolTable
 70
     0
  0
ENDTAB
  0
TABLE
  2
UCS
  5
7
330
0
100
AcDbSymbolTable
 70
     0
  0
ENDTAB
  0
TABLE
  2
APPID
  5
9
330
0
100
AcDbSymbolTable
 70
     1
  0
APPID
  5
12
330
9
100
AcDbSymbolTableRecord
100
AcDbRegAppTableRecord
  2
ACAD
 70
     0
  0
ENDTAB
  0
TABLE
  2
DIMSTYLE
  5
A
330
0
100
AcDbSymbolTable
 70
     1
100
AcDbDimStyleTable
  0
DIMSTYLE
105
27
330
A
100
AcDbSymbolTableRecord
100
AcDbDimStyleTableRecord
  2
ISO-25
 70
     0
 41
2.5
 42
0.625
 43
3.75
 44
1.25
 73
     0
 74
     0
 77
     1
 78
     8
140
2.5
141
2.5
143
0.03937007874016
147
0.625
171
     3
172
     1
178
     0
271
     2
272
     2
274
     3
278
    44
283
     0
284
     8
340
11
  0
ENDTAB
  0
TABLE
  2
BLOCK_RECORD
  5
1
330
0
100
AcDbSymbolTable
 70
     1
  0
BLOCK_RECORD
  5
1F
330
1
100
AcDbSymbolTableRecord
100
AcDbBlockTableRecord
  2
*Model_Space
340
22
 70
     0
280
     1
281
     0
  0
BLOCK_RECORD
  5
1B
330
1
100
AcDbSymbolTableRecord
100
AcDbBlockTableRecord
  2
*Paper_Space
340
1E
 70
     0
280
     1
281
     0
  0
BLOCK_RECORD
  5
23
330
1
100
AcDbSymbolTableRecord
100
AcDbBlockTableRecord
  2
*Paper_Space0
340
26
 70
     0
280
     1
281
     0
  0
ENDTAB
  0
ENDSEC
  0
SECTION
  2
BLOCKS
  0
BLOCK
  5
20
330
1F
100
AcDbEntity
  8
0
100
AcDbBlockBegin
  2
*Model_Space
 70
     0
 10
0.0
 20
0.0
 30
0.0
  3
*Model_Space
  1

  0
ENDBLK
  5
21
330
1F
100
AcDbEntity
  8
0
100
AcDbBlockEnd
  0
BLOCK
  5
1C
330
1B
100
AcDbEntity
 67
     1
  8
0
100
AcDbBlockBegin
  2
*Paper_Space
 70
     0
 10
0.0
 20
0.0
 30
0.0
  3
*Paper_Space
  1

  0
ENDBLK
  5
1D
330
1B
100
AcDbEntity
 67
     1
  8
0
100
AcDbBlockEnd
  0
BLOCK
  5
24
330
23
100
AcDbEntity
  8
0
100
AcDbBlockBegin
  2
*Paper_Space0
 70
     0
 10
0.0
 20
0.0
 30
0.0
  3
*Paper_Space0
  1

  0
ENDBLK
  5
25
330
23
100
AcDbEntity
  8
0
100
AcDbBlockEnd
  0
ENDSEC
  0
SECTION
  2
ENTITIES
  0
LWPOLYLINE
  5
62
330
1F
100
AcDbEntity
  8
外枠
  6
Continuous
 62
   250
420
  2367521
370
   100
100
AcDbPolyline
 90
        5
 70
     0
 43
0.0
 10
281.9999662644599
 20
13.29407825637392
 10
20.99981607051935
 20
13.29407825637392
 10
20.99981607051935
 20
193.0018900389566
 10
281.9999662644599
 20
193.0018900389566
 10
281.9999662644599
 20
13.29407825637392
  0
LINE
  5
63
330
1F
100
AcDbEntity
  8
外枠
  6
Continuous
 62
   250
420
  2367521
370
    25
100
AcDbLine
 10
223.3097080177524
 20
174.0786160074276
 30
0.0
 11
281.9999232007669
 21
174.0786160074276
 31
0.0
  0
LINE
  5
64
330
1F
100
AcDbEntity
  8
外枠
  6
Continuous
 62
   250
420
  2367521
370
    25
100
AcDbLine
 10
223.3097080177524
 20
50.37109023844297
 30
0.0
 11
281.9999232007669
 21
50.37109023844297
 31
0.0
  0
LINE
  5
65
330
1F
100
AcDbEntity
  8
外枠
  6
Continuous
 62
   250
420
  2367521
370
    25
100
AcDbLine
 10
223.3097080177524
 20
36.25997933925949
 30
0.0
 11
281.9999232007669
 21
36.25997933925949
 31
0.0
  0
LINE
  5
66
330
1F
100
AcDbEntity
  8
外枠
  6
Continuous
 62
   250
420
  2367521
370
    50
100
AcDbLine
 10
223.0158413772006
 20
193.3637327187979
 30
0.0
 11
223.0158413772006
 21
13.29396655992039
 31
0.0
  0
TEXT
  5
67
330
1F
100
AcDbEntity
  8
外枠
  6
Continuous
 62
   250
420
  2367521
100
AcDbText
 10
224.7190965599536
 20
186.6888051931772
 30
0.0
 40
2.688166626294454
  1
品名：
 41
0.974166170756022
  7
MS Gothic
100
AcDbText
  0
TEXT
  5
68
330
1F
100
AcDbEntity
  8
外枠
  6
Continuous
 62
   250
420
  2367521
100
AcDbText
 10
224.7190965599536
 20
168.1080059455944
 30
0.0
 40
2.688166626294454
  1
仕様：
 41
0.9978878657023111
  7
MS Gothic
100
AcDbText
  0
TEXT
  5
69
330
1F
100
AcDbEntity
  8
外枠
  6
Continuous
 62
   250
420
  2367521
100
AcDbText
 10
224.7190965599536
 20
44.16660664327048
 30
0.0
 40
2.688166626294454
  1
縮尺：
 41
0.9939999262491861
  7
MS Gothic
100
AcDbText
  0
TEXT
  5
6A
330
1F
100
AcDbEntity
  8
外枠
  6
Continuous
 62
   250
420
  2367521
100
AcDbText
 10
250.2379519709696
 20
40.59738467878129
 30
0.0
 40
2.150533301035563
  1
1/1
 41
1.000003814697266
  7
MS Gothic
100
AcDbText
  0
TEXT
  5
6B
330
1F
100
AcDbEntity
  8
外枠
  6
Continuous
 62
   250
420
  2367521
100
AcDbText
 10
232.7757967427735
 20
181.9845273775436
 30
0.0
 40
2.688166626294454
  1
巻上見切　MAL-2 (U)
 41
1.012776505319696
  7
MS Gothic
100
AcDbText
  0
TEXT
  5
6C
330
1F
100
AcDbEntity
  8
外枠
  6
Continuous
 62
   250
420
  2367521
100
AcDbText
 10
226.1633020978884
 20
24.25683874973963
 30
0.0
 40
2.553758294979732
  1
ヤスダインテリアサプライ株式会社
 41
1.0194908945184
  7
MS Gothic
100
AcDbText
  0
TEXT
  5
6D
330
1F
100
AcDbEntity
  8
外枠
  6
Continuous
 62
   250
420
  2367521
100
AcDbText
 10
227.7635273953072
 20
161.7763665048245
 30
0.0
 40
2.150533301035563
  1
材質
 41
1.028502464294433
  7
MS Gothic
100
AcDbText
  0
TEXT
  5
6E
330
1F
100
AcDbEntity
  8
外枠
  6
Continuous
 62
   250
420
  2367521
100
AcDbText
 10
232.7757967427735
 20
156.199681315683
 30
0.0
 40
2.016124969720841
  1
 アルミ押出形材（A6063S-T5）/
 41
1.008064217403017
  7
MS Gothic
100
AcDbText
  0
TEXT
  5
6F
330
1F
100
AcDbEntity
  8
外枠
  6
Continuous
 62
   250
420
  2367521
100
AcDbText
 10
232.7757967427735
 20
151.9663480459279
 30
0.0
 40
2.016124969720841
  1
アンバー仕上（アルマイト）
 41
1.001955316005609
  7
MS Gothic
100
AcDbText
  0
LWPOLYLINE
  5
70
330
1F
100
AcDbEntity
  8
ISS138金台
  6
Continuous
 62
   250
420
  2367521
370
    25
100
AcDbPolyline
 90
      110
 70
     0
 43
0.0
 10
119.8924001701541
 20
95.16008157865144
 10
119.9551978003688
 20
101.1707072852288
 10
119.7643395133046
 20
101.3559134625959
 10
119.9590735327325
 20
101.5562995917207
 10
119.9862359570478
 20
104.1777911328892
 10
119.7643395133046
 20
104.3559348646158
 10
119.9901224553347
 20
104.5333895772556
 10
120.0920757483457
 20
114.3603628149503
 10
120.0972433914972
 20
114.4625744901189
 10
120.1124018114084
 20
114.5618470682449
 10
120.1370665415339
 20
114.6576745509366
 10
120.1706992857119
 20
114.7495509398019
 10
120.2128371092436
 20
114.8369702364491
 10
120.2629632478137
 20
114.9194372084094
 10
120.3205609371071
 20
114.9964350913676
 10
120.3851349446551
 20
115.0674578869318
 10
120.456190037989
 20
115.1320318944797
 10
120.5332202187168
 20
115.1896080519267
 10
120.6157087225236
 20
115.2397234245735
 10
120.7031603169404
 20
115.281850482182
 10
120.7950797694987
 20
115.3155047582065
 10
120.8909503158833
 20
115.3401587224087
 10
120.9902767236256
 20
115.3553171423199
 10
121.0925529943334
 20
115.3604847854715
 10
121.9448588388736
 20
115.3604847854715
 10
122.0471889391977
 20
115.3553171423199
 10
122.1465584106328
 20
115.3401479564855
 10
122.2424612547871
 20
115.3155047582065
 10
122.3344022391918
 20
115.2818612481052
 10
122.4218645995319
 20
115.2397234245735
 10
122.5043423374154
 20
115.1896188178499
 10
122.5813617522201
 20
115.1320318944797
 10
122.6523953137075
 20
115.0674578869318
 10
122.7169693212555
 20
114.9964350913676
 10
122.7745454787024
 20
114.9194264424861
 10
122.8246393195029
 20
114.8369702364491
 10
122.8667448452648
 20
114.7495509398019
 10
122.9003775894428
 20
114.6576745509366
 10
122.9250207877218
 20
114.5618470682449
 10
122.9401684417098
 20
114.4625744901189
 10
122.9453360848614
 20
114.3603628149503
 10
123.1975709002735
 20
109.4281811704099
 10
123.204633345914
 20
109.4206773219169
 10
123.2120187692514
 20
109.4135179829674
 10
123.2197271702858
 20
109.406735451331
 10
123.2277585490172
 20
109.4003297270077
 10
123.2360913735991
 20
109.3943438736905
 10
123.2447256440315
 20
109.3887671254561
 10
123.2536398284679
 20
109.3836317800742
 10
123.2628339269084
 20
109.3789593693913
 10
123.2722864075064
 20
109.3747714252539
 10
123.2820080361853
 20
109.3710894795085
 10
123.291955749252
 20
109.3679135321549
 10
123.3021403126299
 20
109.3652651150397
 10
123.3125617263189
 20
109.3631872918559
 10
123.3231876925493
 20
109.3616692966801
 10
123.3340074453978
 20
109.3607541932054
 10
123.3450317507878
 20
109.3604419814316
 10
123.4448749228452
 20
109.3604419814316
 10
123.4960776537385
 20
109.3630258030074
 10
123.5457839213025
 20
109.370605012963
 10
123.5937461093029
 20
109.3828889313712
 10
123.6397166015053
 20
109.3997053034602
 10
123.6834477816754
 20
109.4207311515331
 10
123.7246920335787
 20
109.4457619230485
 10
123.7631909750578
 20
109.4745177040022
 10
123.7987185217248
 20
109.50675087816
 10
123.8309839936523
 20
109.5422353611341
 10
123.8597613064525
 20
109.5806912389202
 10
123.8847920779679
 20
109.6218708952842
 10
123.9058394578872
 20
109.6655374799148
 10
123.922645064053
 20
109.7114433765778
 10
123.9349612802309
 20
109.7593086712691
 10
123.9425297242633
 20
109.8089072796008
 10
123.9451135458391
 20
109.8599808194154
 10
123.9451135458391
 20
115.3604847854715
 10
123.9399566686107
 20
115.4626426310238
 10
123.9247982486995
 20
115.5618613795337
 10
123.9001658163438
 20
115.6576350326092
 10
123.8665330721657
 20
115.7494683577817
 10
123.8244275464038
 20
115.8368553566591
 10
123.7743552374498
 20
115.9192900308497
 10
123.7167898459261
 20
115.9962663819614
 10
123.6522696679943
 20
116.0672784116024
 10
123.5812684042766
 20
116.1318308873039
 10
123.5042920531648
 20
116.1894070447508
 10
123.4218573789743
 20
116.2395116514745
 10
123.3344703800968
 20
116.2816387090829
 10
123.2426155230779
 20
116.3152822191842
 10
123.1468095722327
 20
116.3399361833864
 10
123.0475477600299
 20
116.3550946032976
 10
122.9453360848614
 20
116.3602622464492
 10
119.092298287368
 20
116.3602622464492
 10
119.092298287368
 20
94.35997969586525
 10
119.1740762402413
 20
94.3641138103865
 10
119.2534964559268
 20
94.37624700586943
 10
119.3301498293416
 20
94.39597017723119
 10
119.4036487872493
 20
94.42287421938899
 10
119.4735734586437
 20
94.45658232502966
 10
119.5395470362119
 20
94.4966853890704
 10
119.6011496489478
 20
94.54275277458186
 10
119.6579829576917
 20
94.59439690832772
 10
119.7096378573608
 20
94.65123021707163
 10
119.7557052428723
 20
94.71282206388423
 10
119.7957867750665
 20
94.77879564145243
 10
119.8294948807072
 20
94.84873107877016
 10
119.8564096887882
 20
94.92223003667783
 10
119.87613286015
 20
94.99889417601581
 10
119.8882660556329
 20
95.0783143917013
 10
119.8924001701541
 20
95.16008157865144
  0
LINE
  5
71
330
1F
100
AcDbEntity
  8
ISS138金台
  6
Continuous
 62
   250
420
  2367521
370
    13
100
AcDbLine
 10
126.2927092340518
 20
116.3601438212936
 30
0.0
 11
131.2979161358776
 21
116.3601438212936
 31
0.0
  0
LINE
  5
72
330
1F
100
AcDbEntity
  8
ISS138金台
  6
Continuous
 62
   250
420
  2367521
370
    13
100
AcDbLine
 10
130.7906365990897
 20
109.3603989177387
 30
0.0
 11
130.7906365990897
 21
116.1104497637643
 31
0.0
  0
LINE
  5
73
330
1F
100
AcDbEntity
  8
ISS138金台
  6
Continuous
 62
   250
420
  2367521
370
    13
100
AcDbLine
 10
131.2977546470291
 20
109.3603989177387
 30
0.0
 11
126.2925477452033
 21
109.3603989177387
 31
0.0
  0
LINE
  5
74
330
1F
100
AcDbEntity
  8
ISS138金台
  6
Continuous
 62
   250
420
  2367521
370
    13
100
AcDbLine
 10
118.0927146130085
 20
116.3601438212936
 30
0.0
 11
108.1482636210017
 21
116.3601438212936
 31
0.0
  0
LINE
  5
75
330
1F
100
AcDbEntity
  8
ISS138金台
  6
Continuous
 62
   250
420
  2367521
370
    13
100
AcDbLine
 10
108.6551986482462
 20
94.36010888694403
 30
0.0
 11
108.6551986482462
 21
116.1102667430694
 31
0.0
  0
LINE
  5
76
330
1F
100
AcDbEntity
  8
ISS138金台
  6
Continuous
 62
   250
420
  2367521
370
    13
100
AcDbLine
 10
118.0927146130085
 20
94.36010888694403
 30
0.0
 11
108.1482636210017
 21
94.36010888694403
 31
0.0
  0
LINE
  5
77
330
1F
100
AcDbEntity
  8
ISS138金台
  6
Continuous
 62
   250
420
  2367521
370
    13
100
AcDbLine
 10
122.9452822552452
 20
93.36004074603908
 30
0.0
 11
122.9452822552452
 21
88.3548284612516
 31
0.0
  0
LINE
  5
78
330
1F
100
AcDbEntity
  8
ISS138金台
  6
Continuous
 62
   250
420
  2367521
370
    13
100
AcDbLine
 10
120.0922157053477
 20
93.36004074603908
 30
0.0
 11
120.0922157053477
 21
88.3548284612516
 31
0.0
  0
HATCH
  5
79
330
1F
100
AcDbEntity
  8
ISS138金台
  6
Continuous
 62
   250
420
  2367521
370
    13
100
AcDbHatch
 10
0.0
 20
0.0
 30
0.0
210
0.0
220
0.0
230
1.0
  2
SOLID
 70
     1
 71
     0
 91
        1
 92
        3
 72
     0
 73
     1
 93
       67
 10
130.5405119046312
 20
116.3601438212936
 10
130.5418038154191
 20
116.3345962854631
 10
130.5456041863201
 20
116.3098023642589
 10
130.5517730603323
 20
116.2858697169132
 10
130.5602027782232
 20
116.2629167685817
 10
130.5707426170678
 20
116.2410942421896
 10
130.5832849176335
 20
116.2205097969693
 10
130.5977004888417
 20
116.2012818580762
 10
130.6138493736904
 20
116.1835396165892
 10
130.6316239129471
 20
116.1674230295102
 10
130.6508733836866
 20
116.1530397560717
 10
130.6715008925999
 20
116.1405189873525
 10
130.6933557167617
 20
116.1300006803544
 10
130.7163301969397
 20
116.1216032602331
 10
130.7402843761318
 20
116.1154451521442
 10
130.7650998291825
 20
116.1116663130896
 10
130.7906365990897
 20
116.1103744023017
 10
130.7906365990897
 20
116.1103744023017
 10
130.816173368997
 20
116.1116770790128
 10
130.8409888220477
 20
116.1154451521442
 10
130.8649322353166
 20
116.1215924943099
 10
130.8878959495713
 20
116.1300006803544
 10
130.9097615396564
 20
116.1405297532757
 10
130.9303890485697
 20
116.1530397560717
 10
130.9496492852324
 20
116.167412263587
 10
130.9674130585659
 20
116.1835396165892
 10
130.9835619434145
 20
116.2012818580762
 10
130.9979882805459
 20
116.220499031046
 10
131.0105198151885
 20
116.2410942421896
 10
131.0210704199562
 20
116.262927534505
 10
131.029489371924
 20
116.2858804828364
 10
131.0356582459361
 20
116.3098131301821
 10
131.0394586168372
 20
116.3346070513863
 10
131.0407505276251
 20
116.3601438212936
 10
131.0407505276251
 20
116.3601438212936
 10
131.0394586168372
 20
116.3857990163564
 10
131.0356690118594
 20
116.410700596793
 10
131.029489371924
 20
116.4347193715245
 10
131.0210704199562
 20
116.4577153835489
 10
131.0105198151885
 20
116.4795917395572
 10
130.9979882805459
 20
116.5002084825473
 10
130.9835727093377
 20
116.5194579532868
 10
130.9674130585659
 20
116.5372001947738
 10
130.9496600511557
 20
116.5533167818527
 10
130.9303890485697
 20
116.5676785234448
 10
130.9097723055796
 20
116.5801885262408
 10
130.8879067154946
 20
116.5906853013924
 10
130.8649430012399
 20
116.5990719555905
 10
130.8409888220477
 20
116.6052085318329
 10
130.816173368997
 20
116.6089873708875
 10
130.7906365990897
 20
116.6102685157522
 10
130.7906365990897
 20
116.6102685157522
 10
130.7650890632592
 20
116.6089981368107
 10
130.7402843761318
 20
116.6052085318329
 10
130.7163301969397
 20
116.5990611896672
 10
130.6933557167617
 20
116.5906853013924
 10
130.6714901266767
 20
116.5801777603176
 10
130.6508733836866
 20
116.5676785234448
 10
130.6316131470238
 20
116.5533060159295
 10
130.6138493736904
 20
116.5372001947738
 10
130.5977004888417
 20
116.5194579532868
 10
130.5832849176335
 20
116.5002084825473
 10
130.5707426170678
 20
116.4795917395572
 10
130.5601920123
 20
116.4577153835489
 10
130.5517730603323
 20
116.4347086056013
 10
130.5456041863201
 20
116.410700596793
 10
130.5418038154191
 20
116.3857990163564
 97
        0
 75
     1
 76
     1
 98
        0
  0
LWPOLYLINE
  5
7A
330
1F
100
AcDbEntity
  8
ISS138金台
  6
Continuous
 62
   250
420
  2367521
370
    13
100
AcDbPolyline
 90
       68
 70
     0
 43
0.0
 10
130.5405119046312
 20
116.3601438212936
 10
130.5418038154191
 20
116.3345962854631
 10
130.5456041863201
 20
116.3098023642589
 10
130.5517730603323
 20
116.2858697169132
 10
130.5602027782232
 20
116.2629167685817
 10
130.5707426170678
 20
116.2410942421896
 10
130.5832849176335
 20
116.2205097969693
 10
130.5977004888417
 20
116.2012818580762
 10
130.6138493736904
 20
116.1835396165892
 10
130.6316239129471
 20
116.1674230295102
 10
130.6508733836866
 20
116.1530397560717
 10
130.6715008925999
 20
116.1405189873525
 10
130.6933557167617
 20
116.1300006803544
 10
130.7163301969397
 20
116.1216032602331
 10
130.7402843761318
 20
116.1154451521442
 10
130.7650998291825
 20
116.1116663130896
 10
130.7906365990897
 20
116.1103744023017
 10
130.7906365990897
 20
116.1103744023017
 10
130.816173368997
 20
116.1116770790128
 10
130.8409888220477
 20
116.1154451521442
 10
130.8649322353166
 20
116.1215924943099
 10
130.8878959495713
 20
116.1300006803544
 10
130.9097615396564
 20
116.1405297532757
 10
130.9303890485697
 20
116.1530397560717
 10
130.9496492852324
 20
116.167412263587
 10
130.9674130585659
 20
116.1835396165892
 10
130.9835619434145
 20
116.2012818580762
 10
130.9979882805459
 20
116.220499031046
 10
131.0105198151885
 20
116.2410942421896
 10
131.0210704199562
 20
116.262927534505
 10
131.029489371924
 20
116.2858804828364
 10
131.0356582459361
 20
116.3098131301821
 10
131.0394586168372
 20
116.3346070513863
 10
131.0407505276251
 20
116.3601438212936
 10
131.0407505276251
 20
116.3601438212936
 10
131.0394586168372
 20
116.3857990163564
 10
131.0356690118594
 20
116.410700596793
 10
131.029489371924
 20
116.4347193715245
 10
131.0210704199562
 20
116.4577153835489
 10
131.0105198151885
 20
116.4795917395572
 10
130.9979882805459
 20
116.5002084825473
 10
130.9835727093377
 20
116.5194579532868
 10
130.9674130585659
 20
116.5372001947738
 10
130.9496600511557
 20
116.5533167818527
 10
130.9303890485697
 20
116.5676785234448
 10
130.9097723055796
 20
116.5801885262408
 10
130.8879067154946
 20
116.5906853013924
 10
130.8649430012399
 20
116.5990719555905
 10
130.8409888220477
 20
116.6052085318329
 10
130.816173368997
 20
116.6089873708875
 10
130.7906365990897
 20
116.6102685157522
 10
130.7906365990897
 20
116.6102685157522
 10
130.7650890632592
 20
116.6089981368107
 10
130.7402843761318
 20
116.6052085318329
 10
130.7163301969397
 20
116.5990611896672
 10
130.6933557167617
 20
116.5906853013924
 10
130.6714901266767
 20
116.5801777603176
 10
130.6508733836866
 20
116.5676785234448
 10
130.6316131470238
 20
116.5533060159295
 10
130.6138493736904
 20
116.5372001947738
 10
130.5977004888417
 20
116.5194579532868
 10
130.5832849176335
 20
116.5002084825473
 10
130.5707426170678
 20
116.4795917395572
 10
130.5601920123
 20
116.4577153835489
 10
130.5517730603323
 20
116.4347086056013
 10
130.5456041863201
 20
116.410700596793
 10
130.5418038154191
 20
116.3857990163564
 10
130.5405119046312
 20
116.3601438212936
  0
HATCH
  5
7B
330
1F
100
AcDbEntity
  8
ISS138金台
  6
Continuous
 62
   250
420
  2367521
370
    13
100
AcDbHatch
 10
0.0
 20
0.0
 30
0.0
210
0.0
220
0.0
230
1.0
  2
SOLID
 70
     1
 71
     0
 91
        1
 92
        3
 72
     0
 73
     1
 93
       67
 10
119.8421448405053
 20
88.86210799803949
 10
119.8434367512932
 20
88.83656584517061
 10
119.8472371221942
 20
88.81176115804314
 10
119.8534167621296
 20
88.7878015958894
 10
119.8618357140974
 20
88.76483249867306
 10
119.8723755529419
 20
88.74297229154965
 10
119.8849178535076
 20
88.72235016559797
 10
119.8993334247158
 20
88.70308992893519
 10
119.9154715436412
 20
88.6853207726401
 10
119.9332460828979
 20
88.66916650482986
 10
119.9525063195607
 20
88.6547616995449
 10
119.973133828474
 20
88.64221939897915
 10
119.9949886526358
 20
88.63167417717301
 10
120.0179631328137
 20
88.62324984224364
 10
120.0419173120059
 20
88.61708096823148
 10
120.0667327650566
 20
88.61328059733043
 10
120.0922695349638
 20
88.61198868654255
 10
120.0922695349638
 20
88.61198868654255
 10
120.1178063048711
 20
88.61328059733043
 10
120.1426109919986
 20
88.61707020230824
 10
120.1665651711907
 20
88.62325522520527
 10
120.1895504172919
 20
88.63167417717301
 10
120.2114052414537
 20
88.64221939897915
 10
120.2320219844437
 20
88.65475631658329
 10
120.2512714551833
 20
88.66917188779149
 10
120.26904599444
 20
88.6853207726401
 10
120.2852056452118
 20
88.70308992893519
 10
120.2996104504968
 20
88.72235016559797
 10
120.3121527510626
 20
88.74297767451127
 10
120.3227033558303
 20
88.76483249867306
 10
120.3311223077981
 20
88.7878015958894
 10
120.3372911818102
 20
88.81175577508151
 10
120.3410915527113
 20
88.83656584517061
 10
120.3423834634992
 20
88.86210799803949
 10
120.3423834634992
 20
88.86210799803949
 10
120.3410915527113
 20
88.88765015090839
 10
120.3373019477335
 20
88.91245483803586
 10
120.3311330737213
 20
88.93641440018959
 10
120.3227141217536
 20
88.95937811444432
 10
120.3121527510626
 20
88.98123832156772
 10
120.2996212164201
 20
89.00186583048102
 10
120.2852056452118
 20
89.0211314501054
 10
120.26904599444
 20
89.03889522343889
 10
120.2512822211065
 20
89.05504410828749
 10
120.2320219844437
 20
89.06945429653408
 10
120.2113944755304
 20
89.08200198006145
 10
120.1895396513686
 20
89.0925472018676
 10
120.1665651711907
 20
89.10096615383534
 10
120.1426217579218
 20
89.1071350278475
 10
120.1178063048711
 20
89.11093539874855
 10
120.0922695349638
 20
89.11222730953645
 10
120.0922695349638
 20
89.11222730953645
 10
120.0667327650566
 20
89.11093001578693
 10
120.0419065460826
 20
89.1071350278475
 10
120.0179631328137
 20
89.10096615383534
 10
119.994999418559
 20
89.0925472018676
 10
119.973133828474
 20
89.08200198006145
 10
119.9525063195607
 20
89.0694596794957
 10
119.9332460828979
 20
89.05504949124912
 10
119.9154715436412
 20
89.03889522343889
 10
119.8993226587926
 20
89.02112068418218
 10
119.8849178535076
 20
89.00186044751939
 10
119.8723755529419
 20
88.98124370452933
 10
119.8618249481741
 20
88.95937811444432
 10
119.8534059962064
 20
88.93640901722796
 10
119.8472371221942
 20
88.91246022099747
 10
119.8434367512932
 20
88.88765015090839
 97
        0
 75
     1
 76
     1
 98
        0
  0
LWPOLYLINE
  5
7C
330
1F
100
AcDbEntity
  8
ISS138金台
  6
Continuous
 62
   250
420
  2367521
370
    13
100
AcDbPolyline
 90
       68
 70
     0
 43
0.0
 10
119.8421448405053
 20
88.86210799803949
 10
119.8434367512932
 20
88.83656584517061
 10
119.8472371221942
 20
88.81176115804314
 10
119.8534167621296
 20
88.7878015958894
 10
119.8618357140974
 20
88.76483249867306
 10
119.8723755529419
 20
88.74297229154965
 10
119.8849178535076
 20
88.72235016559797
 10
119.8993334247158
 20
88.70308992893519
 10
119.9154715436412
 20
88.6853207726401
 10
119.9332460828979
 20
88.66916650482986
 10
119.9525063195607
 20
88.6547616995449
 10
119.973133828474
 20
88.64221939897915
 10
119.9949886526358
 20
88.63167417717301
 10
120.0179631328137
 20
88.62324984224364
 10
120.0419173120059
 20
88.61708096823148
 10
120.0667327650566
 20
88.61328059733043
 10
120.0922695349638
 20
88.61198868654255
 10
120.0922695349638
 20
88.61198868654255
 10
120.1178063048711
 20
88.61328059733043
 10
120.1426109919986
 20
88.61707020230824
 10
120.1665651711907
 20
88.62325522520527
 10
120.1895504172919
 20
88.63167417717301
 10
120.2114052414537
 20
88.64221939897915
 10
120.2320219844437
 20
88.65475631658329
 10
120.2512714551833
 20
88.66917188779149
 10
120.26904599444
 20
88.6853207726401
 10
120.2852056452118
 20
88.70308992893519
 10
120.2996104504968
 20
88.72235016559797
 10
120.3121527510626
 20
88.74297767451127
 10
120.3227033558303
 20
88.76483249867306
 10
120.3311223077981
 20
88.7878015958894
 10
120.3372911818102
 20
88.81175577508151
 10
120.3410915527113
 20
88.83656584517061
 10
120.3423834634992
 20
88.86210799803949
 10
120.3423834634992
 20
88.86210799803949
 10
120.3410915527113
 20
88.88765015090839
 10
120.3373019477335
 20
88.91245483803586
 10
120.3311330737213
 20
88.93641440018959
 10
120.3227141217536
 20
88.95937811444432
 10
120.3121527510626
 20
88.98123832156772
 10
120.2996212164201
 20
89.00186583048102
 10
120.2852056452118
 20
89.0211314501054
 10
120.26904599444
 20
89.03889522343889
 10
120.2512822211065
 20
89.05504410828749
 10
120.2320219844437
 20
89.06945429653408
 10
120.2113944755304
 20
89.08200198006145
 10
120.1895396513686
 20
89.0925472018676
 10
120.1665651711907
 20
89.10096615383534
 10
120.1426217579218
 20
89.1071350278475
 10
120.1178063048711
 20
89.11093539874855
 10
120.0922695349638
 20
89.11222730953645
 10
120.0922695349638
 20
89.11222730953645
 10
120.0667327650566
 20
89.11093001578693
 10
120.0419065460826
 20
89.1071350278475
 10
120.0179631328137
 20
89.10096615383534
 10
119.994999418559
 20
89.0925472018676
 10
119.973133828474
 20
89.08200198006145
 10
119.9525063195607
 20
89.0694596794957
 10
119.9332460828979
 20
89.05504949124912
 10
119.9154715436412
 20
89.03889522343889
 10
119.8993226587926
 20
89.02112068418218
 10
119.8849178535076
 20
89.00186044751939
 10
119.8723755529419
 20
88.98124370452933
 10
119.8618249481741
 20
88.95937811444432
 10
119.8534059962064
 20
88.93640901722796
 10
119.8472371221942
 20
88.91246022099747
 10
119.8434367512932
 20
88.88765015090839
 10
119.8421448405053
 20
88.86210799803949
  0
HATCH
  5
7D
330
1F
100
AcDbEntity
  8
ISS138金台
  6
Continuous
 62
   250
420
  2367521
370
    13
100
AcDbHatch
 10
0.0
 20
0.0
 30
0.0
210
0.0
220
0.0
230
1.0
  2
SOLID
 70
     1
 71
     0
 91
        1
 92
        3
 72
     0
 73
     1
 93
       67
 10
108.4057952706442
 20
116.3601438212936
 10
108.4070764155088
 20
116.3345962854631
 10
108.4108552545634
 20
116.3098023642589
 10
108.4169918308059
 20
116.2858697169132
 10
108.4253784850039
 20
116.2629167685817
 10
108.4358644942323
 20
116.2410942421896
 10
108.4483421992587
 20
116.2205097969693
 10
108.4626824090042
 20
116.2012818580762
 10
108.4787774642367
 20
116.1835396165892
 10
108.4964766420308
 20
116.1674230295102
 10
108.5156830490774
 20
116.1530397560717
 10
108.5362459624513
 20
116.1405189873525
 10
108.5580469569969
 20
116.1300006803544
 10
108.5809676075587
 20
116.1216032602331
 10
108.6048894889811
 20
116.1154451521442
 10
108.6296834101854
 20
116.1116663130896
 10
108.6552094141694
 20
116.1103744023017
 10
108.6552094141694
 20
116.1103744023017
 10
108.6808646092322
 20
116.1116770790128
 10
108.7057661896688
 20
116.1154451521442
 10
108.7297741984771
 20
116.1215924943099
 10
108.7527702105015
 20
116.1300006803544
 10
108.774657332433
 20
116.1405297532757
 10
108.795274075423
 20
116.1530397560717
 10
108.8145235461626
 20
116.167412263587
 10
108.8322550217264
 20
116.1835396165892
 10
108.8483716088053
 20
116.2012818580762
 10
108.8627441163205
 20
116.220499031046
 10
108.8752433531934
 20
116.2410942421896
 10
108.885740128345
 20
116.262927534505
 10
108.8941160166198
 20
116.2858804828364
 10
108.9002633587855
 20
116.3098131301821
 10
108.9040421978401
 20
116.3346070513863
 10
108.9053233427047
 20
116.3601438212936
 10
108.9053233427047
 20
116.3601438212936
 10
108.9040314319168
 20
116.3857990163564
 10
108.9002633587855
 20
116.410700596793
 10
108.894126782543
 20
116.4347193715245
 10
108.8857293624217
 20
116.4577153835489
 10
108.8752325872701
 20
116.4795917395572
 10
108.8627441163205
 20
116.5002084825473
 10
108.8483716088053
 20
116.5194579532868
 10
108.8322550217264
 20
116.5372001947738
 10
108.8145127802394
 20
116.5533167818527
 10
108.795274075423
 20
116.5676785234448
 10
108.774657332433
 20
116.5801885262408
 10
108.7527809764247
 20
116.5906853013924
 10
108.7297741984771
 20
116.5990719555905
 10
108.7057661896688
 20
116.6052085318329
 10
108.6808646092322
 20
116.6089873708875
 10
108.6552094141694
 20
116.6102685157522
 10
108.6552094141694
 20
116.6102685157522
 10
108.6296726442621
 20
116.6089981368107
 10
108.6048894889811
 20
116.6052085318329
 10
108.5809783734819
 20
116.5990611896672
 10
108.5580577229201
 20
116.5906853013924
 10
108.536235196528
 20
116.5801777603176
 10
108.5156830490774
 20
116.5676785234448
 10
108.4964766420308
 20
116.5533060159295
 10
108.4787774642367
 20
116.5372001947738
 10
108.4626931749275
 20
116.5194579532868
 10
108.4483421992587
 20
116.5002084825473
 10
108.4358537283091
 20
116.4795917395572
 10
108.4253677190807
 20
116.4577153835489
 10
108.4169918308059
 20
116.4347086056013
 10
108.4108552545634
 20
116.410700596793
 10
108.4070764155088
 20
116.3857990163564
 97
        0
 75
     1
 76
     1
 98
        0
  0
LWPOLYLINE
  5
7E
330
1F
100
AcDbEntity
  8
ISS138金台
  6
Continuous
 62
   250
420
  2367521
370
    13
100
AcDbPolyline
 90
       68
 70
     0
 43
0.0
 10
108.4057952706442
 20
116.3601438212936
 10
108.4070764155088
 20
116.3345962854631
 10
108.4108552545634
 20
116.3098023642589
 10
108.4169918308059
 20
116.2858697169132
 10
108.4253784850039
 20
116.2629167685817
 10
108.4358644942323
 20
116.2410942421896
 10
108.4483421992587
 20
116.2205097969693
 10
108.4626824090042
 20
116.2012818580762
 10
108.4787774642367
 20
116.1835396165892
 10
108.4964766420308
 20
116.1674230295102
 10
108.5156830490774
 20
116.1530397560717
 10
108.5362459624513
 20
116.1405189873525
 10
108.5580469569969
 20
116.1300006803544
 10
108.5809676075587
 20
116.1216032602331
 10
108.6048894889811
 20
116.1154451521442
 10
108.6296834101854
 20
116.1116663130896
 10
108.6552094141694
 20
116.1103744023017
 10
108.6552094141694
 20
116.1103744023017
 10
108.6808646092322
 20
116.1116770790128
 10
108.7057661896688
 20
116.1154451521442
 10
108.7297741984771
 20
116.1215924943099
 10
108.7527702105015
 20
116.1300006803544
 10
108.774657332433
 20
116.1405297532757
 10
108.795274075423
 20
116.1530397560717
 10
108.8145235461626
 20
116.167412263587
 10
108.8322550217264
 20
116.1835396165892
 10
108.8483716088053
 20
116.2012818580762
 10
108.8627441163205
 20
116.220499031046
 10
108.8752433531934
 20
116.2410942421896
 10
108.885740128345
 20
116.262927534505
 10
108.8941160166198
 20
116.2858804828364
 10
108.9002633587855
 20
116.3098131301821
 10
108.9040421978401
 20
116.3346070513863
 10
108.9053233427047
 20
116.3601438212936
 10
108.9053233427047
 20
116.3601438212936
 10
108.9040314319168
 20
116.3857990163564
 10
108.9002633587855
 20
116.410700596793
 10
108.894126782543
 20
116.4347193715245
 10
108.8857293624217
 20
116.4577153835489
 10
108.8752325872701
 20
116.4795917395572
 10
108.8627441163205
 20
116.5002084825473
 10
108.8483716088053
 20
116.5194579532868
 10
108.8322550217264
 20
116.5372001947738
 10
108.8145127802394
 20
116.5533167818527
 10
108.795274075423
 20
116.5676785234448
 10
108.774657332433
 20
116.5801885262408
 10
108.7527809764247
 20
116.5906853013924
 10
108.7297741984771
 20
116.5990719555905
 10
108.7057661896688
 20
116.6052085318329
 10
108.6808646092322
 20
116.6089873708875
 10
108.6552094141694
 20
116.6102685157522
 10
108.6552094141694
 20
116.6102685157522
 10
108.6296726442621
 20
116.6089981368107
 10
108.6048894889811
 20
116.6052085318329
 10
108.5809783734819
 20
116.5990611896672
 10
108.5580577229201
 20
116.5906853013924
 10
108.536235196528
 20
116.5801777603176
 10
108.5156830490774
 20
116.5676785234448
 10
108.4964766420308
 20
116.5533060159295
 10
108.4787774642367
 20
116.5372001947738
 10
108.4626931749275
 20
116.5194579532868
 10
108.4483421992587
 20
116.5002084825473
 10
108.4358537283091
 20
116.4795917395572
 10
108.4253677190807
 20
116.4577153835489
 10
108.4169918308059
 20
116.4347086056013
 10
108.4108552545634
 20
116.410700596793
 10
108.4070764155088
 20
116.3857990163564
 10
108.4057952706442
 20
116.3601438212936
  0
HATCH
  5
7F
330
1F
100
AcDbEntity
  8
ISS138金台
  6
Continuous
 62
   250
420
  2367521
370
    13
100
AcDbHatch
 10
0.0
 20
0.0
 30
0.0
210
0.0
220
0.0
230
1.0
  2
SOLID
 70
     1
 71
     0
 91
        1
 92
        3
 72
     0
 73
     1
 93
       67
 10
130.5405119046312
 20
109.3603989177387
 10
130.5418038154191
 20
109.334797552292
 10
130.5456041863201
 20
109.3099390355484
 10
130.5517730603323
 20
109.2859525585866
 10
130.5602027782232
 20
109.2629780784086
 10
130.5707426170678
 20
109.2411124883236
 10
130.5832849176335
 20
109.2204849794103
 10
130.5977004888417
 20
109.2012355086707
 10
130.6138493736904
 20
109.1834825012605
 10
130.6316239129471
 20
109.1673443823351
 10
130.6508733836866
 20
109.1529503429734
 10
130.6715008925999
 20
109.1404295742541
 10
130.6933557167617
 20
109.129911267256
 10
130.7163301969397
 20
109.1215030812115
 10
130.7402843761318
 20
109.1153449731226
 10
130.7650998291825
 20
109.111566134068
 10
130.7906365990897
 20
109.1102742232801
 10
130.7906365990897
 20
109.1102742232801
 10
130.816173368997
 20
109.1115553681448
 10
130.8409888220477
 20
109.1153449731226
 10
130.8649322353166
 20
109.1215138471347
 10
130.8878959495713
 20
109.1299005013328
 10
130.9097615396564
 20
109.1404403401773
 10
130.9303890485697
 20
109.1529611088966
 10
130.9496492852324
 20
109.1673336164119
 10
130.9674130585659
 20
109.1834825012605
 10
130.9835619434145
 20
109.2012355086707
 10
130.9979882805459
 20
109.2204849794103
 10
131.0105198151885
 20
109.2411124883236
 10
131.0210704199562
 20
109.2629780784086
 10
131.029489371924
 20
109.2859633245098
 10
131.0356582459361
 20
109.3099498014716
 10
131.0394586168372
 20
109.334797552292
 10
131.0407505276251
 20
109.3603989177387
 10
131.0407505276251
 20
109.3603989177387
 10
131.0394586168372
 20
109.3859356876459
 10
131.0356690118594
 20
109.4107296088502
 10
131.029489371924
 20
109.4346622561958
 10
131.0210704199562
 20
109.4576044386041
 10
131.0105198151885
 20
109.4794484968427
 10
130.9979882805459
 20
109.5000437079863
 10
130.9835727093377
 20
109.5192716468793
 10
130.9674130585659
 20
109.5370138883663
 10
130.9496600511557
 20
109.5531304754453
 10
130.9303890485697
 20
109.5675029829605
 10
130.9097723055796
 20
109.5800237516798
 10
130.8879067154946
 20
109.5905420586779
 10
130.8649430012399
 20
109.5989394787992
 10
130.8409888220477
 20
109.6050975868881
 10
130.816173368997
 20
109.6088764259427
 10
130.7906365990897
 20
109.6101683367306
 10
130.7906365990897
 20
109.6101683367306
 10
130.7650890632592
 20
109.6088764259427
 10
130.7402843761318
 20
109.6050975868881
 10
130.7163301969397
 20
109.5989394787992
 10
130.6933557167617
 20
109.5905312927546
 10
130.6714901266767
 20
109.5800237516798
 10
130.6508733836866
 20
109.5675137488838
 10
130.6316131470238
 20
109.553119709522
 10
130.6138493736904
 20
109.5370138883663
 10
130.5977004888417
 20
109.5192716468793
 10
130.5832849176335
 20
109.5000437079863
 10
130.5707426170678
 20
109.4794484968427
 10
130.5601920123
 20
109.4576152045273
 10
130.5517730603323
 20
109.4346730221191
 10
130.5456041863201
 20
109.4107296088502
 10
130.5418038154191
 20
109.3859356876459
 97
        0
 75
     1
 76
     1
 98
        0
  0
LWPOLYLINE
  5
80
330
1F
100
AcDbEntity
  8
ISS138金台
  6
Continuous
 62
   250
420
  2367521
370
    13
100
AcDbPolyline
 90
       68
 70
     0
 43
0.0
 10
130.5405119046312
 20
109.3603989177387
 10
130.5418038154191
 20
109.334797552292
 10
130.5456041863201
 20
109.3099390355484
 10
130.5517730603323
 20
109.2859525585866
 10
130.5602027782232
 20
109.2629780784086
 10
130.5707426170678
 20
109.2411124883236
 10
130.5832849176335
 20
109.2204849794103
 10
130.5977004888417
 20
109.2012355086707
 10
130.6138493736904
 20
109.1834825012605
 10
130.6316239129471
 20
109.1673443823351
 10
130.6508733836866
 20
109.1529503429734
 10
130.6715008925999
 20
109.1404295742541
 10
130.6933557167617
 20
109.129911267256
 10
130.7163301969397
 20
109.1215030812115
 10
130.7402843761318
 20
109.1153449731226
 10
130.7650998291825
 20
109.111566134068
 10
130.7906365990897
 20
109.1102742232801
 10
130.7906365990897
 20
109.1102742232801
 10
130.816173368997
 20
109.1115553681448
 10
130.8409888220477
 20
109.1153449731226
 10
130.8649322353166
 20
109.1215138471347
 10
130.8878959495713
 20
109.1299005013328
 10
130.9097615396564
 20
109.1404403401773
 10
130.9303890485697
 20
109.1529611088966
 10
130.9496492852324
 20
109.1673336164119
 10
130.9674130585659
 20
109.1834825012605
 10
130.9835619434145
 20
109.2012355086707
 10
130.9979882805459
 20
109.2204849794103
 10
131.0105198151885
 20
109.2411124883236
 10
131.0210704199562
 20
109.2629780784086
 10
131.029489371924
 20
109.2859633245098
 10
131.0356582459361
 20
109.3099498014716
 10
131.0394586168372
 20
109.334797552292
 10
131.0407505276251
 20
109.3603989177387
 10
131.0407505276251
 20
109.3603989177387
 10
131.0394586168372
 20
109.3859356876459
 10
131.0356690118594
 20
109.4107296088502
 10
131.029489371924
 20
109.4346622561958
 10
131.0210704199562
 20
109.4576044386041
 10
131.0105198151885
 20
109.4794484968427
 10
130.9979882805459
 20
109.5000437079863
 10
130.9835727093377
 20
109.5192716468793
 10
130.9674130585659
 20
109.5370138883663
 10
130.9496600511557
 20
109.5531304754453
 10
130.9303890485697
 20
109.5675029829605
 10
130.9097723055796
 20
109.5800237516798
 10
130.8879067154946
 20
109.5905420586779
 10
130.8649430012399
 20
109.5989394787992
 10
130.8409888220477
 20
109.6050975868881
 10
130.816173368997
 20
109.6088764259427
 10
130.7906365990897
 20
109.6101683367306
 10
130.7906365990897
 20
109.6101683367306
 10
130.7650890632592
 20
109.6088764259427
 10
130.7402843761318
 20
109.6050975868881
 10
130.7163301969397
 20
109.5989394787992
 10
130.6933557167617
 20
109.5905312927546
 10
130.6714901266767
 20
109.5800237516798
 10
130.6508733836866
 20
109.5675137488838
 10
130.6316131470238
 20
109.553119709522
 10
130.6138493736904
 20
109.5370138883663
 10
130.5977004888417
 20
109.5192716468793
 10
130.5832849176335
 20
109.5000437079863
 10
130.5707426170678
 20
109.4794484968427
 10
130.5601920123
 20
109.4576152045273
 10
130.5517730603323
 20
109.4346730221191
 10
130.5456041863201
 20
109.4107296088502
 10
130.5418038154191
 20
109.3859356876459
 10
130.5405119046312
 20
109.3603989177387
  0
HATCH
  5
81
330
1F
100
AcDbEntity
  8
ISS138金台
  6
Continuous
 62
   250
420
  2367521
370
    13
100
AcDbHatch
 10
0.0
 20
0.0
 30
0.0
210
0.0
220
0.0
230
1.0
  2
SOLID
 70
     1
 71
     0
 91
        1
 92
        3
 72
     0
 73
     1
 93
       67
 10
108.4050847197108
 20
94.36010888694403
 10
108.4063766304987
 20
94.33457211703677
 10
108.4101770013998
 20
94.30975666398606
 10
108.4163458754119
 20
94.28580248479395
 10
108.4247755933029
 20
94.26283877053922
 10
108.4353154321474
 20
94.2409731804542
 10
108.44784696679
 20
94.22034567154091
 10
108.4622625379982
 20
94.20109620080135
 10
108.47842218877
 20
94.18332166154465
 10
108.4961859621035
 20
94.1671620107728
 10
108.5154461987663
 20
94.15275720548783
 10
108.5360737076796
 20
94.14021490492209
 10
108.5579285318414
 20
94.12966430015432
 10
108.5809030120193
 20
94.12124534818658
 10
108.6048571912114
 20
94.1150764741744
 10
108.6296726442621
 20
94.11127610327335
 10
108.6552094141694
 20
94.10998419248548
 10
108.6552094141694
 20
94.10998419248548
 10
108.6807569499999
 20
94.11127610327335
 10
108.7055616371274
 20
94.1150764741744
 10
108.7295158163195
 20
94.12124534818658
 10
108.752468764651
 20
94.12966430015432
 10
108.774334354736
 20
94.14020413899885
 10
108.7949618636493
 20
94.15275720548783
 10
108.8142221003121
 20
94.16717277669603
 10
108.8319858736456
 20
94.18332166154465
 10
108.8481455244174
 20
94.20109620080135
 10
108.8625610956256
 20
94.22035643746413
 10
108.8750926302681
 20
94.2409731804542
 10
108.8856432350359
 20
94.26283877053922
 10
108.8940621870036
 20
94.28580248479395
 10
108.9002310610158
 20
94.30975666398606
 10
108.9040314319168
 20
94.33457211703677
 10
108.9053233427047
 20
94.36010888694403
 10
108.9053233427047
 20
94.36010888694403
 10
108.9040206659936
 20
94.38564565685132
 10
108.9002310610158
 20
94.41046110990202
 10
108.8940621870036
 20
94.4344045231709
 10
108.8856432350359
 20
94.45737900334885
 10
108.8750926302681
 20
94.47923382751065
 10
108.8625503297024
 20
94.49986133642395
 10
108.8481347584942
 20
94.51913233900996
 10
108.8319858736456
 20
94.53689611234344
 10
108.8142221003121
 20
94.55305576311528
 10
108.7949618636493
 20
94.56746056840024
 10
108.7743451206592
 20
94.580002868966
 10
108.7524795305742
 20
94.59055347373376
 10
108.7295050503963
 20
94.5989724257015
 10
108.7055616371274
 20
94.60514129971367
 10
108.6807461840767
 20
94.60894167061471
 10
108.6552094141694
 20
94.61023358140261
 10
108.6552094141694
 20
94.61023358140261
 10
108.6296618783389
 20
94.60895243653795
 10
108.6048679571347
 20
94.6051520656369
 10
108.5809030120193
 20
94.5989724257015
 10
108.5579285318414
 20
94.59054270781053
 10
108.5360737076796
 20
94.57999210304277
 10
108.5154461987663
 20
94.56746056840024
 10
108.4961859621035
 20
94.55305576311528
 10
108.47842218877
 20
94.53689611234344
 10
108.4622625379982
 20
94.51912157308672
 10
108.4478577327132
 20
94.49986133642395
 10
108.4353154321474
 20
94.47924459343389
 10
108.4247648273797
 20
94.45737900334885
 10
108.4163458754119
 20
94.43441528909412
 10
108.4101770013998
 20
94.41046110990202
 10
108.4063766304987
 20
94.38564565685132
 97
        0
 75
     1
 76
     1
 98
        0
  0
LWPOLYLINE
  5
82
330
1F
100
AcDbEntity
  8
ISS138金台
  6
Continuous
 62
   250
420
  2367521
370
    13
100
AcDbPolyline
 90
       68
 70
     0
 43
0.0
 10
108.4050847197108
 20
94.36010888694403
 10
108.4063766304987
 20
94.33457211703677
 10
108.4101770013998
 20
94.30975666398606
 10
108.4163458754119
 20
94.28580248479395
 10
108.4247755933029
 20
94.26283877053922
 10
108.4353154321474
 20
94.2409731804542
 10
108.44784696679
 20
94.22034567154091
 10
108.4622625379982
 20
94.20109620080135
 10
108.47842218877
 20
94.18332166154465
 10
108.4961859621035
 20
94.1671620107728
 10
108.5154461987663
 20
94.15275720548783
 10
108.5360737076796
 20
94.14021490492209
 10
108.5579285318414
 20
94.12966430015432
 10
108.5809030120193
 20
94.12124534818658
 10
108.6048571912114
 20
94.1150764741744
 10
108.6296726442621
 20
94.11127610327335
 10
108.6552094141694
 20
94.10998419248548
 10
108.6552094141694
 20
94.10998419248548
 10
108.6807569499999
 20
94.11127610327335
 10
108.7055616371274
 20
94.1150764741744
 10
108.7295158163195
 20
94.12124534818658
 10
108.752468764651
 20
94.12966430015432
 10
108.774334354736
 20
94.14020413899885
 10
108.7949618636493
 20
94.15275720548783
 10
108.8142221003121
 20
94.16717277669603
 10
108.8319858736456
 20
94.18332166154465
 10
108.8481455244174
 20
94.20109620080135
 10
108.8625610956256
 20
94.22035643746413
 10
108.8750926302681
 20
94.2409731804542
 10
108.8856432350359
 20
94.26283877053922
 10
108.8940621870036
 20
94.28580248479395
 10
108.9002310610158
 20
94.30975666398606
 10
108.9040314319168
 20
94.33457211703677
 10
108.9053233427047
 20
94.36010888694403
 10
108.9053233427047
 20
94.36010888694403
 10
108.9040206659936
 20
94.38564565685132
 10
108.9002310610158
 20
94.41046110990202
 10
108.8940621870036
 20
94.4344045231709
 10
108.8856432350359
 20
94.45737900334885
 10
108.8750926302681
 20
94.47923382751065
 10
108.8625503297024
 20
94.49986133642395
 10
108.8481347584942
 20
94.51913233900996
 10
108.8319858736456
 20
94.53689611234344
 10
108.8142221003121
 20
94.55305576311528
 10
108.7949618636493
 20
94.56746056840024
 10
108.7743451206592
 20
94.580002868966
 10
108.7524795305742
 20
94.59055347373376
 10
108.7295050503963
 20
94.5989724257015
 10
108.7055616371274
 20
94.60514129971367
 10
108.6807461840767
 20
94.60894167061471
 10
108.6552094141694
 20
94.61023358140261
 10
108.6552094141694
 20
94.61023358140261
 10
108.6296618783389
 20
94.60895243653795
 10
108.6048679571347
 20
94.6051520656369
 10
108.5809030120193
 20
94.5989724257015
 10
108.5579285318414
 20
94.59054270781053
 10
108.5360737076796
 20
94.57999210304277
 10
108.5154461987663
 20
94.56746056840024
 10
108.4961859621035
 20
94.55305576311528
 10
108.47842218877
 20
94.53689611234344
 10
108.4622625379982
 20
94.51912157308672
 10
108.4478577327132
 20
94.49986133642395
 10
108.4353154321474
 20
94.47924459343389
 10
108.4247648273797
 20
94.45737900334885
 10
108.4163458754119
 20
94.43441528909412
 10
108.4101770013998
 20
94.41046110990202
 10
108.4063766304987
 20
94.38564565685132
 10
108.4050847197108
 20
94.36010888694403
  0
HATCH
  5
83
330
1F
100
AcDbEntity
  8
ISS138金台
  6
Continuous
 62
   250
420
  2367521
370
    13
100
AcDbHatch
 10
0.0
 20
0.0
 30
0.0
210
0.0
220
0.0
230
1.0
  2
SOLID
 70
     1
 71
     0
 91
        1
 92
        3
 72
     0
 73
     1
 93
       67
 10
122.6951898585564
 20
88.86210799803949
 10
122.6964817693442
 20
88.83657661109383
 10
122.7002390765524
 20
88.81178807285121
 10
122.7063864187181
 20
88.7878661914288
 10
122.7147730729161
 20
88.76494015790539
 10
122.7252698480677
 20
88.74313916335976
 10
122.7377690849405
 20
88.72257086702425
 10
122.752152358379
 20
88.70338060886246
 10
122.7682581795347
 20
88.68567066514515
 10
122.7860004210217
 20
88.66958637583593
 10
122.805239125838
 20
88.65523540016713
 10
122.8258666347513
 20
88.64275769514077
 10
122.8477429907596
 20
88.6322663029508
 10
122.8707497687073
 20
88.62389041467597
 10
122.8947577775155
 20
88.6177538384335
 10
122.9196593579521
 20
88.61398038234054
 10
122.9453145530149
 20
88.61269385451428
 10
122.9453145530149
 20
88.61269385451428
 10
122.9708513229222
 20
88.61397499937893
 10
122.9956344782032
 20
88.61774845547188
 10
123.0195455937024
 20
88.62389579763759
 10
123.0424662442642
 20
88.6322716859124
 10
123.0642672388098
 20
88.64275769514077
 10
123.0848516840302
 20
88.65524078312875
 10
123.1040365592303
 20
88.66959175879755
 10
123.1217465029476
 20
88.68567066514515
 10
123.1378200263336
 20
88.70337522590086
 10
123.1521710020024
 20
88.72257086702425
 10
123.164659472952
 20
88.74313916335976
 10
123.1751454821804
 20
88.76494015790539
 10
123.1835213704552
 20
88.7878661914288
 10
123.1896579466977
 20
88.81178807285121
 10
123.1934367857523
 20
88.83657661109383
 10
123.1947179306169
 20
88.86210799803949
 10
123.1947179306169
 20
88.86210799803949
 10
123.193426019829
 20
88.88776319310233
 10
123.1896471807744
 20
88.91265939057726
 10
123.1835213704552
 20
88.93667278234716
 10
123.1751454821804
 20
88.95967956029482
 10
123.1646487070288
 20
88.98155053334145
 10
123.1521710020024
 20
89.00217804225476
 10
123.1378307922569
 20
89.02142213003268
 10
123.1217357370244
 20
89.03915898855809
 10
123.1040365592303
 20
89.055275575637
 10
123.0848409181069
 20
89.06964270019066
 10
123.0642780047331
 20
89.08214193706348
 10
123.0424770101874
 20
89.0926440951767
 10
123.0195563596256
 20
89.10102536641313
 10
122.9956344782032
 20
89.10716732561721
 10
122.9708513229222
 20
89.11094078171017
 10
122.9453145530149
 20
89.11222730953645
 10
122.9453145530149
 20
89.11222730953645
 10
122.9196485920289
 20
89.11094078171017
 10
122.8947577775155
 20
89.10716732561721
 10
122.870739002784
 20
89.10102536641313
 10
122.8477322248364
 20
89.0926440951767
 10
122.8258666347513
 20
89.08214193706348
 10
122.8052498917613
 20
89.06964270019066
 10
122.7860004210217
 20
89.05528095859862
 10
122.7682581795347
 20
89.03915898855809
 10
122.7521415924558
 20
89.02141674707107
 10
122.7377690849405
 20
89.00217265929314
 10
122.7252806139909
 20
88.98155591630308
 10
122.7147730729161
 20
88.9596741773332
 10
122.7063864187181
 20
88.93667278234716
 10
122.7002498424756
 20
88.91265939057726
 10
122.696471003421
 20
88.88776319310233
 97
        0
 75
     1
 76
     1
 98
        0
  0
LWPOLYLINE
  5
84
330
1F
100
AcDbEntity
  8
ISS138金台
  6
Continuous
 62
   250
420
  2367521
370
    13
100
AcDbPolyline
 90
       68
 70
     0
 43
0.0
 10
122.6951898585564
 20
88.86210799803949
 10
122.6964817693442
 20
88.83657661109383
 10
122.7002390765524
 20
88.81178807285121
 10
122.7063864187181
 20
88.7878661914288
 10
122.7147730729161
 20
88.76494015790539
 10
122.7252698480677
 20
88.74313916335976
 10
122.7377690849405
 20
88.72257086702425
 10
122.752152358379
 20
88.70338060886246
 10
122.7682581795347
 20
88.68567066514515
 10
122.7860004210217
 20
88.66958637583593
 10
122.805239125838
 20
88.65523540016713
 10
122.8258666347513
 20
88.64275769514077
 10
122.8477429907596
 20
88.6322663029508
 10
122.8707497687073
 20
88.62389041467597
 10
122.8947577775155
 20
88.6177538384335
 10
122.9196593579521
 20
88.61398038234054
 10
122.9453145530149
 20
88.61269385451428
 10
122.9453145530149
 20
88.61269385451428
 10
122.9708513229222
 20
88.61397499937893
 10
122.9956344782032
 20
88.61774845547188
 10
123.0195455937024
 20
88.62389579763759
 10
123.0424662442642
 20
88.6322716859124
 10
123.0642672388098
 20
88.64275769514077
 10
123.0848516840302
 20
88.65524078312875
 10
123.1040365592303
 20
88.66959175879755
 10
123.1217465029476
 20
88.68567066514515
 10
123.1378200263336
 20
88.70337522590086
 10
123.1521710020024
 20
88.72257086702425
 10
123.164659472952
 20
88.74313916335976
 10
123.1751454821804
 20
88.76494015790539
 10
123.1835213704552
 20
88.7878661914288
 10
123.1896579466977
 20
88.81178807285121
 10
123.1934367857523
 20
88.83657661109383
 10
123.1947179306169
 20
88.86210799803949
 10
123.1947179306169
 20
88.86210799803949
 10
123.193426019829
 20
88.88776319310233
 10
123.1896471807744
 20
88.91265939057726
 10
123.1835213704552
 20
88.93667278234716
 10
123.1751454821804
 20
88.95967956029482
 10
123.1646487070288
 20
88.98155053334145
 10
123.1521710020024
 20
89.00217804225476
 10
123.1378307922569
 20
89.02142213003268
 10
123.1217357370244
 20
89.03915898855809
 10
123.1040365592303
 20
89.055275575637
 10
123.0848409181069
 20
89.06964270019066
 10
123.0642780047331
 20
89.08214193706348
 10
123.0424770101874
 20
89.0926440951767
 10
123.0195563596256
 20
89.10102536641313
 10
122.9956344782032
 20
89.10716732561721
 10
122.9708513229222
 20
89.11094078171017
 10
122.9453145530149
 20
89.11222730953645
 10
122.9453145530149
 20
89.11222730953645
 10
122.9196485920289
 20
89.11094078171017
 10
122.8947577775155
 20
89.10716732561721
 10
122.870739002784
 20
89.10102536641313
 10
122.8477322248364
 20
89.0926440951767
 10
122.8258666347513
 20
89.08214193706348
 10
122.8052498917613
 20
89.06964270019066
 10
122.7860004210217
 20
89.05528095859862
 10
122.7682581795347
 20
89.03915898855809
 10
122.7521415924558
 20
89.02141674707107
 10
122.7377690849405
 20
89.00217265929314
 10
122.7252806139909
 20
88.98155591630308
 10
122.7147730729161
 20
88.9596741773332
 10
122.7063864187181
 20
88.93667278234716
 10
122.7002498424756
 20
88.91265939057726
 10
122.696471003421
 20
88.88776319310233
 10
122.6951898585564
 20
88.86210799803949
  0
TEXT
  5
85
330
1F
100
AcDbEntity
  8
ISS138金台
  6
Continuous
 62
   250
420
  2367521
100
AcDbText
 10
124.4444370653582
 20
88.0911204445144
 30
0.0
 40
2.150533301035563
  1
3
 41
0.8120040893554685
  7
MS Gothic
100
AcDbText
  0
TEXT
  5
86
330
1F
100
AcDbEntity
  8
ISS138金台
  6
Continuous
 62
   250
420
  2367521
100
AcDbText
 10
120.9194800124492
 20
122.7254346097569
 30
0.0
 40
2.150533301035563
  1
5
 41
0.8079986572265625
  7
MS Gothic
100
AcDbText
  0
TEXT
  5
87
330
1F
100
AcDbEntity
  8
ISS138金台
  6
Continuous
 62
   250
420
  2367521
100
AcDbText
 10
133.4607330108118
 20
112.136058462201
 30
0.0
 40
2.150533301035563
  1
7
 50
90.00000250447816
 41
1.024999618530273
  7
MS Gothic
100
AcDbText
  0
TEXT
  5
88
330
1F
100
AcDbEntity
  8
ISS138金台
  6
Continuous
 62
   250
420
  2367521
100
AcDbText
 10
107.0475523568795
 20
104.1576373072039
 30
0.0
 40
2.150533301035563
  1
22
 50
90.00000250447816
 41
0.9280014038085936
  7
MS Gothic
100
AcDbText
  0
LINE
  5
89
330
1F
100
AcDbEntity
  8
ISS138金台
  6
Continuous
 62
   250
420
  2367521
370
    13
100
AcDbLine
 10
120.1935445748111
 20
88.86210799803949
 30
0.0
 11
124.4448677022875
 21
88.86210799803949
 31
0.0
  0
LINE
  5
8A
330
1F
100
AcDbEntity
  8
ISS138金台
  6
Continuous
 62
   250
420
  2367521
370
    13
100
AcDbLine
 10
124.0926820555857
 20
117.360276557738
 30
0.0
 11
124.0926820555857
 21
122.3654834595638
 31
0.0
  0
LINE
  5
8B
330
1F
100
AcDbEntity
  8
ISS138金台
  6
Continuous
 62
   250
420
  2367521
370
    13
100
AcDbLine
 10
119.0924813080629
 20
117.360276557738
 30
0.0
 11
119.0924813080629
 21
122.3654834595638
 31
0.0
  0
HATCH
  5
8C
330
1F
100
AcDbEntity
  8
ISS138金台
  6
Continuous
 62
   250
420
  2367521
370
    13
100
AcDbHatch
 10
0.0
 20
0.0
 30
0.0
210
0.0
220
0.0
230
1.0
  2
SOLID
 70
     1
 71
     0
 91
        1
 92
        3
 72
     0
 73
     1
 93
       67
 10
118.8423673795276
 20
121.8581823909295
 10
118.8436592903155
 20
121.8837191608367
 10
118.8474488952933
 20
121.9085346138875
 10
118.8536285352287
 20
121.9324887930795
 10
118.8620582531197
 20
121.9554525073343
 10
118.872587326041
 20
121.9773180974193
 10
118.8851403925299
 20
121.9979348404094
 10
118.8995451978149
 20
122.0171950770721
 10
118.9156940826635
 20
122.0349696163289
 10
118.9334686219202
 20
122.0511185011775
 10
118.952728858583
 20
122.0655340723857
 10
118.9733563674963
 20
122.0780763729514
 10
118.9952111916581
 20
122.0886269777192
 10
119.0181856718361
 20
122.0970459296869
 10
119.0421398510282
 20
122.1032148036991
 10
119.0669553040789
 20
122.1070151746001
 10
119.0924920739862
 20
122.108307085388
 10
119.0924920739862
 20
122.108307085388
 10
119.1180288438934
 20
122.1070044086769
 10
119.1428442969441
 20
122.1032148036991
 10
119.1668092420595
 20
122.0970459296869
 10
119.1897729563142
 20
122.088616211796
 10
119.2116170145528
 20
122.0780763729514
 10
119.2322445234661
 20
122.0655340723857
 10
119.2515047601288
 20
122.0511292671007
 10
119.2692685334623
 20
122.0349696163289
 10
119.2854281842341
 20
122.0171950770721
 10
119.2998437554424
 20
121.9979348404094
 10
119.3123752900849
 20
121.9773073314961
 10
119.3229258948526
 20
121.9554525073343
 10
119.3313448468204
 20
121.9324887930795
 10
119.3375137208325
 20
121.9085346138875
 10
119.3413140917336
 20
121.8837191608367
 10
119.3426060025215
 20
121.8581823909295
 10
119.3426060025215
 20
121.8581823909295
 10
119.3413140917336
 20
121.8326456210222
 10
119.3375137208325
 20
121.8078301679715
 10
119.3313448468204
 20
121.7838867547026
 10
119.3229258948526
 20
121.7609015086014
 10
119.3123752900849
 20
121.7390574503628
 10
119.2998329895191
 20
121.7184299414496
 10
119.2854281842341
 20
121.6991697047868
 10
119.2692685334623
 20
121.6813951655301
 10
119.2515047601288
 20
121.6652355147582
 10
119.2322445234661
 20
121.6508307094733
 10
119.2116170145528
 20
121.6382884089075
 10
119.189762190391
 20
121.627748570063
 10
119.166787710213
 20
121.619318852172
 10
119.1428442969441
 20
121.6131499781598
 10
119.1180288438934
 20
121.6093496072588
 10
119.0924920739862
 20
121.6080576964709
 10
119.0924920739862
 20
121.6080576964709
 10
119.0669553040789
 20
121.6093496072588
 10
119.0421398510282
 20
121.6131392122366
 10
119.0181856718361
 20
121.619318852172
 10
118.9952219575813
 20
121.6277378041398
 10
118.9733563674963
 20
121.6382884089075
 10
118.9527396245063
 20
121.6508307094733
 10
118.9334793878435
 20
121.6652462806815
 10
118.9156940826635
 20
121.6813951655301
 10
118.8995451978149
 20
121.6991589388635
 10
118.8851403925299
 20
121.7184191755263
 10
118.8725980919642
 20
121.7390466844396
 10
118.8620474871964
 20
121.7609122745246
 10
118.8536285352287
 20
121.7838759887794
 10
118.8474596612165
 20
121.8078301679715
 10
118.8436592903155
 20
121.8326456210222
 97
        0
 75
     1
 76
     1
 98
        0
  0
LWPOLYLINE
  5
8D
330
1F
100
AcDbEntity
  8
ISS138金台
  6
Continuous
 62
   250
420
  2367521
370
    13
100
AcDbPolyline
 90
       68
 70
     0
 43
0.0
 10
118.8423673795276
 20
121.8581823909295
 10
118.8436592903155
 20
121.8837191608367
 10
118.8474488952933
 20
121.9085346138875
 10
118.8536285352287
 20
121.9324887930795
 10
118.8620582531197
 20
121.9554525073343
 10
118.872587326041
 20
121.9773180974193
 10
118.8851403925299
 20
121.9979348404094
 10
118.8995451978149
 20
122.0171950770721
 10
118.9156940826635
 20
122.0349696163289
 10
118.9334686219202
 20
122.0511185011775
 10
118.952728858583
 20
122.0655340723857
 10
118.9733563674963
 20
122.0780763729514
 10
118.9952111916581
 20
122.0886269777192
 10
119.0181856718361
 20
122.0970459296869
 10
119.0421398510282
 20
122.1032148036991
 10
119.0669553040789
 20
122.1070151746001
 10
119.0924920739862
 20
122.108307085388
 10
119.0924920739862
 20
122.108307085388
 10
119.1180288438934
 20
122.1070044086769
 10
119.1428442969441
 20
122.1032148036991
 10
119.1668092420595
 20
122.0970459296869
 10
119.1897729563142
 20
122.088616211796
 10
119.2116170145528
 20
122.0780763729514
 10
119.2322445234661
 20
122.0655340723857
 10
119.2515047601288
 20
122.0511292671007
 10
119.2692685334623
 20
122.0349696163289
 10
119.2854281842341
 20
122.0171950770721
 10
119.2998437554424
 20
121.9979348404094
 10
119.3123752900849
 20
121.9773073314961
 10
119.3229258948526
 20
121.9554525073343
 10
119.3313448468204
 20
121.9324887930795
 10
119.3375137208325
 20
121.9085346138875
 10
119.3413140917336
 20
121.8837191608367
 10
119.3426060025215
 20
121.8581823909295
 10
119.3426060025215
 20
121.8581823909295
 10
119.3413140917336
 20
121.8326456210222
 10
119.3375137208325
 20
121.8078301679715
 10
119.3313448468204
 20
121.7838867547026
 10
119.3229258948526
 20
121.7609015086014
 10
119.3123752900849
 20
121.7390574503628
 10
119.2998329895191
 20
121.7184299414496
 10
119.2854281842341
 20
121.6991697047868
 10
119.2692685334623
 20
121.6813951655301
 10
119.2515047601288
 20
121.6652355147582
 10
119.2322445234661
 20
121.6508307094733
 10
119.2116170145528
 20
121.6382884089075
 10
119.189762190391
 20
121.627748570063
 10
119.166787710213
 20
121.619318852172
 10
119.1428442969441
 20
121.6131499781598
 10
119.1180288438934
 20
121.6093496072588
 10
119.0924920739862
 20
121.6080576964709
 10
119.0924920739862
 20
121.6080576964709
 10
119.0669553040789
 20
121.6093496072588
 10
119.0421398510282
 20
121.6131392122366
 10
119.0181856718361
 20
121.619318852172
 10
118.9952219575813
 20
121.6277378041398
 10
118.9733563674963
 20
121.6382884089075
 10
118.9527396245063
 20
121.6508307094733
 10
118.9334793878435
 20
121.6652462806815
 10
118.9156940826635
 20
121.6813951655301
 10
118.8995451978149
 20
121.6991589388635
 10
118.8851403925299
 20
121.7184191755263
 10
118.8725980919642
 20
121.7390466844396
 10
118.8620474871964
 20
121.7609122745246
 10
118.8536285352287
 20
121.7838759887794
 10
118.8474596612165
 20
121.8078301679715
 10
118.8436592903155
 20
121.8326456210222
 10
118.8423673795276
 20
121.8581823909295
  0
HATCH
  5
8E
330
1F
100
AcDbEntity
  8
ISS138金台
  6
Continuous
 62
   250
420
  2367521
370
    13
100
AcDbHatch
 10
0.0
 20
0.0
 30
0.0
210
0.0
220
0.0
230
1.0
  2
SOLID
 70
     1
 71
     0
 91
        1
 92
        3
 72
     0
 73
     1
 93
       67
 10
123.8425681270504
 20
121.8581823909295
 10
123.8438600378383
 20
121.8837083949135
 10
123.8476604087393
 20
121.9084915501945
 10
123.8538400486747
 20
121.9324134316169
 10
123.8622590006425
 20
121.9553340821787
 10
123.8727880735638
 20
121.9771566085708
 10
123.8853303741295
 20
121.9977195219447
 10
123.8997459453377
 20
122.0169151630681
 10
123.9159055961096
 20
122.0346143408622
 10
123.933669369443
 20
122.0507093960946
 10
123.952940372029
 20
122.0650496058402
 10
123.9735571150191
 20
122.0775273108666
 10
123.9954119391809
 20
122.0880240860182
 10
124.0183864193589
 20
122.096399974293
 10
124.042340598551
 20
122.1025365505354
 10
124.0671560516017
 20
122.10631538959
 10
124.0926928215089
 20
122.1075965344547
 10
124.0926928215089
 20
122.1075965344547
 10
124.1182295914162
 20
122.10631538959
 10
124.1430450444669
 20
122.1025257846122
 10
124.166999223659
 20
122.096399974293
 10
124.189973703837
 20
122.0880133200949
 10
124.2118285279988
 20
122.0775380767898
 10
124.2324452709888
 20
122.0650496058402
 10
124.2517055076516
 20
122.0507093960946
 10
124.2694692809851
 20
122.0346143408622
 10
124.2856289317569
 20
122.0169043971449
 10
124.3000337370419
 20
121.9977087560215
 10
124.3125760376077
 20
121.9771458426476
 10
124.3231266423754
 20
121.955344848102
 10
124.3315455943432
 20
121.9324134316169
 10
124.3377144683553
 20
121.9085023161177
 10
124.3415148392564
 20
121.8837191608367
 10
124.3428067500443
 20
121.8581823909295
 10
124.3428067500443
 20
121.8581823909295
 10
124.3415148392564
 20
121.8325379617899
 10
124.3377144683553
 20
121.8076256154301
 10
124.3315455943432
 20
121.783628372545
 10
124.3231266423754
 20
121.7606000627509
 10
124.3125868035309
 20
121.7387344726659
 10
124.3000337370419
 20
121.7181177296758
 10
124.2856289317569
 20
121.6988682589363
 10
124.2694692809851
 20
121.6811260174493
 10
124.2517055076516
 20
121.6650094303703
 10
124.2324560369121
 20
121.6506369228551
 10
124.2118177620756
 20
121.6381484519055
 10
124.1899629379138
 20
121.6276409108307
 10
124.166999223659
 20
121.6192650225558
 10
124.1430450444669
 20
121.6131176803901
 10
124.1182295914162
 20
121.6093388413356
 10
124.0926928215089
 20
121.6080576964709
 10
124.0926928215089
 20
121.6080576964709
 10
124.0671452856784
 20
121.6093388413356
 10
124.042340598551
 20
121.6131176803901
 10
124.0183864193589
 20
121.6192542566326
 10
123.9954227051041
 20
121.6276301449074
 10
123.9735571150191
 20
121.6381484519055
 10
123.9529296061058
 20
121.6506369228551
 10
123.9336801353663
 20
121.6650201962936
 10
123.9159055961096
 20
121.6811260174493
 10
123.8997459453377
 20
121.6988682589363
 10
123.8853303741295
 20
121.7181069637526
 10
123.872798839487
 20
121.7387344726659
 10
123.8622482347192
 20
121.7606108286741
 10
123.8538292827515
 20
121.7836176066218
 10
123.8476604087393
 20
121.8076256154301
 10
123.8438600378383
 20
121.8325271958666
 97
        0
 75
     1
 76
     1
 98
        0
  0
LWPOLYLINE
  5
8F
330
1F
100
AcDbEntity
  8
ISS138金台
  6
Continuous
 62
   250
420
  2367521
370
    13
100
AcDbPolyline
 90
       68
 70
     0
 43
0.0
 10
123.8425681270504
 20
121.8581823909295
 10
123.8438600378383
 20
121.8837083949135
 10
123.8476604087393
 20
121.9084915501945
 10
123.8538400486747
 20
121.9324134316169
 10
123.8622590006425
 20
121.9553340821787
 10
123.8727880735638
 20
121.9771566085708
 10
123.8853303741295
 20
121.9977195219447
 10
123.8997459453377
 20
122.0169151630681
 10
123.9159055961096
 20
122.0346143408622
 10
123.933669369443
 20
122.0507093960946
 10
123.952940372029
 20
122.0650496058402
 10
123.9735571150191
 20
122.0775273108666
 10
123.9954119391809
 20
122.0880240860182
 10
124.0183864193589
 20
122.096399974293
 10
124.042340598551
 20
122.1025365505354
 10
124.0671560516017
 20
122.10631538959
 10
124.0926928215089
 20
122.1075965344547
 10
124.0926928215089
 20
122.1075965344547
 10
124.1182295914162
 20
122.10631538959
 10
124.1430450444669
 20
122.1025257846122
 10
124.166999223659
 20
122.096399974293
 10
124.189973703837
 20
122.0880133200949
 10
124.2118285279988
 20
122.0775380767898
 10
124.2324452709888
 20
122.0650496058402
 10
124.2517055076516
 20
122.0507093960946
 10
124.2694692809851
 20
122.0346143408622
 10
124.2856289317569
 20
122.0169043971449
 10
124.3000337370419
 20
121.9977087560215
 10
124.3125760376077
 20
121.9771458426476
 10
124.3231266423754
 20
121.955344848102
 10
124.3315455943432
 20
121.9324134316169
 10
124.3377144683553
 20
121.9085023161177
 10
124.3415148392564
 20
121.8837191608367
 10
124.3428067500443
 20
121.8581823909295
 10
124.3428067500443
 20
121.8581823909295
 10
124.3415148392564
 20
121.8325379617899
 10
124.3377144683553
 20
121.8076256154301
 10
124.3315455943432
 20
121.783628372545
 10
124.3231266423754
 20
121.7606000627509
 10
124.3125868035309
 20
121.7387344726659
 10
124.3000337370419
 20
121.7181177296758
 10
124.2856289317569
 20
121.6988682589363
 10
124.2694692809851
 20
121.6811260174493
 10
124.2517055076516
 20
121.6650094303703
 10
124.2324560369121
 20
121.6506369228551
 10
124.2118177620756
 20
121.6381484519055
 10
124.1899629379138
 20
121.6276409108307
 10
124.166999223659
 20
121.6192650225558
 10
124.1430450444669
 20
121.6131176803901
 10
124.1182295914162
 20
121.6093388413356
 10
124.0926928215089
 20
121.6080576964709
 10
124.0926928215089
 20
121.6080576964709
 10
124.0671452856784
 20
121.6093388413356
 10
124.042340598551
 20
121.6131176803901
 10
124.0183864193589
 20
121.6192542566326
 10
123.9954227051041
 20
121.6276301449074
 10
123.9735571150191
 20
121.6381484519055
 10
123.9529296061058
 20
121.6506369228551
 10
123.9336801353663
 20
121.6650201962936
 10
123.9159055961096
 20
121.6811260174493
 10
123.8997459453377
 20
121.6988682589363
 10
123.8853303741295
 20
121.7181069637526
 10
123.872798839487
 20
121.7387344726659
 10
123.8622482347192
 20
121.7606108286741
 10
123.8538292827515
 20
121.7836176066218
 10
123.8476604087393
 20
121.8076256154301
 10
123.8438600378383
 20
121.8325271958666
 10
123.8425681270504
 20
121.8581823909295
  0
LINE
  5
90
330
1F
100
AcDbEntity
  8
ISS138金台
  6
Continuous
 62
   250
420
  2367521
370
    13
100
AcDbLine
 10
119.0924813080629
 20
121.8581823909295
 30
0.0
 11
124.0927574170483
 21
121.8581823909295
 31
0.0
  0
LINE
  5
91
330
1F
100
AcDbEntity
  8
ISS138金台
  6
UserDefined01
 62
   140
420
    44526
370
    13
100
AcDbLine
 10
114.1384340734375
 20
101.3602090659656
 30
0.0
 11
114.1384340734375
 21
94.36004429140465
 31
0.0
  0
TEXT
  5
92
330
1F
100
AcDbEntity
  8
ISS138金台
  6
Continuous
 62
   140
420
    44526
100
AcDbText
 10
113.1249729517766
 20
96.49313970991489
 30
0.0
 40
1.881716638406118
  1
7
 50
90.00000250447816
 41
1.025009155273438
  7
MS Gothic
100
AcDbText
  0
HATCH
  5
93
330
1F
100
AcDbEntity
  8
ISS138金台
  6
Continuous
 62
   140
420
    44526
370
    50
100
AcDbHatch
 10
0.0
 20
0.0
 30
0.0
210
0.0
220
0.0
230
1.0
  2
SOLID
 70
     1
 71
     0
 91
        1
 92
        3
 72
     0
 73
     1
 93
        3
 10
124.0916592928786
 20
102.226327590013
 10
124.0909487419453
 20
100.4941874352274
 10
122.5927090353071
 20
101.3591970691818
 97
        0
 75
     1
 76
     1
 98
        0
  0
LWPOLYLINE
  5
94
330
1F
100
AcDbEntity
  8
ISS138金台
  6
Continuous
 62
   140
420
    44526
370
    50
100
AcDbPolyline
 90
        4
 70
     0
 43
0.0
 10
124.0916592928786
 20
102.226327590013
 10
124.0909487419453
 20
100.4941874352274
 10
122.5927090353071
 20
101.3591970691818
 10
124.0916592928786
 20
102.226327590013
  0
ENDSEC
  0
SECTION
  2
OBJECTS
  0
DICTIONARY
  5
C
330
0
100
AcDbDictionary
281
     1
  3
ACAD_DETAILVIEWSTYLE
350
9C
  3
ACAD_GROUP
350
D
  3
ACAD_LAYOUT
350
1A
  3
ACAD_MATERIAL
350
43
  3
ACAD_MLEADERSTYLE
350
5B
  3
ACAD_MLINESTYLE
350
17
  3
ACAD_PLOTSETTINGS
350
19
  3
ACAD_PLOTSTYLENAME
350
E
  3
ACAD_SCALELIST
350
47
  3
ACAD_SECTIONVIEWSTYLE
350
9D
  3
ACAD_TABLESTYLE
350
59
  3
ACAD_VISUALSTYLE
350
2A
  3
ACDB_RECOMPOSE_DATA
350
99
  3
AcDbVariableDictionary
350
95
  0
SUN
  5
5D
330
29
100
AcDbSun
 90
        1
290
     0
 63
     7
421
 16777215
 40
1.0
291
     1
 91
  2455826
 92
 54000000
292
     0
 70
     2
 71
   256
280
     1
  0
DICTIONARY
  5
9C
102
{ACAD_REACTORS
330
C
102
}
330
C
100
AcDbDictionary
281
     1
  0
DICTIONARY
  5
D
102
{ACAD_REACTORS
330
C
102
}
330
C
100
AcDbDictionary
281
     1
  0
DICTIONARY
  5
1A
102
{ACAD_REACTORS
330
C
102
}
330
C
100
AcDbDictionary
281
     1
  3
Layout1
350
1E
  3
Layout2
350
26
  3
Model
350
22
  0
DICTIONARY
  5
43
102
{ACAD_REACTORS
330
C
102
}
330
C
100
AcDbDictionary
281
     1
  3
ByBlock
350
45
  3
ByLayer
350
44
  3
Global
350
46
  0
DICTIONARY
  5
5B
102
{ACAD_REACTORS
330
C
102
}
330
C
100
AcDbDictionary
281
     1
  3
Standard
350
5C
  0
DICTIONARY
  5
17
102
{ACAD_REACTORS
330
C
102
}
330
C
100
AcDbDictionary
281
     1
  3
Standard
350
18
  0
DICTIONARY
  5
19
102
{ACAD_REACTORS
330
C
102
}
330
C
100
AcDbDictionary
281
     1
  0
ACDBDICTIONARYWDFLT
  5
E
102
{ACAD_REACTORS
330
C
102
}
330
C
100
AcDbDictionary
281
     1
  3
Normal
350
F
100
AcDbDictionaryWithDefault
340
F
  0
DICTIONARY
  5
47
102
{ACAD_REACTORS
330
C
102
}
330
C
100
AcDbDictionary
281
     1
  3
A0
350
48
  3
A1
350
49
  3
A2
350
4A
  3
A3
350
4B
  3
A4
350
4C
  3
A5
350
4D
  3
A6
350
4E
  3
A7
350
4F
  3
A8
350
50
  3
A9
350
51
  3
B0
350
52
  3
B1
350
53
  3
B2
350
54
  3
B3
350
55
  3
B4
350
56
  3
B5
350
57
  3
B6
350
58
  0
DICTIONARY
  5
9D
102
{ACAD_REACTORS
330
C
102
}
330
C
100
AcDbDictionary
281
     1
  0
DICTIONARY
  5
59
102
{ACAD_REACTORS
330
C
102
}
330
C
100
AcDbDictionary
281
     1
  3
Standard
350
5A
  0
DICTIONARY
  5
2A
102
{ACAD_REACTORS
330
C
102
}
330
C
100
AcDbDictionary
281
     1
  3
2dWireframe
350
2F
  3
Basic
350
32
  3
Brighten
350
36
  3
ColorChange
350
3A
  3
Conceptual
350
34
  3
Dim
350
35
  3
EdgeColorOff
350
3D
  3
Facepattern
350
39
  3
Flat
350
2B
  3
FlatWithEdges
350
2C
  3
Gouraud
350
2D
  3
GouraudWithEdges
350
2E
  3
Hidden
350
31
  3
JitterOff
350
3B
  3
Linepattern
350
38
  3
OverhangOff
350
3C
  3
Realistic
350
33
  3
Shaded
350
42
  3
Shaded with edges
350
41
  3
Shades of Gray
350
3E
  3
Sketchy
350
3F
  3
Thicken
350
37
  3
Wireframe
350
30
  3
X-Ray
350
40
  0
XRECORD
  5
99
102
{ACAD_REACTORS
330
C
102
}
330
C
100
AcDbXrecord
280
     1
 90
        1
330
5A
  0
DICTIONARY
  5
95
102
{ACAD_REACTORS
330
C
102
}
330
C
100
AcDbDictionary
281
     1
  3
CANNOSCALE
350
96
  3
CENTEREXE
350
9E
  3
CENTERLTYPEFILE
350
9F
  3
CMLEADERSTYLE
350
9B
  3
CTABLESTYLE
350
9A
  0
LAYOUT
  5
1E
102
{ACAD_REACTORS
330
1A
102
}
330
1A
100
AcDbPlotSettings
  1

  2
none_device
  4

  6

 40
0.0
 41
0.0
 42
0.0
 43
0.0
 44
0.0
 45
0.0
 46
0.0
 47
0.0
 48
0.0
 49
0.0
140
0.0
141
0.0
142
1.0
143
1.0
 70
   688
 72
     1
 73
     0
 74
     5
  7

 75
    16
 76
     0
 77
     5
 78
   300
147
1.0
148
0.0
149
0.0
100
AcDbLayout
  1
Layout1
 70
     1
 71
     1
 10
0.0
 20
0.0
 11
420.0
 21
297.0
 12
0.0
 22
0.0
 32
0.0
 14
1.000000000000000E+20
 24
1.000000000000000E+20
 34
1.000000000000000E+20
 15
-1.000000000000000E+20
 25
-1.000000000000000E+20
 35
-1.000000000000000E+20
146
0.0
 13
0.0
 23
0.0
 33
0.0
 16
1.0
 26
0.0
 36
0.0
 17
0.0
 27
1.0
 37
0.0
 76
     0
330
1B
  0
LAYOUT
  5
26
102
{ACAD_REACTORS
330
1A
102
}
330
1A
100
AcDbPlotSettings
  1

  2
none_device
  4

  6

 40
0.0
 41
0.0
 42
0.0
 43
0.0
 44
0.0
 45
0.0
 46
0.0
 47
0.0
 48
0.0
 49
0.0
140
0.0
141
0.0
142
1.0
143
1.0
 70
   688
 72
     1
 73
     0
 74
     5
  7

 75
    16
 76
     0
 77
     5
 78
   300
147
1.0
148
0.0
149
0.0
100
AcDbLayout
  1
Layout2
 70
     1
 71
     2
 10
0.0
 20
0.0
 11
0.0
 21
0.0
 12
0.0
 22
0.0
 32
0.0
 14
0.0
 24
0.0
 34
0.0
 15
0.0
 25
0.0
 35
0.0
146
0.0
 13
0.0
 23
0.0
 33
0.0
 16
1.0
 26
0.0
 36
0.0
 17
0.0
 27
1.0
 37
0.0
 76
     0
330
23
  0
LAYOUT
  5
22
102
{ACAD_REACTORS
330
1A
102
}
330
1A
100
AcDbPlotSettings
  1

  2
none_device
  4
Letter_(8.50_x_11.00_Inches)
  6

 40
6.35
 41
6.35
 42
6.35000508
 43
6.35000508
 44
215.9
 45
279.4
 46
0.0
 47
0.0
 48
0.0
 49
0.0
140
0.0
141
0.0
142
1.0
143
1.0
 70
  1712
 72
     1
 73
     0
 74
     0
  7

 75
     0
 76
     0
 77
     5
 78
   300
147
1.0
148
0.0
149
0.0
100
AcDbLayout
  1
Model
 70
     1
 71
     0
 10
0.0
 20
0.0
 11
302.9997823349792
 21
216.0016055409748
 12
0.0
 22
0.0
 32
0.0
 14
0.0
 24
0.0
 34
0.0
 15
302.9997823349792
 25
216.0016055409748
 35
0.0
146
0.0
 13
0.0
 23
0.0
 33
0.0
 16
1.0
 26
0.0
 36
0.0
 17
0.0
 27
1.0
 37
0.0
 76
     0
330
1F
331
29
  0
MATERIAL
  5
45
102
{ACAD_REACTORS
330
43
102
}
330
43
100
AcDbMaterial
  1
ByBlock
 72
     1
 94
      127
  0
MATERIAL
  5
44
102
{ACAD_REACTORS
330
43
102
}
330
43
100
AcDbMaterial
  1
ByLayer
 72
     1
 94
      127
  0
MATERIAL
  5
46
102
{ACAD_REACTORS
330
43
102
}
330
43
100
AcDbMaterial
  1
Global
 72
     1
 94
      127
  0
MLEADERSTYLE
  5
5C
102
{ACAD_REACTORS
330
5B
102
}
330
5B
100
AcDbMLeaderStyle
179
     2
170
     2
171
     1
172
     0
 90
        2
 40
0.0
 41
0.0
173
     1
 91
-1056964608
340
14
 92
       -2
290
     1
 42
2.0
291
     1
 43
8.0
  3
Standard
341
0
 44
4.0
300

342
11
174
     1
178
     6
175
     1
176
     0
 93
-1056964608
 45
4.0
292
     0
297
     0
 46
4.0
343
0
 94
-1056964608
 47
1.0
 49
1.0
140
1.0
293
     1
141
0.0
294
     1
177
     0
142
1.0
295
     0
296
     0
143
3.75
271
     0
272
     9
273
     9
298
     0
  0
MLINESTYLE
  5
18
102
{ACAD_REACTORS
330
17
102
}
330
17
100
AcDbMlineStyle
  2
Standard
 70
     0
  3

 62
   256
 51
90.0
 52
90.0
 71
     2
 49
0.5
 62
   256
  6
BYLAYER
 49
-0.5
 62
   256
  6
BYLAYER
  0
ACDBPLACEHOLDER
  5
F
102
{ACAD_REACTORS
330
E
102
}
330
E
  0
SCALE
  5
48
102
{ACAD_REACTORS
330
47
102
}
330
47
100
AcDbScale
 70
     0
300
1:1
140
1.0
141
1.0
290
     1
  0
SCALE
  5
49
102
{ACAD_REACTORS
330
47
102
}
330
47
100
AcDbScale
 70
     0
300
1:2
140
1.0
141
2.0
290
     0
  0
SCALE
  5
4A
102
{ACAD_REACTORS
330
47
102
}
330
47
100
AcDbScale
 70
     0
300
1:4
140
1.0
141
4.0
290
     0
  0
SCALE
  5
4B
102
{ACAD_REACTORS
330
47
102
}
330
47
100
AcDbScale
 70
     0
300
1:5
140
1.0
141
5.0
290
     0
  0
SCALE
  5
4C
102
{ACAD_REACTORS
330
47
102
}
330
47
100
AcDbScale
 70
     0
300
1:8
140
1.0
141
8.0
290
     0
  0
SCALE
  5
4D
102
{ACAD_REACTORS
330
47
102
}
330
47
100
AcDbScale
 70
     0
300
1:10
140
1.0
141
10.0
290
     0
  0
SCALE
  5
4E
102
{ACAD_REACTORS
330
47
102
}
330
47
100
AcDbScale
 70
     0
300
1:16
140
1.0
141
16.0
290
     0
  0
SCALE
  5
4F
102
{ACAD_REACTORS
330
47
102
}
330
47
100
AcDbScale
 70
     0
300
1:20
140
1.0
141
20.0
290
     0
  0
SCALE
  5
50
102
{ACAD_REACTORS
330
47
102
}
330
47
100
AcDbScale
 70
     0
300
1:30
140
1.0
141
30.0
290
     0
  0
SCALE
  5
51
102
{ACAD_REACTORS
330
47
102
}
330
47
100
AcDbScale
 70
     0
300
1:40
140
1.0
141
40.0
290
     0
  0
SCALE
  5
52
102
{ACAD_REACTORS
330
47
102
}
330
47
100
AcDbScale
 70
     0
300
1:50
140
1.0
141
50.0
290
     0
  0
SCALE
  5
53
102
{ACAD_REACTORS
330
47
102
}
330
47
100
AcDbScale
 70
     0
300
1:100
140
1.0
141
100.0
290
     0
  0
SCALE
  5
54
102
{ACAD_REACTORS
330
47
102
}
330
47
100
AcDbScale
 70
     0
300
2:1
140
2.0
141
1.0
290
     0
  0
SCALE
  5
55
102
{ACAD_REACTORS
330
47
102
}
330
47
100
AcDbScale
 70
     0
300
4:1
140
4.0
141
1.0
290
     0
  0
SCALE
  5
56
102
{ACAD_REACTORS
330
47
102
}
330
47
100
AcDbScale
 70
     0
300
8:1
140
8.0
141
1.0
290
     0
  0
SCALE
  5
57
102
{ACAD_REACTORS
330
47
102
}
330
47
100
AcDbScale
 70
     0
300
10:1
140
10.0
141
1.0
290
     0
  0
SCALE
  5
58
102
{ACAD_REACTORS
330
47
102
}
330
47
100
AcDbScale
 70
     0
300
100:1
140
100.0
141
1.0
290
     0
  0
TABLESTYLE
  5
5A
102
{ACAD_REACTORS
330
59
102
}
102
{ACAD_XDICTIONARY
360
97
102
}
330
59
100
AcDbTableStyle
  3
Standard
 70
     0
 71
     0
 40
0.06
 41
0.06
280
     0
281
     0
  7
Standard
140
4.5
170
     2
 62
     0
 63
   257
283
     0
 90
        4
 91
        0
  1

274
    -2
284
     1
 64
     0
275
    -2
285
     1
 65
     0
276
    -2
286
     1
 66
     0
277
    -2
287
     1
 67
     0
278
    -2
288
     1
 68
     0
279
    -2
289
     1
 69
     0
  7
Standard
140
6.0
170
     5
 62
     0
 63
   257
283
     0
 90
        4
 91
        0
  1

274
    -2
284
     1
 64
     0
275
    -2
285
     1
 65
     0
276
    -2
286
     1
 66
     0
277
    -2
287
     1
 67
     0
278
    -2
288
     1
 68
     0
279
    -2
289
     1
 69
     0
  7
Standard
140
4.5
170
     5
 62
     0
 63
   257
283
     0
 90
        4
 91
        0
  1

274
    -2
284
     1
 64
     0
275
    -2
285
     1
 65
     0
276
    -2
286
     1
 66
     0
277
    -2
287
     1
 67
     0
278
    -2
288
     1
 68
     0
279
    -2
289
     1
 69
     0
  0
VISUALSTYLE
  5
2F
102
{ACAD_REACTORS
330
2A
102
}
330
2A
100
AcDbVisualStyle
  2
2dWireframe
 70
     4
177
     3
291
     0
 70
    58
 90
        0
176
     1
 90
        2
176
     1
 90
        0
176
     1
 90
        0
176
     1
 40
0.6
176
     1
 40
30.0
176
     1
 62
     7
420
 16777215
176
     1
 90
        1
176
     1
 90
        4
176
     1
 62
     7
176
     1
 62
   257
176
     1
 90
        1
176
     1
 90
        1
176
     1
 40
1.0
176
     1
 90
        0
176
     1
 62
   257
176
     1
 40
1.0
176
     1
 90
        1
176
     1
 90
        6
176
     1
 90
        2
176
     1
 62
     7
176
     1
 90
        5
176
     1
 90
        0
176
     1
 90
        0
176
     1
290
     0
176
     1
 90
        1
176
     1
 40
0.0
176
     1
 90
        0
176
     1
290
     1
176
     1
290
     1
176
     1
290
     0
176
     1
290
     0
176
     1
290
     0
176
     1
290
     0
176
     1
290
     0
176
     1
290
     0
176
     1
290
     0
176
     1
 90
       50
176
     1
 40
0.0
176
     1
 40
1.0
176
     1
 90
        0
176
     1
 62
    18
420
        0
176
     1
 90
       50
176
     1
 90
        3
176
     1
 62
     5
420
      255
176
     1
290
     0
176
     1
 90
       50
176
     1
 90
       50
176
     1
 90
       50
176
     1
290
     0
176
     1
 90
       50
176
     1
 62
   256
176
     0
 40
1.0
176
     0
 90
        2
176
     1
  1
strokes_ogs.tif
176
     1
290
     0
176
     1
 40
1.0
176
     1
 40
1.0
176
     1
  0
VISUALSTYLE
  5
32
102
{ACAD_REACTORS
330
2A
102
}
330
2A
100
AcDbVisualStyle
  2
Basic
 70
     7
177
     3
291
     1
 70
    58
 90
        1
176
     1
 90
        0
176
     1
 90
        1
176
     1
 90
        0
176
     1
 40
0.6
176
     1
 40
30.0
176
     1
 62
     7
420
 16777215
176
     1
 90
        0
176
     1
 90
        4
176
     1
 62
     7
176
     1
 62
   257
176
     1
 90
        1
176
     1
 90
        1
176
     1
 40
1.0
176
     1
 90
        8
176
     1
 62
     7
176
     1
 40
1.0
176
     1
 90
        1
176
     1
 90
        6
176
     1
 90
        2
176
     1
 62
     7
176
     1
 90
        5
176
     1
 90
        0
176
     1
 90
        0
176
     1
290
     0
176
     1
 90
        1
176
     1
 40
0.0
176
     1
 90
        0
176
     1
290
     0
176
     1
290
     1
176
     1
290
     1
176
     1
290
     0
176
     1
290
     0
176
     1
290
     0
176
     1
290
     0
176
     1
290
     0
176
     1
290
     0
176
     1
 90
       50
176
     1
 40
0.0
176
     1
 40
1.0
176
     1
 90
        0
176
     1
 62
    18
420
        0
176
     1
 90
       50
176
     1
 90
        3
176
     1
 62
     5
420
      255
176
     1
290
     0
176
     1
 90
       50
176
     1
 90
       50
176
     1
 90
       50
176
     1
290
     0
176
     1
 90
       50
176
     1
 62
   256
176
     0
 40
1.0
176
     0
 90
        2
176
     1
  1
strokes_ogs.tif
176
     1
290
     0
176
     1
 40
1.0
176
     1
 40
1.0
176
     1
  0
VISUALSTYLE
  5
36
102
{ACAD_REACTORS
330
2A
102
}
330
2A
100
AcDbVisualStyle
  2
Brighten
 70
    12
177
     3
291
     1
 70
    58
 90
        2
176
     1
 90
        2
176
     1
 90
        0
176
     1
 90
        0
176
     1
 40
0.6
176
     1
 40
30.0
176
     1
 62
     7
420
 16777215
176
     1
 90
        1
176
     1
 90
        4
176
     1
 62
     7
176
     1
 62
   257
176
     1
 90
        1
176
     1
 90
        1
176
     1
 40
1.0
176
     1
 90
        8
176
     1
 62
     7
176
     1
 40
1.0
176
     1
 90
        1
176
     1
 90
        6
176
     1
 90
        2
176
     1
 62
     7
176
     1
 90
        5
176
     1
 90
        0
176
     1
 90
        0
176
     1
290
     0
176
     1
 90
        1
176
     1
 40
50.0
176
     1
 90
        0
176
     1
290
     0
176
     1
290
     1
176
     1
290
     1
176
     1
290
     0
176
     1
290
     0
176
     1
290
     0
176
     1
290
     0
176
     1
290
     0
176
     1
290
     0
176
     1
 90
       50
176
     1
 40
0.0
176
     1
 40
1.0
176
     1
 90
        0
176
     1
 62
    18
420
        0
176
     1
 90
       50
176
     1
 90
        3
176
     1
 62
     5
420
      255
176
     1
290
     0
176
     1
 90
       50
176
     1
 90
       50
176
     1
 90
       50
176
     1
290
     0
176
     1
 90
       50
176
     1
 62
   256
176
     0
 40
1.0
176
     0
 90
        2
176
     1
  1
strokes_ogs.tif
176
     1
290
     0
176
     1
 40
1.0
176
     1
 40
1.0
176
     1
  0
VISUALSTYLE
  5
3A
102
{ACAD_REACTORS
330
2A
102
}
330
2A
100
AcDbVisualStyle
  2
ColorChange
 70
    16
177
     3
291
     1
 70
    58
 90
        2
176
     1
 90
        2
176
     1
 90
        3
176
     1
 90
        0
176
     1
 40
0.6
176
     1
 40
30.0
176
     1
 62
     8
420
  8421504
176
     1
 90
        1
176
     1
 90
        4
176
     1
 62
     7
176
     1
 62
   257
176
     1
 90
        1
176
     1
 90
        1
176
     1
 40
1.0
176
     1
 90
        8
176
     1
 62
     8
420
  8421504
176
     1
 40
1.0
176
     1
 90
        1
176
     1
 90
        6
176
     1
 90
        2
176
     1
 62
     7
176
     1
 90
        5
176
     1
 90
        0
176
     1
 90
        0
176
     1
290
     0
176
     1
 90
        1
176
     1
 40
0.0
176
     1
 90
        0
176
     1
290
     0
176
     1
290
     1
176
     1
290
     1
176
     1
290
     0
176
     1
290
     0
176
     1
290
     0
176
     1
290
     0
176
     1
290
     0
176
     1
290
     0
176
     1
 90
       50
176
     1
 40
0.0
176
     1
 40
1.0
176
     1
 90
        0
176
     1
 62
    18
420
        0
176
     1
 90
       50
176
     1
 90
        3
176
     1
 62
     5
420
      255
176
     1
290
     0
176
     1
 90
       50
176
     1
 90
       50
176
     1
 90
       50
176
     1
290
     0
176
     1
 90
       50
176
     1
 62
   256
176
     0
 40
1.0
176
     0
 90
        2
176
     1
  1
strokes_ogs.tif
176
     1
290
     0
176
     1
 40
1.0
176
     1
 40
1.0
176
     1
  0
VISUALSTYLE
  5
34
102
{ACAD_REACTORS
330
2A
102
}
330
2A
100
AcDbVisualStyle
  2
Conceptual
 70
     9
177
     3
291
     0
 70
    58
 90
        3
176
     1
 90
        2
176
     1
 90
        0
176
     1
 90
        0
176
     1
 40
0.6
176
     1
 40
30.0
176
     1
 62
     7
420
 16777215
176
     1
 90
        2
176
     1
 90
        2
176
     1
 62
     7
176
     1
 62
   257
176
     1
 90
        1
176
     1
 90
        1
176
     1
 40
179.0
176
     1
 90
        8
176
     1
 62
     7
176
     1
 40
1.0
176
     1
 90
        1
176
     1
 90
        6
176
     1
 90
        2
176
     1
 62
     7
176
     1
 90
        3
176
     1
 90
        0
176
     1
 90
        0
176
     1
290
     0
176
     1
 90
        1
176
     1
 40
0.0
176
     1
 90
        0
176
     1
290
     0
176
     1
290
     1
176
     1
290
     1
176
     1
290
     0
176
     1
290
     0
176
     1
290
     0
176
     1
290
     0
176
     1
290
     0
176
     1
290
     0
176
     1
 90
       50
176
     1
 40
0.0
176
     1
 40
1.0
176
     1
 90
        0
176
     1
 62
    18
420
        0
176
     1
 90
       50
176
     1
 90
        3
176
     1
 62
     5
420
      255
176
     1
290
     0
176
     1
 90
       50
176
     1
 90
       50
176
     1
 90
       50
176
     1
290
     0
176
     1
 90
       50
176
     1
 62
   256
176
     0
 40
1.0
176
     0
 90
        2
176
     1
  1
strokes_ogs.tif
176
     1
290
     0
176
     1
 40
1.0
176
     1
 40
1.0
176
     1
  0
VISUALSTYLE
  5
35
102
{ACAD_REACTORS
330
2A
102
}
330
2A
100
AcDbVisualStyle
  2
Dim
 70
    11
177
     3
291
     1
 70
    58
 90
        2
176
     1
 90
        2
176
     1
 90
        0
176
     1
 90
        0
176
     1
 40
0.6
176
     1
 40
30.0
176
     1
 62
     7
420
 16777215
176
     1
 90
        1
176
     1
 90
        4
176
     1
 62
     7
176
     1
 62
   257
176
     1
 90
        1
176
     1
 90
        1
176
     1
 40
1.0
176
     1
 90
        8
176
     1
 62
     7
176
     1
 40
1.0
176
     1
 90
        1
176
     1
 90
        6
176
     1
 90
        2
176
     1
 62
     7
176
     1
 90
        5
176
     1
 90
        0
176
     1
 90
        0
176
     1
290
     0
176
     1
 90
        1
176
     1
 40
-50.0
176
     1
 90
        0
176
     1
290
     0
176
     1
290
     1
176
     1
290
     1
176
     1
290
     0
176
     1
290
     0
176
     1
290
     0
176
     1
290
     0
176
     1
290
     0
176
     1
290
     0
176
     1
 90
       50
176
     1
 40
0.0
176
     1
 40
1.0
176
     1
 90
        0
176
     1
 62
    18
420
        0
176
     1
 90
       50
176
     1
 90
        3
176
     1
 62
     5
420
      255
176
     1
290
     0
176
     1
 90
       50
176
     1
 90
       50
176
     1
 90
       50
176
     1
290
     0
176
     1
 90
       50
176
     1
 62
   256
176
     0
 40
1.0
176
     0
 90
        2
176
     1
  1
strokes_ogs.tif
176
     1
290
     0
176
     1
 40
1.0
176
     1
 40
1.0
176
     1
  0
VISUALSTYLE
  5
3D
102
{ACAD_REACTORS
330
2A
102
}
330
2A
100
AcDbVisualStyle
  2
EdgeColorOff
 70
    22
177
     3
291
     1
 70
    58
 90
        2
176
     0
 90
        2
176
     0
 90
        0
176
     0
 90
        0
176
     0
 40
0.6
176
     0
 40
30.0
176
     0
 62
     7
420
 16777215
176
     0
 90
        1
176
     0
 90
        4
176
     0
 62
     7
176
     0
 62
   257
176
     0
 90
        1
176
     0
 90
        1
176
     0
 40
1.0
176
     0
 90
        8
176
     2
 62
     7
176
     0
 40
1.0
176
     0
 90
        1
176
     0
 90
        6
176
     0
 90
        2
176
     0
 62
     7
176
     0
 90
        5
176
     0
 90
        0
176
     0
 90
        0
176
     0
290
     0
176
     0
 90
        1
176
     0
 40
0.0
176
     0
 90
        0
176
     0
290
     0
176
     0
290
     1
176
     0
290
     1
176
     0
290
     0
176
     0
290
     0
176
     0
290
     0
176
     0
290
     0
176
     0
290
     0
176
     0
290
     0
176
     0
 90
       50
176
     0
 40
0.0
176
     0
 40
1.0
176
     0
 90
        0
176
     0
 62
    18
420
        0
176
     0
 90
       50
176
     0
 90
        3
176
     0
 62
     5
420
      255
176
     0
290
     0
176
     0
 90
       50
176
     0
 90
       50
176
     0
 90
       50
176
     0
290
     0
176
     0
 90
       50
176
     0
 62
   256
176
     0
 40
1.0
176
     0
 90
        2
176
     0
  1
strokes_ogs.tif
176
     0
290
     0
176
     0
 40
1.0
176
     0
 40
1.0
176
     0
  0
VISUALSTYLE
  5
39
102
{ACAD_REACTORS
330
2A
102
}
330
2A
100
AcDbVisualStyle
  2
Facepattern
 70
    15
177
     3
291
     1
 70
    58
 90
        2
176
     1
 90
        2
176
     1
 90
        0
176
     1
 90
        0
176
     1
 40
0.6
176
     1
 40
30.0
176
     1
 62
     7
420
 16777215
176
     1
 90
        1
176
     1
 90
        4
176
     1
 62
     7
176
     1
 62
   257
176
     1
 90
        1
176
     1
 90
        1
176
     1
 40
1.0
176
     1
 90
        8
176
     1
 62
     7
176
     1
 40
1.0
176
     1
 90
        1
176
     1
 90
        6
176
     1
 90
        2
176
     1
 62
     7
176
     1
 90
        5
176
     1
 90
        0
176
     1
 90
        0
176
     1
290
     0
176
     1
 90
        1
176
     1
 40
0.0
176
     1
 90
        0
176
     1
290
     0
176
     1
290
     1
176
     1
290
     1
176
     1
290
     0
176
     1
290
     0
176
     1
290
     0
176
     1
290
     0
176
     1
290
     0
176
     1
290
     0
176
     1
 90
       50
176
     1
 40
0.0
176
     1
 40
1.0
176
     1
 90
        0
176
     1
 62
    18
420
        0
176
     1
 90
       50
176
     1
 90
        3
176
     1
 62
     5
420
      255
176
     1
290
     0
176
     1
 90
       50
176
     1
 90
       50
176
     1
 90
       50
176
     1
290
     0
176
     1
 90
       50
176
     1
 62
   256
176
     0
 40
1.0
176
     0
 90
        2
176
     1
  1
strokes_ogs.tif
176
     1
290
     0
176
     1
 40
1.0
176
     1
 40
1.0
176
     1
  0
VISUALSTYLE
  5
2B
102
{ACAD_REACTORS
330
2A
102
}
330
2A
100
AcDbVisualStyle
  2
Flat
 70
     0
177
     3
291
     1
 70
    58
 90
        2
176
     1
 90
        1
176
     1
 90
        1
176
     1
 90
        2
176
     1
 40
0.6
176
     1
 40
30.0
176
     1
 62
     7
420
 16777215
176
     1
 90
        0
176
     1
 90
        0
176
     1
 62
     7
176
     1
 62
   257
176
     1
 90
        1
176
     1
 90
        1
176
     1
 40
1.0
176
     1
 90
        8
176
     1
 62
     7
176
     1
 40
1.0
176
     1
 90
        1
176
     1
 90
        6
176
     1
 90
        2
176
     1
 62
     7
176
     1
 90
        5
176
     1
 90
        0
176
     1
 90
        0
176
     1
290
     0
176
     1
 90
       13
176
     1
 40
0.0
176
     1
 90
        0
176
     1
290
     0
176
     1
290
     1
176
     1
290
     1
176
     1
290
     0
176
     1
290
     0
176
     1
290
     0
176
     1
290
     0
176
     1
290
     0
176
     1
290
     0
176
     1
 90
       50
176
     1
 40
0.0
176
     1
 40
1.0
176
     1
 90
        0
176
     1
 62
    18
420
        0
176
     1
 90
       50
176
     1
 90
        3
176
     1
 62
     5
420
      255
176
     1
290
     0
176
     1
 90
       50
176
     1
 90
       50
176
     1
 90
       50
176
     1
290
     0
176
     1
 90
       50
176
     1
 62
   256
176
     0
 40
1.0
176
     0
 90
        2
176
     1
  1
strokes_ogs.tif
176
     1
290
     0
176
     1
 40
1.0
176
     1
 40
1.0
176
     1
  0
VISUALSTYLE
  5
2C
102
{ACAD_REACTORS
330
2A
102
}
330
2A
100
AcDbVisualStyle
  2
FlatWithEdges
 70
     1
177
     3
291
     1
 70
    58
 90
        2
176
     1
 90
        1
176
     1
 90
        1
176
     1
 90
        2
176
     1
 40
0.6
176
     1
 40
30.0
176
     1
 62
     7
420
 16777215
176
     1
 90
        1
176
     1
 90
        0
176
     1
 62
     7
176
     1
 62
   257
176
     1
 90
        1
176
     1
 90
        1
176
     1
 40
1.0
176
     1
 90
        0
176
     1
 62
   257
176
     1
 40
1.0
176
     1
 90
        1
176
     1
 90
        6
176
     1
 90
        2
176
     1
 62
     7
176
     1
 90
        5
176
     1
 90
        0
176
     1
 90
        0
176
     1
290
     0
176
     1
 90
       13
176
     1
 40
0.0
176
     1
 90
        0
176
     1
290
     0
176
     1
290
     1
176
     1
290
     1
176
     1
290
     0
176
     1
290
     0
176
     1
290
     0
176
     1
290
     0
176
     1
290
     0
176
     1
290
     0
176
     1
 90
       50
176
     1
 40
0.0
176
     1
 40
1.0
176
     1
 90
        0
176
     1
 62
    18
420
        0
176
     1
 90
       50
176
     1
 90
        3
176
     1
 62
     5
420
      255
176
     1
290
     0
176
     1
 90
       50
176
     1
 90
       50
176
     1
 90
       50
176
     1
290
     0
176
     1
 90
       50
176
     1
 62
   256
176
     0
 40
1.0
176
     0
 90
        2
176
     1
  1
strokes_ogs.tif
176
     1
290
     0
176
     1
 40
1.0
176
     1
 40
1.0
176
     1
  0
VISUALSTYLE
  5
2D
102
{ACAD_REACTORS
330
2A
102
}
330
2A
100
AcDbVisualStyle
  2
Gouraud
 70
     2
177
     3
291
     1
 70
    58
 90
        2
176
     1
 90
        2
176
     1
 90
        1
176
     1
 90
        2
176
     1
 40
0.6
176
     1
 40
30.0
176
     1
 62
     7
420
 16777215
176
     1
 90
        0
176
     1
 90
        0
176
     1
 62
     7
176
     1
 62
   257
176
     1
 90
        1
176
     1
 90
        1
176
     1
 40
1.0
176
     1
 90
        0
176
     1
 62
     7
176
     1
 40
1.0
176
     1
 90
        1
176
     1
 90
        6
176
     1
 90
        2
176
     1
 62
     7
176
     1
 90
        5
176
     1
 90
        0
176
     1
 90
        0
176
     1
290
     0
176
     1
 90
       13
176
     1
 40
0.0
176
     1
 90
        0
176
     1
290
     0
176
     1
290
     1
176
     1
290
     1
176
     1
290
     0
176
     1
290
     0
176
     1
290
     0
176
     1
290
     0
176
     1
290
     0
176
     1
290
     0
176
     1
 90
       50
176
     1
 40
0.0
176
     1
 40
1.0
176
     1
 90
        0
176
     1
 62
    18
420
        0
176
     1
 90
       50
176
     1
 90
        3
176
     1
 62
     5
420
      255
176
     1
290
     0
176
     1
 90
       50
176
     1
 90
       50
176
     1
 90
       50
176
     1
290
     0
176
     1
 90
       50
176
     1
 62
   256
176
     0
 40
1.0
176
     0
 90
        2
176
     1
  1
strokes_ogs.tif
176
     1
290
     0
176
     1
 40
1.0
176
     1
 40
1.0
176
     1
  0
VISUALSTYLE
  5
2E
102
{ACAD_REACTORS
330
2A
102
}
330
2A
100
AcDbVisualStyle
  2
GouraudWithEdges
 70
     3
177
     3
291
     1
 70
    58
 90
        2
176
     1
 90
        2
176
     1
 90
        1
176
     1
 90
        2
176
     1
 40
0.6
176
     1
 40
30.0
176
     1
 62
     7
420
 16777215
176
     1
 90
        1
176
     1
 90
        0
176
     1
 62
     7
176
     1
 62
   257
176
     1
 90
        1
176
     1
 90
        1
176
     1
 40
1.0
176
     1
 90
        0
176
     1
 62
   257
176
     1
 40
1.0
176
     1
 90
        1
176
     1
 90
        6
176
     1
 90
        2
176
     1
 62
     7
176
     1
 90
        5
176
     1
 90
        0
176
     1
 90
        0
176
     1
290
     0
176
     1
 90
       13
176
     1
 40
0.0
176
     1
 90
        0
176
     1
290
     0
176
     1
290
     1
176
     1
290
     1
176
     1
290
     0
176
     1
290
     0
176
     1
290
     0
176
     1
290
     0
176
     1
290
     0
176
     1
290
     0
176
     1
 90
       50
176
     1
 40
0.0
176
     1
 40
1.0
176
     1
 90
        0
176
     1
 62
    18
420
        0
176
     1
 90
       50
176
     1
 90
        3
176
     1
 62
     5
420
      255
176
     1
290
     0
176
     1
 90
       50
176
     1
 90
       50
176
     1
 90
       50
176
     1
290
     0
176
     1
 90
       50
176
     1
 62
   256
176
     0
 40
1.0
176
     0
 90
        2
176
     1
  1
strokes_ogs.tif
176
     1
290
     0
176
     1
 40
1.0
176
     1
 40
1.0
176
     1
  0
VISUALSTYLE
  5
31
102
{ACAD_REACTORS
330
2A
102
}
330
2A
100
AcDbVisualStyle
  2
Hidden
 70
     6
177
     3
291
     0
 70
    58
 90
        1
176
     1
 90
        2
176
     1
 90
        2
176
     1
 90
        0
176
     1
 40
0.6
176
     1
 40
30.0
176
     1
 62
     7
420
 16777215
176
     1
 90
        2
176
     1
 90
        2
176
     1
 62
     7
176
     1
 62
   257
176
     1
 90
        2
176
     1
 90
        1
176
     1
 40
40.0
176
     1
 90
        0
176
     1
 62
   257
176
     1
 40
1.0
176
     1
 90
        1
176
     1
 90
        6
176
     1
 90
        2
176
     1
 62
     7
176
     1
 90
        3
176
     1
 90
        0
176
     1
 90
        0
176
     1
290
     0
176
     1
 90
        1
176
     1
 40
0.0
176
     1
 90
        0
176
     1
290
     0
176
     1
290
     1
176
     1
290
     1
176
     1
290
     0
176
     1
290
     0
176
     1
290
     0
176
     1
290
     0
176
     1
290
     0
176
     1
290
     0
176
     1
 90
       50
176
     1
 40
0.0
176
     1
 40
1.0
176
     1
 90
        0
176
     1
 62
    18
420
        0
176
     1
 90
       50
176
     1
 90
        3
176
     1
 62
     5
420
      255
176
     1
290
     0
176
     1
 90
       50
176
     1
 90
       50
176
     1
 90
       50
176
     1
290
     0
176
     1
 90
       50
176
     1
 62
   256
176
     0
 40
1.0
176
     0
 90
        2
176
     1
  1
strokes_ogs.tif
176
     1
290
     0
176
     1
 40
1.0
176
     1
 40
1.0
176
     1
  0
VISUALSTYLE
  5
3B
102
{ACAD_REACTORS
330
2A
102
}
330
2A
100
AcDbVisualStyle
  2
JitterOff
 70
    20
177
     3
291
     1
 70
    58
 90
        2
176
     0
 90
        2
176
     0
 90
        0
176
     0
 90
        0
176
     0
 40
0.6
176
     0
 40
30.0
176
     0
 62
     7
420
 16777215
176
     0
 90
        1
176
     0
 90
        4
176
     0
 62
     7
176
     0
 62
   257
176
     0
 90
        1
176
     0
 90
        1
176
     0
 40
1.0
176
     0
 90
       10
176
     2
 62
     7
176
     0
 40
1.0
176
     0
 90
        1
176
     0
 90
        6
176
     0
 90
        2
176
     0
 62
     7
176
     0
 90
        5
176
     0
 90
        0
176
     0
 90
        0
176
     0
290
     0
176
     0
 90
        1
176
     0
 40
0.0
176
     0
 90
        0
176
     0
290
     0
176
     0
290
     1
176
     0
290
     1
176
     0
290
     0
176
     0
290
     0
176
     0
290
     0
176
     0
290
     0
176
     0
290
     0
176
     0
290
     0
176
     0
 90
       50
176
     0
 40
0.0
176
     0
 40
1.0
176
     0
 90
        0
176
     0
 62
    18
420
        0
176
     0
 90
       50
176
     0
 90
        3
176
     0
 62
     5
420
      255
176
     0
290
     0
176
     0
 90
       50
176
     0
 90
       50
176
     0
 90
       50
176
     0
290
     0
176
     0
 90
       50
176
     0
 62
   256
176
     0
 40
1.0
176
     0
 90
        2
176
     0
  1
strokes_ogs.tif
176
     0
290
     0
176
     0
 40
1.0
176
     0
 40
1.0
176
     0
  0
VISUALSTYLE
  5
38
102
{ACAD_REACTORS
330
2A
102
}
330
2A
100
AcDbVisualStyle
  2
Linepattern
 70
    14
177
     3
291
     1
 70
    58
 90
        2
176
     1
 90
        2
176
     1
 90
        0
176
     1
 90
        0
176
     1
 40
0.6
176
     1
 40
30.0
176
     1
 62
     7
420
 16777215
176
     1
 90
        1
176
     1
 90
        4
176
     1
 62
     7
176
     1
 62
   257
176
     1
 90
        7
176
     1
 90
        7
176
     1
 40
1.0
176
     1
 90
        8
176
     1
 62
     7
176
     1
 40
1.0
176
     1
 90
        1
176
     1
 90
        6
176
     1
 90
        2
176
     1
 62
     7
176
     1
 90
        5
176
     1
 90
        0
176
     1
 90
        0
176
     1
290
     0
176
     1
 90
        1
176
     1
 40
0.0
176
     1
 90
        0
176
     1
290
     0
176
     1
290
     1
176
     1
290
     1
176
     1
290
     0
176
     1
290
     0
176
     1
290
     0
176
     1
290
     0
176
     1
290
     0
176
     1
290
     0
176
     1
 90
       50
176
     1
 40
0.0
176
     1
 40
1.0
176
     1
 90
        0
176
     1
 62
    18
420
        0
176
     1
 90
       50
176
     1
 90
        3
176
     1
 62
     5
420
      255
176
     1
290
     0
176
     1
 90
       50
176
     1
 90
       50
176
     1
 90
       50
176
     1
290
     0
176
     1
 90
       50
176
     1
 62
   256
176
     0
 40
1.0
176
     0
 90
        2
176
     1
  1
strokes_ogs.tif
176
     1
290
     0
176
     1
 40
1.0
176
     1
 40
1.0
176
     1
  0
VISUALSTYLE
  5
3C
102
{ACAD_REACTORS
330
2A
102
}
330
2A
100
AcDbVisualStyle
  2
OverhangOff
 70
    21
177
     3
291
     1
 70
    58
 90
        2
176
     0
 90
        2
176
     0
 90
        0
176
     0
 90
        0
176
     0
 40
0.6
176
     0
 40
30.0
176
     0
 62
     7
420
 16777215
176
     0
 90
        1
176
     0
 90
        4
176
     0
 62
     7
176
     0
 62
   257
176
     0
 90
        1
176
     0
 90
        1
176
     0
 40
1.0
176
     0
 90
        9
176
     2
 62
     7
176
     0
 40
1.0
176
     0
 90
        1
176
     0
 90
        6
176
     0
 90
        2
176
     0
 62
     7
176
     0
 90
        5
176
     0
 90
        0
176
     0
 90
        0
176
     0
290
     0
176
     0
 90
        1
176
     0
 40
0.0
176
     0
 90
        0
176
     0
290
     0
176
     0
290
     1
176
     0
290
     1
176
     0
290
     0
176
     0
290
     0
176
     0
290
     0
176
     0
290
     0
176
     0
290
     0
176
     0
290
     0
176
     0
 90
       50
176
     0
 40
0.0
176
     0
 40
1.0
176
     0
 90
        0
176
     0
 62
    18
420
        0
176
     0
 90
       50
176
     0
 90
        3
176
     0
 62
     5
420
      255
176
     0
290
     0
176
     0
 90
       50
176
     0
 90
       50
176
     0
 90
       50
176
     0
290
     0
176
     0
 90
       50
176
     0
 62
   256
176
     0
 40
1.0
176
     0
 90
        2
176
     0
  1
strokes_ogs.tif
176
     0
290
     0
176
     0
 40
1.0
176
     0
 40
1.0
176
     0
  0
VISUALSTYLE
  5
33
102
{ACAD_REACTORS
330
2A
102
}
330
2A
100
AcDbVisualStyle
  2
Realistic
 70
     8
177
     3
291
     0
 70
    58
 90
        2
176
     1
 90
        3
176
     1
 90
        0
176
     1
 90
        2
176
     1
 40
0.6
176
     1
 40
30.0
176
     1
 62
     7
420
 16777215
176
     1
 90
        0
176
     1
 90
        0
176
     1
 62
     7
176
     1
 62
   257
176
     1
 90
        1
176
     1
 90
        1
176
     1
 40
1.0
176
     1
 90
        8
176
     1
 62
   257
176
     1
 40
1.0
176
     1
 90
        1
176
     1
 90
        6
176
     1
 90
        2
176
     1
 62
     7
176
     1
 90
        3
176
     1
 90
        0
176
     1
 90
        0
176
     1
290
     0
176
     1
 90
       13
176
     1
 40
0.0
176
     1
 90
        0
176
     1
290
     0
176
     1
290
     1
176
     1
290
     1
176
     1
290
     0
176
     1
290
     0
176
     1
290
     0
176
     1
290
     0
176
     1
290
     0
176
     1
290
     0
176
     1
 90
       50
176
     1
 40
0.0
176
     1
 40
1.0
176
     1
 90
        0
176
     1
 62
    18
420
        0
176
     1
 90
       50
176
     1
 90
        3
176
     1
 62
     5
420
      255
176
     1
290
     0
176
     1
 90
       50
176
     1
 90
       50
176
     1
 90
       50
176
     1
290
     0
176
     1
 90
       50
176
     1
 62
   256
176
     0
 40
1.0
176
     0
 90
        2
176
     1
  1
strokes_ogs.tif
176
     1
290
     0
176
     1
 40
1.0
176
     1
 40
1.0
176
     1
  0
VISUALSTYLE
  5
42
102
{ACAD_REACTORS
330
2A
102
}
330
2A
100
AcDbVisualStyle
  2
Shaded
 70
    27
177
     3
291
     0
 70
    58
 90
        2
176
     1
 90
        2
176
     1
 90
        1
176
     1
 90
        2
176
     1
 40
0.6
176
     1
 40
30.0
176
     1
 62
     7
420
 16777215
176
     1
 90
        0
176
     1
 90
        4
176
     1
 62
     7
176
     1
 62
   257
176
     1
 90
        1
176
     1
 90
        1
176
     1
 40
1.0
176
     1
 90
        8
176
     1
 62
   257
176
     1
 40
1.0
176
     1
 90
        1
176
     1
 90
        6
176
     1
 90
        2
176
     1
 62
     8
420
  7895160
176
     1
 90
        3
176
     1
 90
        0
176
     1
 90
        0
176
     1
290
     0
176
     1
 90
        5
176
     1
 40
0.0
176
     1
 90
        0
176
     1
290
     0
176
     1
290
     1
176
     1
290
     1
176
     1
290
     0
176
     1
290
     0
176
     1
290
     0
176
     1
290
     0
176
     1
290
     0
176
     1
290
     0
176
     1
 90
       50
176
     1
 40
0.0
176
     1
 40
1.0
176
     1
 90
        0
176
     1
 62
    18
420
        0
176
     1
 90
       50
176
     1
 90
        3
176
     1
 62
     5
420
      255
176
     1
290
     0
176
     1
 90
       50
176
     1
 90
       50
176
     1
 90
       50
176
     1
290
     0
176
     1
 90
       50
176
     1
 62
   256
176
     0
 40
1.0
176
     0
 90
        2
176
     1
  1
strokes_ogs.tif
176
     1
290
     0
176
     1
 40
1.0
176
     1
 40
1.0
176
     1
  0
VISUALSTYLE
  5
41
102
{ACAD_REACTORS
330
2A
102
}
330
2A
100
AcDbVisualStyle
  2
Shaded with edges
 70
    26
177
     3
291
     0
 70
    58
 90
        2
176
     1
 90
        2
176
     1
 90
        1
176
     1
 90
        2
176
     1
 40
0.6
176
     1
 40
30.0
176
     1
 62
     7
420
 16777215
176
     1
 90
        1
176
     1
 90
       10
176
     1
 62
     7
176
     1
 62
   257
176
     1
 90
        2
176
     1
 90
        1
176
     1
 40
1.0
176
     1
 90
        8
176
     1
 62
   257
176
     1
 40
1.0
176
     1
 90
        1
176
     1
 90
        6
176
     1
 90
        2
176
     1
 62
     7
176
     1
 90
        3
176
     1
 90
        0
176
     1
 90
        0
176
     1
290
     0
176
     1
 90
        5
176
     1
 40
0.0
176
     1
 90
        0
176
     1
290
     0
176
     1
290
     1
176
     1
290
     1
176
     1
290
     0
176
     1
290
     0
176
     1
290
     0
176
     1
290
     0
176
     1
290
     0
176
     1
290
     0
176
     1
 90
       50
176
     1
 40
0.0
176
     1
 40
1.0
176
     1
 90
        0
176
     1
 62
    18
420
        0
176
     1
 90
       50
176
     1
 90
        3
176
     1
 62
     5
420
      255
176
     1
290
     0
176
     1
 90
       50
176
     1
 90
       50
176
     1
 90
       50
176
     1
290
     0
176
     1
 90
       50
176
     1
 62
   256
176
     0
 40
1.0
176
     0
 90
        2
176
     1
  1
strokes_ogs.tif
176
     1
290
     0
176
     1
 40
1.0
176
     1
 40
1.0
176
     1
  0
VISUALSTYLE
  5
3E
102
{ACAD_REACTORS
330
2A
102
}
330
2A
100
AcDbVisualStyle
  2
Shades of Gray
 70
    23
177
     3
291
     0
 70
    58
 90
        2
176
     1
 90
        2
176
     1
 90
        3
176
     1
 90
        0
176
     1
 40
0.6
176
     1
 40
30.0
176
     1
 62
     7
420
 16777215
176
     1
 90
        2
176
     1
 90
        2
176
     1
 62
     7
176
     1
 62
     7
176
     1
 90
        1
176
     1
 90
        1
176
     1
 40
40.0
176
     1
 90
        8
176
     1
 62
     7
176
     1
 40
1.0
176
     1
 90
        1
176
     1
 90
        6
176
     1
 90
        2
176
     1
 62
     7
176
     1
 90
        3
176
     1
 90
        0
176
     1
 90
        0
176
     1
290
     0
176
     1
 90
        1
176
     1
 40
0.0
176
     1
 90
        0
176
     1
290
     0
176
     1
290
     1
176
     1
290
     1
176
     1
290
     0
176
     1
290
     0
176
     1
290
     0
176
     1
290
     0
176
     1
290
     0
176
     1
290
     0
176
     1
 90
       50
176
     1
 40
0.0
176
     1
 40
1.0
176
     1
 90
        0
176
     1
 62
    18
420
        0
176
     1
 90
       50
176
     1
 90
        3
176
     1
 62
     5
420
      255
176
     1
290
     0
176
     1
 90
       50
176
     1
 90
       50
176
     1
 90
       50
176
     1
290
     0
176
     1
 90
       50
176
     1
 62
   256
176
     0
 40
1.0
176
     0
 90
        2
176
     1
  1
strokes_ogs.tif
176
     1
290
     0
176
     1
 40
1.0
176
     1
 40
1.0
176
     1
  0
VISUALSTYLE
  5
3F
102
{ACAD_REACTORS
330
2A
102
}
330
2A
100
AcDbVisualStyle
  2
Sketchy
 70
    24
177
     3
291
     0
 70
    58
 90
        1
176
     1
 90
        2
176
     1
 90
        2
176
     1
 90
        0
176
     1
 40
0.6
176
     1
 40
30.0
176
     1
 62
     7
420
 16777215
176
     1
 90
        2
176
     1
 90
        2
176
     1
 62
     7
176
     1
 62
     7
176
     1
 90
        1
176
     1
 90
        1
176
     1
 40
40.0
176
     1
 90
       11
176
     1
 62
     7
176
     1
 40
1.0
176
     1
 90
        1
176
     1
 90
        6
176
     1
 90
        2
176
     1
 62
     7
176
     1
 90
        6
176
     1
 90
        0
176
     1
 90
        0
176
     1
290
     0
176
     1
 90
        1
176
     1
 40
0.0
176
     1
 90
        0
176
     1
290
     0
176
     1
290
     1
176
     1
290
     1
176
     1
290
     0
176
     1
290
     0
176
     1
290
     0
176
     1
290
     0
176
     1
290
     0
176
     1
290
     0
176
     1
 90
       50
176
     1
 40
0.0
176
     1
 40
1.0
176
     1
 90
        0
176
     1
 62
    18
420
        0
176
     1
 90
       50
176
     1
 90
        3
176
     1
 62
     5
420
      255
176
     1
290
     0
176
     1
 90
       50
176
     1
 90
       50
176
     1
 90
       50
176
     1
290
     0
176
     1
 90
       50
176
     1
 62
   256
176
     0
 40
1.0
176
     0
 90
        2
176
     1
  1
strokes_ogs.tif
176
     1
290
     0
176
     1
 40
1.0
176
     1
 40
1.0
176
     1
  0
VISUALSTYLE
  5
37
102
{ACAD_REACTORS
330
2A
102
}
330
2A
100
AcDbVisualStyle
  2
Thicken
 70
    13
177
     3
291
     1
 70
    58
 90
        2
176
     1
 90
        2
176
     1
 90
        0
176
     1
 90
        0
176
     1
 40
0.6
176
     1
 40
30.0
176
     1
 62
     7
420
 16777215
176
     1
 90
        1
176
     1
 90
        4
176
     1
 62
     7
176
     1
 62
   257
176
     1
 90
        1
176
     1
 90
        1
176
     1
 40
1.0
176
     1
 90
       12
176
     1
 62
     7
176
     1
 40
1.0
176
     1
 90
        1
176
     1
 90
        6
176
     1
 90
        2
176
     1
 62
     7
176
     1
 90
        5
176
     1
 90
        0
176
     1
 90
        0
176
     1
290
     0
176
     1
 90
        1
176
     1
 40
0.0
176
     1
 90
        0
176
     1
290
     0
176
     1
290
     1
176
     1
290
     1
176
     1
290
     0
176
     1
290
     0
176
     1
290
     0
176
     1
290
     0
176
     1
290
     0
176
     1
290
     0
176
     1
 90
       50
176
     1
 40
0.0
176
     1
 40
1.0
176
     1
 90
        0
176
     1
 62
    18
420
        0
176
     1
 90
       50
176
     1
 90
        3
176
     1
 62
     5
420
      255
176
     1
290
     0
176
     1
 90
       50
176
     1
 90
       50
176
     1
 90
       50
176
     1
290
     0
176
     1
 90
       50
176
     1
 62
   256
176
     0
 40
1.0
176
     0
 90
        2
176
     1
  1
strokes_ogs.tif
176
     1
290
     0
176
     1
 40
1.0
176
     1
 40
1.0
176
     1
  0
VISUALSTYLE
  5
30
102
{ACAD_REACTORS
330
2A
102
}
330
2A
100
AcDbVisualStyle
  2
Wireframe
 70
     5
177
     3
291
     0
 70
    58
 90
        0
176
     1
 90
        2
176
     1
 90
        0
176
     1
 90
        0
176
     1
 40
0.6
176
     1
 40
30.0
176
     1
 62
     7
420
 16777215
176
     1
 90
        1
176
     1
 90
        4
176
     1
 62
     7
176
     1
 62
   257
176
     1
 90
        1
176
     1
 90
        1
176
     1
 40
1.0
176
     1
 90
        0
176
     1
 62
   257
176
     1
 40
1.0
176
     1
 90
        1
176
     1
 90
        6
176
     1
 90
        2
176
     1
 62
     7
176
     1
 90
        3
176
     1
 90
        0
176
     1
 90
        0
176
     1
290
     0
176
     1
 90
        1
176
     1
 40
0.0
176
     1
 90
        0
176
     1
290
     0
176
     1
290
     1
176
     1
290
     1
176
     1
290
     0
176
     1
290
     0
176
     1
290
     0
176
     1
290
     0
176
     1
290
     0
176
     1
290
     0
176
     1
 90
       50
176
     1
 40
0.0
176
     1
 40
1.0
176
     1
 90
        0
176
     1
 62
    18
420
        0
176
     1
 90
       50
176
     1
 90
        3
176
     1
 62
     5
420
      255
176
     1
290
     0
176
     1
 90
       50
176
     1
 90
       50
176
     1
 90
       50
176
     1
290
     0
176
     1
 90
       50
176
     1
 62
   256
176
     0
 40
1.0
176
     0
 90
        2
176
     1
  1
strokes_ogs.tif
176
     1
290
     0
176
     1
 40
1.0
176
     1
 40
1.0
176
     1
  0
VISUALSTYLE
  5
40
102
{ACAD_REACTORS
330
2A
102
}
330
2A
100
AcDbVisualStyle
  2
X-Ray
 70
    25
177
     3
291
     0
 70
    58
 90
        2
176
     1
 90
        2
176
     1
 90
        1
176
     1
 90
        1
176
     1
 40
0.5
176
     1
 40
30.0
176
     1
 62
     7
420
 16777215
176
     1
 90
        1
176
     1
 90
        0
176
     1
 62
     7
176
     1
 62
   257
176
     1
 90
        1
176
     1
 90
        1
176
     1
 40
1.0
176
     1
 90
        8
176
     1
 62
     7
176
     1
 40
1.0
176
     1
 90
        1
176
     1
 90
        6
176
     1
 90
        2
176
     1
 62
     7
176
     1
 90
        3
176
     1
 90
        0
176
     1
 90
        0
176
     1
290
     0
176
     1
 90
       13
176
     1
 40
0.0
176
     1
 90
        0
176
     1
290
     0
176
     1
290
     1
176
     1
290
     1
176
     1
290
     0
176
     1
290
     0
176
     1
290
     0
176
     1
290
     0
176
     1
290
     0
176
     1
290
     0
176
     1
 90
       50
176
     1
 40
0.0
176
     1
 40
1.0
176
     1
 90
        0
176
     1
 62
    18
420
        0
176
     1
 90
       50
176
     1
 90
        3
176
     1
 62
     5
420
      255
176
     1
290
     0
176
     1
 90
       50
176
     1
 90
       50
176
     1
 90
       50
176
     1
290
     0
176
     1
 90
       50
176
     1
 62
   256
176
     0
 40
1.0
176
     0
 90
        2
176
     1
  1
strokes_ogs.tif
176
     1
290
     0
176
     1
 40
1.0
176
     1
 40
1.0
176
     1
  0
DICTIONARYVAR
  5
96
102
{ACAD_REACTORS
330
95
102
}
330
95
100
DictionaryVariables
280
     0
  1
1:1
  0
DICTIONARYVAR
  5
9E
102
{ACAD_REACTORS
330
95
102
}
330
95
100
DictionaryVariables
280
     0
  1
3.500000
  0
DICTIONARYVAR
  5
9F
102
{ACAD_REACTORS
330
95
102
}
330
95
100
DictionaryVariables
280
     0
  1
acadiso.lin
  0
DICTIONARYVAR
  5
9B
102
{ACAD_REACTORS
330
95
102
}
330
95
100
DictionaryVariables
280
     0
  1
Standard
  0
DICTIONARYVAR
  5
9A
102
{ACAD_REACTORS
330
95
102
}
330
95
100
DictionaryVariables
280
     0
  1
Standard
  0
DICTIONARY
  5
97
330
5A
100
AcDbDictionary
280
     1
281
     1
  3
ACAD_ROUNDTRIP_2008_TABLESTYLE_CELLSTYLEMAP
360
98
  0
CELLSTYLEMAP
  5
98
102
{ACAD_REACTORS
330
97
102
}
330
97
100
AcDbCellStyleMap
 90
        3
300
CELLSTYLE
  1
TABLEFORMAT_BEGIN
 90
        5
170
     1
 91
        0
 92
    32768
 62
   257
 93
        1
300
CONTENTFORMAT
  1
CONTENTFORMAT_BEGIN
 90
        0
 91
        0
 92
        4
 93
        0
300

 40
0.0
140
1.0
 94
        5
 62
     0
340
11
144
6.0
309
CONTENTFORMAT_END
171
     1
301
MARGIN
  1
CELLMARGIN_BEGIN
 40
1.5
 40
1.5
 40
1.5
 40
1.5
 40
1.5
 40
1.5
309
CELLMARGIN_END
 94
        6
 95
        1
302
GRIDFORMAT
  1
GRIDFORMAT_BEGIN
 90
        0
 91
        1
 62
     0
 92
       -2
340
14
 93
        0
 40
0.045
309
GRIDFORMAT_END
 95
        2
302
GRIDFORMAT
  1
GRIDFORMAT_BEGIN
 90
        0
 91
        1
 62
     0
 92
       -2
340
14
 93
        0
 40
0.045
309
GRIDFORMAT_END
 95
        4
302
GRIDFORMAT
  1
GRIDFORMAT_BEGIN
 90
        0
 91
        1
 62
     0
 92
       -2
340
14
 93
        0
 40
0.045
309
GRIDFORMAT_END
 95
        8
302
GRIDFORMAT
  1
GRIDFORMAT_BEGIN
 90
        0
 91
        1
 62
     0
 92
       -2
340
14
 93
        0
 40
0.045
309
GRIDFORMAT_END
 95
       16
302
GRIDFORMAT
  1
GRIDFORMAT_BEGIN
 90
        0
 91
        1
 62
     0
 92
       -2
340
14
 93
        0
 40
0.045
309
GRIDFORMAT_END
 95
       32
302
GRIDFORMAT
  1
GRIDFORMAT_BEGIN
 90
        0
 91
        1
 62
     0
 92
       -2
340
14
 93
        0
 40
0.045
309
GRIDFORMAT_END
309
TABLEFORMAT_END
  1
CELLSTYLE_BEGIN
 90
        1
 91
        1
300
_TITLE
309
CELLSTYLE_END
300
CELLSTYLE
  1
TABLEFORMAT_BEGIN
 90
        5
170
     1
 91
        0
 92
        0
 62
   257
 93
        1
300
CONTENTFORMAT
  1
CONTENTFORMAT_BEGIN
 90
        0
 91
        0
 92
        4
 93
        0
300

 40
0.0
140
1.0
 94
        5
 62
     0
340
11
144
4.5
309
CONTENTFORMAT_END
171
     1
301
MARGIN
  1
CELLMARGIN_BEGIN
 40
1.5
 40
1.5
 40
1.5
 40
1.5
 40
1.5
 40
1.5
309
CELLMARGIN_END
 94
        6
 95
        1
302
GRIDFORMAT
  1
GRIDFORMAT_BEGIN
 90
        0
 91
        1
 62
     0
 92
       -2
340
14
 93
        0
 40
0.045
309
GRIDFORMAT_END
 95
        2
302
GRIDFORMAT
  1
GRIDFORMAT_BEGIN
 90
        0
 91
        1
 62
     0
 92
       -2
340
14
 93
        0
 40
0.045
309
GRIDFORMAT_END
 95
        4
302
GRIDFORMAT
  1
GRIDFORMAT_BEGIN
 90
        0
 91
        1
 62
     0
 92
       -2
340
14
 93
        0
 40
0.045
309
GRIDFORMAT_END
 95
        8
302
GRIDFORMAT
  1
GRIDFORMAT_BEGIN
 90
        0
 91
        1
 62
     0
 92
       -2
340
14
 93
        0
 40
0.045
309
GRIDFORMAT_END
 95
       16
302
GRIDFORMAT
  1
GRIDFORMAT_BEGIN
 90
        0
 91
        1
 62
     0
 92
       -2
340
14
 93
        0
 40
0.045
309
GRIDFORMAT_END
 95
       32
302
GRIDFORMAT
  1
GRIDFORMAT_BEGIN
 90
        0
 91
        1
 62
     0
 92
       -2
340
14
 93
        0
 40
0.045
309
GRIDFORMAT_END
309
TABLEFORMAT_END
  1
CELLSTYLE_BEGIN
 90
        2
 91
        1
300
_HEADER
309
CELLSTYLE_END
300
CELLSTYLE
  1
TABLEFORMAT_BEGIN
 90
        5
170
     1
 91
        0
 92
        0
 62
   257
 93
        1
300
CONTENTFORMAT
  1
CONTENTFORMAT_BEGIN
 90
        0
 91
        0
 92
        4
 93
        0
300

 40
0.0
140
1.0
 94
        2
 62
     0
340
11
144
4.5
309
CONTENTFORMAT_END
171
     1
301
MARGIN
  1
CELLMARGIN_BEGIN
 40
1.5
 40
1.5
 40
1.5
 40
1.5
 40
1.5
 40
1.5
309
CELLMARGIN_END
 94
        6
 95
        1
302
GRIDFORMAT
  1
GRIDFORMAT_BEGIN
 90
        0
 91
        1
 62
     0
 92
       -2
340
14
 93
        0
 40
0.045
309
GRIDFORMAT_END
 95
        2
302
GRIDFORMAT
  1
GRIDFORMAT_BEGIN
 90
        0
 91
        1
 62
     0
 92
       -2
340
14
 93
        0
 40
0.045
309
GRIDFORMAT_END
 95
        4
302
GRIDFORMAT
  1
GRIDFORMAT_BEGIN
 90
        0
 91
        1
 62
     0
 92
       -2
340
14
 93
        0
 40
0.045
309
GRIDFORMAT_END
 95
        8
302
GRIDFORMAT
  1
GRIDFORMAT_BEGIN
 90
        0
 91
        1
 62
     0
 92
       -2
340
14
 93
        0
 40
0.045
309
GRIDFORMAT_END
 95
       16
302
GRIDFORMAT
  1
GRIDFORMAT_BEGIN
 90
        0
 91
        1
 62
     0
 92
       -2
340
14
 93
        0
 40
0.045
309
GRIDFORMAT_END
 95
       32
302
GRIDFORMAT
  1
GRIDFORMAT_BEGIN
 90
        0
 91
        1
 62
     0
 92
       -2
340
14
 93
        0
 40
0.045
309
GRIDFORMAT_END
309
TABLEFORMAT_END
  1
CELLSTYLE_BEGIN
 90
        3
 91
        2
300
_DATA
309
CELLSTYLE_END
  0
ENDSEC
  0
EOF
