  0
SECTION
  2
HEADER
  9
$ACADVER
  1
AC1027
  9
$ACADMAINTVER
 70
   105
  9
$DWGCODEPAGE
  3
ANSI_932
  9
$LASTSAVEDBY
  1
a.yasuda
  9
$REQUIREDVERSIONS
160
                 0
  9
$INSBASE
 10
0.0
 20
0.0
 30
0.0
  9
$EXTMIN
 10
0.0
 20
0.0
 30
0.0
  9
$EXTMAX
 10
302.9997823349792
 20
216.0016055409748
 30
0.0
  9
$LIMMIN
 10
0.0
 20
0.0
  9
$LIMMAX
 10
302.9997823349792
 20
216.0016055409748
  9
$ORTHOMODE
 70
     0
  9
$REGENMODE
 70
     1
  9
$FILLMODE
 70
     1
  9
$QTEXTMODE
 70
     0
  9
$MIRRTEXT
 70
     1
  9
$LTSCALE
 40
1.0
  9
$ATTMODE
 70
     1
  9
$TEXTSIZE
 40
2.5
  9
$TRACEWID
 40
1.0
  9
$TEXTSTYLE
  7
Standard
  9
$CLAYER
  8
0
  9
$CELTYPE
  6
ByLayer
  9
$CECOLOR
 62
   256
  9
$CELTSCALE
 40
1.0
  9
$DISPSILH
 70
     0
  9
$DIMSCALE
 40
1.0
  9
$DIMASZ
 40
2.5
  9
$DIMEXO
 40
0.625
  9
$DIMDLI
 40
3.75
  9
$DIMRND
 40
0.0
  9
$DIMDLE
 40
0.0
  9
$DIMEXE
 40
1.25
  9
$DIMTP
 40
0.0
  9
$DIMTM
 40
0.0
  9
$DIMTXT
 40
2.5
  9
$DIMCEN
 40
2.5
  9
$DIMTSZ
 40
0.0
  9
$DIMTOL
 70
     0
  9
$DIMLIM
 70
     0
  9
$DIMTIH
 70
     0
  9
$DIMTOH
 70
     0
  9
$DIMSE1
 70
     0
  9
$DIMSE2
 70
     0
  9
$DIMTAD
 70
     1
  9
$DIMZIN
 70
     8
  9
$DIMBLK
  1

  9
$DIMASO
 70
     1
  9
$DIMSHO
 70
     1
  9
$DIMPOST
  1

  9
$DIMAPOST
  1

  9
$DIMALT
 70
     0
  9
$DIMALTD
 70
     3
  9
$DIMALTF
 40
0.03937007874016
  9
$DIMLFAC
 40
1.0
  9
$DIMTOFL
 70
     1
  9
$DIMTVP
 40
0.0
  9
$DIMTIX
 70
     0
  9
$DIMSOXD
 70
     0
  9
$DIMSAH
 70
     0
  9
$DIMBLK1
  1

  9
$DIMBLK2
  1

  9
$DIMSTYLE
  2
ISO-25
  9
$DIMCLRD
 70
     0
  9
$DIMCLRE
 70
     0
  9
$DIMCLRT
 70
     0
  9
$DIMTFAC
 40
1.0
  9
$DIMGAP
 40
0.625
  9
$DIMJUST
 70
     0
  9
$DIMSD1
 70
     0
  9
$DIMSD2
 70
     0
  9
$DIMTOLJ
 70
     0
  9
$DIMTZIN
 70
     8
  9
$DIMALTZ
 70
     0
  9
$DIMALTTZ
 70
     0
  9
$DIMUPT
 70
     0
  9
$DIMDEC
 70
     2
  9
$DIMTDEC
 70
     2
  9
$DIMALTU
 70
     2
  9
$DIMALTTD
 70
     3
  9
$DIMTXSTY
  7
Standard
  9
$DIMAUNIT
 70
     0
  9
$DIMADEC
 70
     0
  9
$DIMALTRND
 40
0.0
  9
$DIMAZIN
 70
     0
  9
$DIMDSEP
 70
    44
  9
$DIMATFIT
 70
     3
  9
$DIMFRAC
 70
     0
  9
$DIMLDRBLK
  1

  9
$DIMLUNIT
 70
     2
  9
$DIMLWD
 70
    -2
  9
$DIMLWE
 70
    -2
  9
$DIMTMOVE
 70
     0
  9
$DIMFXL
 40
1.0
  9
$DIMFXLON
 70
     0
  9
$DIMJOGANG
 40
0.7853981633974483
  9
$DIMTFILL
 70
     0
  9
$DIMTFILLCLR
 70
     0
  9
$DIMARCSYM
 70
     0
  9
$DIMLTYPE
  6

  9
$DIMLTEX1
  6

  9
$DIMLTEX2
  6

  9
$DIMTXTDIRECTION
 70
     0
  9
$LUNITS
 70
     2
  9
$LUPREC
 70
     4
  9
$SKETCHINC
 40
1.0
  9
$FILLETRAD
 40
0.0
  9
$AUNITS
 70
     0
  9
$AUPREC
 70
     0
  9
$MENU
  1
.
  9
$ELEVATION
 40
0.0
  9
$PELEVATION
 40
0.0
  9
$THICKNESS
 40
0.0
  9
$LIMCHECK
 70
     0
  9
$CHAMFERA
 40
0.0
  9
$CHAMFERB
 40
0.0
  9
$CHAMFERC
 40
0.0
  9
$CHAMFERD
 40
0.0
  9
$SKPOLY
 70
     0
  9
$TDCREATE
 40
2459866.618879618
  9
$TDUCREATE
 40
2459866.243879618
  9
$TDUPDATE
 40
2459866.618879664
  9
$TDUUPDATE
 40
2459866.243879664
  9
$TDINDWG
 40
0.0000000116
  9
$TDUSRTIMER
 40
0.0000000116
  9
$USRTIMER
 70
     1
  9
$ANGBASE
 50
0.0
  9
$ANGDIR
 70
     0
  9
$PDMODE
 70
     0
  9
$PDSIZE
 40
0.0
  9
$PLINEWID
 40
0.0
  9
$SPLFRAME
 70
     0
  9
$SPLINETYPE
 70
     6
  9
$SPLINESEGS
 70
     8
  9
$HANDSEED
  5
AA
  9
$SURFTAB1
 70
     6
  9
$SURFTAB2
 70
     6
  9
$SURFTYPE
 70
     6
  9
$SURFU
 70
     6
  9
$SURFV
 70
     6
  9
$UCSBASE
  2

  9
$UCSNAME
  2

  9
$UCSORG
 10
0.0
 20
0.0
 30
0.0
  9
$UCSXDIR
 10
1.0
 20
0.0
 30
0.0
  9
$UCSYDIR
 10
0.0
 20
1.0
 30
0.0
  9
$UCSORTHOREF
  2

  9
$UCSORTHOVIEW
 70
     0
  9
$UCSORGTOP
 10
0.0
 20
0.0
 30
0.0
  9
$UCSORGBOTTOM
 10
0.0
 20
0.0
 30
0.0
  9
$UCSORGLEFT
 10
0.0
 20
0.0
 30
0.0
  9
$UCSORGRIGHT
 10
0.0
 20
0.0
 30
0.0
  9
$UCSORGFRONT
 10
0.0
 20
0.0
 30
0.0
  9
$UCSORGBACK
 10
0.0
 20
0.0
 30
0.0
  9
$PUCSBASE
  2

  9
$PUCSNAME
  2

  9
$PUCSORG
 10
0.0
 20
0.0
 30
0.0
  9
$PUCSXDIR
 10
1.0
 20
0.0
 30
0.0
  9
$PUCSYDIR
 10
0.0
 20
1.0
 30
0.0
  9
$PUCSORTHOREF
  2

  9
$PUCSORTHOVIEW
 70
     0
  9
$PUCSORGTOP
 10
0.0
 20
0.0
 30
0.0
  9
$PUCSORGBOTTOM
 10
0.0
 20
0.0
 30
0.0
  9
$PUCSORGLEFT
 10
0.0
 20
0.0
 30
0.0
  9
$PUCSORGRIGHT
 10
0.0
 20
0.0
 30
0.0
  9
$PUCSORGFRONT
 10
0.0
 20
0.0
 30
0.0
  9
$PUCSORGBACK
 10
0.0
 20
0.0
 30
0.0
  9
$USERI1
 70
     0
  9
$USERI2
 70
     0
  9
$USERI3
 70
     0
  9
$USERI4
 70
     0
  9
$USERI5
 70
     0
  9
$USERR1
 40
0.0
  9
$USERR2
 40
0.0
  9
$USERR3
 40
0.0
  9
$USERR4
 40
0.0
  9
$USERR5
 40
0.0
  9
$WORLDVIEW
 70
     1
  9
$SHADEDGE
 70
     3
  9
$SHADEDIF
 70
    70
  9
$TILEMODE
 70
     1
  9
$MAXACTVP
 70
    64
  9
$PINSBASE
 10
0.0
 20
0.0
 30
0.0
  9
$PLIMCHECK
 70
     0
  9
$PEXTMIN
 10
1.000000000000000E+20
 20
1.000000000000000E+20
 30
1.000000000000000E+20
  9
$PEXTMAX
 10
-1.000000000000000E+20
 20
-1.000000000000000E+20
 30
-1.000000000000000E+20
  9
$PLIMMIN
 10
0.0
 20
0.0
  9
$PLIMMAX
 10
420.0
 20
297.0
  9
$UNITMODE
 70
     0
  9
$VISRETAIN
 70
     1
  9
$PLINEGEN
 70
     0
  9
$PSLTSCALE
 70
     1
  9
$TREEDEPTH
 70
  3020
  9
$CMLSTYLE
  2
Standard
  9
$CMLJUST
 70
     0
  9
$CMLSCALE
 40
20.0
  9
$PROXYGRAPHICS
 70
     1
  9
$MEASUREMENT
 70
     1
  9
$CELWEIGHT
370
    -1
  9
$ENDCAPS
280
     0
  9
$JOINSTYLE
280
     0
  9
$LWDISPLAY
290
     0
  9
$INSUNITS
 70
     4
  9
$HYPERLINKBASE
  1

  9
$STYLESHEET
  1

  9
$XEDIT
290
     1
  9
$CEPSNTYPE
380
     0
  9
$PSTYLEMODE
290
     1
  9
$FINGERPRINTGUID
  2
{430f85a5-ade1-4e0e-8a3e-d1d6bade405b}
  9
$VERSIONGUID
  2
{FAEB1C32-E019-11D5-929B-00C0DF256EC4}
  9
$EXTNAMES
290
     1
  9
$PSVPSCALE
 40
0.0
  9
$OLESTARTUP
290
     0
  9
$SORTENTS
280
   127
  9
$INDEXCTL
280
     0
  9
$HIDETEXT
280
     1
  9
$XCLIPFRAME
280
     2
  9
$HALOGAP
280
     0
  9
$OBSCOLOR
 70
   257
  9
$OBSLTYPE
280
     0
  9
$INTERSECTIONDISPLAY
280
     0
  9
$INTERSECTIONCOLOR
 70
   257
  9
$DIMASSOC
280
     2
  9
$PROJECTNAME
  1

  9
$CAMERADISPLAY
290
     0
  9
$LENSLENGTH
 40
50.0
  9
$CAMERAHEIGHT
 40
0.0
  9
$STEPSPERSEC
 40
2.0
  9
$STEPSIZE
 40
6.0
  9
$3DDWFPREC
 40
2.0
  9
$PSOLWIDTH
 40
5.0
  9
$PSOLHEIGHT
 40
80.0
  9
$LOFTANG1
 40
1.570796326794897
  9
$LOFTANG2
 40
1.570796326794897
  9
$LOFTMAG1
 40
0.0
  9
$LOFTMAG2
 40
0.0
  9
$LOFTPARAM
 70
     7
  9
$LOFTNORMALS
280
     1
  9
$LATITUDE
 40
37.795
  9
$LONGITUDE
 40
-122.394
  9
$NORTHDIRECTION
 40
0.0
  9
$TIMEZONE
 70
 -8000
  9
$LIGHTGLYPHDISPLAY
280
     1
  9
$TILEMODELIGHTSYNCH
280
     1
  9
$CMATERIAL
347
44
  9
$SOLIDHIST
280
     0
  9
$SHOWHIST
280
     1
  9
$DWFFRAME
280
     2
  9
$DGNFRAME
280
     2
  9
$REALWORLDSCALE
290
     1
  9
$INTERFERECOLOR
 62
   256
  9
$CSHADOW
280
     0
  9
$SHADOWPLANELOCATION
 40
0.0
  0
ENDSEC
  0
SECTION
  2
CLASSES
  0
CLASS
  1
ACDBDICTIONARYWDFLT
  2
AcDbDictionaryWithDefault
  3
ObjectDBX Classes
 90
        0
 91
        3
280
     0
281
     0
  0
CLASS
  1
VISUALSTYLE
  2
AcDbVisualStyle
  3
ObjectDBX Classes
 90
     4095
 91
        3
280
     0
281
     0
  0
CLASS
  1
MATERIAL
  2
AcDbMaterial
  3
ObjectDBX Classes
 90
     1153
 91
        3
280
     0
281
     0
  0
CLASS
  1
SCALE
  2
AcDbScale
  3
ObjectDBX Classes
 90
     1153
 91
        3
280
     0
281
     0
  0
CLASS
  1
TABLESTYLE
  2
AcDbTableStyle
  3
ObjectDBX Classes
 90
     4095
 91
        3
280
     0
281
     0
  0
CLASS
  1
MLEADERSTYLE
  2
AcDbMLeaderStyle
  3
ACDB_MLEADERSTYLE_CLASS
 90
     4095
 91
        3
280
     0
281
     0
  0
CLASS
  1
SUN
  2
AcDbSun
  3
SCENEOE
 90
     1153
 91
        3
280
     0
281
     0
  0
CLASS
  1
DICTIONARYVAR
  2
AcDbDictionaryVar
  3
ObjectDBX Classes
 90
        0
 91
        3
280
     0
281
     0
  0
CLASS
  1
CELLSTYLEMAP
  2
AcDbCellStyleMap
  3
ObjectDBX Classes
 90
     1152
 91
        3
280
     0
281
     0
  0
ENDSEC
  0
SECTION
  2
TABLES
  0
TABLE
  2
VPORT
  5
8
330
0
100
AcDbSymbolTable
 70
     1
  0
VPORT
  5
29
330
8
100
AcDbSymbolTableRecord
100
AcDbViewportTableRecord
  2
*Active
 70
     0
 10
0.0
 20
0.0
 11
1.0
 21
1.0
 12
151.4998911674896
 22
108.0008027704874
 13
0.0
 23
0.0
 14
10.0
 24
10.0
 15
10.0
 25
10.0
 16
0.0
 26
0.0
 36
1.0
 17
0.0
 27
0.0
 37
0.0
 40
237.6017660950723
 41
1.402766343222857
 42
50.0
 43
0.0
 44
0.0
 50
0.0
 51
0.0
 71
     0
 72
 10000
 73
     1
 74
     3
 75
     0
 76
     0
 77
     0
 78
     0
281
     0
 65
     1
110
0.0
120
0.0
130
0.0
111
1.0
121
0.0
131
0.0
112
0.0
122
1.0
132
0.0
 79
     0
146
0.0
348
2F
 60
     3
 61
     5
292
     1
282
     1
141
0.0
142
0.0
 63
   250
361
5D
  0
ENDTAB
  0
TABLE
  2
LTYPE
  5
5
330
0
100
AcDbSymbolTable
 70
     2
  0
LTYPE
  5
14
330
5
100
AcDbSymbolTableRecord
100
AcDbLinetypeTableRecord
  2
ByBlock
 70
     0
  3

 72
    65
 73
     0
 40
0.0
  0
LTYPE
  5
15
330
5
100
AcDbSymbolTableRecord
100
AcDbLinetypeTableRecord
  2
ByLayer
 70
     0
  3

 72
    65
 73
     0
 40
0.0
  0
LTYPE
  5
16
330
5
100
AcDbSymbolTableRecord
100
AcDbLinetypeTableRecord
  2
Continuous
 70
     0
  3
Solid line
 72
    65
 73
     0
 40
0.0
  0
LTYPE
  5
5F
330
5
100
AcDbSymbolTableRecord
100
AcDbLinetypeTableRecord
  2
UserDefined01
 70
     0
  3
----------------                
 72
    65
 73
     2
 40
0.7055555449591743
 49
0.3527777724795871
 74
     0
 49
-0.3527777724795871
 74
     0
  0
ENDTAB
  0
TABLE
  2
LAYER
  5
2
330
0
100
AcDbSymbolTable
 70
     3
  0
LAYER
  5
10
330
2
100
AcDbSymbolTableRecord
100
AcDbLayerTableRecord
  2
0
 70
     0
 62
     7
  6
Continuous
370
    -3
390
F
347
46
348
0
  0
LAYER
  5
60
330
2
100
AcDbSymbolTableRecord
100
AcDbLayerTableRecord
  2
外枠
 70
     0
 62
     7
  6
Continuous
370
    -3
390
F
347
46
348
0
  0
LAYER
  5
61
330
2
100
AcDbSymbolTableRecord
100
AcDbLayerTableRecord
  2
ISS138金台
 70
     0
 62
     7
  6
Continuous
370
    -3
390
F
347
46
348
0
  0
ENDTAB
  0
TABLE
  2
STYLE
  5
3
330
0
100
AcDbSymbolTable
 70
     2
  0
STYLE
  5
11
330
3
100
AcDbSymbolTableRecord
100
AcDbTextStyleTableRecord
  2
Standard
 70
     0
 40
0.0
 41
1.0
 50
0.0
 71
     0
 42
2.5
  3

  4

  0
STYLE
  5
5E
330
3
100
AcDbSymbolTableRecord
100
AcDbTextStyleTableRecord
  2
MS Gothic
 70
     0
 40
1.0
 41
1.0
 50
0.0
 71
     0
 42
2.5
  3
msgothic.ttc
  4

1001
ACAD
1000
MS Gothic
1071
    32817
  0
ENDTAB
  0
TABLE
  2
VIEW
  5
6
330
0
100
AcDbSymbolTable
 70
     0
  0
ENDTAB
  0
TABLE
  2
UCS
  5
7
330
0
100
AcDbSymbolTable
 70
     0
  0
ENDTAB
  0
TABLE
  2
APPID
  5
9
330
0
100
AcDbSymbolTable
 70
     1
  0
APPID
  5
12
330
9
100
AcDbSymbolTableRecord
100
AcDbRegAppTableRecord
  2
ACAD
 70
     0
  0
ENDTAB
  0
TABLE
  2
DIMSTYLE
  5
A
330
0
100
AcDbSymbolTable
 70
     1
100
AcDbDimStyleTable
  0
DIMSTYLE
105
27
330
A
100
AcDbSymbolTableRecord
100
AcDbDimStyleTableRecord
  2
ISO-25
 70
     0
 41
2.5
 42
0.625
 43
3.75
 44
1.25
 73
     0
 74
     0
 77
     1
 78
     8
140
2.5
141
2.5
143
0.03937007874016
147
0.625
171
     3
172
     1
178
     0
271
     2
272
     2
274
     3
278
    44
283
     0
284
     8
340
11
  0
ENDTAB
  0
TABLE
  2
BLOCK_RECORD
  5
1
330
0
100
AcDbSymbolTable
 70
     1
  0
BLOCK_RECORD
  5
1F
330
1
100
AcDbSymbolTableRecord
100
AcDbBlockTableRecord
  2
*Model_Space
340
22
 70
     0
280
     1
281
     0
  0
BLOCK_RECORD
  5
1B
330
1
100
AcDbSymbolTableRecord
100
AcDbBlockTableRecord
  2
*Paper_Space
340
1E
 70
     0
280
     1
281
     0
  0
BLOCK_RECORD
  5
23
330
1
100
AcDbSymbolTableRecord
100
AcDbBlockTableRecord
  2
*Paper_Space0
340
26
 70
     0
280
     1
281
     0
  0
ENDTAB
  0
ENDSEC
  0
SECTION
  2
BLOCKS
  0
BLOCK
  5
20
330
1F
100
AcDbEntity
  8
0
100
AcDbBlockBegin
  2
*Model_Space
 70
     0
 10
0.0
 20
0.0
 30
0.0
  3
*Model_Space
  1

  0
ENDBLK
  5
21
330
1F
100
AcDbEntity
  8
0
100
AcDbBlockEnd
  0
BLOCK
  5
1C
330
1B
100
AcDbEntity
 67
     1
  8
0
100
AcDbBlockBegin
  2
*Paper_Space
 70
     0
 10
0.0
 20
0.0
 30
0.0
  3
*Paper_Space
  1

  0
ENDBLK
  5
1D
330
1B
100
AcDbEntity
 67
     1
  8
0
100
AcDbBlockEnd
  0
BLOCK
  5
24
330
23
100
AcDbEntity
  8
0
100
AcDbBlockBegin
  2
*Paper_Space0
 70
     0
 10
0.0
 20
0.0
 30
0.0
  3
*Paper_Space0
  1

  0
ENDBLK
  5
25
330
23
100
AcDbEntity
  8
0
100
AcDbBlockEnd
  0
ENDSEC
  0
SECTION
  2
ENTITIES
  0
LWPOLYLINE
  5
62
330
1F
100
AcDbEntity
  8
外枠
  6
Continuous
 62
   250
420
  2367521
370
   100
100
AcDbPolyline
 90
        5
 70
     0
 43
0.0
 10
281.9999662644599
 20
13.29407825637392
 10
20.99981607051935
 20
13.29407825637392
 10
20.99981607051935
 20
193.0018900389566
 10
281.9999662644599
 20
193.0018900389566
 10
281.9999662644599
 20
13.29407825637392
  0
LINE
  5
63
330
1F
100
AcDbEntity
  8
外枠
  6
Continuous
 62
   250
420
  2367521
370
    25
100
AcDbLine
 10
223.3097080177524
 20
174.0786160074276
 30
0.0
 11
281.9999232007669
 21
174.0786160074276
 31
0.0
  0
LINE
  5
64
330
1F
100
AcDbEntity
  8
外枠
  6
Continuous
 62
   250
420
  2367521
370
    25
100
AcDbLine
 10
223.3097080177524
 20
50.37109023844297
 30
0.0
 11
281.9999232007669
 21
50.37109023844297
 31
0.0
  0
LINE
  5
65
330
1F
100
AcDbEntity
  8
外枠
  6
Continuous
 62
   250
420
  2367521
370
    25
100
AcDbLine
 10
223.3097080177524
 20
36.25997933925949
 30
0.0
 11
281.9999232007669
 21
36.25997933925949
 31
0.0
  0
LINE
  5
66
330
1F
100
AcDbEntity
  8
外枠
  6
Continuous
 62
   250
420
  2367521
370
    50
100
AcDbLine
 10
223.0158413772006
 20
193.3637327187979
 30
0.0
 11
223.0158413772006
 21
13.29396655992039
 31
0.0
  0
TEXT
  5
67
330
1F
100
AcDbEntity
  8
外枠
  6
Continuous
 62
   250
420
  2367521
100
AcDbText
 10
224.7190965599536
 20
186.6888051931772
 30
0.0
 40
2.688166626294454
  1
品名：
 41
0.974166170756022
  7
MS Gothic
100
AcDbText
  0
TEXT
  5
68
330
1F
100
AcDbEntity
  8
外枠
  6
Continuous
 62
   250
420
  2367521
100
AcDbText
 10
224.7190965599536
 20
168.1080059455944
 30
0.0
 40
2.688166626294454
  1
仕様：
 41
0.9978878657023111
  7
MS Gothic
100
AcDbText
  0
TEXT
  5
69
330
1F
100
AcDbEntity
  8
外枠
  6
Continuous
 62
   250
420
  2367521
100
AcDbText
 10
224.7190965599536
 20
44.16660664327048
 30
0.0
 40
2.688166626294454
  1
縮尺：
 41
0.9939999262491861
  7
MS Gothic
100
AcDbText
  0
TEXT
  5
6A
330
1F
100
AcDbEntity
  8
外枠
  6
Continuous
 62
   250
420
  2367521
100
AcDbText
 10
250.2379519709696
 20
40.59738467878129
 30
0.0
 40
2.150533301035563
  1
1/1
 41
1.000003814697266
  7
MS Gothic
100
AcDbText
  0
TEXT
  5
6B
330
1F
100
AcDbEntity
  8
外枠
  6
Continuous
 62
   250
420
  2367521
100
AcDbText
 10
232.7757967427735
 20
181.9845273775436
 30
0.0
 40
2.688166626294454
  1
巻上見切　MAL-1T (S)
 41
1.000314102172851
  7
MS Gothic
100
AcDbText
  0
TEXT
  5
6C
330
1F
100
AcDbEntity
  8
外枠
  6
Continuous
 62
   250
420
  2367521
100
AcDbText
 10
226.1633020978884
 20
24.25683874973963
 30
0.0
 40
2.553758294979732
  1
ヤスダインテリアサプライ株式会社
 41
1.0194908945184
  7
MS Gothic
100
AcDbText
  0
TEXT
  5
6D
330
1F
100
AcDbEntity
  8
外枠
  6
Continuous
 62
   250
420
  2367521
100
AcDbText
 10
227.7635273953072
 20
161.7763665048245
 30
0.0
 40
2.150533301035563
  1
材質
 41
1.028502464294433
  7
MS Gothic
100
AcDbText
  0
TEXT
  5
6E
330
1F
100
AcDbEntity
  8
外枠
  6
Continuous
 62
   250
420
  2367521
100
AcDbText
 10
232.7757967427735
 20
156.199681315683
 30
0.0
 40
2.016124969720841
  1
アルミ押出形材（A6063S-T5）/
 41
1.030580357142857
  7
MS Gothic
100
AcDbText
  0
TEXT
  5
6F
330
1F
100
AcDbEntity
  8
外枠
  6
Continuous
 62
   250
420
  2367521
100
AcDbText
 10
232.7757967427735
 20
151.9663480459279
 30
0.0
 40
2.016124969720841
  1
シルバー仕上（アルマイト）/
 41
1.002825777030285
  7
MS Gothic
100
AcDbText
  0
TEXT
  5
70
330
1F
100
AcDbEntity
  8
外枠
  6
Continuous
 62
   250
420
  2367521
100
AcDbText
 10
232.7757967427735
 20
147.7330147761729
 30
0.0
 40
2.016124969720841
  1
アクリル系両面テープ
 41
1.027643432617187
  7
MS Gothic
100
AcDbText
  0
LWPOLYLINE
  5
71
330
1F
100
AcDbEntity
  8
ISS138金台
  6
Continuous
 62
   250
420
  2367521
370
    25
100
AcDbPolyline
 90
      109
 70
     0
 43
0.0
 10
120.9498829796576
 20
92.9438516857206
 10
121.0126806098722
 20
98.95447739229793
 10
120.821822322808
 20
99.13968356966507
 10
121.0162010667692
 20
99.3400696987899
 10
121.1499030673925
 20
112.1441329220195
 10
121.1550599446208
 20
112.246344597188
 10
121.170218364532
 20
112.3456064093908
 10
121.1948507968878
 20
112.441412360236
 10
121.2284835410658
 20
112.5332672172549
 10
121.2705890668278
 20
112.6206542161324
 10
121.3206936735514
 20
112.703088890323
 10
121.3782590650751
 20
112.7800652414347
 10
121.4428007748534
 20
112.8510557392292
 10
121.5138128044944
 20
112.9155866830843
 10
121.5908106874526
 20
112.9731520746079
 10
121.6732668934896
 20
113.0232243835619
 10
121.76069695606
 20
113.0653299093238
 10
121.8525841108486
 20
113.0989626535019
 10
121.94844389131
 20
113.1235950858576
 10
122.047759533129
 20
113.1387427398456
 10
122.1500358038368
 20
113.1439103829972
 10
122.6499191513641
 20
113.1439103829972
 10
122.7521846561487
 20
113.1387427398456
 10
122.8514895320445
 20
113.1235950858576
 10
122.9473385465826
 20
113.0989626535019
 10
123.0392041695248
 20
113.0653406752471
 10
123.1266019343254
 20
113.0232351494851
 10
123.2090258425928
 20
112.9731520746079
 10
123.285980661858
 20
112.9155866830843
 10
123.3569603937293
 20
112.8510557392292
 10
123.4214913375844
 20
112.7800652414347
 10
123.4790136654152
 20
112.703088890323
 10
123.5290752084459
 20
112.6206542161324
 10
123.5711592023613
 20
112.5332672172549
 10
123.6047704146929
 20
112.441412360236
 10
123.6293813152022
 20
112.3456064093908
 10
123.6445289691902
 20
112.246344597188
 10
123.6496858464185
 20
112.1441329220195
 10
123.9019314277539
 20
107.2119512774791
 10
123.9090477030105
 20
107.2044366630629
 10
123.9164869559641
 20
107.1972773241133
 10
123.9242491866147
 20
107.1904624947072
 10
123.9323020971925
 20
107.1840460044607
 10
123.9406887513906
 20
107.1780278533737
 10
123.9493553195926
 20
107.1724188073697
 10
123.9582802699523
 20
107.1672726960646
 10
123.9674959002393
 20
107.1625572216888
 10
123.9769591467605
 20
107.1583369797817
 10
123.9866807754394
 20
107.1546227362665
 10
123.9966500203526
 20
107.1514144911432
 10
124.0068453496537
 20
107.1487445421816
 10
124.0172559974195
 20
107.1466451871513
 10
124.0278927295731
 20
107.1451164260523
 10
124.0387124824216
 20
107.1441797907311
 10
124.0497367878116
 20
107.1438675789573
 10
124.149579959869
 20
107.1438675789573
 10
124.2007826907623
 20
107.1464514005331
 10
124.2504781924031
 20
107.1540198445655
 10
124.2984403804035
 20
107.1663468266666
 10
124.3444216385291
 20
107.1831847306021
 10
124.3881528186992
 20
107.2042428764447
 10
124.4293970706025
 20
107.2292951798065
 10
124.4679067780049
 20
107.25808325853
 10
124.5034127928254
 20
107.2903487304575
 10
124.5356890306761
 20
107.3258655112012
 10
124.5644663434763
 20
107.3643536867571
 10
124.5895078809149
 20
107.4055656408907
 10
124.6105552608343
 20
107.4492537573678
 10
124.6273501010768
 20
107.4951811858773
 10
124.6396663172547
 20
107.5430680124151
 10
124.6472347612871
 20
107.59267738667
 10
124.6498185828629
 20
107.6437509264845
 10
124.6498185828629
 20
113.1439103829972
 10
124.6446617056346
 20
113.2461220581657
 10
124.6295032857233
 20
113.345405402215
 10
124.6048708533676
 20
113.4412328849066
 10
124.5712381091895
 20
113.5330985078488
 10
124.5291325834276
 20
113.6205178044959
 10
124.4790387426272
 20
113.702974010533
 10
124.4214625851803
 20
113.7799826594144
 10
124.356920875402
 20
113.8510054549786
 10
124.285908845761
 20
113.9155794625266
 10
124.2089109628028
 20
113.9731663858968
 10
124.1264439908425
 20
114.0232709926204
 10
124.0390246941954
 20
114.0653980502288
 10
123.9471267734835
 20
114.0990523262533
 10
123.8512777589454
 20
114.1237062904555
 10
123.7519621171264
 20
114.1388647103668
 10
123.6496858464185
 20
114.1440323535183
 10
121.1499030673925
 20
114.1440323535183
 10
120.1497810968714
 20
114.1440323535183
 10
120.1497810968714
 20
113.1439103829972
 10
120.1497810968714
 20
92.14374980293441
 10
120.2316128793609
 20
92.14788391745566
 10
120.3110653928161
 20
92.16001711293858
 10
120.3877618299238
 20
92.17974028430035
 10
120.4612715537547
 20
92.20665509238137
 10
120.5312177569956
 20
92.24036319802204
 10
120.5971913345638
 20
92.28044473021632
 10
120.6587831813764
 20
92.32652288165102
 10
120.7155949582739
 20
92.37816701539688
 10
120.7672283260965
 20
92.43500032414077
 10
120.8132849456848
 20
92.49659217095339
 10
120.8533449460325
 20
92.56256574852159
 10
120.8870315198267
 20
92.63250118583932
 10
120.9139247960613
 20
92.70600014374699
 10
120.9336372014998
 20
92.78266428308497
 10
120.9457488651363
 20
92.86208449877046
 10
120.9498829796576
 20
92.9438516857206
  0
LINE
  5
72
330
1F
100
AcDbEntity
  8
ISS138金台
  6
Continuous
 62
   250
420
  2367521
370
    13
100
AcDbLine
 10
126.8501472071795
 20
114.143924694286
 30
0.0
 11
131.8550095994619
 21
114.143924694286
 31
0.0
  0
LINE
  5
73
330
1F
100
AcDbEntity
  8
ISS138金台
  6
Continuous
 62
   250
420
  2367521
370
    13
100
AcDbLine
 10
131.347870019676
 20
107.1438352811876
 30
0.0
 11
131.347870019676
 21
113.89424140268
 31
0.0
  0
LINE
  5
74
330
1F
100
AcDbEntity
  8
ISS138金台
  6
Continuous
 62
   250
420
  2367521
370
    13
100
AcDbLine
 10
131.8550095994619
 20
107.1438352811876
 30
0.0
 11
126.849802697636
 21
107.1438352811876
 31
0.0
  0
LINE
  5
75
330
1F
100
AcDbEntity
  8
ISS138金台
  6
Continuous
 62
   250
420
  2367521
370
    13
100
AcDbLine
 10
119.1501651247422
 20
114.143924694286
 30
0.0
 11
109.2060694082021
 21
114.143924694286
 31
0.0
  0
LINE
  5
76
330
1F
100
AcDbEntity
  8
ISS138金台
  6
Continuous
 62
   250
420
  2367521
370
    13
100
AcDbLine
 10
119.6156082838489
 20
113.4983030439616
 30
0.0
 11
115.3282946750066
 21
113.4983030439616
 31
0.0
  0
LINE
  5
77
330
1F
100
AcDbEntity
  8
ISS138金台
  6
Continuous
 62
   250
420
  2367521
370
    13
100
AcDbLine
 10
119.1501651247422
 20
97.49824631811256
 30
0.0
 11
115.3285207593945
 21
97.49824631811256
 31
0.0
  0
LINE
  5
78
330
1F
100
AcDbEntity
  8
ISS138金台
  6
Continuous
 62
   250
420
  2367521
370
    13
100
AcDbLine
 10
109.7128537125213
 20
92.14390052585966
 30
0.0
 11
109.7128537125213
 21
113.894058381985
 31
0.0
  0
LINE
  5
79
330
1F
100
AcDbEntity
  8
ISS138金台
  6
Continuous
 62
   250
420
  2367521
370
    13
100
AcDbLine
 10
115.3282085476207
 20
97.49824631811256
 30
0.0
 11
115.3282085476207
 21
113.4981307891899
 31
0.0
  0
LINE
  5
7A
330
1F
100
AcDbEntity
  8
ISS138金台
  6
Continuous
 62
   250
420
  2367521
370
    13
100
AcDbLine
 10
119.1501651247422
 20
92.14390052585966
 30
0.0
 11
109.2057141327354
 21
92.14390052585966
 31
0.0
  0
LINE
  5
7B
330
1F
100
AcDbEntity
  8
ISS138金台
  6
Continuous
 62
   250
420
  2367521
370
    13
100
AcDbLine
 10
123.6498042715741
 20
91.143800087185
 30
0.0
 11
123.6498042715741
 21
86.13858780239752
 31
0.0
  0
LINE
  5
7C
330
1F
100
AcDbEntity
  8
ISS138金台
  6
Continuous
 62
   250
420
  2367521
370
    13
100
AcDbLine
 10
121.1497092807743
 20
91.143800087185
 30
0.0
 11
121.1497092807743
 21
86.13858780239752
 31
0.0
  0
HATCH
  5
7D
330
1F
100
AcDbEntity
  8
ISS138金台
  6
Continuous
 62
   250
420
  2367521
370
    13
100
AcDbHatch
 10
0.0
 20
0.0
 30
0.0
210
0.0
220
0.0
230
1.0
  2
SOLID
 70
     1
 71
     0
 91
        1
 92
        3
 72
     0
 73
     1
 93
       67
 10
131.0981221325306
 20
114.143924694286
 10
131.0994140433185
 20
114.1183986903019
 10
131.1032036482963
 20
114.0935832372513
 10
131.109350990462
 20
114.0696613558288
 10
131.1177484105833
 20
114.0467084074973
 10
131.1282774835046
 20
114.024875115182
 10
131.1407767203774
 20
114.0042799040384
 10
131.1551492278927
 20
113.9850519651453
 10
131.1712765808948
 20
113.9673204895816
 10
131.1890188223818
 20
113.9511931365794
 10
131.2082467612749
 20
113.9368206290641
 10
131.2288419724185
 20
113.9242998603448
 10
131.2506752647338
 20
113.9137815533468
 10
131.2736174471421
 20
113.9053841332255
 10
131.2975500944877
 20
113.8992260251366
 10
131.3223547816152
 20
113.895447186082
 10
131.3478915515225
 20
113.8941552752941
 10
131.3478915515225
 20
113.8941552752941
 10
131.3734821510459
 20
113.895447186082
 10
131.3983406677896
 20
113.8992367910598
 10
131.4223271447514
 20
113.9053841332255
 10
131.4453016249293
 20
113.9137815533468
 10
131.4671887468608
 20
113.9243106262681
 10
131.4877947239276
 20
113.9368206290641
 10
131.5070549605904
 20
113.9511931365794
 10
131.5248079680007
 20
113.9673204895816
 10
131.5409460869261
 20
113.9850519651453
 10
131.5553293603645
 20
114.0042799040384
 10
131.5678501290838
 20
114.024875115182
 10
131.5783684360819
 20
114.0467084074973
 10
131.5867766221264
 20
114.0696613558288
 10
131.5929347302153
 20
114.0935940031745
 10
131.5967135692699
 20
114.1183879243787
 10
131.5980054800578
 20
114.143924694286
 10
131.5980054800578
 20
114.143924694286
 10
131.5967135692699
 20
114.1695260597327
 10
131.5929347302153
 20
114.1943738105531
 10
131.5867766221264
 20
114.2183710534381
 10
131.5783684360819
 20
114.2413455336161
 10
131.5678501290838
 20
114.2632218896243
 10
131.5553293603645
 20
114.2838386326144
 10
131.5409353210028
 20
114.3030988692772
 10
131.5248079680007
 20
114.3208411107642
 10
131.5070549605904
 20
114.3369792296896
 10
131.4877947239276
 20
114.3513732690513
 10
131.4671779809376
 20
114.3638940377706
 10
131.4453123908526
 20
114.3744123447686
 10
131.4223271447514
 20
114.3828205308131
 10
131.3983406677896
 20
114.3889678729789
 10
131.3734929169692
 20
114.3927574779567
 10
131.3478915515225
 20
114.3940493887446
 10
131.3478915515225
 20
114.3940493887446
 10
131.3223547816152
 20
114.3927574779567
 10
131.2975500944877
 20
114.3889786389021
 10
131.2736174471421
 20
114.3828097648899
 10
131.2506752647338
 20
114.3744123447686
 10
131.2288312064953
 20
114.3638940377706
 10
131.2082467612749
 20
114.3513732690513
 10
131.1890080564586
 20
114.3369792296896
 10
131.1712765808948
 20
114.3208411107642
 10
131.1551599938159
 20
114.3030881033539
 10
131.1407767203774
 20
114.2838386326144
 10
131.1282667175813
 20
114.2632111237011
 10
131.1177484105833
 20
114.2413455336161
 10
131.109350990462
 20
114.2183602875149
 10
131.103192882373
 20
114.1943738105531
 10
131.0994140433185
 20
114.1695260597327
 97
        0
 75
     1
 76
     1
 98
        0
  0
LWPOLYLINE
  5
7E
330
1F
100
AcDbEntity
  8
ISS138金台
  6
Continuous
 62
   250
420
  2367521
370
    13
100
AcDbPolyline
 90
       68
 70
     0
 43
0.0
 10
131.0981221325306
 20
114.143924694286
 10
131.0994140433185
 20
114.1183986903019
 10
131.1032036482963
 20
114.0935832372513
 10
131.109350990462
 20
114.0696613558288
 10
131.1177484105833
 20
114.0467084074973
 10
131.1282774835046
 20
114.024875115182
 10
131.1407767203774
 20
114.0042799040384
 10
131.1551492278927
 20
113.9850519651453
 10
131.1712765808948
 20
113.9673204895816
 10
131.1890188223818
 20
113.9511931365794
 10
131.2082467612749
 20
113.9368206290641
 10
131.2288419724185
 20
113.9242998603448
 10
131.2506752647338
 20
113.9137815533468
 10
131.2736174471421
 20
113.9053841332255
 10
131.2975500944877
 20
113.8992260251366
 10
131.3223547816152
 20
113.895447186082
 10
131.3478915515225
 20
113.8941552752941
 10
131.3478915515225
 20
113.8941552752941
 10
131.3734821510459
 20
113.895447186082
 10
131.3983406677896
 20
113.8992367910598
 10
131.4223271447514
 20
113.9053841332255
 10
131.4453016249293
 20
113.9137815533468
 10
131.4671887468608
 20
113.9243106262681
 10
131.4877947239276
 20
113.9368206290641
 10
131.5070549605904
 20
113.9511931365794
 10
131.5248079680007
 20
113.9673204895816
 10
131.5409460869261
 20
113.9850519651453
 10
131.5553293603645
 20
114.0042799040384
 10
131.5678501290838
 20
114.024875115182
 10
131.5783684360819
 20
114.0467084074973
 10
131.5867766221264
 20
114.0696613558288
 10
131.5929347302153
 20
114.0935940031745
 10
131.5967135692699
 20
114.1183879243787
 10
131.5980054800578
 20
114.143924694286
 10
131.5980054800578
 20
114.143924694286
 10
131.5967135692699
 20
114.1695260597327
 10
131.5929347302153
 20
114.1943738105531
 10
131.5867766221264
 20
114.2183710534381
 10
131.5783684360819
 20
114.2413455336161
 10
131.5678501290838
 20
114.2632218896243
 10
131.5553293603645
 20
114.2838386326144
 10
131.5409353210028
 20
114.3030988692772
 10
131.5248079680007
 20
114.3208411107642
 10
131.5070549605904
 20
114.3369792296896
 10
131.4877947239276
 20
114.3513732690513
 10
131.4671779809376
 20
114.3638940377706
 10
131.4453123908526
 20
114.3744123447686
 10
131.4223271447514
 20
114.3828205308131
 10
131.3983406677896
 20
114.3889678729789
 10
131.3734929169692
 20
114.3927574779567
 10
131.3478915515225
 20
114.3940493887446
 10
131.3478915515225
 20
114.3940493887446
 10
131.3223547816152
 20
114.3927574779567
 10
131.2975500944877
 20
114.3889786389021
 10
131.2736174471421
 20
114.3828097648899
 10
131.2506752647338
 20
114.3744123447686
 10
131.2288312064953
 20
114.3638940377706
 10
131.2082467612749
 20
114.3513732690513
 10
131.1890080564586
 20
114.3369792296896
 10
131.1712765808948
 20
114.3208411107642
 10
131.1551599938159
 20
114.3030881033539
 10
131.1407767203774
 20
114.2838386326144
 10
131.1282667175813
 20
114.2632111237011
 10
131.1177484105833
 20
114.2413455336161
 10
131.109350990462
 20
114.2183602875149
 10
131.103192882373
 20
114.1943738105531
 10
131.0994140433185
 20
114.1695260597327
 10
131.0981221325306
 20
114.143924694286
  0
HATCH
  5
7F
330
1F
100
AcDbEntity
  8
ISS138金台
  6
Continuous
 62
   250
420
  2367521
370
    13
100
AcDbHatch
 10
0.0
 20
0.0
 30
0.0
210
0.0
220
0.0
230
1.0
  2
SOLID
 70
     1
 71
     0
 91
        1
 92
        3
 72
     0
 73
     1
 93
       67
 10
120.8995845863158
 20
86.64588887103187
 10
120.9008657311804
 20
86.62034133520137
 10
120.9046661020814
 20
86.5955366480739
 10
120.9108242101704
 20
86.57158246888179
 10
120.9192216302917
 20
86.54861337166545
 10
120.929750703213
 20
86.52675316454204
 10
120.942260706009
 20
86.50613103859035
 10
120.9566547453708
 20
86.4868761848892
 10
120.9727820983729
 20
86.46910164563249
 10
120.9905458717064
 20
86.45294737782226
 10
121.0097953424459
 20
86.43853718957567
 10
121.030412085436
 20
86.42599488900993
 10
121.052277675521
 20
86.41545505016539
 10
121.0752736875454
 20
86.40703071523603
 10
121.0992601645072
 20
86.40085645826224
 10
121.1241079153276
 20
86.39706147032283
 10
121.1497092807743
 20
86.39576955953493
 10
121.1497092807743
 20
86.39576955953493
 10
121.1752460506816
 20
86.39706147032283
 10
121.2000399718858
 20
86.40086184122387
 10
121.2239833851547
 20
86.40703071523603
 10
121.2469363334862
 20
86.41545505016539
 10
121.2687588598783
 20
86.42600027197153
 10
121.2893540710219
 20
86.4385425725373
 10
121.308582009915
 20
86.45294737782226
 10
121.3263134854787
 20
86.46910164563249
 10
121.3424300725577
 20
86.48687080192758
 10
121.3568133459962
 20
86.50613103859035
 10
121.3693233487922
 20
86.52675316454204
 10
121.3798416557903
 20
86.54861337166545
 10
121.3882390759116
 20
86.57158246888179
 10
121.3943971840005
 20
86.5955366480739
 10
121.3981760230551
 20
86.62034671816299
 10
121.399467933843
 20
86.64588887103187
 10
121.399467933843
 20
86.64588887103187
 10
121.3981760230551
 20
86.67142564093916
 10
121.3943971840005
 20
86.69624109398987
 10
121.3882390759116
 20
86.72019527318197
 10
121.3798416557903
 20
86.74316437039832
 10
121.3693233487922
 20
86.76502457752173
 10
121.3568133459962
 20
86.7856467034734
 10
121.3424408384809
 20
86.80490694013619
 10
121.3263134854787
 20
86.82267071346965
 10
121.3085712439918
 20
86.83882498127988
 10
121.2893540710219
 20
86.85324055248807
 10
121.2687588598783
 20
86.86578285305384
 10
121.246925567563
 20
86.87632807485998
 10
121.2239726192315
 20
86.88474702682774
 10
121.2000399718858
 20
86.8909159008399
 10
121.1752460506816
 20
86.89471627174095
 10
121.1497092807743
 20
86.89600818252883
 10
121.1497092807743
 20
86.89600818252883
 10
121.1241186812509
 20
86.89471088877931
 10
121.099249398584
 20
86.89092128380152
 10
121.0752736875454
 20
86.88474702682774
 10
121.052277675521
 20
86.87632269189837
 10
121.0304013195127
 20
86.86578285305384
 10
121.0097953424459
 20
86.85324055248807
 10
120.9905351057831
 20
86.8388303642415
 10
120.9727928642961
 20
86.82267071346965
 10
120.9566547453708
 20
86.80490694013619
 10
120.942260706009
 20
86.78564132051179
 10
120.9297399372897
 20
86.76502457752173
 10
120.9192216302917
 20
86.7431589874367
 10
120.9108134442471
 20
86.72019527318197
 10
120.9046553361582
 20
86.69624109398987
 10
120.9008764971036
 20
86.67143102390077
 97
        0
 75
     1
 76
     1
 98
        0
  0
LWPOLYLINE
  5
80
330
1F
100
AcDbEntity
  8
ISS138金台
  6
Continuous
 62
   250
420
  2367521
370
    13
100
AcDbPolyline
 90
       68
 70
     0
 43
0.0
 10
120.8995845863158
 20
86.64588887103187
 10
120.9008657311804
 20
86.62034133520137
 10
120.9046661020814
 20
86.5955366480739
 10
120.9108242101704
 20
86.57158246888179
 10
120.9192216302917
 20
86.54861337166545
 10
120.929750703213
 20
86.52675316454204
 10
120.942260706009
 20
86.50613103859035
 10
120.9566547453708
 20
86.4868761848892
 10
120.9727820983729
 20
86.46910164563249
 10
120.9905458717064
 20
86.45294737782226
 10
121.0097953424459
 20
86.43853718957567
 10
121.030412085436
 20
86.42599488900993
 10
121.052277675521
 20
86.41545505016539
 10
121.0752736875454
 20
86.40703071523603
 10
121.0992601645072
 20
86.40085645826224
 10
121.1241079153276
 20
86.39706147032283
 10
121.1497092807743
 20
86.39576955953493
 10
121.1497092807743
 20
86.39576955953493
 10
121.1752460506816
 20
86.39706147032283
 10
121.2000399718858
 20
86.40086184122387
 10
121.2239833851547
 20
86.40703071523603
 10
121.2469363334862
 20
86.41545505016539
 10
121.2687588598783
 20
86.42600027197153
 10
121.2893540710219
 20
86.4385425725373
 10
121.308582009915
 20
86.45294737782226
 10
121.3263134854787
 20
86.46910164563249
 10
121.3424300725577
 20
86.48687080192758
 10
121.3568133459962
 20
86.50613103859035
 10
121.3693233487922
 20
86.52675316454204
 10
121.3798416557903
 20
86.54861337166545
 10
121.3882390759116
 20
86.57158246888179
 10
121.3943971840005
 20
86.5955366480739
 10
121.3981760230551
 20
86.62034671816299
 10
121.399467933843
 20
86.64588887103187
 10
121.399467933843
 20
86.64588887103187
 10
121.3981760230551
 20
86.67142564093916
 10
121.3943971840005
 20
86.69624109398987
 10
121.3882390759116
 20
86.72019527318197
 10
121.3798416557903
 20
86.74316437039832
 10
121.3693233487922
 20
86.76502457752173
 10
121.3568133459962
 20
86.7856467034734
 10
121.3424408384809
 20
86.80490694013619
 10
121.3263134854787
 20
86.82267071346965
 10
121.3085712439918
 20
86.83882498127988
 10
121.2893540710219
 20
86.85324055248807
 10
121.2687588598783
 20
86.86578285305384
 10
121.246925567563
 20
86.87632807485998
 10
121.2239726192315
 20
86.88474702682774
 10
121.2000399718858
 20
86.8909159008399
 10
121.1752460506816
 20
86.89471627174095
 10
121.1497092807743
 20
86.89600818252883
 10
121.1497092807743
 20
86.89600818252883
 10
121.1241186812509
 20
86.89471088877931
 10
121.099249398584
 20
86.89092128380152
 10
121.0752736875454
 20
86.88474702682774
 10
121.052277675521
 20
86.87632269189837
 10
121.0304013195127
 20
86.86578285305384
 10
121.0097953424459
 20
86.85324055248807
 10
120.9905351057831
 20
86.8388303642415
 10
120.9727928642961
 20
86.82267071346965
 10
120.9566547453708
 20
86.80490694013619
 10
120.942260706009
 20
86.78564132051179
 10
120.9297399372897
 20
86.76502457752173
 10
120.9192216302917
 20
86.7431589874367
 10
120.9108134442471
 20
86.72019527318197
 10
120.9046553361582
 20
86.69624109398987
 10
120.9008764971036
 20
86.67143102390077
 10
120.8995845863158
 20
86.64588887103187
  0
HATCH
  5
81
330
1F
100
AcDbEntity
  8
ISS138金台
  6
Continuous
 62
   250
420
  2367521
370
    13
100
AcDbHatch
 10
0.0
 20
0.0
 30
0.0
210
0.0
220
0.0
230
1.0
  2
SOLID
 70
     1
 71
     0
 91
        1
 92
        3
 72
     0
 73
     1
 93
       67
 10
109.4632780801476
 20
114.143924694286
 10
109.4645592250122
 20
114.1183986903019
 10
109.46834882999
 20
114.0935832372513
 10
109.4744961721557
 20
114.0696613558288
 10
109.4829043582003
 20
114.0467084074973
 10
109.4934334311216
 20
114.024875115182
 10
109.5059434339176
 20
114.0042799040384
 10
109.5203051755096
 20
113.9850519651453
 10
109.5364325285118
 20
113.9673204895816
 10
109.5541747699988
 20
113.9511931365794
 10
109.5734027088919
 20
113.9368206290641
 10
109.5939979200355
 20
113.9242998603448
 10
109.6158312123508
 20
113.9137815533468
 10
109.6387733947591
 20
113.9053841332255
 10
109.6627060421047
 20
113.8992260251366
 10
109.6875107292322
 20
113.895447186082
 10
109.7130474991395
 20
113.8941552752941
 10
109.7130474991395
 20
113.8941552752941
 10
109.7386488645861
 20
113.895447186082
 10
109.7634966154065
 20
113.8992367910598
 10
109.7874830923683
 20
113.9053841332255
 10
109.8104683384695
 20
113.9137815533468
 10
109.8323446944778
 20
113.9243106262681
 10
109.8529614374679
 20
113.9368206290641
 10
109.8722109082074
 20
113.9511931365794
 10
109.8899639156177
 20
113.9673204895816
 10
109.906102034543
 20
113.9850519651453
 10
109.9204853079815
 20
114.0042799040384
 10
109.9330060767008
 20
114.024875115182
 10
109.9435243836989
 20
114.0467084074973
 10
109.9519325697434
 20
114.0696613558288
 10
109.9580906778323
 20
114.0935940031745
 10
109.9618695168869
 20
114.1183879243787
 10
109.9631614276748
 20
114.143924694286
 10
109.9631614276748
 20
114.143924694286
 10
109.9618695168869
 20
114.1695260597327
 10
109.9580906778323
 20
114.1943738105531
 10
109.9519218038202
 20
114.2183710534381
 10
109.9435243836989
 20
114.2413455336161
 10
109.9330060767008
 20
114.2632218896243
 10
109.9204853079815
 20
114.2838386326144
 10
109.9060912686198
 20
114.3030988692772
 10
109.8899639156177
 20
114.3208411107642
 10
109.8722109082074
 20
114.3369792296896
 10
109.8529506715446
 20
114.3513732690513
 10
109.8323339285546
 20
114.3638940377706
 10
109.8104683384695
 20
114.3744123447686
 10
109.7874830923683
 20
114.3828205308131
 10
109.7634966154065
 20
114.3889678729789
 10
109.7386488645861
 20
114.3927574779567
 10
109.7130474991395
 20
114.3940493887446
 10
109.7130474991395
 20
114.3940493887446
 10
109.6875107292322
 20
114.3927574779567
 10
109.6627060421047
 20
114.3889786389021
 10
109.6387733947591
 20
114.3828097648899
 10
109.6158312123508
 20
114.3744123447686
 10
109.5939979200355
 20
114.3638940377706
 10
109.5733919429687
 20
114.3513732690513
 10
109.5541747699988
 20
114.3369792296896
 10
109.5364325285118
 20
114.3208411107642
 10
109.5203159414329
 20
114.3030881033539
 10
109.5059326679944
 20
114.2838386326144
 10
109.4934226651983
 20
114.2632111237011
 10
109.4829043582003
 20
114.2413455336161
 10
109.474506938079
 20
114.2183602875149
 10
109.46834882999
 20
114.1943738105531
 10
109.4645699909355
 20
114.1695260597327
 97
        0
 75
     1
 76
     1
 98
        0
  0
LWPOLYLINE
  5
82
330
1F
100
AcDbEntity
  8
ISS138金台
  6
Continuous
 62
   250
420
  2367521
370
    13
100
AcDbPolyline
 90
       68
 70
     0
 43
0.0
 10
109.4632780801476
 20
114.143924694286
 10
109.4645592250122
 20
114.1183986903019
 10
109.46834882999
 20
114.0935832372513
 10
109.4744961721557
 20
114.0696613558288
 10
109.4829043582003
 20
114.0467084074973
 10
109.4934334311216
 20
114.024875115182
 10
109.5059434339176
 20
114.0042799040384
 10
109.5203051755096
 20
113.9850519651453
 10
109.5364325285118
 20
113.9673204895816
 10
109.5541747699988
 20
113.9511931365794
 10
109.5734027088919
 20
113.9368206290641
 10
109.5939979200355
 20
113.9242998603448
 10
109.6158312123508
 20
113.9137815533468
 10
109.6387733947591
 20
113.9053841332255
 10
109.6627060421047
 20
113.8992260251366
 10
109.6875107292322
 20
113.895447186082
 10
109.7130474991395
 20
113.8941552752941
 10
109.7130474991395
 20
113.8941552752941
 10
109.7386488645861
 20
113.895447186082
 10
109.7634966154065
 20
113.8992367910598
 10
109.7874830923683
 20
113.9053841332255
 10
109.8104683384695
 20
113.9137815533468
 10
109.8323446944778
 20
113.9243106262681
 10
109.8529614374679
 20
113.9368206290641
 10
109.8722109082074
 20
113.9511931365794
 10
109.8899639156177
 20
113.9673204895816
 10
109.906102034543
 20
113.9850519651453
 10
109.9204853079815
 20
114.0042799040384
 10
109.9330060767008
 20
114.024875115182
 10
109.9435243836989
 20
114.0467084074973
 10
109.9519325697434
 20
114.0696613558288
 10
109.9580906778323
 20
114.0935940031745
 10
109.9618695168869
 20
114.1183879243787
 10
109.9631614276748
 20
114.143924694286
 10
109.9631614276748
 20
114.143924694286
 10
109.9618695168869
 20
114.1695260597327
 10
109.9580906778323
 20
114.1943738105531
 10
109.9519218038202
 20
114.2183710534381
 10
109.9435243836989
 20
114.2413455336161
 10
109.9330060767008
 20
114.2632218896243
 10
109.9204853079815
 20
114.2838386326144
 10
109.9060912686198
 20
114.3030988692772
 10
109.8899639156177
 20
114.3208411107642
 10
109.8722109082074
 20
114.3369792296896
 10
109.8529506715446
 20
114.3513732690513
 10
109.8323339285546
 20
114.3638940377706
 10
109.8104683384695
 20
114.3744123447686
 10
109.7874830923683
 20
114.3828205308131
 10
109.7634966154065
 20
114.3889678729789
 10
109.7386488645861
 20
114.3927574779567
 10
109.7130474991395
 20
114.3940493887446
 10
109.7130474991395
 20
114.3940493887446
 10
109.6875107292322
 20
114.3927574779567
 10
109.6627060421047
 20
114.3889786389021
 10
109.6387733947591
 20
114.3828097648899
 10
109.6158312123508
 20
114.3744123447686
 10
109.5939979200355
 20
114.3638940377706
 10
109.5733919429687
 20
114.3513732690513
 10
109.5541747699988
 20
114.3369792296896
 10
109.5364325285118
 20
114.3208411107642
 10
109.5203159414329
 20
114.3030881033539
 10
109.5059326679944
 20
114.2838386326144
 10
109.4934226651983
 20
114.2632111237011
 10
109.4829043582003
 20
114.2413455336161
 10
109.474506938079
 20
114.2183602875149
 10
109.46834882999
 20
114.1943738105531
 10
109.4645699909355
 20
114.1695260597327
 10
109.4632780801476
 20
114.143924694286
  0
HATCH
  5
83
330
1F
100
AcDbEntity
  8
ISS138金台
  6
Continuous
 62
   250
420
  2367521
370
    13
100
AcDbHatch
 10
0.0
 20
0.0
 30
0.0
210
0.0
220
0.0
230
1.0
  2
SOLID
 70
     1
 71
     0
 91
        1
 92
        3
 72
     0
 73
     1
 93
       67
 10
115.0784068308591
 20
113.4980015981111
 10
115.0796879757238
 20
113.4724648282039
 10
115.0834883466248
 20
113.4476816729229
 10
115.0896356887905
 20
113.4237597915004
 10
115.0980331089118
 20
113.4008391409386
 10
115.1085621818331
 20
113.379038146393
 10
115.1210614187059
 20
113.3584752330191
 10
115.1354339262212
 20
113.3392795918957
 10
115.1515612792233
 20
113.3215696481784
 10
115.1692927547871
 20
113.305474592946
 10
115.1885314596034
 20
113.2911343832004
 10
115.2091159048238
 20
113.2786459122508
 10
115.2309491971391
 20
113.2681599030224
 10
115.2539021454706
 20
113.2597840147476
 10
115.2778347928163
 20
113.2536474385051
 10
115.3026394799437
 20
113.2498685994506
 10
115.328176249851
 20
113.2485874545859
 10
115.328176249851
 20
113.2485874545859
 10
115.3537668493745
 20
113.2498793653738
 10
115.3786253661181
 20
113.2536582044284
 10
115.4026118430799
 20
113.2597840147476
 10
115.4255970891811
 20
113.2681706689457
 10
115.4474734451893
 20
113.278656678174
 10
115.4680794222562
 20
113.2911343832004
 10
115.4873396589189
 20
113.3054853588692
 10
115.5050926663292
 20
113.3215696481784
 10
115.5212200193313
 20
113.3392795918957
 10
115.5356140586931
 20
113.3584644670959
 10
115.5481348274124
 20
113.379038146393
 10
115.5586531344104
 20
113.4008391409386
 10
115.567061320455
 20
113.4237705574237
 10
115.5732194285439
 20
113.4476816729229
 10
115.5769982675985
 20
113.4724648282039
 10
115.5782901783863
 20
113.4980015981111
 10
115.5782901783863
 20
113.4980015981111
 10
115.5769982675985
 20
113.523656793174
 10
115.5732194285439
 20
113.5485476076873
 10
115.567061320455
 20
113.5725663824188
 10
115.5586531344104
 20
113.5955731603665
 10
115.5481455933356
 20
113.6174495163747
 10
115.5356140586931
 20
113.6380662593648
 10
115.5212200193313
 20
113.6573049641811
 10
115.5050926663292
 20
113.6750472056681
 10
115.4873288929957
 20
113.6911745586703
 10
115.4680901881794
 20
113.7055470661855
 10
115.4474626792661
 20
113.7180355371351
 10
115.4255970891811
 20
113.72854307821
 10
115.4026118430799
 20
113.7369189664848
 10
115.3786253661181
 20
113.7430663086505
 10
115.3537776152977
 20
113.746845147705
 10
115.328176249851
 20
113.7481262925697
 10
115.328176249851
 20
113.7481262925697
 10
115.3026394799437
 20
113.7468343817818
 10
115.2778455587395
 20
113.7430663086505
 10
115.2539021454706
 20
113.736929732408
 10
115.2309599630623
 20
113.72854307821
 10
115.209126670747
 20
113.7180463030584
 10
115.1885314596034
 20
113.7055470661855
 10
115.1693035207103
 20
113.6911745586703
 10
115.1515612792233
 20
113.6750579715913
 10
115.1354339262212
 20
113.6573157301043
 10
115.1210614187059
 20
113.6380662593648
 10
115.1085514159099
 20
113.6174495163747
 10
115.0980331089118
 20
113.5955731603665
 10
115.0896356887905
 20
113.5725663824188
 10
115.0834775807016
 20
113.5485583736105
 10
115.079698741647
 20
113.523656793174
 97
        0
 75
     1
 76
     1
 98
        0
  0
LWPOLYLINE
  5
84
330
1F
100
AcDbEntity
  8
ISS138金台
  6
Continuous
 62
   250
420
  2367521
370
    13
100
AcDbPolyline
 90
       68
 70
     0
 43
0.0
 10
115.0784068308591
 20
113.4980015981111
 10
115.0796879757238
 20
113.4724648282039
 10
115.0834883466248
 20
113.4476816729229
 10
115.0896356887905
 20
113.4237597915004
 10
115.0980331089118
 20
113.4008391409386
 10
115.1085621818331
 20
113.379038146393
 10
115.1210614187059
 20
113.3584752330191
 10
115.1354339262212
 20
113.3392795918957
 10
115.1515612792233
 20
113.3215696481784
 10
115.1692927547871
 20
113.305474592946
 10
115.1885314596034
 20
113.2911343832004
 10
115.2091159048238
 20
113.2786459122508
 10
115.2309491971391
 20
113.2681599030224
 10
115.2539021454706
 20
113.2597840147476
 10
115.2778347928163
 20
113.2536474385051
 10
115.3026394799437
 20
113.2498685994506
 10
115.328176249851
 20
113.2485874545859
 10
115.328176249851
 20
113.2485874545859
 10
115.3537668493745
 20
113.2498793653738
 10
115.3786253661181
 20
113.2536582044284
 10
115.4026118430799
 20
113.2597840147476
 10
115.4255970891811
 20
113.2681706689457
 10
115.4474734451893
 20
113.278656678174
 10
115.4680794222562
 20
113.2911343832004
 10
115.4873396589189
 20
113.3054853588692
 10
115.5050926663292
 20
113.3215696481784
 10
115.5212200193313
 20
113.3392795918957
 10
115.5356140586931
 20
113.3584644670959
 10
115.5481348274124
 20
113.379038146393
 10
115.5586531344104
 20
113.4008391409386
 10
115.567061320455
 20
113.4237705574237
 10
115.5732194285439
 20
113.4476816729229
 10
115.5769982675985
 20
113.4724648282039
 10
115.5782901783863
 20
113.4980015981111
 10
115.5782901783863
 20
113.4980015981111
 10
115.5769982675985
 20
113.523656793174
 10
115.5732194285439
 20
113.5485476076873
 10
115.567061320455
 20
113.5725663824188
 10
115.5586531344104
 20
113.5955731603665
 10
115.5481455933356
 20
113.6174495163747
 10
115.5356140586931
 20
113.6380662593648
 10
115.5212200193313
 20
113.6573049641811
 10
115.5050926663292
 20
113.6750472056681
 10
115.4873288929957
 20
113.6911745586703
 10
115.4680901881794
 20
113.7055470661855
 10
115.4474626792661
 20
113.7180355371351
 10
115.4255970891811
 20
113.72854307821
 10
115.4026118430799
 20
113.7369189664848
 10
115.3786253661181
 20
113.7430663086505
 10
115.3537776152977
 20
113.746845147705
 10
115.328176249851
 20
113.7481262925697
 10
115.328176249851
 20
113.7481262925697
 10
115.3026394799437
 20
113.7468343817818
 10
115.2778455587395
 20
113.7430663086505
 10
115.2539021454706
 20
113.736929732408
 10
115.2309599630623
 20
113.72854307821
 10
115.209126670747
 20
113.7180463030584
 10
115.1885314596034
 20
113.7055470661855
 10
115.1693035207103
 20
113.6911745586703
 10
115.1515612792233
 20
113.6750579715913
 10
115.1354339262212
 20
113.6573157301043
 10
115.1210614187059
 20
113.6380662593648
 10
115.1085514159099
 20
113.6174495163747
 10
115.0980331089118
 20
113.5955731603665
 10
115.0896356887905
 20
113.5725663824188
 10
115.0834775807016
 20
113.5485583736105
 10
115.079698741647
 20
113.523656793174
 10
115.0784068308591
 20
113.4980015981111
  0
HATCH
  5
85
330
1F
100
AcDbEntity
  8
ISS138金台
  6
Continuous
 62
   250
420
  2367521
370
    13
100
AcDbHatch
 10
0.0
 20
0.0
 30
0.0
210
0.0
220
0.0
230
1.0
  2
SOLID
 70
     1
 71
     0
 91
        1
 92
        3
 72
     0
 73
     1
 93
       67
 10
115.0784068308591
 20
97.6167898988246
 10
115.0796879757238
 20
97.59125312891734
 10
115.0834883466248
 20
97.56644844178987
 10
115.0896356887905
 20
97.54251579444423
 10
115.0980331089118
 20
97.51958437795919
 10
115.1085621818331
 20
97.49774031972063
 10
115.1210614187059
 20
97.47714510857703
 10
115.1354339262212
 20
97.45791716968395
 10
115.1515612792233
 20
97.44018569412017
 10
115.1692927547871
 20
97.42405834111801
 10
115.1885314596034
 20
97.40968583360277
 10
115.2091159048238
 20
97.39716506488347
 10
115.2309491971391
 20
97.3866467578854
 10
115.2539021454706
 20
97.37824933776412
 10
115.2778347928163
 20
97.37209122967519
 10
115.3026394799437
 20
97.36831239062062
 10
115.328176249851
 20
97.36702047983272
 10
115.328176249851
 20
97.36702047983272
 10
115.3537668493745
 20
97.36830162469738
 10
115.3786253661181
 20
97.37208046375196
 10
115.4026118430799
 20
97.37824933776412
 10
115.4255970891811
 20
97.3866467578854
 10
115.4474734451893
 20
97.39716506488347
 10
115.4680794222562
 20
97.40967506767953
 10
115.4873396589189
 20
97.42405834111801
 10
115.5050926663292
 20
97.44018569412017
 10
115.5212200193313
 20
97.45791716968395
 10
115.5356140586931
 20
97.47714510857703
 10
115.5481348274124
 20
97.49774031972063
 10
115.5586531344104
 20
97.51957361203596
 10
115.567061320455
 20
97.54252656036746
 10
115.5732194285439
 20
97.56645920771311
 10
115.5769982675985
 20
97.59125312891734
 10
115.5782901783863
 20
97.6167898988246
 10
115.5782901783863
 20
97.6167898988246
 10
115.5769982675985
 20
97.64238049834805
 10
115.5732194285439
 20
97.66724978101492
 10
115.567061320455
 20
97.69121472613026
 10
115.5586531344104
 20
97.71421073815469
 10
115.5481455933356
 20
97.7360763282397
 10
115.5356140586931
 20
97.75669307122976
 10
115.5212200193313
 20
97.77595330789255
 10
115.5050926663292
 20
97.79370631530279
 10
115.4873288929957
 20
97.80984443422818
 10
115.4680901881794
 20
97.8242384735899
 10
115.4474626792661
 20
97.8367592423092
 10
115.4255970891811
 20
97.84727754930726
 10
115.4026118430799
 20
97.85568573535178
 10
115.3786253661181
 20
97.86184384344071
 10
115.3537776152977
 20
97.86562268249529
 10
115.328176249851
 20
97.86691459328318
 10
115.328176249851
 20
97.86691459328318
 10
115.3026394799437
 20
97.86562268249529
 10
115.2778455587395
 20
97.86183307751747
 10
115.2539021454706
 20
97.85568573535178
 10
115.2309599630623
 20
97.84727754930726
 10
115.209126670747
 20
97.8367592423092
 10
115.1885314596034
 20
97.8242384735899
 10
115.1693035207103
 20
97.80984443422818
 10
115.1515612792233
 20
97.79370631530279
 10
115.1354339262212
 20
97.77595330789255
 10
115.1210614187059
 20
97.756703837153
 10
115.1085514159099
 20
97.7360763282397
 10
115.0980331089118
 20
97.71421073815469
 10
115.0896356887905
 20
97.69122549205349
 10
115.0834775807016
 20
97.66723901509168
 10
115.079698741647
 20
97.64239126427128
 97
        0
 75
     1
 76
     1
 98
        0
  0
LWPOLYLINE
  5
86
330
1F
100
AcDbEntity
  8
ISS138金台
  6
Continuous
 62
   250
420
  2367521
370
    13
100
AcDbPolyline
 90
       68
 70
     0
 43
0.0
 10
115.0784068308591
 20
97.6167898988246
 10
115.0796879757238
 20
97.59125312891734
 10
115.0834883466248
 20
97.56644844178987
 10
115.0896356887905
 20
97.54251579444423
 10
115.0980331089118
 20
97.51958437795919
 10
115.1085621818331
 20
97.49774031972063
 10
115.1210614187059
 20
97.47714510857703
 10
115.1354339262212
 20
97.45791716968395
 10
115.1515612792233
 20
97.44018569412017
 10
115.1692927547871
 20
97.42405834111801
 10
115.1885314596034
 20
97.40968583360277
 10
115.2091159048238
 20
97.39716506488347
 10
115.2309491971391
 20
97.3866467578854
 10
115.2539021454706
 20
97.37824933776412
 10
115.2778347928163
 20
97.37209122967519
 10
115.3026394799437
 20
97.36831239062062
 10
115.328176249851
 20
97.36702047983272
 10
115.328176249851
 20
97.36702047983272
 10
115.3537668493745
 20
97.36830162469738
 10
115.3786253661181
 20
97.37208046375196
 10
115.4026118430799
 20
97.37824933776412
 10
115.4255970891811
 20
97.3866467578854
 10
115.4474734451893
 20
97.39716506488347
 10
115.4680794222562
 20
97.40967506767953
 10
115.4873396589189
 20
97.42405834111801
 10
115.5050926663292
 20
97.44018569412017
 10
115.5212200193313
 20
97.45791716968395
 10
115.5356140586931
 20
97.47714510857703
 10
115.5481348274124
 20
97.49774031972063
 10
115.5586531344104
 20
97.51957361203596
 10
115.567061320455
 20
97.54252656036746
 10
115.5732194285439
 20
97.56645920771311
 10
115.5769982675985
 20
97.59125312891734
 10
115.5782901783863
 20
97.6167898988246
 10
115.5782901783863
 20
97.6167898988246
 10
115.5769982675985
 20
97.64238049834805
 10
115.5732194285439
 20
97.66724978101492
 10
115.567061320455
 20
97.69121472613026
 10
115.5586531344104
 20
97.71421073815469
 10
115.5481455933356
 20
97.7360763282397
 10
115.5356140586931
 20
97.75669307122976
 10
115.5212200193313
 20
97.77595330789255
 10
115.5050926663292
 20
97.79370631530279
 10
115.4873288929957
 20
97.80984443422818
 10
115.4680901881794
 20
97.8242384735899
 10
115.4474626792661
 20
97.8367592423092
 10
115.4255970891811
 20
97.84727754930726
 10
115.4026118430799
 20
97.85568573535178
 10
115.3786253661181
 20
97.86184384344071
 10
115.3537776152977
 20
97.86562268249529
 10
115.328176249851
 20
97.86691459328318
 10
115.328176249851
 20
97.86691459328318
 10
115.3026394799437
 20
97.86562268249529
 10
115.2778455587395
 20
97.86183307751747
 10
115.2539021454706
 20
97.85568573535178
 10
115.2309599630623
 20
97.84727754930726
 10
115.209126670747
 20
97.8367592423092
 10
115.1885314596034
 20
97.8242384735899
 10
115.1693035207103
 20
97.80984443422818
 10
115.1515612792233
 20
97.79370631530279
 10
115.1354339262212
 20
97.77595330789255
 10
115.1210614187059
 20
97.756703837153
 10
115.1085514159099
 20
97.7360763282397
 10
115.0980331089118
 20
97.71421073815469
 10
115.0896356887905
 20
97.69122549205349
 10
115.0834775807016
 20
97.66723901509168
 10
115.079698741647
 20
97.64239126427128
 10
115.0784068308591
 20
97.6167898988246
  0
HATCH
  5
87
330
1F
100
AcDbEntity
  8
ISS138金台
  6
Continuous
 62
   250
420
  2367521
370
    13
100
AcDbHatch
 10
0.0
 20
0.0
 30
0.0
210
0.0
220
0.0
230
1.0
  2
SOLID
 70
     1
 71
     0
 91
        1
 92
        3
 72
     0
 73
     1
 93
       67
 10
131.0981221325306
 20
107.1438352811876
 10
131.0994140433185
 20
107.1182985112803
 10
131.1032036482963
 20
107.0934830582297
 10
131.109350990462
 20
107.0695288790375
 10
131.1177484105833
 20
107.0465651647828
 10
131.1282774835046
 20
107.0246995746978
 10
131.1407767203774
 20
107.0040828317077
 10
131.1551492278927
 20
106.9848225950449
 10
131.1712765808948
 20
106.9670480557882
 10
131.1890188223818
 20
106.9508884050164
 10
131.2082467612749
 20
106.9364835997314
 10
131.2288419724185
 20
106.9239412991657
 10
131.2506752647338
 20
106.9134014603211
 10
131.2736174471421
 20
106.9049717424302
 10
131.2975500944877
 20
106.898802868418
 10
131.3223547816152
 20
106.8950024975169
 10
131.3478915515225
 20
106.8937105867291
 10
131.3478915515225
 20
106.8937105867291
 10
131.3734821510459
 20
106.8950132634402
 10
131.3983406677896
 20
106.898802868418
 10
131.4223271447514
 20
106.9049717424302
 10
131.4453016249293
 20
106.9134014603211
 10
131.4671887468608
 20
106.9239412991657
 10
131.4877947239276
 20
106.9364835997314
 10
131.5070549605904
 20
106.9508884050164
 10
131.5248079680007
 20
106.9670480557882
 10
131.5409460869261
 20
106.9848225950449
 10
131.5553293603645
 20
107.0040828317077
 10
131.5678501290838
 20
107.0246995746978
 10
131.5783684360819
 20
107.0465651647828
 10
131.5867766221264
 20
107.0695396449608
 10
131.5929347302153
 20
107.0934830582297
 10
131.5967135692699
 20
107.1182985112803
 10
131.5980054800578
 20
107.1438352811876
 10
131.5980054800578
 20
107.1438352811876
 10
131.5967135692699
 20
107.1694366466343
 10
131.5929347302153
 20
107.1942843974547
 10
131.5867766221264
 20
107.2182708744165
 10
131.5783684360819
 20
107.2412561205177
 10
131.5678501290838
 20
107.2631217106027
 10
131.5553293603645
 20
107.2837384535928
 10
131.5409353210028
 20
107.3029986902556
 10
131.5248079680007
 20
107.3207516976658
 10
131.5070549605904
 20
107.3368898165912
 10
131.4877947239276
 20
107.3512838559529
 10
131.4671779809376
 20
107.363793858749
 10
131.4453123908526
 20
107.3743229316703
 10
131.4223271447514
 20
107.3827311177148
 10
131.3983406677896
 20
107.3888892258037
 10
131.3734929169692
 20
107.3926680648583
 10
131.3478915515225
 20
107.3939599756462
 10
131.3478915515225
 20
107.3939599756462
 10
131.3223547816152
 20
107.3926680648583
 10
131.2975500944877
 20
107.3888892258037
 10
131.2736174471421
 20
107.3827203517915
 10
131.2506752647338
 20
107.3743229316703
 10
131.2288312064953
 20
107.3638046246722
 10
131.2082467612749
 20
107.3512730900297
 10
131.1890080564586
 20
107.336879050668
 10
131.1712765808948
 20
107.3207516976658
 10
131.1551599938159
 20
107.3029986902556
 10
131.1407767203774
 20
107.283749219516
 10
131.1282667175813
 20
107.2631217106027
 10
131.1177484105833
 20
107.2412561205177
 10
131.109350990462
 20
107.2182708744165
 10
131.103192882373
 20
107.1942843974547
 10
131.0994140433185
 20
107.1694366466343
 97
        0
 75
     1
 76
     1
 98
        0
  0
LWPOLYLINE
  5
88
330
1F
100
AcDbEntity
  8
ISS138金台
  6
Continuous
 62
   250
420
  2367521
370
    13
100
AcDbPolyline
 90
       68
 70
     0
 43
0.0
 10
131.0981221325306
 20
107.1438352811876
 10
131.0994140433185
 20
107.1182985112803
 10
131.1032036482963
 20
107.0934830582297
 10
131.109350990462
 20
107.0695288790375
 10
131.1177484105833
 20
107.0465651647828
 10
131.1282774835046
 20
107.0246995746978
 10
131.1407767203774
 20
107.0040828317077
 10
131.1551492278927
 20
106.9848225950449
 10
131.1712765808948
 20
106.9670480557882
 10
131.1890188223818
 20
106.9508884050164
 10
131.2082467612749
 20
106.9364835997314
 10
131.2288419724185
 20
106.9239412991657
 10
131.2506752647338
 20
106.9134014603211
 10
131.2736174471421
 20
106.9049717424302
 10
131.2975500944877
 20
106.898802868418
 10
131.3223547816152
 20
106.8950024975169
 10
131.3478915515225
 20
106.8937105867291
 10
131.3478915515225
 20
106.8937105867291
 10
131.3734821510459
 20
106.8950132634402
 10
131.3983406677896
 20
106.898802868418
 10
131.4223271447514
 20
106.9049717424302
 10
131.4453016249293
 20
106.9134014603211
 10
131.4671887468608
 20
106.9239412991657
 10
131.4877947239276
 20
106.9364835997314
 10
131.5070549605904
 20
106.9508884050164
 10
131.5248079680007
 20
106.9670480557882
 10
131.5409460869261
 20
106.9848225950449
 10
131.5553293603645
 20
107.0040828317077
 10
131.5678501290838
 20
107.0246995746978
 10
131.5783684360819
 20
107.0465651647828
 10
131.5867766221264
 20
107.0695396449608
 10
131.5929347302153
 20
107.0934830582297
 10
131.5967135692699
 20
107.1182985112803
 10
131.5980054800578
 20
107.1438352811876
 10
131.5980054800578
 20
107.1438352811876
 10
131.5967135692699
 20
107.1694366466343
 10
131.5929347302153
 20
107.1942843974547
 10
131.5867766221264
 20
107.2182708744165
 10
131.5783684360819
 20
107.2412561205177
 10
131.5678501290838
 20
107.2631217106027
 10
131.5553293603645
 20
107.2837384535928
 10
131.5409353210028
 20
107.3029986902556
 10
131.5248079680007
 20
107.3207516976658
 10
131.5070549605904
 20
107.3368898165912
 10
131.4877947239276
 20
107.3512838559529
 10
131.4671779809376
 20
107.363793858749
 10
131.4453123908526
 20
107.3743229316703
 10
131.4223271447514
 20
107.3827311177148
 10
131.3983406677896
 20
107.3888892258037
 10
131.3734929169692
 20
107.3926680648583
 10
131.3478915515225
 20
107.3939599756462
 10
131.3478915515225
 20
107.3939599756462
 10
131.3223547816152
 20
107.3926680648583
 10
131.2975500944877
 20
107.3888892258037
 10
131.2736174471421
 20
107.3827203517915
 10
131.2506752647338
 20
107.3743229316703
 10
131.2288312064953
 20
107.3638046246722
 10
131.2082467612749
 20
107.3512730900297
 10
131.1890080564586
 20
107.336879050668
 10
131.1712765808948
 20
107.3207516976658
 10
131.1551599938159
 20
107.3029986902556
 10
131.1407767203774
 20
107.283749219516
 10
131.1282667175813
 20
107.2631217106027
 10
131.1177484105833
 20
107.2412561205177
 10
131.109350990462
 20
107.2182708744165
 10
131.103192882373
 20
107.1942843974547
 10
131.0994140433185
 20
107.1694366466343
 10
131.0981221325306
 20
107.1438352811876
  0
HATCH
  5
89
330
1F
100
AcDbEntity
  8
ISS138金台
  6
Continuous
 62
   250
420
  2367521
370
    13
100
AcDbHatch
 10
0.0
 20
0.0
 30
0.0
210
0.0
220
0.0
230
1.0
  2
SOLID
 70
     1
 71
     0
 91
        1
 92
        3
 72
     0
 73
     1
 93
       67
 10
109.462739783986
 20
92.14390052585966
 10
109.4640316947738
 20
92.11836375595239
 10
109.4678105338284
 20
92.09354830290168
 10
109.4739686419174
 20
92.06960488963281
 10
109.4823768279619
 20
92.04663040945485
 10
109.4928951349599
 20
92.02476481936982
 10
109.5054159036792
 20
92.00413731045651
 10
109.519809943041
 20
91.98487707379374
 10
109.5359372960431
 20
91.96711330046027
 10
109.5537010693766
 20
91.95096441561165
 10
109.5729505401161
 20
91.93654884440346
 10
109.5935672831062
 20
91.92400654383769
 10
109.6154328731912
 20
91.91346670499317
 10
109.6384288852156
 20
91.90503698710219
 10
109.6624153621775
 20
91.89886811309003
 10
109.6872631129979
 20
91.89506774218898
 10
109.7128644784445
 20
91.89377583140109
 10
109.7128644784445
 20
91.89377583140109
 10
109.738412014275
 20
91.89507850811222
 10
109.7632059354793
 20
91.89886811309003
 10
109.7871278169017
 20
91.90503698710219
 10
109.8100807652332
 20
91.91345593906993
 10
109.8319140575485
 20
91.92400654383769
 10
109.8524985027689
 20
91.93654884440346
 10
109.8717372075852
 20
91.95095364968842
 10
109.889468683149
 20
91.96711330046027
 10
109.9055852702279
 20
91.98488783971698
 10
109.9199685436664
 20
92.00413731045651
 10
109.9324785464624
 20
92.02476481936982
 10
109.9429968534605
 20
92.04663040945485
 10
109.9513942735818
 20
92.06959412370958
 10
109.9575523816707
 20
92.09354830290168
 10
109.9613312207253
 20
92.11836375595239
 10
109.9626231315132
 20
92.14390052585966
 10
109.9626231315132
 20
92.14390052585966
 10
109.9613312207253
 20
92.16944806169016
 10
109.9575523816707
 20
92.19425274881763
 10
109.9513942735818
 20
92.21819616208651
 10
109.9429968534605
 20
92.24117064226448
 10
109.9324785464624
 20
92.26303623234949
 10
109.9199685436664
 20
92.2836637412628
 10
109.9055852702279
 20
92.30291321200235
 10
109.889468683149
 20
92.32068775125904
 10
109.8717264416619
 20
92.3368474020309
 10
109.8525092686921
 20
92.35125220731587
 10
109.8319140575485
 20
92.36379450788162
 10
109.8100807652332
 20
92.37433434672616
 10
109.7871385828249
 20
92.38276406461713
 10
109.763195169556
 20
92.3889329386293
 10
109.7384012483518
 20
92.39273330953034
 10
109.7128644784445
 20
92.39402522031823
 10
109.7128644784445
 20
92.39402522031823
 10
109.6872631129979
 20
92.39273330953034
 10
109.6624045962542
 20
92.3889329386293
 10
109.6384288852156
 20
92.38276406461713
 10
109.6154436391144
 20
92.37434511264938
 10
109.5935672831062
 20
92.36379450788162
 10
109.5729505401161
 20
92.35125220731587
 10
109.5537010693766
 20
92.33683663610768
 10
109.5359372960431
 20
92.32068775125904
 10
109.519809943041
 20
92.30292397792559
 10
109.5054159036792
 20
92.2836637412628
 10
109.4928951349599
 20
92.26303623234949
 10
109.4823768279619
 20
92.24117064226448
 10
109.4739686419174
 20
92.21820692800975
 10
109.4678105338284
 20
92.19425274881763
 10
109.4640316947738
 20
92.16943729576693
 97
        0
 75
     1
 76
     1
 98
        0
  0
LWPOLYLINE
  5
8A
330
1F
100
AcDbEntity
  8
ISS138金台
  6
Continuous
 62
   250
420
  2367521
370
    13
100
AcDbPolyline
 90
       68
 70
     0
 43
0.0
 10
109.462739783986
 20
92.14390052585966
 10
109.4640316947738
 20
92.11836375595239
 10
109.4678105338284
 20
92.09354830290168
 10
109.4739686419174
 20
92.06960488963281
 10
109.4823768279619
 20
92.04663040945485
 10
109.4928951349599
 20
92.02476481936982
 10
109.5054159036792
 20
92.00413731045651
 10
109.519809943041
 20
91.98487707379374
 10
109.5359372960431
 20
91.96711330046027
 10
109.5537010693766
 20
91.95096441561165
 10
109.5729505401161
 20
91.93654884440346
 10
109.5935672831062
 20
91.92400654383769
 10
109.6154328731912
 20
91.91346670499317
 10
109.6384288852156
 20
91.90503698710219
 10
109.6624153621775
 20
91.89886811309003
 10
109.6872631129979
 20
91.89506774218898
 10
109.7128644784445
 20
91.89377583140109
 10
109.7128644784445
 20
91.89377583140109
 10
109.738412014275
 20
91.89507850811222
 10
109.7632059354793
 20
91.89886811309003
 10
109.7871278169017
 20
91.90503698710219
 10
109.8100807652332
 20
91.91345593906993
 10
109.8319140575485
 20
91.92400654383769
 10
109.8524985027689
 20
91.93654884440346
 10
109.8717372075852
 20
91.95095364968842
 10
109.889468683149
 20
91.96711330046027
 10
109.9055852702279
 20
91.98488783971698
 10
109.9199685436664
 20
92.00413731045651
 10
109.9324785464624
 20
92.02476481936982
 10
109.9429968534605
 20
92.04663040945485
 10
109.9513942735818
 20
92.06959412370958
 10
109.9575523816707
 20
92.09354830290168
 10
109.9613312207253
 20
92.11836375595239
 10
109.9626231315132
 20
92.14390052585966
 10
109.9626231315132
 20
92.14390052585966
 10
109.9613312207253
 20
92.16944806169016
 10
109.9575523816707
 20
92.19425274881763
 10
109.9513942735818
 20
92.21819616208651
 10
109.9429968534605
 20
92.24117064226448
 10
109.9324785464624
 20
92.26303623234949
 10
109.9199685436664
 20
92.2836637412628
 10
109.9055852702279
 20
92.30291321200235
 10
109.889468683149
 20
92.32068775125904
 10
109.8717264416619
 20
92.3368474020309
 10
109.8525092686921
 20
92.35125220731587
 10
109.8319140575485
 20
92.36379450788162
 10
109.8100807652332
 20
92.37433434672616
 10
109.7871385828249
 20
92.38276406461713
 10
109.763195169556
 20
92.3889329386293
 10
109.7384012483518
 20
92.39273330953034
 10
109.7128644784445
 20
92.39402522031823
 10
109.7128644784445
 20
92.39402522031823
 10
109.6872631129979
 20
92.39273330953034
 10
109.6624045962542
 20
92.3889329386293
 10
109.6384288852156
 20
92.38276406461713
 10
109.6154436391144
 20
92.37434511264938
 10
109.5935672831062
 20
92.36379450788162
 10
109.5729505401161
 20
92.35125220731587
 10
109.5537010693766
 20
92.33683663610768
 10
109.5359372960431
 20
92.32068775125904
 10
109.519809943041
 20
92.30292397792559
 10
109.5054159036792
 20
92.2836637412628
 10
109.4928951349599
 20
92.26303623234949
 10
109.4823768279619
 20
92.24117064226448
 10
109.4739686419174
 20
92.21820692800975
 10
109.4678105338284
 20
92.19425274881763
 10
109.4640316947738
 20
92.16943729576693
 10
109.462739783986
 20
92.14390052585966
  0
HATCH
  5
8B
330
1F
100
AcDbEntity
  8
ISS138金台
  6
Continuous
 62
   250
420
  2367521
370
    13
100
AcDbHatch
 10
0.0
 20
0.0
 30
0.0
210
0.0
220
0.0
230
1.0
  2
SOLID
 70
     1
 71
     0
 91
        1
 92
        3
 72
     0
 73
     1
 93
       67
 10
123.3996903430388
 20
86.64588887103187
 10
123.4009822538267
 20
86.62034671816299
 10
123.4047610928812
 20
86.59556894584361
 10
123.4109299668934
 20
86.57164706442119
 10
123.4193273870147
 20
86.54872641385938
 10
123.4298349280895
 20
86.52692003635215
 10
123.442366462732
 20
86.50635712297824
 10
123.4567497361705
 20
86.48716148185486
 10
123.4728878550959
 20
86.46945692109915
 10
123.4906516284294
 20
86.45336724882833
 10
123.5099010991689
 20
86.43901627315952
 10
123.530517842159
 20
86.42653856813317
 10
123.552383432244
 20
86.41604717594318
 10
123.5753794442684
 20
86.40767128766836
 10
123.5993659212302
 20
86.40153471142588
 10
123.6242136720506
 20
86.39776125533294
 10
123.6498150374973
 20
86.39647472750666
 10
123.6498150374973
 20
86.39647472750666
 10
123.6753518074046
 20
86.39776125533294
 10
123.7001564945321
 20
86.40153471142588
 10
123.7240891418777
 20
86.40767128766836
 10
123.7470205583627
 20
86.41604717594318
 10
123.7688538506781
 20
86.42653856813317
 10
123.7894490618217
 20
86.43902165612113
 10
123.8086770007148
 20
86.45336724882833
 10
123.8264192422018
 20
86.46945153813755
 10
123.8425465952039
 20
86.48716148185486
 10
123.8569191027192
 20
86.50635174001663
 10
123.8694291055152
 20
86.52692003635215
 10
123.8799474125133
 20
86.54872103089778
 10
123.8883448326346
 20
86.5716524473828
 10
123.8945029407235
 20
86.59556894584361
 10
123.8982817797781
 20
86.62035748408621
 10
123.899573690566
 20
86.64588887103187
 10
123.899573690566
 20
86.64588887103187
 10
123.8982925457013
 20
86.67154406609471
 10
123.8944921748003
 20
86.69644564653127
 10
123.8883555985578
 20
86.72045903830116
 10
123.8799474125133
 20
86.74346581624883
 10
123.869418339592
 20
86.76533678929546
 10
123.8569191027192
 20
86.78595353228553
 10
123.8425358292807
 20
86.80519762006347
 10
123.8264192422018
 20
86.82293986155047
 10
123.808687766638
 20
86.83905644862938
 10
123.7894490618217
 20
86.85342357318304
 10
123.7688646166013
 20
86.86592281005586
 10
123.747031324286
 20
86.87642496816908
 10
123.7240891418777
 20
86.8848062394055
 10
123.7001457286088
 20
86.8909481986096
 10
123.6753518074046
 20
86.89472165470255
 10
123.6498150374973
 20
86.89600818252883
 10
123.6498150374973
 20
86.89600818252883
 10
123.6242136720506
 20
86.89471627174095
 10
123.5993659212302
 20
86.8909481986096
 10
123.5753794442684
 20
86.8848062394055
 10
123.5523941981672
 20
86.87641958520746
 10
123.530517842159
 20
86.86592281005586
 10
123.5099010991689
 20
86.85342895614465
 10
123.4906408625062
 20
86.83905644862938
 10
123.4728986210191
 20
86.82293986155047
 10
123.4567605020938
 20
86.80520300302507
 10
123.442366462732
 20
86.78595353228553
 10
123.4298456940127
 20
86.76533678929546
 10
123.4193273870147
 20
86.7434604332872
 10
123.4109192009702
 20
86.72045365533955
 10
123.4047610928812
 20
86.69644026356966
 10
123.4009822538267
 20
86.67154406609471
 97
        0
 75
     1
 76
     1
 98
        0
  0
LWPOLYLINE
  5
8C
330
1F
100
AcDbEntity
  8
ISS138金台
  6
Continuous
 62
   250
420
  2367521
370
    13
100
AcDbPolyline
 90
       68
 70
     0
 43
0.0
 10
123.3996903430388
 20
86.64588887103187
 10
123.4009822538267
 20
86.62034671816299
 10
123.4047610928812
 20
86.59556894584361
 10
123.4109299668934
 20
86.57164706442119
 10
123.4193273870147
 20
86.54872641385938
 10
123.4298349280895
 20
86.52692003635215
 10
123.442366462732
 20
86.50635712297824
 10
123.4567497361705
 20
86.48716148185486
 10
123.4728878550959
 20
86.46945692109915
 10
123.4906516284294
 20
86.45336724882833
 10
123.5099010991689
 20
86.43901627315952
 10
123.530517842159
 20
86.42653856813317
 10
123.552383432244
 20
86.41604717594318
 10
123.5753794442684
 20
86.40767128766836
 10
123.5993659212302
 20
86.40153471142588
 10
123.6242136720506
 20
86.39776125533294
 10
123.6498150374973
 20
86.39647472750666
 10
123.6498150374973
 20
86.39647472750666
 10
123.6753518074046
 20
86.39776125533294
 10
123.7001564945321
 20
86.40153471142588
 10
123.7240891418777
 20
86.40767128766836
 10
123.7470205583627
 20
86.41604717594318
 10
123.7688538506781
 20
86.42653856813317
 10
123.7894490618217
 20
86.43902165612113
 10
123.8086770007148
 20
86.45336724882833
 10
123.8264192422018
 20
86.46945153813755
 10
123.8425465952039
 20
86.48716148185486
 10
123.8569191027192
 20
86.50635174001663
 10
123.8694291055152
 20
86.52692003635215
 10
123.8799474125133
 20
86.54872103089778
 10
123.8883448326346
 20
86.5716524473828
 10
123.8945029407235
 20
86.59556894584361
 10
123.8982817797781
 20
86.62035748408621
 10
123.899573690566
 20
86.64588887103187
 10
123.899573690566
 20
86.64588887103187
 10
123.8982925457013
 20
86.67154406609471
 10
123.8944921748003
 20
86.69644564653127
 10
123.8883555985578
 20
86.72045903830116
 10
123.8799474125133
 20
86.74346581624883
 10
123.869418339592
 20
86.76533678929546
 10
123.8569191027192
 20
86.78595353228553
 10
123.8425358292807
 20
86.80519762006347
 10
123.8264192422018
 20
86.82293986155047
 10
123.808687766638
 20
86.83905644862938
 10
123.7894490618217
 20
86.85342357318304
 10
123.7688646166013
 20
86.86592281005586
 10
123.747031324286
 20
86.87642496816908
 10
123.7240891418777
 20
86.8848062394055
 10
123.7001457286088
 20
86.8909481986096
 10
123.6753518074046
 20
86.89472165470255
 10
123.6498150374973
 20
86.89600818252883
 10
123.6498150374973
 20
86.89600818252883
 10
123.6242136720506
 20
86.89471627174095
 10
123.5993659212302
 20
86.8909481986096
 10
123.5753794442684
 20
86.8848062394055
 10
123.5523941981672
 20
86.87641958520746
 10
123.530517842159
 20
86.86592281005586
 10
123.5099010991689
 20
86.85342895614465
 10
123.4906408625062
 20
86.83905644862938
 10
123.4728986210191
 20
86.82293986155047
 10
123.4567605020938
 20
86.80520300302507
 10
123.442366462732
 20
86.78595353228553
 10
123.4298456940127
 20
86.76533678929546
 10
123.4193273870147
 20
86.7434604332872
 10
123.4109192009702
 20
86.72045365533955
 10
123.4047610928812
 20
86.69644026356966
 10
123.4009822538267
 20
86.67154406609471
 10
123.3996903430388
 20
86.64588887103187
  0
TEXT
  5
8D
330
1F
100
AcDbEntity
  8
ISS138金台
  6
Continuous
 62
   250
420
  2367521
100
AcDbText
 10
125.4132086674266
 20
85.87524582705024
 30
0.0
 40
2.150533301035563
  1
2 . 5
 41
0.4580001831054687
  7
MS Gothic
100
AcDbText
  0
TEXT
  5
8E
330
1F
100
AcDbEntity
  8
ISS138金台
  6
Continuous
 62
   250
420
  2367521
100
AcDbText
 10
120.4009393199602
 20
120.5095492263695
 30
0.0
 40
2.150533301035563
  1
4.5
 41
0.767333984375
  7
MS Gothic
100
AcDbText
  0
TEXT
  5
8F
330
1F
100
AcDbEntity
  8
ISS138金台
  6
Continuous
 62
   250
420
  2367521
100
AcDbText
 10
130.3141658617523
 20
109.9201838447368
 30
0.0
 40
2.150533301035563
  1
7
 50
90.00000250447816
 41
1.024999618530273
  7
MS Gothic
100
AcDbText
  0
TEXT
  5
90
330
1F
100
AcDbEntity
  8
ISS138金台
  6
Continuous
 62
   250
420
  2367521
100
AcDbText
 10
108.2246338075717
 20
101.3660334130402
 30
0.0
 40
2.150533301035563
  1
22
 50
90.00000250447816
 41
0.9280014038085936
  7
MS Gothic
100
AcDbText
  0
LINE
  5
91
330
1F
100
AcDbEntity
  8
ISS138金台
  6
Continuous
 62
   250
420
  2367521
370
    13
100
AcDbLine
 10
121.2506505770014
 20
86.64588887103187
 30
0.0
 11
125.0024456324172
 21
86.64588887103187
 31
0.0
  0
LINE
  5
92
330
1F
100
AcDbEntity
  8
ISS138金台
  6
Continuous
 62
   250
420
  2367521
370
    13
100
AcDbLine
 10
124.6499262420952
 20
115.1440574307304
 30
0.0
 11
124.6499262420952
 21
120.1492643325562
 31
0.0
  0
LINE
  5
93
330
1F
100
AcDbEntity
  8
ISS138金台
  6
Continuous
 62
   250
420
  2367521
370
    13
100
AcDbLine
 10
120.1502763293401
 20
115.1440574307304
 30
0.0
 11
120.1502763293401
 21
120.1492643325562
 31
0.0
  0
HATCH
  5
94
330
1F
100
AcDbEntity
  8
ISS138金台
  6
Continuous
 62
   250
420
  2367521
370
    13
100
AcDbHatch
 10
0.0
 20
0.0
 30
0.0
210
0.0
220
0.0
230
1.0
  2
SOLID
 70
     1
 71
     0
 91
        1
 92
        3
 72
     0
 73
     1
 93
       67
 10
119.9001624008047
 20
119.6419847957683
 10
119.9014543115926
 20
119.6675323315988
 10
119.9052331506472
 20
119.6923370187263
 10
119.9114020246594
 20
119.7162804319952
 10
119.9197994447807
 20
119.7392549121731
 10
119.9303177517787
 20
119.7611205022582
 10
119.942838520498
 20
119.7817480111714
 10
119.9572217939365
 20
119.800997481911
 10
119.9733599128619
 20
119.8187720211677
 10
119.9911129202721
 20
119.8349316719396
 10
120.0103731569349
 20
119.8493364772245
 10
120.030989899925
 20
119.8618787777903
 10
120.05285549001
 20
119.872429382558
 10
120.0758515020344
 20
119.8808483345258
 10
120.099827213073
 20
119.887017208538
 10
120.1246857298166
 20
119.890817579439
 10
120.1502870952633
 20
119.8921094902269
 10
120.1502870952633
 20
119.8921094902269
 10
120.1758130992473
 20
119.890817579439
 10
120.200628552298
 20
119.887017208538
 10
120.2245504337204
 20
119.8808375686025
 10
120.2474926161287
 20
119.872429382558
 10
120.2693366743673
 20
119.8618895437135
 10
120.2899318855109
 20
119.8493364772245
 10
120.3091598244039
 20
119.8349209060163
 10
120.3268912999677
 20
119.8187720211677
 10
120.3430078870467
 20
119.8010082478342
 10
120.3573911604851
 20
119.7817372452482
 10
120.3699011632812
 20
119.7611205022582
 10
120.3804194702793
 20
119.7392549121731
 10
120.3888168904005
 20
119.7162911979184
 10
120.3949749984895
 20
119.6923370187263
 10
120.3987538375441
 20
119.6675215656756
 10
120.4000457483319
 20
119.6419847957683
 10
120.4000457483319
 20
119.6419847957683
 10
120.3987646034673
 20
119.6164372599378
 10
120.3949749984895
 20
119.5916433387336
 10
120.3888168904005
 20
119.5676891595415
 10
120.3804194702793
 20
119.5447146793635
 10
120.3699011632812
 20
119.5228598552017
 10
120.3573911604851
 20
119.5022215803652
 10
120.3430078870467
 20
119.4829721096256
 10
120.3268912999677
 20
119.4651975703689
 10
120.3091598244039
 20
119.4490486855203
 10
120.2899318855109
 20
119.4346331143121
 10
120.2693366743673
 20
119.4220908137464
 10
120.2475033820519
 20
119.4115402089786
 10
120.2245611996437
 20
119.4031212570109
 10
120.2006177863748
 20
119.3969523829987
 10
120.1758238651706
 20
119.3931520120976
 10
120.1502870952633
 20
119.3918601013098
 10
120.1502870952633
 20
119.3918601013098
 10
120.1246857298166
 20
119.3931627780209
 10
120.099827213073
 20
119.3969523829987
 10
120.0758515020344
 20
119.4031320229341
 10
120.0528662559332
 20
119.4115509749018
 10
120.030989899925
 20
119.4220908137464
 10
120.0103731569349
 20
119.4346223483889
 10
119.9911236861954
 20
119.4490379195971
 10
119.9733706787851
 20
119.4651975703689
 10
119.9572217939365
 20
119.4829721096256
 10
119.942838520498
 20
119.5022323462884
 10
119.9303177517787
 20
119.5228490892785
 10
119.9197994447807
 20
119.5447146793635
 10
119.9113912587361
 20
119.5676891595415
 10
119.9052331506472
 20
119.5916325728103
 10
119.9014543115926
 20
119.616448025861
 97
        0
 75
     1
 76
     1
 98
        0
  0
LWPOLYLINE
  5
95
330
1F
100
AcDbEntity
  8
ISS138金台
  6
Continuous
 62
   250
420
  2367521
370
    13
100
AcDbPolyline
 90
       68
 70
     0
 43
0.0
 10
119.9001624008047
 20
119.6419847957683
 10
119.9014543115926
 20
119.6675323315988
 10
119.9052331506472
 20
119.6923370187263
 10
119.9114020246594
 20
119.7162804319952
 10
119.9197994447807
 20
119.7392549121731
 10
119.9303177517787
 20
119.7611205022582
 10
119.942838520498
 20
119.7817480111714
 10
119.9572217939365
 20
119.800997481911
 10
119.9733599128619
 20
119.8187720211677
 10
119.9911129202721
 20
119.8349316719396
 10
120.0103731569349
 20
119.8493364772245
 10
120.030989899925
 20
119.8618787777903
 10
120.05285549001
 20
119.872429382558
 10
120.0758515020344
 20
119.8808483345258
 10
120.099827213073
 20
119.887017208538
 10
120.1246857298166
 20
119.890817579439
 10
120.1502870952633
 20
119.8921094902269
 10
120.1502870952633
 20
119.8921094902269
 10
120.1758130992473
 20
119.890817579439
 10
120.200628552298
 20
119.887017208538
 10
120.2245504337204
 20
119.8808375686025
 10
120.2474926161287
 20
119.872429382558
 10
120.2693366743673
 20
119.8618895437135
 10
120.2899318855109
 20
119.8493364772245
 10
120.3091598244039
 20
119.8349209060163
 10
120.3268912999677
 20
119.8187720211677
 10
120.3430078870467
 20
119.8010082478342
 10
120.3573911604851
 20
119.7817372452482
 10
120.3699011632812
 20
119.7611205022582
 10
120.3804194702793
 20
119.7392549121731
 10
120.3888168904005
 20
119.7162911979184
 10
120.3949749984895
 20
119.6923370187263
 10
120.3987538375441
 20
119.6675215656756
 10
120.4000457483319
 20
119.6419847957683
 10
120.4000457483319
 20
119.6419847957683
 10
120.3987646034673
 20
119.6164372599378
 10
120.3949749984895
 20
119.5916433387336
 10
120.3888168904005
 20
119.5676891595415
 10
120.3804194702793
 20
119.5447146793635
 10
120.3699011632812
 20
119.5228598552017
 10
120.3573911604851
 20
119.5022215803652
 10
120.3430078870467
 20
119.4829721096256
 10
120.3268912999677
 20
119.4651975703689
 10
120.3091598244039
 20
119.4490486855203
 10
120.2899318855109
 20
119.4346331143121
 10
120.2693366743673
 20
119.4220908137464
 10
120.2475033820519
 20
119.4115402089786
 10
120.2245611996437
 20
119.4031212570109
 10
120.2006177863748
 20
119.3969523829987
 10
120.1758238651706
 20
119.3931520120976
 10
120.1502870952633
 20
119.3918601013098
 10
120.1502870952633
 20
119.3918601013098
 10
120.1246857298166
 20
119.3931627780209
 10
120.099827213073
 20
119.3969523829987
 10
120.0758515020344
 20
119.4031320229341
 10
120.0528662559332
 20
119.4115509749018
 10
120.030989899925
 20
119.4220908137464
 10
120.0103731569349
 20
119.4346223483889
 10
119.9911236861954
 20
119.4490379195971
 10
119.9733706787851
 20
119.4651975703689
 10
119.9572217939365
 20
119.4829721096256
 10
119.942838520498
 20
119.5022323462884
 10
119.9303177517787
 20
119.5228490892785
 10
119.9197994447807
 20
119.5447146793635
 10
119.9113912587361
 20
119.5676891595415
 10
119.9052331506472
 20
119.5916325728103
 10
119.9014543115926
 20
119.616448025861
 10
119.9001624008047
 20
119.6419847957683
  0
HATCH
  5
96
330
1F
100
AcDbEntity
  8
ISS138金台
  6
Continuous
 62
   250
420
  2367521
370
    13
100
AcDbHatch
 10
0.0
 20
0.0
 30
0.0
210
0.0
220
0.0
230
1.0
  2
SOLID
 70
     1
 71
     0
 91
        1
 92
        3
 72
     0
 73
     1
 93
       67
 10
124.4001675890265
 20
119.6419847957683
 10
124.4014594998144
 20
119.6675215656756
 10
124.405238338869
 20
119.6922939550334
 10
124.411396446958
 20
119.716226602379
 10
124.4198046330025
 20
119.7391472529408
 10
124.4303229400005
 20
119.7609590134097
 10
124.4428437087198
 20
119.7815111608603
 10
124.4572269821583
 20
119.8007068019837
 10
124.4733651010837
 20
119.818416745701
 10
124.4911181084939
 20
119.8345010350103
 10
124.5103675792335
 20
119.8488520106791
 10
124.5309950881468
 20
119.8613297157054
 10
124.552871444155
 20
119.871826490857
 10
124.5758566902562
 20
119.8802023791318
 10
124.5998324012948
 20
119.8863389553743
 10
124.6246909180384
 20
119.8901177944289
 10
124.6502922834851
 20
119.8913989392935
 10
124.6502922834851
 20
119.8913989392935
 10
124.6758182874692
 20
119.8901070285057
 10
124.7006337405198
 20
119.8863389553743
 10
124.7245556219423
 20
119.8802023791318
 10
124.7474978043505
 20
119.871826490857
 10
124.7693418625891
 20
119.8613404816287
 10
124.7899263078095
 20
119.8488520106791
 10
124.8091650126258
 20
119.8345010350103
 10
124.8268964881896
 20
119.818416745701
 10
124.8430130752685
 20
119.800717567907
 10
124.857396348707
 20
119.7815111608603
 10
124.869906351503
 20
119.7609482474864
 10
124.8804246585011
 20
119.7391472529408
 10
124.8888220786224
 20
119.716226602379
 10
124.8949801867113
 20
119.6923047209566
 10
124.8987590257659
 20
119.6675215656756
 10
124.9000509365538
 20
119.6419847957683
 10
124.9000509365538
 20
119.6419847957683
 10
124.8987697916891
 20
119.6163188347822
 10
124.8949801867113
 20
119.5914387861922
 10
124.8888220786224
 20
119.5674307773839
 10
124.8804246585011
 20
119.544413233513
 10
124.869906351503
 20
119.5225368775047
 10
124.857396348707
 20
119.5019093685914
 10
124.8430130752685
 20
119.4826706637751
 10
124.8268964881896
 20
119.4649284222881
 10
124.8091542467025
 20
119.4488118352092
 10
124.7899263078095
 20
119.4344393276939
 10
124.7693418625891
 20
119.4219508567443
 10
124.7475085702738
 20
119.4114433156695
 10
124.7245663878655
 20
119.4030566614715
 10
124.7006229745966
 20
119.396920085229
 10
124.6758290533924
 20
119.3931412461744
 10
124.6502922834851
 20
119.3918601013098
 10
124.6502922834851
 20
119.3918601013098
 10
124.6246909180384
 20
119.3931520120976
 10
124.5998324012948
 20
119.3969308511522
 10
124.575845924333
 20
119.4030674273947
 10
124.552871444155
 20
119.4114433156695
 10
124.5309950881468
 20
119.4219508567443
 10
124.5103675792335
 20
119.4344393276939
 10
124.4911288744172
 20
119.4488118352092
 10
124.4733651010837
 20
119.4649284222881
 10
124.4572377480815
 20
119.4826814296984
 10
124.4428437087198
 20
119.5019201345147
 10
124.4303229400005
 20
119.5225368775047
 10
124.4198046330025
 20
119.544413233513
 10
124.411396446958
 20
119.5674200114606
 10
124.405238338869
 20
119.5914280202689
 10
124.4014594998144
 20
119.6163296007055
 97
        0
 75
     1
 76
     1
 98
        0
  0
LWPOLYLINE
  5
97
330
1F
100
AcDbEntity
  8
ISS138金台
  6
Continuous
 62
   250
420
  2367521
370
    13
100
AcDbPolyline
 90
       68
 70
     0
 43
0.0
 10
124.4001675890265
 20
119.6419847957683
 10
124.4014594998144
 20
119.6675215656756
 10
124.405238338869
 20
119.6922939550334
 10
124.411396446958
 20
119.716226602379
 10
124.4198046330025
 20
119.7391472529408
 10
124.4303229400005
 20
119.7609590134097
 10
124.4428437087198
 20
119.7815111608603
 10
124.4572269821583
 20
119.8007068019837
 10
124.4733651010837
 20
119.818416745701
 10
124.4911181084939
 20
119.8345010350103
 10
124.5103675792335
 20
119.8488520106791
 10
124.5309950881468
 20
119.8613297157054
 10
124.552871444155
 20
119.871826490857
 10
124.5758566902562
 20
119.8802023791318
 10
124.5998324012948
 20
119.8863389553743
 10
124.6246909180384
 20
119.8901177944289
 10
124.6502922834851
 20
119.8913989392935
 10
124.6502922834851
 20
119.8913989392935
 10
124.6758182874692
 20
119.8901070285057
 10
124.7006337405198
 20
119.8863389553743
 10
124.7245556219423
 20
119.8802023791318
 10
124.7474978043505
 20
119.871826490857
 10
124.7693418625891
 20
119.8613404816287
 10
124.7899263078095
 20
119.8488520106791
 10
124.8091650126258
 20
119.8345010350103
 10
124.8268964881896
 20
119.818416745701
 10
124.8430130752685
 20
119.800717567907
 10
124.857396348707
 20
119.7815111608603
 10
124.869906351503
 20
119.7609482474864
 10
124.8804246585011
 20
119.7391472529408
 10
124.8888220786224
 20
119.716226602379
 10
124.8949801867113
 20
119.6923047209566
 10
124.8987590257659
 20
119.6675215656756
 10
124.9000509365538
 20
119.6419847957683
 10
124.9000509365538
 20
119.6419847957683
 10
124.8987697916891
 20
119.6163188347822
 10
124.8949801867113
 20
119.5914387861922
 10
124.8888220786224
 20
119.5674307773839
 10
124.8804246585011
 20
119.544413233513
 10
124.869906351503
 20
119.5225368775047
 10
124.857396348707
 20
119.5019093685914
 10
124.8430130752685
 20
119.4826706637751
 10
124.8268964881896
 20
119.4649284222881
 10
124.8091542467025
 20
119.4488118352092
 10
124.7899263078095
 20
119.4344393276939
 10
124.7693418625891
 20
119.4219508567443
 10
124.7475085702738
 20
119.4114433156695
 10
124.7245663878655
 20
119.4030566614715
 10
124.7006229745966
 20
119.396920085229
 10
124.6758290533924
 20
119.3931412461744
 10
124.6502922834851
 20
119.3918601013098
 10
124.6502922834851
 20
119.3918601013098
 10
124.6246909180384
 20
119.3931520120976
 10
124.5998324012948
 20
119.3969308511522
 10
124.575845924333
 20
119.4030674273947
 10
124.552871444155
 20
119.4114433156695
 10
124.5309950881468
 20
119.4219508567443
 10
124.5103675792335
 20
119.4344393276939
 10
124.4911288744172
 20
119.4488118352092
 10
124.4733651010837
 20
119.4649284222881
 10
124.4572377480815
 20
119.4826814296984
 10
124.4428437087198
 20
119.5019201345147
 10
124.4303229400005
 20
119.5225368775047
 10
124.4198046330025
 20
119.544413233513
 10
124.411396446958
 20
119.5674200114606
 10
124.405238338869
 20
119.5914280202689
 10
124.4014594998144
 20
119.6163296007055
 10
124.4001675890265
 20
119.6419847957683
  0
LINE
  5
98
330
1F
100
AcDbEntity
  8
ISS138金台
  6
Continuous
 62
   250
420
  2367521
370
    13
100
AcDbLine
 10
120.1502763293401
 20
119.6419847957683
 30
0.0
 11
124.6499585398649
 21
119.6419847957683
 31
0.0
  0
LINE
  5
99
330
1F
100
AcDbEntity
  8
ISS138金台
  6
UserDefined01
 62
   140
420
    44526
370
    13
100
AcDbLine
 10
113.7813391657417
 20
99.14398993895803
 30
0.0
 11
113.7813391657417
 21
92.14382516439704
 31
0.0
  0
TEXT
  5
9A
330
1F
100
AcDbEntity
  8
ISS138金台
  6
Continuous
 62
   140
420
    44526
100
AcDbText
 10
112.7367322281695
 20
95.01038140088485
 30
0.0
 40
1.881716638406118
  1
7
 50
90.00000250447816
 41
1.025009155273438
  7
MS Gothic
100
AcDbText
  0
HATCH
  5
9B
330
1F
100
AcDbEntity
  8
ISS138金台
  6
Continuous
 62
   140
420
    44526
370
    50
100
AcDbHatch
 10
0.0
 20
0.0
 30
0.0
210
0.0
220
0.0
230
1.0
  2
SOLID
 70
     1
 71
     0
 91
        1
 92
        3
 72
     0
 73
     1
 93
        3
 10
124.6488711816184
 20
100.0100976970821
 10
124.6481606306851
 20
98.27795754229656
 10
123.1499209240469
 20
99.14296717625095
 97
        0
 75
     1
 76
     1
 98
        0
  0
LWPOLYLINE
  5
9C
330
1F
100
AcDbEntity
  8
ISS138金台
  6
Continuous
 62
   140
420
    44526
370
    50
100
AcDbPolyline
 90
        4
 70
     0
 43
0.0
 10
124.6488711816184
 20
100.0100976970821
 10
124.6481606306851
 20
98.27795754229656
 10
123.1499209240469
 20
99.14296717625095
 10
124.6488711816184
 20
100.0100976970821
  0
LINE
  5
9D
330
1F
100
AcDbEntity
  8
ISS138金台
  6
Continuous
 62
   140
420
    44526
370
    25
100
AcDbLine
 10
119.9001624008047
 20
97.49824631811256
 30
0.0
 11
119.9001624008047
 21
113.4981307891899
 31
0.0
  0
TEXT
  5
9E
330
1F
100
AcDbEntity
  8
ISS138金台
  6
Continuous
 62
   250
420
  2367521
100
AcDbText
 10
114.5297721100949
 20
104.0284354624917
 30
0.0
 40
2.150533301035563
  1
16
 50
90.00000250447816
 41
1.000124931335449
  7
MS Gothic
100
AcDbText
  0
ENDSEC
  0
SECTION
  2
OBJECTS
  0
DICTIONARY
  5
C
330
0
100
AcDbDictionary
281
     1
  3
ACAD_DETAILVIEWSTYLE
350
A6
  3
ACAD_GROUP
350
D
  3
ACAD_LAYOUT
350
1A
  3
ACAD_MATERIAL
350
43
  3
ACAD_MLEADERSTYLE
350
5B
  3
ACAD_MLINESTYLE
350
17
  3
ACAD_PLOTSETTINGS
350
19
  3
ACAD_PLOTSTYLENAME
350
E
  3
ACAD_SCALELIST
350
47
  3
ACAD_SECTIONVIEWSTYLE
350
A7
  3
ACAD_TABLESTYLE
350
59
  3
ACAD_VISUALSTYLE
350
2A
  3
ACDB_RECOMPOSE_DATA
350
A3
  3
AcDbVariableDictionary
350
9F
  0
SUN
  5
5D
330
29
100
AcDbSun
 90
        1
290
     0
 63
     7
421
 16777215
 40
1.0
291
     1
 91
  2455826
 92
 54000000
292
     0
 70
     2
 71
   256
280
     1
  0
DICTIONARY
  5
A6
102
{ACAD_REACTORS
330
C
102
}
330
C
100
AcDbDictionary
281
     1
  0
DICTIONARY
  5
D
102
{ACAD_REACTORS
330
C
102
}
330
C
100
AcDbDictionary
281
     1
  0
DICTIONARY
  5
1A
102
{ACAD_REACTORS
330
C
102
}
330
C
100
AcDbDictionary
281
     1
  3
Layout1
350
1E
  3
Layout2
350
26
  3
Model
350
22
  0
DICTIONARY
  5
43
102
{ACAD_REACTORS
330
C
102
}
330
C
100
AcDbDictionary
281
     1
  3
ByBlock
350
45
  3
ByLayer
350
44
  3
Global
350
46
  0
DICTIONARY
  5
5B
102
{ACAD_REACTORS
330
C
102
}
330
C
100
AcDbDictionary
281
     1
  3
Standard
350
5C
  0
DICTIONARY
  5
17
102
{ACAD_REACTORS
330
C
102
}
330
C
100
AcDbDictionary
281
     1
  3
Standard
350
18
  0
DICTIONARY
  5
19
102
{ACAD_REACTORS
330
C
102
}
330
C
100
AcDbDictionary
281
     1
  0
ACDBDICTIONARYWDFLT
  5
E
102
{ACAD_REACTORS
330
C
102
}
330
C
100
AcDbDictionary
281
     1
  3
Normal
350
F
100
AcDbDictionaryWithDefault
340
F
  0
DICTIONARY
  5
47
102
{ACAD_REACTORS
330
C
102
}
330
C
100
AcDbDictionary
281
     1
  3
A0
350
48
  3
A1
350
49
  3
A2
350
4A
  3
A3
350
4B
  3
A4
350
4C
  3
A5
350
4D
  3
A6
350
4E
  3
A7
350
4F
  3
A8
350
50
  3
A9
350
51
  3
B0
350
52
  3
B1
350
53
  3
B2
350
54
  3
B3
350
55
  3
B4
350
56
  3
B5
350
57
  3
B6
350
58
  0
DICTIONARY
  5
A7
102
{ACAD_REACTORS
330
C
102
}
330
C
100
AcDbDictionary
281
     1
  0
DICTIONARY
  5
59
102
{ACAD_REACTORS
330
C
102
}
330
C
100
AcDbDictionary
281
     1
  3
Standard
350
5A
  0
DICTIONARY
  5
2A
102
{ACAD_REACTORS
330
C
102
}
330
C
100
AcDbDictionary
281
     1
  3
2dWireframe
350
2F
  3
Basic
350
32
  3
Brighten
350
36
  3
ColorChange
350
3A
  3
Conceptual
350
34
  3
Dim
350
35
  3
EdgeColorOff
350
3D
  3
Facepattern
350
39
  3
Flat
350
2B
  3
FlatWithEdges
350
2C
  3
Gouraud
350
2D
  3
GouraudWithEdges
350
2E
  3
Hidden
350
31
  3
JitterOff
350
3B
  3
Linepattern
350
38
  3
OverhangOff
350
3C
  3
Realistic
350
33
  3
Shaded
350
42
  3
Shaded with edges
350
41
  3
Shades of Gray
350
3E
  3
Sketchy
350
3F
  3
Thicken
350
37
  3
Wireframe
350
30
  3
X-Ray
350
40
  0
XRECORD
  5
A3
102
{ACAD_REACTORS
330
C
102
}
330
C
100
AcDbXrecord
280
     1
 90
        1
330
5A
  0
DICTIONARY
  5
9F
102
{ACAD_REACTORS
330
C
102
}
330
C
100
AcDbDictionary
281
     1
  3
CANNOSCALE
350
A0
  3
CENTEREXE
350
A8
  3
CENTERLTYPEFILE
350
A9
  3
CMLEADERSTYLE
350
A5
  3
CTABLESTYLE
350
A4
  0
LAYOUT
  5
1E
102
{ACAD_REACTORS
330
1A
102
}
330
1A
100
AcDbPlotSettings
  1

  2
none_device
  4

  6

 40
0.0
 41
0.0
 42
0.0
 43
0.0
 44
0.0
 45
0.0
 46
0.0
 47
0.0
 48
0.0
 49
0.0
140
0.0
141
0.0
142
1.0
143
1.0
 70
   688
 72
     1
 73
     0
 74
     5
  7

 75
    16
 76
     0
 77
     5
 78
   300
147
1.0
148
0.0
149
0.0
100
AcDbLayout
  1
Layout1
 70
     1
 71
     1
 10
0.0
 20
0.0
 11
420.0
 21
297.0
 12
0.0
 22
0.0
 32
0.0
 14
1.000000000000000E+20
 24
1.000000000000000E+20
 34
1.000000000000000E+20
 15
-1.000000000000000E+20
 25
-1.000000000000000E+20
 35
-1.000000000000000E+20
146
0.0
 13
0.0
 23
0.0
 33
0.0
 16
1.0
 26
0.0
 36
0.0
 17
0.0
 27
1.0
 37
0.0
 76
     0
330
1B
  0
LAYOUT
  5
26
102
{ACAD_REACTORS
330
1A
102
}
330
1A
100
AcDbPlotSettings
  1

  2
none_device
  4

  6

 40
0.0
 41
0.0
 42
0.0
 43
0.0
 44
0.0
 45
0.0
 46
0.0
 47
0.0
 48
0.0
 49
0.0
140
0.0
141
0.0
142
1.0
143
1.0
 70
   688
 72
     1
 73
     0
 74
     5
  7

 75
    16
 76
     0
 77
     5
 78
   300
147
1.0
148
0.0
149
0.0
100
AcDbLayout
  1
Layout2
 70
     1
 71
     2
 10
0.0
 20
0.0
 11
0.0
 21
0.0
 12
0.0
 22
0.0
 32
0.0
 14
0.0
 24
0.0
 34
0.0
 15
0.0
 25
0.0
 35
0.0
146
0.0
 13
0.0
 23
0.0
 33
0.0
 16
1.0
 26
0.0
 36
0.0
 17
0.0
 27
1.0
 37
0.0
 76
     0
330
23
  0
LAYOUT
  5
22
102
{ACAD_REACTORS
330
1A
102
}
330
1A
100
AcDbPlotSettings
  1

  2
none_device
  4
Letter_(8.50_x_11.00_Inches)
  6

 40
6.35
 41
6.35
 42
6.35000508
 43
6.35000508
 44
215.9
 45
279.4
 46
0.0
 47
0.0
 48
0.0
 49
0.0
140
0.0
141
0.0
142
1.0
143
1.0
 70
  1712
 72
     1
 73
     0
 74
     0
  7

 75
     0
 76
     0
 77
     5
 78
   300
147
1.0
148
0.0
149
0.0
100
AcDbLayout
  1
Model
 70
     1
 71
     0
 10
0.0
 20
0.0
 11
302.9997823349792
 21
216.0016055409748
 12
0.0
 22
0.0
 32
0.0
 14
0.0
 24
0.0
 34
0.0
 15
302.9997823349792
 25
216.0016055409748
 35
0.0
146
0.0
 13
0.0
 23
0.0
 33
0.0
 16
1.0
 26
0.0
 36
0.0
 17
0.0
 27
1.0
 37
0.0
 76
     0
330
1F
331
29
  0
MATERIAL
  5
45
102
{ACAD_REACTORS
330
43
102
}
330
43
100
AcDbMaterial
  1
ByBlock
 72
     1
 94
      127
  0
MATERIAL
  5
44
102
{ACAD_REACTORS
330
43
102
}
330
43
100
AcDbMaterial
  1
ByLayer
 72
     1
 94
      127
  0
MATERIAL
  5
46
102
{ACAD_REACTORS
330
43
102
}
330
43
100
AcDbMaterial
  1
Global
 72
     1
 94
      127
  0
MLEADERSTYLE
  5
5C
102
{ACAD_REACTORS
330
5B
102
}
330
5B
100
AcDbMLeaderStyle
179
     2
170
     2
171
     1
172
     0
 90
        2
 40
0.0
 41
0.0
173
     1
 91
-1056964608
340
14
 92
       -2
290
     1
 42
2.0
291
     1
 43
8.0
  3
Standard
341
0
 44
4.0
300

342
11
174
     1
178
     6
175
     1
176
     0
 93
-1056964608
 45
4.0
292
     0
297
     0
 46
4.0
343
0
 94
-1056964608
 47
1.0
 49
1.0
140
1.0
293
     1
141
0.0
294
     1
177
     0
142
1.0
295
     0
296
     0
143
3.75
271
     0
272
     9
273
     9
298
     0
  0
MLINESTYLE
  5
18
102
{ACAD_REACTORS
330
17
102
}
330
17
100
AcDbMlineStyle
  2
Standard
 70
     0
  3

 62
   256
 51
90.0
 52
90.0
 71
     2
 49
0.5
 62
   256
  6
BYLAYER
 49
-0.5
 62
   256
  6
BYLAYER
  0
ACDBPLACEHOLDER
  5
F
102
{ACAD_REACTORS
330
E
102
}
330
E
  0
SCALE
  5
48
102
{ACAD_REACTORS
330
47
102
}
330
47
100
AcDbScale
 70
     0
300
1:1
140
1.0
141
1.0
290
     1
  0
SCALE
  5
49
102
{ACAD_REACTORS
330
47
102
}
330
47
100
AcDbScale
 70
     0
300
1:2
140
1.0
141
2.0
290
     0
  0
SCALE
  5
4A
102
{ACAD_REACTORS
330
47
102
}
330
47
100
AcDbScale
 70
     0
300
1:4
140
1.0
141
4.0
290
     0
  0
SCALE
  5
4B
102
{ACAD_REACTORS
330
47
102
}
330
47
100
AcDbScale
 70
     0
300
1:5
140
1.0
141
5.0
290
     0
  0
SCALE
  5
4C
102
{ACAD_REACTORS
330
47
102
}
330
47
100
AcDbScale
 70
     0
300
1:8
140
1.0
141
8.0
290
     0
  0
SCALE
  5
4D
102
{ACAD_REACTORS
330
47
102
}
330
47
100
AcDbScale
 70
     0
300
1:10
140
1.0
141
10.0
290
     0
  0
SCALE
  5
4E
102
{ACAD_REACTORS
330
47
102
}
330
47
100
AcDbScale
 70
     0
300
1:16
140
1.0
141
16.0
290
     0
  0
SCALE
  5
4F
102
{ACAD_REACTORS
330
47
102
}
330
47
100
AcDbScale
 70
     0
300
1:20
140
1.0
141
20.0
290
     0
  0
SCALE
  5
50
102
{ACAD_REACTORS
330
47
102
}
330
47
100
AcDbScale
 70
     0
300
1:30
140
1.0
141
30.0
290
     0
  0
SCALE
  5
51
102
{ACAD_REACTORS
330
47
102
}
330
47
100
AcDbScale
 70
     0
300
1:40
140
1.0
141
40.0
290
     0
  0
SCALE
  5
52
102
{ACAD_REACTORS
330
47
102
}
330
47
100
AcDbScale
 70
     0
300
1:50
140
1.0
141
50.0
290
     0
  0
SCALE
  5
53
102
{ACAD_REACTORS
330
47
102
}
330
47
100
AcDbScale
 70
     0
300
1:100
140
1.0
141
100.0
290
     0
  0
SCALE
  5
54
102
{ACAD_REACTORS
330
47
102
}
330
47
100
AcDbScale
 70
     0
300
2:1
140
2.0
141
1.0
290
     0
  0
SCALE
  5
55
102
{ACAD_REACTORS
330
47
102
}
330
47
100
AcDbScale
 70
     0
300
4:1
140
4.0
141
1.0
290
     0
  0
SCALE
  5
56
102
{ACAD_REACTORS
330
47
102
}
330
47
100
AcDbScale
 70
     0
300
8:1
140
8.0
141
1.0
290
     0
  0
SCALE
  5
57
102
{ACAD_REACTORS
330
47
102
}
330
47
100
AcDbScale
 70
     0
300
10:1
140
10.0
141
1.0
290
     0
  0
SCALE
  5
58
102
{ACAD_REACTORS
330
47
102
}
330
47
100
AcDbScale
 70
     0
300
100:1
140
100.0
141
1.0
290
     0
  0
TABLESTYLE
  5
5A
102
{ACAD_REACTORS
330
59
102
}
102
{ACAD_XDICTIONARY
360
A1
102
}
330
59
100
AcDbTableStyle
  3
Standard
 70
     0
 71
     0
 40
0.06
 41
0.06
280
     0
281
     0
  7
Standard
140
4.5
170
     2
 62
     0
 63
   257
283
     0
 90
        4
 91
        0
  1

274
    -2
284
     1
 64
     0
275
    -2
285
     1
 65
     0
276
    -2
286
     1
 66
     0
277
    -2
287
     1
 67
     0
278
    -2
288
     1
 68
     0
279
    -2
289
     1
 69
     0
  7
Standard
140
6.0
170
     5
 62
     0
 63
   257
283
     0
 90
        4
 91
        0
  1

274
    -2
284
     1
 64
     0
275
    -2
285
     1
 65
     0
276
    -2
286
     1
 66
     0
277
    -2
287
     1
 67
     0
278
    -2
288
     1
 68
     0
279
    -2
289
     1
 69
     0
  7
Standard
140
4.5
170
     5
 62
     0
 63
   257
283
     0
 90
        4
 91
        0
  1

274
    -2
284
     1
 64
     0
275
    -2
285
     1
 65
     0
276
    -2
286
     1
 66
     0
277
    -2
287
     1
 67
     0
278
    -2
288
     1
 68
     0
279
    -2
289
     1
 69
     0
  0
VISUALSTYLE
  5
2F
102
{ACAD_REACTORS
330
2A
102
}
330
2A
100
AcDbVisualStyle
  2
2dWireframe
 70
     4
177
     3
291
     0
 70
    58
 90
        0
176
     1
 90
        2
176
     1
 90
        0
176
     1
 90
        0
176
     1
 40
0.6
176
     1
 40
30.0
176
     1
 62
     7
420
 16777215
176
     1
 90
        1
176
     1
 90
        4
176
     1
 62
     7
176
     1
 62
   257
176
     1
 90
        1
176
     1
 90
        1
176
     1
 40
1.0
176
     1
 90
        0
176
     1
 62
   257
176
     1
 40
1.0
176
     1
 90
        1
176
     1
 90
        6
176
     1
 90
        2
176
     1
 62
     7
176
     1
 90
        5
176
     1
 90
        0
176
     1
 90
        0
176
     1
290
     0
176
     1
 90
        1
176
     1
 40
0.0
176
     1
 90
        0
176
     1
290
     1
176
     1
290
     1
176
     1
290
     0
176
     1
290
     0
176
     1
290
     0
176
     1
290
     0
176
     1
290
     0
176
     1
290
     0
176
     1
290
     0
176
     1
 90
       50
176
     1
 40
0.0
176
     1
 40
1.0
176
     1
 90
        0
176
     1
 62
    18
420
        0
176
     1
 90
       50
176
     1
 90
        3
176
     1
 62
     5
420
      255
176
     1
290
     0
176
     1
 90
       50
176
     1
 90
       50
176
     1
 90
       50
176
     1
290
     0
176
     1
 90
       50
176
     1
 62
   256
176
     0
 40
1.0
176
     0
 90
        2
176
     1
  1
strokes_ogs.tif
176
     1
290
     0
176
     1
 40
1.0
176
     1
 40
1.0
176
     1
  0
VISUALSTYLE
  5
32
102
{ACAD_REACTORS
330
2A
102
}
330
2A
100
AcDbVisualStyle
  2
Basic
 70
     7
177
     3
291
     1
 70
    58
 90
        1
176
     1
 90
        0
176
     1
 90
        1
176
     1
 90
        0
176
     1
 40
0.6
176
     1
 40
30.0
176
     1
 62
     7
420
 16777215
176
     1
 90
        0
176
     1
 90
        4
176
     1
 62
     7
176
     1
 62
   257
176
     1
 90
        1
176
     1
 90
        1
176
     1
 40
1.0
176
     1
 90
        8
176
     1
 62
     7
176
     1
 40
1.0
176
     1
 90
        1
176
     1
 90
        6
176
     1
 90
        2
176
     1
 62
     7
176
     1
 90
        5
176
     1
 90
        0
176
     1
 90
        0
176
     1
290
     0
176
     1
 90
        1
176
     1
 40
0.0
176
     1
 90
        0
176
     1
290
     0
176
     1
290
     1
176
     1
290
     1
176
     1
290
     0
176
     1
290
     0
176
     1
290
     0
176
     1
290
     0
176
     1
290
     0
176
     1
290
     0
176
     1
 90
       50
176
     1
 40
0.0
176
     1
 40
1.0
176
     1
 90
        0
176
     1
 62
    18
420
        0
176
     1
 90
       50
176
     1
 90
        3
176
     1
 62
     5
420
      255
176
     1
290
     0
176
     1
 90
       50
176
     1
 90
       50
176
     1
 90
       50
176
     1
290
     0
176
     1
 90
       50
176
     1
 62
   256
176
     0
 40
1.0
176
     0
 90
        2
176
     1
  1
strokes_ogs.tif
176
     1
290
     0
176
     1
 40
1.0
176
     1
 40
1.0
176
     1
  0
VISUALSTYLE
  5
36
102
{ACAD_REACTORS
330
2A
102
}
330
2A
100
AcDbVisualStyle
  2
Brighten
 70
    12
177
     3
291
     1
 70
    58
 90
        2
176
     1
 90
        2
176
     1
 90
        0
176
     1
 90
        0
176
     1
 40
0.6
176
     1
 40
30.0
176
     1
 62
     7
420
 16777215
176
     1
 90
        1
176
     1
 90
        4
176
     1
 62
     7
176
     1
 62
   257
176
     1
 90
        1
176
     1
 90
        1
176
     1
 40
1.0
176
     1
 90
        8
176
     1
 62
     7
176
     1
 40
1.0
176
     1
 90
        1
176
     1
 90
        6
176
     1
 90
        2
176
     1
 62
     7
176
     1
 90
        5
176
     1
 90
        0
176
     1
 90
        0
176
     1
290
     0
176
     1
 90
        1
176
     1
 40
50.0
176
     1
 90
        0
176
     1
290
     0
176
     1
290
     1
176
     1
290
     1
176
     1
290
     0
176
     1
290
     0
176
     1
290
     0
176
     1
290
     0
176
     1
290
     0
176
     1
290
     0
176
     1
 90
       50
176
     1
 40
0.0
176
     1
 40
1.0
176
     1
 90
        0
176
     1
 62
    18
420
        0
176
     1
 90
       50
176
     1
 90
        3
176
     1
 62
     5
420
      255
176
     1
290
     0
176
     1
 90
       50
176
     1
 90
       50
176
     1
 90
       50
176
     1
290
     0
176
     1
 90
       50
176
     1
 62
   256
176
     0
 40
1.0
176
     0
 90
        2
176
     1
  1
strokes_ogs.tif
176
     1
290
     0
176
     1
 40
1.0
176
     1
 40
1.0
176
     1
  0
VISUALSTYLE
  5
3A
102
{ACAD_REACTORS
330
2A
102
}
330
2A
100
AcDbVisualStyle
  2
ColorChange
 70
    16
177
     3
291
     1
 70
    58
 90
        2
176
     1
 90
        2
176
     1
 90
        3
176
     1
 90
        0
176
     1
 40
0.6
176
     1
 40
30.0
176
     1
 62
     8
420
  8421504
176
     1
 90
        1
176
     1
 90
        4
176
     1
 62
     7
176
     1
 62
   257
176
     1
 90
        1
176
     1
 90
        1
176
     1
 40
1.0
176
     1
 90
        8
176
     1
 62
     8
420
  8421504
176
     1
 40
1.0
176
     1
 90
        1
176
     1
 90
        6
176
     1
 90
        2
176
     1
 62
     7
176
     1
 90
        5
176
     1
 90
        0
176
     1
 90
        0
176
     1
290
     0
176
     1
 90
        1
176
     1
 40
0.0
176
     1
 90
        0
176
     1
290
     0
176
     1
290
     1
176
     1
290
     1
176
     1
290
     0
176
     1
290
     0
176
     1
290
     0
176
     1
290
     0
176
     1
290
     0
176
     1
290
     0
176
     1
 90
       50
176
     1
 40
0.0
176
     1
 40
1.0
176
     1
 90
        0
176
     1
 62
    18
420
        0
176
     1
 90
       50
176
     1
 90
        3
176
     1
 62
     5
420
      255
176
     1
290
     0
176
     1
 90
       50
176
     1
 90
       50
176
     1
 90
       50
176
     1
290
     0
176
     1
 90
       50
176
     1
 62
   256
176
     0
 40
1.0
176
     0
 90
        2
176
     1
  1
strokes_ogs.tif
176
     1
290
     0
176
     1
 40
1.0
176
     1
 40
1.0
176
     1
  0
VISUALSTYLE
  5
34
102
{ACAD_REACTORS
330
2A
102
}
330
2A
100
AcDbVisualStyle
  2
Conceptual
 70
     9
177
     3
291
     0
 70
    58
 90
        3
176
     1
 90
        2
176
     1
 90
        0
176
     1
 90
        0
176
     1
 40
0.6
176
     1
 40
30.0
176
     1
 62
     7
420
 16777215
176
     1
 90
        2
176
     1
 90
        2
176
     1
 62
     7
176
     1
 62
   257
176
     1
 90
        1
176
     1
 90
        1
176
     1
 40
179.0
176
     1
 90
        8
176
     1
 62
     7
176
     1
 40
1.0
176
     1
 90
        1
176
     1
 90
        6
176
     1
 90
        2
176
     1
 62
     7
176
     1
 90
        3
176
     1
 90
        0
176
     1
 90
        0
176
     1
290
     0
176
     1
 90
        1
176
     1
 40
0.0
176
     1
 90
        0
176
     1
290
     0
176
     1
290
     1
176
     1
290
     1
176
     1
290
     0
176
     1
290
     0
176
     1
290
     0
176
     1
290
     0
176
     1
290
     0
176
     1
290
     0
176
     1
 90
       50
176
     1
 40
0.0
176
     1
 40
1.0
176
     1
 90
        0
176
     1
 62
    18
420
        0
176
     1
 90
       50
176
     1
 90
        3
176
     1
 62
     5
420
      255
176
     1
290
     0
176
     1
 90
       50
176
     1
 90
       50
176
     1
 90
       50
176
     1
290
     0
176
     1
 90
       50
176
     1
 62
   256
176
     0
 40
1.0
176
     0
 90
        2
176
     1
  1
strokes_ogs.tif
176
     1
290
     0
176
     1
 40
1.0
176
     1
 40
1.0
176
     1
  0
VISUALSTYLE
  5
35
102
{ACAD_REACTORS
330
2A
102
}
330
2A
100
AcDbVisualStyle
  2
Dim
 70
    11
177
     3
291
     1
 70
    58
 90
        2
176
     1
 90
        2
176
     1
 90
        0
176
     1
 90
        0
176
     1
 40
0.6
176
     1
 40
30.0
176
     1
 62
     7
420
 16777215
176
     1
 90
        1
176
     1
 90
        4
176
     1
 62
     7
176
     1
 62
   257
176
     1
 90
        1
176
     1
 90
        1
176
     1
 40
1.0
176
     1
 90
        8
176
     1
 62
     7
176
     1
 40
1.0
176
     1
 90
        1
176
     1
 90
        6
176
     1
 90
        2
176
     1
 62
     7
176
     1
 90
        5
176
     1
 90
        0
176
     1
 90
        0
176
     1
290
     0
176
     1
 90
        1
176
     1
 40
-50.0
176
     1
 90
        0
176
     1
290
     0
176
     1
290
     1
176
     1
290
     1
176
     1
290
     0
176
     1
290
     0
176
     1
290
     0
176
     1
290
     0
176
     1
290
     0
176
     1
290
     0
176
     1
 90
       50
176
     1
 40
0.0
176
     1
 40
1.0
176
     1
 90
        0
176
     1
 62
    18
420
        0
176
     1
 90
       50
176
     1
 90
        3
176
     1
 62
     5
420
      255
176
     1
290
     0
176
     1
 90
       50
176
     1
 90
       50
176
     1
 90
       50
176
     1
290
     0
176
     1
 90
       50
176
     1
 62
   256
176
     0
 40
1.0
176
     0
 90
        2
176
     1
  1
strokes_ogs.tif
176
     1
290
     0
176
     1
 40
1.0
176
     1
 40
1.0
176
     1
  0
VISUALSTYLE
  5
3D
102
{ACAD_REACTORS
330
2A
102
}
330
2A
100
AcDbVisualStyle
  2
EdgeColorOff
 70
    22
177
     3
291
     1
 70
    58
 90
        2
176
     0
 90
        2
176
     0
 90
        0
176
     0
 90
        0
176
     0
 40
0.6
176
     0
 40
30.0
176
     0
 62
     7
420
 16777215
176
     0
 90
        1
176
     0
 90
        4
176
     0
 62
     7
176
     0
 62
   257
176
     0
 90
        1
176
     0
 90
        1
176
     0
 40
1.0
176
     0
 90
        8
176
     2
 62
     7
176
     0
 40
1.0
176
     0
 90
        1
176
     0
 90
        6
176
     0
 90
        2
176
     0
 62
     7
176
     0
 90
        5
176
     0
 90
        0
176
     0
 90
        0
176
     0
290
     0
176
     0
 90
        1
176
     0
 40
0.0
176
     0
 90
        0
176
     0
290
     0
176
     0
290
     1
176
     0
290
     1
176
     0
290
     0
176
     0
290
     0
176
     0
290
     0
176
     0
290
     0
176
     0
290
     0
176
     0
290
     0
176
     0
 90
       50
176
     0
 40
0.0
176
     0
 40
1.0
176
     0
 90
        0
176
     0
 62
    18
420
        0
176
     0
 90
       50
176
     0
 90
        3
176
     0
 62
     5
420
      255
176
     0
290
     0
176
     0
 90
       50
176
     0
 90
       50
176
     0
 90
       50
176
     0
290
     0
176
     0
 90
       50
176
     0
 62
   256
176
     0
 40
1.0
176
     0
 90
        2
176
     0
  1
strokes_ogs.tif
176
     0
290
     0
176
     0
 40
1.0
176
     0
 40
1.0
176
     0
  0
VISUALSTYLE
  5
39
102
{ACAD_REACTORS
330
2A
102
}
330
2A
100
AcDbVisualStyle
  2
Facepattern
 70
    15
177
     3
291
     1
 70
    58
 90
        2
176
     1
 90
        2
176
     1
 90
        0
176
     1
 90
        0
176
     1
 40
0.6
176
     1
 40
30.0
176
     1
 62
     7
420
 16777215
176
     1
 90
        1
176
     1
 90
        4
176
     1
 62
     7
176
     1
 62
   257
176
     1
 90
        1
176
     1
 90
        1
176
     1
 40
1.0
176
     1
 90
        8
176
     1
 62
     7
176
     1
 40
1.0
176
     1
 90
        1
176
     1
 90
        6
176
     1
 90
        2
176
     1
 62
     7
176
     1
 90
        5
176
     1
 90
        0
176
     1
 90
        0
176
     1
290
     0
176
     1
 90
        1
176
     1
 40
0.0
176
     1
 90
        0
176
     1
290
     0
176
     1
290
     1
176
     1
290
     1
176
     1
290
     0
176
     1
290
     0
176
     1
290
     0
176
     1
290
     0
176
     1
290
     0
176
     1
290
     0
176
     1
 90
       50
176
     1
 40
0.0
176
     1
 40
1.0
176
     1
 90
        0
176
     1
 62
    18
420
        0
176
     1
 90
       50
176
     1
 90
        3
176
     1
 62
     5
420
      255
176
     1
290
     0
176
     1
 90
       50
176
     1
 90
       50
176
     1
 90
       50
176
     1
290
     0
176
     1
 90
       50
176
     1
 62
   256
176
     0
 40
1.0
176
     0
 90
        2
176
     1
  1
strokes_ogs.tif
176
     1
290
     0
176
     1
 40
1.0
176
     1
 40
1.0
176
     1
  0
VISUALSTYLE
  5
2B
102
{ACAD_REACTORS
330
2A
102
}
330
2A
100
AcDbVisualStyle
  2
Flat
 70
     0
177
     3
291
     1
 70
    58
 90
        2
176
     1
 90
        1
176
     1
 90
        1
176
     1
 90
        2
176
     1
 40
0.6
176
     1
 40
30.0
176
     1
 62
     7
420
 16777215
176
     1
 90
        0
176
     1
 90
        0
176
     1
 62
     7
176
     1
 62
   257
176
     1
 90
        1
176
     1
 90
        1
176
     1
 40
1.0
176
     1
 90
        8
176
     1
 62
     7
176
     1
 40
1.0
176
     1
 90
        1
176
     1
 90
        6
176
     1
 90
        2
176
     1
 62
     7
176
     1
 90
        5
176
     1
 90
        0
176
     1
 90
        0
176
     1
290
     0
176
     1
 90
       13
176
     1
 40
0.0
176
     1
 90
        0
176
     1
290
     0
176
     1
290
     1
176
     1
290
     1
176
     1
290
     0
176
     1
290
     0
176
     1
290
     0
176
     1
290
     0
176
     1
290
     0
176
     1
290
     0
176
     1
 90
       50
176
     1
 40
0.0
176
     1
 40
1.0
176
     1
 90
        0
176
     1
 62
    18
420
        0
176
     1
 90
       50
176
     1
 90
        3
176
     1
 62
     5
420
      255
176
     1
290
     0
176
     1
 90
       50
176
     1
 90
       50
176
     1
 90
       50
176
     1
290
     0
176
     1
 90
       50
176
     1
 62
   256
176
     0
 40
1.0
176
     0
 90
        2
176
     1
  1
strokes_ogs.tif
176
     1
290
     0
176
     1
 40
1.0
176
     1
 40
1.0
176
     1
  0
VISUALSTYLE
  5
2C
102
{ACAD_REACTORS
330
2A
102
}
330
2A
100
AcDbVisualStyle
  2
FlatWithEdges
 70
     1
177
     3
291
     1
 70
    58
 90
        2
176
     1
 90
        1
176
     1
 90
        1
176
     1
 90
        2
176
     1
 40
0.6
176
     1
 40
30.0
176
     1
 62
     7
420
 16777215
176
     1
 90
        1
176
     1
 90
        0
176
     1
 62
     7
176
     1
 62
   257
176
     1
 90
        1
176
     1
 90
        1
176
     1
 40
1.0
176
     1
 90
        0
176
     1
 62
   257
176
     1
 40
1.0
176
     1
 90
        1
176
     1
 90
        6
176
     1
 90
        2
176
     1
 62
     7
176
     1
 90
        5
176
     1
 90
        0
176
     1
 90
        0
176
     1
290
     0
176
     1
 90
       13
176
     1
 40
0.0
176
     1
 90
        0
176
     1
290
     0
176
     1
290
     1
176
     1
290
     1
176
     1
290
     0
176
     1
290
     0
176
     1
290
     0
176
     1
290
     0
176
     1
290
     0
176
     1
290
     0
176
     1
 90
       50
176
     1
 40
0.0
176
     1
 40
1.0
176
     1
 90
        0
176
     1
 62
    18
420
        0
176
     1
 90
       50
176
     1
 90
        3
176
     1
 62
     5
420
      255
176
     1
290
     0
176
     1
 90
       50
176
     1
 90
       50
176
     1
 90
       50
176
     1
290
     0
176
     1
 90
       50
176
     1
 62
   256
176
     0
 40
1.0
176
     0
 90
        2
176
     1
  1
strokes_ogs.tif
176
     1
290
     0
176
     1
 40
1.0
176
     1
 40
1.0
176
     1
  0
VISUALSTYLE
  5
2D
102
{ACAD_REACTORS
330
2A
102
}
330
2A
100
AcDbVisualStyle
  2
Gouraud
 70
     2
177
     3
291
     1
 70
    58
 90
        2
176
     1
 90
        2
176
     1
 90
        1
176
     1
 90
        2
176
     1
 40
0.6
176
     1
 40
30.0
176
     1
 62
     7
420
 16777215
176
     1
 90
        0
176
     1
 90
        0
176
     1
 62
     7
176
     1
 62
   257
176
     1
 90
        1
176
     1
 90
        1
176
     1
 40
1.0
176
     1
 90
        0
176
     1
 62
     7
176
     1
 40
1.0
176
     1
 90
        1
176
     1
 90
        6
176
     1
 90
        2
176
     1
 62
     7
176
     1
 90
        5
176
     1
 90
        0
176
     1
 90
        0
176
     1
290
     0
176
     1
 90
       13
176
     1
 40
0.0
176
     1
 90
        0
176
     1
290
     0
176
     1
290
     1
176
     1
290
     1
176
     1
290
     0
176
     1
290
     0
176
     1
290
     0
176
     1
290
     0
176
     1
290
     0
176
     1
290
     0
176
     1
 90
       50
176
     1
 40
0.0
176
     1
 40
1.0
176
     1
 90
        0
176
     1
 62
    18
420
        0
176
     1
 90
       50
176
     1
 90
        3
176
     1
 62
     5
420
      255
176
     1
290
     0
176
     1
 90
       50
176
     1
 90
       50
176
     1
 90
       50
176
     1
290
     0
176
     1
 90
       50
176
     1
 62
   256
176
     0
 40
1.0
176
     0
 90
        2
176
     1
  1
strokes_ogs.tif
176
     1
290
     0
176
     1
 40
1.0
176
     1
 40
1.0
176
     1
  0
VISUALSTYLE
  5
2E
102
{ACAD_REACTORS
330
2A
102
}
330
2A
100
AcDbVisualStyle
  2
GouraudWithEdges
 70
     3
177
     3
291
     1
 70
    58
 90
        2
176
     1
 90
        2
176
     1
 90
        1
176
     1
 90
        2
176
     1
 40
0.6
176
     1
 40
30.0
176
     1
 62
     7
420
 16777215
176
     1
 90
        1
176
     1
 90
        0
176
     1
 62
     7
176
     1
 62
   257
176
     1
 90
        1
176
     1
 90
        1
176
     1
 40
1.0
176
     1
 90
        0
176
     1
 62
   257
176
     1
 40
1.0
176
     1
 90
        1
176
     1
 90
        6
176
     1
 90
        2
176
     1
 62
     7
176
     1
 90
        5
176
     1
 90
        0
176
     1
 90
        0
176
     1
290
     0
176
     1
 90
       13
176
     1
 40
0.0
176
     1
 90
        0
176
     1
290
     0
176
     1
290
     1
176
     1
290
     1
176
     1
290
     0
176
     1
290
     0
176
     1
290
     0
176
     1
290
     0
176
     1
290
     0
176
     1
290
     0
176
     1
 90
       50
176
     1
 40
0.0
176
     1
 40
1.0
176
     1
 90
        0
176
     1
 62
    18
420
        0
176
     1
 90
       50
176
     1
 90
        3
176
     1
 62
     5
420
      255
176
     1
290
     0
176
     1
 90
       50
176
     1
 90
       50
176
     1
 90
       50
176
     1
290
     0
176
     1
 90
       50
176
     1
 62
   256
176
     0
 40
1.0
176
     0
 90
        2
176
     1
  1
strokes_ogs.tif
176
     1
290
     0
176
     1
 40
1.0
176
     1
 40
1.0
176
     1
  0
VISUALSTYLE
  5
31
102
{ACAD_REACTORS
330
2A
102
}
330
2A
100
AcDbVisualStyle
  2
Hidden
 70
     6
177
     3
291
     0
 70
    58
 90
        1
176
     1
 90
        2
176
     1
 90
        2
176
     1
 90
        0
176
     1
 40
0.6
176
     1
 40
30.0
176
     1
 62
     7
420
 16777215
176
     1
 90
        2
176
     1
 90
        2
176
     1
 62
     7
176
     1
 62
   257
176
     1
 90
        2
176
     1
 90
        1
176
     1
 40
40.0
176
     1
 90
        0
176
     1
 62
   257
176
     1
 40
1.0
176
     1
 90
        1
176
     1
 90
        6
176
     1
 90
        2
176
     1
 62
     7
176
     1
 90
        3
176
     1
 90
        0
176
     1
 90
        0
176
     1
290
     0
176
     1
 90
        1
176
     1
 40
0.0
176
     1
 90
        0
176
     1
290
     0
176
     1
290
     1
176
     1
290
     1
176
     1
290
     0
176
     1
290
     0
176
     1
290
     0
176
     1
290
     0
176
     1
290
     0
176
     1
290
     0
176
     1
 90
       50
176
     1
 40
0.0
176
     1
 40
1.0
176
     1
 90
        0
176
     1
 62
    18
420
        0
176
     1
 90
       50
176
     1
 90
        3
176
     1
 62
     5
420
      255
176
     1
290
     0
176
     1
 90
       50
176
     1
 90
       50
176
     1
 90
       50
176
     1
290
     0
176
     1
 90
       50
176
     1
 62
   256
176
     0
 40
1.0
176
     0
 90
        2
176
     1
  1
strokes_ogs.tif
176
     1
290
     0
176
     1
 40
1.0
176
     1
 40
1.0
176
     1
  0
VISUALSTYLE
  5
3B
102
{ACAD_REACTORS
330
2A
102
}
330
2A
100
AcDbVisualStyle
  2
JitterOff
 70
    20
177
     3
291
     1
 70
    58
 90
        2
176
     0
 90
        2
176
     0
 90
        0
176
     0
 90
        0
176
     0
 40
0.6
176
     0
 40
30.0
176
     0
 62
     7
420
 16777215
176
     0
 90
        1
176
     0
 90
        4
176
     0
 62
     7
176
     0
 62
   257
176
     0
 90
        1
176
     0
 90
        1
176
     0
 40
1.0
176
     0
 90
       10
176
     2
 62
     7
176
     0
 40
1.0
176
     0
 90
        1
176
     0
 90
        6
176
     0
 90
        2
176
     0
 62
     7
176
     0
 90
        5
176
     0
 90
        0
176
     0
 90
        0
176
     0
290
     0
176
     0
 90
        1
176
     0
 40
0.0
176
     0
 90
        0
176
     0
290
     0
176
     0
290
     1
176
     0
290
     1
176
     0
290
     0
176
     0
290
     0
176
     0
290
     0
176
     0
290
     0
176
     0
290
     0
176
     0
290
     0
176
     0
 90
       50
176
     0
 40
0.0
176
     0
 40
1.0
176
     0
 90
        0
176
     0
 62
    18
420
        0
176
     0
 90
       50
176
     0
 90
        3
176
     0
 62
     5
420
      255
176
     0
290
     0
176
     0
 90
       50
176
     0
 90
       50
176
     0
 90
       50
176
     0
290
     0
176
     0
 90
       50
176
     0
 62
   256
176
     0
 40
1.0
176
     0
 90
        2
176
     0
  1
strokes_ogs.tif
176
     0
290
     0
176
     0
 40
1.0
176
     0
 40
1.0
176
     0
  0
VISUALSTYLE
  5
38
102
{ACAD_REACTORS
330
2A
102
}
330
2A
100
AcDbVisualStyle
  2
Linepattern
 70
    14
177
     3
291
     1
 70
    58
 90
        2
176
     1
 90
        2
176
     1
 90
        0
176
     1
 90
        0
176
     1
 40
0.6
176
     1
 40
30.0
176
     1
 62
     7
420
 16777215
176
     1
 90
        1
176
     1
 90
        4
176
     1
 62
     7
176
     1
 62
   257
176
     1
 90
        7
176
     1
 90
        7
176
     1
 40
1.0
176
     1
 90
        8
176
     1
 62
     7
176
     1
 40
1.0
176
     1
 90
        1
176
     1
 90
        6
176
     1
 90
        2
176
     1
 62
     7
176
     1
 90
        5
176
     1
 90
        0
176
     1
 90
        0
176
     1
290
     0
176
     1
 90
        1
176
     1
 40
0.0
176
     1
 90
        0
176
     1
290
     0
176
     1
290
     1
176
     1
290
     1
176
     1
290
     0
176
     1
290
     0
176
     1
290
     0
176
     1
290
     0
176
     1
290
     0
176
     1
290
     0
176
     1
 90
       50
176
     1
 40
0.0
176
     1
 40
1.0
176
     1
 90
        0
176
     1
 62
    18
420
        0
176
     1
 90
       50
176
     1
 90
        3
176
     1
 62
     5
420
      255
176
     1
290
     0
176
     1
 90
       50
176
     1
 90
       50
176
     1
 90
       50
176
     1
290
     0
176
     1
 90
       50
176
     1
 62
   256
176
     0
 40
1.0
176
     0
 90
        2
176
     1
  1
strokes_ogs.tif
176
     1
290
     0
176
     1
 40
1.0
176
     1
 40
1.0
176
     1
  0
VISUALSTYLE
  5
3C
102
{ACAD_REACTORS
330
2A
102
}
330
2A
100
AcDbVisualStyle
  2
OverhangOff
 70
    21
177
     3
291
     1
 70
    58
 90
        2
176
     0
 90
        2
176
     0
 90
        0
176
     0
 90
        0
176
     0
 40
0.6
176
     0
 40
30.0
176
     0
 62
     7
420
 16777215
176
     0
 90
        1
176
     0
 90
        4
176
     0
 62
     7
176
     0
 62
   257
176
     0
 90
        1
176
     0
 90
        1
176
     0
 40
1.0
176
     0
 90
        9
176
     2
 62
     7
176
     0
 40
1.0
176
     0
 90
        1
176
     0
 90
        6
176
     0
 90
        2
176
     0
 62
     7
176
     0
 90
        5
176
     0
 90
        0
176
     0
 90
        0
176
     0
290
     0
176
     0
 90
        1
176
     0
 40
0.0
176
     0
 90
        0
176
     0
290
     0
176
     0
290
     1
176
     0
290
     1
176
     0
290
     0
176
     0
290
     0
176
     0
290
     0
176
     0
290
     0
176
     0
290
     0
176
     0
290
     0
176
     0
 90
       50
176
     0
 40
0.0
176
     0
 40
1.0
176
     0
 90
        0
176
     0
 62
    18
420
        0
176
     0
 90
       50
176
     0
 90
        3
176
     0
 62
     5
420
      255
176
     0
290
     0
176
     0
 90
       50
176
     0
 90
       50
176
     0
 90
       50
176
     0
290
     0
176
     0
 90
       50
176
     0
 62
   256
176
     0
 40
1.0
176
     0
 90
        2
176
     0
  1
strokes_ogs.tif
176
     0
290
     0
176
     0
 40
1.0
176
     0
 40
1.0
176
     0
  0
VISUALSTYLE
  5
33
102
{ACAD_REACTORS
330
2A
102
}
330
2A
100
AcDbVisualStyle
  2
Realistic
 70
     8
177
     3
291
     0
 70
    58
 90
        2
176
     1
 90
        3
176
     1
 90
        0
176
     1
 90
        2
176
     1
 40
0.6
176
     1
 40
30.0
176
     1
 62
     7
420
 16777215
176
     1
 90
        0
176
     1
 90
        0
176
     1
 62
     7
176
     1
 62
   257
176
     1
 90
        1
176
     1
 90
        1
176
     1
 40
1.0
176
     1
 90
        8
176
     1
 62
   257
176
     1
 40
1.0
176
     1
 90
        1
176
     1
 90
        6
176
     1
 90
        2
176
     1
 62
     7
176
     1
 90
        3
176
     1
 90
        0
176
     1
 90
        0
176
     1
290
     0
176
     1
 90
       13
176
     1
 40
0.0
176
     1
 90
        0
176
     1
290
     0
176
     1
290
     1
176
     1
290
     1
176
     1
290
     0
176
     1
290
     0
176
     1
290
     0
176
     1
290
     0
176
     1
290
     0
176
     1
290
     0
176
     1
 90
       50
176
     1
 40
0.0
176
     1
 40
1.0
176
     1
 90
        0
176
     1
 62
    18
420
        0
176
     1
 90
       50
176
     1
 90
        3
176
     1
 62
     5
420
      255
176
     1
290
     0
176
     1
 90
       50
176
     1
 90
       50
176
     1
 90
       50
176
     1
290
     0
176
     1
 90
       50
176
     1
 62
   256
176
     0
 40
1.0
176
     0
 90
        2
176
     1
  1
strokes_ogs.tif
176
     1
290
     0
176
     1
 40
1.0
176
     1
 40
1.0
176
     1
  0
VISUALSTYLE
  5
42
102
{ACAD_REACTORS
330
2A
102
}
330
2A
100
AcDbVisualStyle
  2
Shaded
 70
    27
177
     3
291
     0
 70
    58
 90
        2
176
     1
 90
        2
176
     1
 90
        1
176
     1
 90
        2
176
     1
 40
0.6
176
     1
 40
30.0
176
     1
 62
     7
420
 16777215
176
     1
 90
        0
176
     1
 90
        4
176
     1
 62
     7
176
     1
 62
   257
176
     1
 90
        1
176
     1
 90
        1
176
     1
 40
1.0
176
     1
 90
        8
176
     1
 62
   257
176
     1
 40
1.0
176
     1
 90
        1
176
     1
 90
        6
176
     1
 90
        2
176
     1
 62
     8
420
  7895160
176
     1
 90
        3
176
     1
 90
        0
176
     1
 90
        0
176
     1
290
     0
176
     1
 90
        5
176
     1
 40
0.0
176
     1
 90
        0
176
     1
290
     0
176
     1
290
     1
176
     1
290
     1
176
     1
290
     0
176
     1
290
     0
176
     1
290
     0
176
     1
290
     0
176
     1
290
     0
176
     1
290
     0
176
     1
 90
       50
176
     1
 40
0.0
176
     1
 40
1.0
176
     1
 90
        0
176
     1
 62
    18
420
        0
176
     1
 90
       50
176
     1
 90
        3
176
     1
 62
     5
420
      255
176
     1
290
     0
176
     1
 90
       50
176
     1
 90
       50
176
     1
 90
       50
176
     1
290
     0
176
     1
 90
       50
176
     1
 62
   256
176
     0
 40
1.0
176
     0
 90
        2
176
     1
  1
strokes_ogs.tif
176
     1
290
     0
176
     1
 40
1.0
176
     1
 40
1.0
176
     1
  0
VISUALSTYLE
  5
41
102
{ACAD_REACTORS
330
2A
102
}
330
2A
100
AcDbVisualStyle
  2
Shaded with edges
 70
    26
177
     3
291
     0
 70
    58
 90
        2
176
     1
 90
        2
176
     1
 90
        1
176
     1
 90
        2
176
     1
 40
0.6
176
     1
 40
30.0
176
     1
 62
     7
420
 16777215
176
     1
 90
        1
176
     1
 90
       10
176
     1
 62
     7
176
     1
 62
   257
176
     1
 90
        2
176
     1
 90
        1
176
     1
 40
1.0
176
     1
 90
        8
176
     1
 62
   257
176
     1
 40
1.0
176
     1
 90
        1
176
     1
 90
        6
176
     1
 90
        2
176
     1
 62
     7
176
     1
 90
        3
176
     1
 90
        0
176
     1
 90
        0
176
     1
290
     0
176
     1
 90
        5
176
     1
 40
0.0
176
     1
 90
        0
176
     1
290
     0
176
     1
290
     1
176
     1
290
     1
176
     1
290
     0
176
     1
290
     0
176
     1
290
     0
176
     1
290
     0
176
     1
290
     0
176
     1
290
     0
176
     1
 90
       50
176
     1
 40
0.0
176
     1
 40
1.0
176
     1
 90
        0
176
     1
 62
    18
420
        0
176
     1
 90
       50
176
     1
 90
        3
176
     1
 62
     5
420
      255
176
     1
290
     0
176
     1
 90
       50
176
     1
 90
       50
176
     1
 90
       50
176
     1
290
     0
176
     1
 90
       50
176
     1
 62
   256
176
     0
 40
1.0
176
     0
 90
        2
176
     1
  1
strokes_ogs.tif
176
     1
290
     0
176
     1
 40
1.0
176
     1
 40
1.0
176
     1
  0
VISUALSTYLE
  5
3E
102
{ACAD_REACTORS
330
2A
102
}
330
2A
100
AcDbVisualStyle
  2
Shades of Gray
 70
    23
177
     3
291
     0
 70
    58
 90
        2
176
     1
 90
        2
176
     1
 90
        3
176
     1
 90
        0
176
     1
 40
0.6
176
     1
 40
30.0
176
     1
 62
     7
420
 16777215
176
     1
 90
        2
176
     1
 90
        2
176
     1
 62
     7
176
     1
 62
     7
176
     1
 90
        1
176
     1
 90
        1
176
     1
 40
40.0
176
     1
 90
        8
176
     1
 62
     7
176
     1
 40
1.0
176
     1
 90
        1
176
     1
 90
        6
176
     1
 90
        2
176
     1
 62
     7
176
     1
 90
        3
176
     1
 90
        0
176
     1
 90
        0
176
     1
290
     0
176
     1
 90
        1
176
     1
 40
0.0
176
     1
 90
        0
176
     1
290
     0
176
     1
290
     1
176
     1
290
     1
176
     1
290
     0
176
     1
290
     0
176
     1
290
     0
176
     1
290
     0
176
     1
290
     0
176
     1
290
     0
176
     1
 90
       50
176
     1
 40
0.0
176
     1
 40
1.0
176
     1
 90
        0
176
     1
 62
    18
420
        0
176
     1
 90
       50
176
     1
 90
        3
176
     1
 62
     5
420
      255
176
     1
290
     0
176
     1
 90
       50
176
     1
 90
       50
176
     1
 90
       50
176
     1
290
     0
176
     1
 90
       50
176
     1
 62
   256
176
     0
 40
1.0
176
     0
 90
        2
176
     1
  1
strokes_ogs.tif
176
     1
290
     0
176
     1
 40
1.0
176
     1
 40
1.0
176
     1
  0
VISUALSTYLE
  5
3F
102
{ACAD_REACTORS
330
2A
102
}
330
2A
100
AcDbVisualStyle
  2
Sketchy
 70
    24
177
     3
291
     0
 70
    58
 90
        1
176
     1
 90
        2
176
     1
 90
        2
176
     1
 90
        0
176
     1
 40
0.6
176
     1
 40
30.0
176
     1
 62
     7
420
 16777215
176
     1
 90
        2
176
     1
 90
        2
176
     1
 62
     7
176
     1
 62
     7
176
     1
 90
        1
176
     1
 90
        1
176
     1
 40
40.0
176
     1
 90
       11
176
     1
 62
     7
176
     1
 40
1.0
176
     1
 90
        1
176
     1
 90
        6
176
     1
 90
        2
176
     1
 62
     7
176
     1
 90
        6
176
     1
 90
        0
176
     1
 90
        0
176
     1
290
     0
176
     1
 90
        1
176
     1
 40
0.0
176
     1
 90
        0
176
     1
290
     0
176
     1
290
     1
176
     1
290
     1
176
     1
290
     0
176
     1
290
     0
176
     1
290
     0
176
     1
290
     0
176
     1
290
     0
176
     1
290
     0
176
     1
 90
       50
176
     1
 40
0.0
176
     1
 40
1.0
176
     1
 90
        0
176
     1
 62
    18
420
        0
176
     1
 90
       50
176
     1
 90
        3
176
     1
 62
     5
420
      255
176
     1
290
     0
176
     1
 90
       50
176
     1
 90
       50
176
     1
 90
       50
176
     1
290
     0
176
     1
 90
       50
176
     1
 62
   256
176
     0
 40
1.0
176
     0
 90
        2
176
     1
  1
strokes_ogs.tif
176
     1
290
     0
176
     1
 40
1.0
176
     1
 40
1.0
176
     1
  0
VISUALSTYLE
  5
37
102
{ACAD_REACTORS
330
2A
102
}
330
2A
100
AcDbVisualStyle
  2
Thicken
 70
    13
177
     3
291
     1
 70
    58
 90
        2
176
     1
 90
        2
176
     1
 90
        0
176
     1
 90
        0
176
     1
 40
0.6
176
     1
 40
30.0
176
     1
 62
     7
420
 16777215
176
     1
 90
        1
176
     1
 90
        4
176
     1
 62
     7
176
     1
 62
   257
176
     1
 90
        1
176
     1
 90
        1
176
     1
 40
1.0
176
     1
 90
       12
176
     1
 62
     7
176
     1
 40
1.0
176
     1
 90
        1
176
     1
 90
        6
176
     1
 90
        2
176
     1
 62
     7
176
     1
 90
        5
176
     1
 90
        0
176
     1
 90
        0
176
     1
290
     0
176
     1
 90
        1
176
     1
 40
0.0
176
     1
 90
        0
176
     1
290
     0
176
     1
290
     1
176
     1
290
     1
176
     1
290
     0
176
     1
290
     0
176
     1
290
     0
176
     1
290
     0
176
     1
290
     0
176
     1
290
     0
176
     1
 90
       50
176
     1
 40
0.0
176
     1
 40
1.0
176
     1
 90
        0
176
     1
 62
    18
420
        0
176
     1
 90
       50
176
     1
 90
        3
176
     1
 62
     5
420
      255
176
     1
290
     0
176
     1
 90
       50
176
     1
 90
       50
176
     1
 90
       50
176
     1
290
     0
176
     1
 90
       50
176
     1
 62
   256
176
     0
 40
1.0
176
     0
 90
        2
176
     1
  1
strokes_ogs.tif
176
     1
290
     0
176
     1
 40
1.0
176
     1
 40
1.0
176
     1
  0
VISUALSTYLE
  5
30
102
{ACAD_REACTORS
330
2A
102
}
330
2A
100
AcDbVisualStyle
  2
Wireframe
 70
     5
177
     3
291
     0
 70
    58
 90
        0
176
     1
 90
        2
176
     1
 90
        0
176
     1
 90
        0
176
     1
 40
0.6
176
     1
 40
30.0
176
     1
 62
     7
420
 16777215
176
     1
 90
        1
176
     1
 90
        4
176
     1
 62
     7
176
     1
 62
   257
176
     1
 90
        1
176
     1
 90
        1
176
     1
 40
1.0
176
     1
 90
        0
176
     1
 62
   257
176
     1
 40
1.0
176
     1
 90
        1
176
     1
 90
        6
176
     1
 90
        2
176
     1
 62
     7
176
     1
 90
        3
176
     1
 90
        0
176
     1
 90
        0
176
     1
290
     0
176
     1
 90
        1
176
     1
 40
0.0
176
     1
 90
        0
176
     1
290
     0
176
     1
290
     1
176
     1
290
     1
176
     1
290
     0
176
     1
290
     0
176
     1
290
     0
176
     1
290
     0
176
     1
290
     0
176
     1
290
     0
176
     1
 90
       50
176
     1
 40
0.0
176
     1
 40
1.0
176
     1
 90
        0
176
     1
 62
    18
420
        0
176
     1
 90
       50
176
     1
 90
        3
176
     1
 62
     5
420
      255
176
     1
290
     0
176
     1
 90
       50
176
     1
 90
       50
176
     1
 90
       50
176
     1
290
     0
176
     1
 90
       50
176
     1
 62
   256
176
     0
 40
1.0
176
     0
 90
        2
176
     1
  1
strokes_ogs.tif
176
     1
290
     0
176
     1
 40
1.0
176
     1
 40
1.0
176
     1
  0
VISUALSTYLE
  5
40
102
{ACAD_REACTORS
330
2A
102
}
330
2A
100
AcDbVisualStyle
  2
X-Ray
 70
    25
177
     3
291
     0
 70
    58
 90
        2
176
     1
 90
        2
176
     1
 90
        1
176
     1
 90
        1
176
     1
 40
0.5
176
     1
 40
30.0
176
     1
 62
     7
420
 16777215
176
     1
 90
        1
176
     1
 90
        0
176
     1
 62
     7
176
     1
 62
   257
176
     1
 90
        1
176
     1
 90
        1
176
     1
 40
1.0
176
     1
 90
        8
176
     1
 62
     7
176
     1
 40
1.0
176
     1
 90
        1
176
     1
 90
        6
176
     1
 90
        2
176
     1
 62
     7
176
     1
 90
        3
176
     1
 90
        0
176
     1
 90
        0
176
     1
290
     0
176
     1
 90
       13
176
     1
 40
0.0
176
     1
 90
        0
176
     1
290
     0
176
     1
290
     1
176
     1
290
     1
176
     1
290
     0
176
     1
290
     0
176
     1
290
     0
176
     1
290
     0
176
     1
290
     0
176
     1
290
     0
176
     1
 90
       50
176
     1
 40
0.0
176
     1
 40
1.0
176
     1
 90
        0
176
     1
 62
    18
420
        0
176
     1
 90
       50
176
     1
 90
        3
176
     1
 62
     5
420
      255
176
     1
290
     0
176
     1
 90
       50
176
     1
 90
       50
176
     1
 90
       50
176
     1
290
     0
176
     1
 90
       50
176
     1
 62
   256
176
     0
 40
1.0
176
     0
 90
        2
176
     1
  1
strokes_ogs.tif
176
     1
290
     0
176
     1
 40
1.0
176
     1
 40
1.0
176
     1
  0
DICTIONARYVAR
  5
A0
102
{ACAD_REACTORS
330
9F
102
}
330
9F
100
DictionaryVariables
280
     0
  1
1:1
  0
DICTIONARYVAR
  5
A8
102
{ACAD_REACTORS
330
9F
102
}
330
9F
100
DictionaryVariables
280
     0
  1
3.500000
  0
DICTIONARYVAR
  5
A9
102
{ACAD_REACTORS
330
9F
102
}
330
9F
100
DictionaryVariables
280
     0
  1
acadiso.lin
  0
DICTIONARYVAR
  5
A5
102
{ACAD_REACTORS
330
9F
102
}
330
9F
100
DictionaryVariables
280
     0
  1
Standard
  0
DICTIONARYVAR
  5
A4
102
{ACAD_REACTORS
330
9F
102
}
330
9F
100
DictionaryVariables
280
     0
  1
Standard
  0
DICTIONARY
  5
A1
330
5A
100
AcDbDictionary
280
     1
281
     1
  3
ACAD_ROUNDTRIP_2008_TABLESTYLE_CELLSTYLEMAP
360
A2
  0
CELLSTYLEMAP
  5
A2
102
{ACAD_REACTORS
330
A1
102
}
330
A1
100
AcDbCellStyleMap
 90
        3
300
CELLSTYLE
  1
TABLEFORMAT_BEGIN
 90
        5
170
     1
 91
        0
 92
    32768
 62
   257
 93
        1
300
CONTENTFORMAT
  1
CONTENTFORMAT_BEGIN
 90
        0
 91
        0
 92
        4
 93
        0
300

 40
0.0
140
1.0
 94
        5
 62
     0
340
11
144
6.0
309
CONTENTFORMAT_END
171
     1
301
MARGIN
  1
CELLMARGIN_BEGIN
 40
1.5
 40
1.5
 40
1.5
 40
1.5
 40
1.5
 40
1.5
309
CELLMARGIN_END
 94
        6
 95
        1
302
GRIDFORMAT
  1
GRIDFORMAT_BEGIN
 90
        0
 91
        1
 62
     0
 92
       -2
340
14
 93
        0
 40
0.045
309
GRIDFORMAT_END
 95
        2
302
GRIDFORMAT
  1
GRIDFORMAT_BEGIN
 90
        0
 91
        1
 62
     0
 92
       -2
340
14
 93
        0
 40
0.045
309
GRIDFORMAT_END
 95
        4
302
GRIDFORMAT
  1
GRIDFORMAT_BEGIN
 90
        0
 91
        1
 62
     0
 92
       -2
340
14
 93
        0
 40
0.045
309
GRIDFORMAT_END
 95
        8
302
GRIDFORMAT
  1
GRIDFORMAT_BEGIN
 90
        0
 91
        1
 62
     0
 92
       -2
340
14
 93
        0
 40
0.045
309
GRIDFORMAT_END
 95
       16
302
GRIDFORMAT
  1
GRIDFORMAT_BEGIN
 90
        0
 91
        1
 62
     0
 92
       -2
340
14
 93
        0
 40
0.045
309
GRIDFORMAT_END
 95
       32
302
GRIDFORMAT
  1
GRIDFORMAT_BEGIN
 90
        0
 91
        1
 62
     0
 92
       -2
340
14
 93
        0
 40
0.045
309
GRIDFORMAT_END
309
TABLEFORMAT_END
  1
CELLSTYLE_BEGIN
 90
        1
 91
        1
300
_TITLE
309
CELLSTYLE_END
300
CELLSTYLE
  1
TABLEFORMAT_BEGIN
 90
        5
170
     1
 91
        0
 92
        0
 62
   257
 93
        1
300
CONTENTFORMAT
  1
CONTENTFORMAT_BEGIN
 90
        0
 91
        0
 92
        4
 93
        0
300

 40
0.0
140
1.0
 94
        5
 62
     0
340
11
144
4.5
309
CONTENTFORMAT_END
171
     1
301
MARGIN
  1
CELLMARGIN_BEGIN
 40
1.5
 40
1.5
 40
1.5
 40
1.5
 40
1.5
 40
1.5
309
CELLMARGIN_END
 94
        6
 95
        1
302
GRIDFORMAT
  1
GRIDFORMAT_BEGIN
 90
        0
 91
        1
 62
     0
 92
       -2
340
14
 93
        0
 40
0.045
309
GRIDFORMAT_END
 95
        2
302
GRIDFORMAT
  1
GRIDFORMAT_BEGIN
 90
        0
 91
        1
 62
     0
 92
       -2
340
14
 93
        0
 40
0.045
309
GRIDFORMAT_END
 95
        4
302
GRIDFORMAT
  1
GRIDFORMAT_BEGIN
 90
        0
 91
        1
 62
     0
 92
       -2
340
14
 93
        0
 40
0.045
309
GRIDFORMAT_END
 95
        8
302
GRIDFORMAT
  1
GRIDFORMAT_BEGIN
 90
        0
 91
        1
 62
     0
 92
       -2
340
14
 93
        0
 40
0.045
309
GRIDFORMAT_END
 95
       16
302
GRIDFORMAT
  1
GRIDFORMAT_BEGIN
 90
        0
 91
        1
 62
     0
 92
       -2
340
14
 93
        0
 40
0.045
309
GRIDFORMAT_END
 95
       32
302
GRIDFORMAT
  1
GRIDFORMAT_BEGIN
 90
        0
 91
        1
 62
     0
 92
       -2
340
14
 93
        0
 40
0.045
309
GRIDFORMAT_END
309
TABLEFORMAT_END
  1
CELLSTYLE_BEGIN
 90
        2
 91
        1
300
_HEADER
309
CELLSTYLE_END
300
CELLSTYLE
  1
TABLEFORMAT_BEGIN
 90
        5
170
     1
 91
        0
 92
        0
 62
   257
 93
        1
300
CONTENTFORMAT
  1
CONTENTFORMAT_BEGIN
 90
        0
 91
        0
 92
        4
 93
        0
300

 40
0.0
140
1.0
 94
        2
 62
     0
340
11
144
4.5
309
CONTENTFORMAT_END
171
     1
301
MARGIN
  1
CELLMARGIN_BEGIN
 40
1.5
 40
1.5
 40
1.5
 40
1.5
 40
1.5
 40
1.5
309
CELLMARGIN_END
 94
        6
 95
        1
302
GRIDFORMAT
  1
GRIDFORMAT_BEGIN
 90
        0
 91
        1
 62
     0
 92
       -2
340
14
 93
        0
 40
0.045
309
GRIDFORMAT_END
 95
        2
302
GRIDFORMAT
  1
GRIDFORMAT_BEGIN
 90
        0
 91
        1
 62
     0
 92
       -2
340
14
 93
        0
 40
0.045
309
GRIDFORMAT_END
 95
        4
302
GRIDFORMAT
  1
GRIDFORMAT_BEGIN
 90
        0
 91
        1
 62
     0
 92
       -2
340
14
 93
        0
 40
0.045
309
GRIDFORMAT_END
 95
        8
302
GRIDFORMAT
  1
GRIDFORMAT_BEGIN
 90
        0
 91
        1
 62
     0
 92
       -2
340
14
 93
        0
 40
0.045
309
GRIDFORMAT_END
 95
       16
302
GRIDFORMAT
  1
GRIDFORMAT_BEGIN
 90
        0
 91
        1
 62
     0
 92
       -2
340
14
 93
        0
 40
0.045
309
GRIDFORMAT_END
 95
       32
302
GRIDFORMAT
  1
GRIDFORMAT_BEGIN
 90
        0
 91
        1
 62
     0
 92
       -2
340
14
 93
        0
 40
0.045
309
GRIDFORMAT_END
309
TABLEFORMAT_END
  1
CELLSTYLE_BEGIN
 90
        3
 91
        2
300
_DATA
309
CELLSTYLE_END
  0
ENDSEC
  0
EOF
