  0
SECTION
  2
HEADER
  9
$ACADVER
  1
AC1027
  9
$ACADMAINTVER
 70
   105
  9
$DWGCODEPAGE
  3
ANSI_932
  9
$LASTSAVEDBY
  1
a.yasuda
  9
$REQUIREDVERSIONS
160
                 0
  9
$INSBASE
 10
0.0
 20
0.0
 30
0.0
  9
$EXTMIN
 10
0.0
 20
0.0
 30
0.0
  9
$EXTMAX
 10
302.9997823349792
 20
216.0016055409748
 30
0.0
  9
$LIMMIN
 10
0.0
 20
0.0
  9
$LIMMAX
 10
302.9997823349792
 20
216.0016055409748
  9
$ORTHOMODE
 70
     0
  9
$REGENMODE
 70
     1
  9
$FILLMODE
 70
     1
  9
$QTEXTMODE
 70
     0
  9
$MIRRTEXT
 70
     1
  9
$LTSCALE
 40
1.0
  9
$ATTMODE
 70
     1
  9
$TEXTSIZE
 40
2.5
  9
$TRACEWID
 40
1.0
  9
$TEXTSTYLE
  7
Standard
  9
$CLAYER
  8
0
  9
$CELTYPE
  6
ByLayer
  9
$CECOLOR
 62
   256
  9
$CELTSCALE
 40
1.0
  9
$DISPSILH
 70
     0
  9
$DIMSCALE
 40
1.0
  9
$DIMASZ
 40
2.5
  9
$DIMEXO
 40
0.625
  9
$DIMDLI
 40
3.75
  9
$DIMRND
 40
0.0
  9
$DIMDLE
 40
0.0
  9
$DIMEXE
 40
1.25
  9
$DIMTP
 40
0.0
  9
$DIMTM
 40
0.0
  9
$DIMTXT
 40
2.5
  9
$DIMCEN
 40
2.5
  9
$DIMTSZ
 40
0.0
  9
$DIMTOL
 70
     0
  9
$DIMLIM
 70
     0
  9
$DIMTIH
 70
     0
  9
$DIMTOH
 70
     0
  9
$DIMSE1
 70
     0
  9
$DIMSE2
 70
     0
  9
$DIMTAD
 70
     1
  9
$DIMZIN
 70
     8
  9
$DIMBLK
  1

  9
$DIMASO
 70
     1
  9
$DIMSHO
 70
     1
  9
$DIMPOST
  1

  9
$DIMAPOST
  1

  9
$DIMALT
 70
     0
  9
$DIMALTD
 70
     3
  9
$DIMALTF
 40
0.03937007874016
  9
$DIMLFAC
 40
1.0
  9
$DIMTOFL
 70
     1
  9
$DIMTVP
 40
0.0
  9
$DIMTIX
 70
     0
  9
$DIMSOXD
 70
     0
  9
$DIMSAH
 70
     0
  9
$DIMBLK1
  1

  9
$DIMBLK2
  1

  9
$DIMSTYLE
  2
ISO-25
  9
$DIMCLRD
 70
     0
  9
$DIMCLRE
 70
     0
  9
$DIMCLRT
 70
     0
  9
$DIMTFAC
 40
1.0
  9
$DIMGAP
 40
0.625
  9
$DIMJUST
 70
     0
  9
$DIMSD1
 70
     0
  9
$DIMSD2
 70
     0
  9
$DIMTOLJ
 70
     0
  9
$DIMTZIN
 70
     8
  9
$DIMALTZ
 70
     0
  9
$DIMALTTZ
 70
     0
  9
$DIMUPT
 70
     0
  9
$DIMDEC
 70
     2
  9
$DIMTDEC
 70
     2
  9
$DIMALTU
 70
     2
  9
$DIMALTTD
 70
     3
  9
$DIMTXSTY
  7
Standard
  9
$DIMAUNIT
 70
     0
  9
$DIMADEC
 70
     0
  9
$DIMALTRND
 40
0.0
  9
$DIMAZIN
 70
     0
  9
$DIMDSEP
 70
    44
  9
$DIMATFIT
 70
     3
  9
$DIMFRAC
 70
     0
  9
$DIMLDRBLK
  1

  9
$DIMLUNIT
 70
     2
  9
$DIMLWD
 70
    -2
  9
$DIMLWE
 70
    -2
  9
$DIMTMOVE
 70
     0
  9
$DIMFXL
 40
1.0
  9
$DIMFXLON
 70
     0
  9
$DIMJOGANG
 40
0.7853981633974483
  9
$DIMTFILL
 70
     0
  9
$DIMTFILLCLR
 70
     0
  9
$DIMARCSYM
 70
     0
  9
$DIMLTYPE
  6

  9
$DIMLTEX1
  6

  9
$DIMLTEX2
  6

  9
$DIMTXTDIRECTION
 70
     0
  9
$LUNITS
 70
     2
  9
$LUPREC
 70
     4
  9
$SKETCHINC
 40
1.0
  9
$FILLETRAD
 40
0.0
  9
$AUNITS
 70
     0
  9
$AUPREC
 70
     0
  9
$MENU
  1
.
  9
$ELEVATION
 40
0.0
  9
$PELEVATION
 40
0.0
  9
$THICKNESS
 40
0.0
  9
$LIMCHECK
 70
     0
  9
$CHAMFERA
 40
0.0
  9
$CHAMFERB
 40
0.0
  9
$CHAMFERC
 40
0.0
  9
$CHAMFERD
 40
0.0
  9
$SKPOLY
 70
     0
  9
$TDCREATE
 40
2459866.620510486
  9
$TDUCREATE
 40
2459866.245510486
  9
$TDUPDATE
 40
2459866.620510521
  9
$TDUUPDATE
 40
2459866.245510521
  9
$TDINDWG
 40
0.0000000116
  9
$TDUSRTIMER
 40
0.0000000116
  9
$USRTIMER
 70
     1
  9
$ANGBASE
 50
0.0
  9
$ANGDIR
 70
     0
  9
$PDMODE
 70
     0
  9
$PDSIZE
 40
0.0
  9
$PLINEWID
 40
0.0
  9
$SPLFRAME
 70
     0
  9
$SPLINETYPE
 70
     6
  9
$SPLINESEGS
 70
     8
  9
$HANDSEED
  5
A1
  9
$SURFTAB1
 70
     6
  9
$SURFTAB2
 70
     6
  9
$SURFTYPE
 70
     6
  9
$SURFU
 70
     6
  9
$SURFV
 70
     6
  9
$UCSBASE
  2

  9
$UCSNAME
  2

  9
$UCSORG
 10
0.0
 20
0.0
 30
0.0
  9
$UCSXDIR
 10
1.0
 20
0.0
 30
0.0
  9
$UCSYDIR
 10
0.0
 20
1.0
 30
0.0
  9
$UCSORTHOREF
  2

  9
$UCSORTHOVIEW
 70
     0
  9
$UCSORGTOP
 10
0.0
 20
0.0
 30
0.0
  9
$UCSORGBOTTOM
 10
0.0
 20
0.0
 30
0.0
  9
$UCSORGLEFT
 10
0.0
 20
0.0
 30
0.0
  9
$UCSORGRIGHT
 10
0.0
 20
0.0
 30
0.0
  9
$UCSORGFRONT
 10
0.0
 20
0.0
 30
0.0
  9
$UCSORGBACK
 10
0.0
 20
0.0
 30
0.0
  9
$PUCSBASE
  2

  9
$PUCSNAME
  2

  9
$PUCSORG
 10
0.0
 20
0.0
 30
0.0
  9
$PUCSXDIR
 10
1.0
 20
0.0
 30
0.0
  9
$PUCSYDIR
 10
0.0
 20
1.0
 30
0.0
  9
$PUCSORTHOREF
  2

  9
$PUCSORTHOVIEW
 70
     0
  9
$PUCSORGTOP
 10
0.0
 20
0.0
 30
0.0
  9
$PUCSORGBOTTOM
 10
0.0
 20
0.0
 30
0.0
  9
$PUCSORGLEFT
 10
0.0
 20
0.0
 30
0.0
  9
$PUCSORGRIGHT
 10
0.0
 20
0.0
 30
0.0
  9
$PUCSORGFRONT
 10
0.0
 20
0.0
 30
0.0
  9
$PUCSORGBACK
 10
0.0
 20
0.0
 30
0.0
  9
$USERI1
 70
     0
  9
$USERI2
 70
     0
  9
$USERI3
 70
     0
  9
$USERI4
 70
     0
  9
$USERI5
 70
     0
  9
$USERR1
 40
0.0
  9
$USERR2
 40
0.0
  9
$USERR3
 40
0.0
  9
$USERR4
 40
0.0
  9
$USERR5
 40
0.0
  9
$WORLDVIEW
 70
     1
  9
$SHADEDGE
 70
     3
  9
$SHADEDIF
 70
    70
  9
$TILEMODE
 70
     1
  9
$MAXACTVP
 70
    64
  9
$PINSBASE
 10
0.0
 20
0.0
 30
0.0
  9
$PLIMCHECK
 70
     0
  9
$PEXTMIN
 10
1.000000000000000E+20
 20
1.000000000000000E+20
 30
1.000000000000000E+20
  9
$PEXTMAX
 10
-1.000000000000000E+20
 20
-1.000000000000000E+20
 30
-1.000000000000000E+20
  9
$PLIMMIN
 10
0.0
 20
0.0
  9
$PLIMMAX
 10
420.0
 20
297.0
  9
$UNITMODE
 70
     0
  9
$VISRETAIN
 70
     1
  9
$PLINEGEN
 70
     0
  9
$PSLTSCALE
 70
     1
  9
$TREEDEPTH
 70
  3020
  9
$CMLSTYLE
  2
Standard
  9
$CMLJUST
 70
     0
  9
$CMLSCALE
 40
20.0
  9
$PROXYGRAPHICS
 70
     1
  9
$MEASUREMENT
 70
     1
  9
$CELWEIGHT
370
    -1
  9
$ENDCAPS
280
     0
  9
$JOINSTYLE
280
     0
  9
$LWDISPLAY
290
     0
  9
$INSUNITS
 70
     4
  9
$HYPERLINKBASE
  1

  9
$STYLESHEET
  1

  9
$XEDIT
290
     1
  9
$CEPSNTYPE
380
     0
  9
$PSTYLEMODE
290
     1
  9
$FINGERPRINTGUID
  2
{f84ea095-a0b6-4bb9-8bb8-16782697e341}
  9
$VERSIONGUID
  2
{FAEB1C32-E019-11D5-929B-00C0DF256EC4}
  9
$EXTNAMES
290
     1
  9
$PSVPSCALE
 40
0.0
  9
$OLESTARTUP
290
     0
  9
$SORTENTS
280
   127
  9
$INDEXCTL
280
     0
  9
$HIDETEXT
280
     1
  9
$XCLIPFRAME
280
     2
  9
$HALOGAP
280
     0
  9
$OBSCOLOR
 70
   257
  9
$OBSLTYPE
280
     0
  9
$INTERSECTIONDISPLAY
280
     0
  9
$INTERSECTIONCOLOR
 70
   257
  9
$DIMASSOC
280
     2
  9
$PROJECTNAME
  1

  9
$CAMERADISPLAY
290
     0
  9
$LENSLENGTH
 40
50.0
  9
$CAMERAHEIGHT
 40
0.0
  9
$STEPSPERSEC
 40
2.0
  9
$STEPSIZE
 40
6.0
  9
$3DDWFPREC
 40
2.0
  9
$PSOLWIDTH
 40
5.0
  9
$PSOLHEIGHT
 40
80.0
  9
$LOFTANG1
 40
1.570796326794897
  9
$LOFTANG2
 40
1.570796326794897
  9
$LOFTMAG1
 40
0.0
  9
$LOFTMAG2
 40
0.0
  9
$LOFTPARAM
 70
     7
  9
$LOFTNORMALS
280
     1
  9
$LATITUDE
 40
37.795
  9
$LONGITUDE
 40
-122.394
  9
$NORTHDIRECTION
 40
0.0
  9
$TIMEZONE
 70
 -8000
  9
$LIGHTGLYPHDISPLAY
280
     1
  9
$TILEMODELIGHTSYNCH
280
     1
  9
$CMATERIAL
347
44
  9
$SOLIDHIST
280
     0
  9
$SHOWHIST
280
     1
  9
$DWFFRAME
280
     2
  9
$DGNFRAME
280
     2
  9
$REALWORLDSCALE
290
     1
  9
$INTERFERECOLOR
 62
   256
  9
$CSHADOW
280
     0
  9
$SHADOWPLANELOCATION
 40
0.0
  0
ENDSEC
  0
SECTION
  2
CLASSES
  0
CLASS
  1
ACDBDICTIONARYWDFLT
  2
AcDbDictionaryWithDefault
  3
ObjectDBX Classes
 90
        0
 91
        3
280
     0
281
     0
  0
CLASS
  1
VISUALSTYLE
  2
AcDbVisualStyle
  3
ObjectDBX Classes
 90
     4095
 91
        3
280
     0
281
     0
  0
CLASS
  1
MATERIAL
  2
AcDbMaterial
  3
ObjectDBX Classes
 90
     1153
 91
        3
280
     0
281
     0
  0
CLASS
  1
SCALE
  2
AcDbScale
  3
ObjectDBX Classes
 90
     1153
 91
        3
280
     0
281
     0
  0
CLASS
  1
TABLESTYLE
  2
AcDbTableStyle
  3
ObjectDBX Classes
 90
     4095
 91
        3
280
     0
281
     0
  0
CLASS
  1
MLEADERSTYLE
  2
AcDbMLeaderStyle
  3
ACDB_MLEADERSTYLE_CLASS
 90
     4095
 91
        3
280
     0
281
     0
  0
CLASS
  1
SUN
  2
AcDbSun
  3
SCENEOE
 90
     1153
 91
        3
280
     0
281
     0
  0
CLASS
  1
DICTIONARYVAR
  2
AcDbDictionaryVar
  3
ObjectDBX Classes
 90
        0
 91
        3
280
     0
281
     0
  0
CLASS
  1
CELLSTYLEMAP
  2
AcDbCellStyleMap
  3
ObjectDBX Classes
 90
     1152
 91
        3
280
     0
281
     0
  0
ENDSEC
  0
SECTION
  2
TABLES
  0
TABLE
  2
VPORT
  5
8
330
0
100
AcDbSymbolTable
 70
     1
  0
VPORT
  5
29
330
8
100
AcDbSymbolTableRecord
100
AcDbViewportTableRecord
  2
*Active
 70
     0
 10
0.0
 20
0.0
 11
1.0
 21
1.0
 12
151.4998911674896
 22
108.0008027704874
 13
0.0
 23
0.0
 14
10.0
 24
10.0
 15
10.0
 25
10.0
 16
0.0
 26
0.0
 36
1.0
 17
0.0
 27
0.0
 37
0.0
 40
237.6017660950723
 41
1.402766343222857
 42
50.0
 43
0.0
 44
0.0
 50
0.0
 51
0.0
 71
     0
 72
 10000
 73
     1
 74
     3
 75
     0
 76
     0
 77
     0
 78
     0
281
     0
 65
     1
110
0.0
120
0.0
130
0.0
111
1.0
121
0.0
131
0.0
112
0.0
122
1.0
132
0.0
 79
     0
146
0.0
348
2F
 60
     3
 61
     5
292
     1
282
     1
141
0.0
142
0.0
 63
   250
361
5D
  0
ENDTAB
  0
TABLE
  2
LTYPE
  5
5
330
0
100
AcDbSymbolTable
 70
     2
  0
LTYPE
  5
14
330
5
100
AcDbSymbolTableRecord
100
AcDbLinetypeTableRecord
  2
ByBlock
 70
     0
  3

 72
    65
 73
     0
 40
0.0
  0
LTYPE
  5
15
330
5
100
AcDbSymbolTableRecord
100
AcDbLinetypeTableRecord
  2
ByLayer
 70
     0
  3

 72
    65
 73
     0
 40
0.0
  0
LTYPE
  5
16
330
5
100
AcDbSymbolTableRecord
100
AcDbLinetypeTableRecord
  2
Continuous
 70
     0
  3
Solid line
 72
    65
 73
     0
 40
0.0
  0
LTYPE
  5
5F
330
5
100
AcDbSymbolTableRecord
100
AcDbLinetypeTableRecord
  2
UserDefined01
 70
     0
  3
----------------                
 72
    65
 73
     2
 40
0.7055555449591743
 49
0.3527777724795871
 74
     0
 49
-0.3527777724795871
 74
     0
  0
ENDTAB
  0
TABLE
  2
LAYER
  5
2
330
0
100
AcDbSymbolTable
 70
     3
  0
LAYER
  5
10
330
2
100
AcDbSymbolTableRecord
100
AcDbLayerTableRecord
  2
0
 70
     0
 62
     7
  6
Continuous
370
    -3
390
F
347
46
348
0
  0
LAYER
  5
60
330
2
100
AcDbSymbolTableRecord
100
AcDbLayerTableRecord
  2
外枠
 70
     0
 62
     7
  6
Continuous
370
    -3
390
F
347
46
348
0
  0
LAYER
  5
61
330
2
100
AcDbSymbolTableRecord
100
AcDbLayerTableRecord
  2
ISS138金台
 70
     0
 62
     7
  6
Continuous
370
    -3
390
F
347
46
348
0
  0
ENDTAB
  0
TABLE
  2
STYLE
  5
3
330
0
100
AcDbSymbolTable
 70
     2
  0
STYLE
  5
11
330
3
100
AcDbSymbolTableRecord
100
AcDbTextStyleTableRecord
  2
Standard
 70
     0
 40
0.0
 41
1.0
 50
0.0
 71
     0
 42
2.5
  3

  4

  0
STYLE
  5
5E
330
3
100
AcDbSymbolTableRecord
100
AcDbTextStyleTableRecord
  2
MS Gothic
 70
     0
 40
1.0
 41
1.0
 50
0.0
 71
     0
 42
2.5
  3
msgothic.ttc
  4

1001
ACAD
1000
MS Gothic
1071
    32817
  0
ENDTAB
  0
TABLE
  2
VIEW
  5
6
330
0
100
AcDbSymbolTable
 70
     0
  0
ENDTAB
  0
TABLE
  2
UCS
  5
7
330
0
100
AcDbSymbolTable
 70
     0
  0
ENDTAB
  0
TABLE
  2
APPID
  5
9
330
0
100
AcDbSymbolTable
 70
     1
  0
APPID
  5
12
330
9
100
AcDbSymbolTableRecord
100
AcDbRegAppTableRecord
  2
ACAD
 70
     0
  0
ENDTAB
  0
TABLE
  2
DIMSTYLE
  5
A
330
0
100
AcDbSymbolTable
 70
     1
100
AcDbDimStyleTable
  0
DIMSTYLE
105
27
330
A
100
AcDbSymbolTableRecord
100
AcDbDimStyleTableRecord
  2
ISO-25
 70
     0
 41
2.5
 42
0.625
 43
3.75
 44
1.25
 73
     0
 74
     0
 77
     1
 78
     8
140
2.5
141
2.5
143
0.03937007874016
147
0.625
171
     3
172
     1
178
     0
271
     2
272
     2
274
     3
278
    44
283
     0
284
     8
340
11
  0
ENDTAB
  0
TABLE
  2
BLOCK_RECORD
  5
1
330
0
100
AcDbSymbolTable
 70
     1
  0
BLOCK_RECORD
  5
1F
330
1
100
AcDbSymbolTableRecord
100
AcDbBlockTableRecord
  2
*Model_Space
340
22
 70
     0
280
     1
281
     0
  0
BLOCK_RECORD
  5
1B
330
1
100
AcDbSymbolTableRecord
100
AcDbBlockTableRecord
  2
*Paper_Space
340
1E
 70
     0
280
     1
281
     0
  0
BLOCK_RECORD
  5
23
330
1
100
AcDbSymbolTableRecord
100
AcDbBlockTableRecord
  2
*Paper_Space0
340
26
 70
     0
280
     1
281
     0
  0
ENDTAB
  0
ENDSEC
  0
SECTION
  2
BLOCKS
  0
BLOCK
  5
20
330
1F
100
AcDbEntity
  8
0
100
AcDbBlockBegin
  2
*Model_Space
 70
     0
 10
0.0
 20
0.0
 30
0.0
  3
*Model_Space
  1

  0
ENDBLK
  5
21
330
1F
100
AcDbEntity
  8
0
100
AcDbBlockEnd
  0
BLOCK
  5
1C
330
1B
100
AcDbEntity
 67
     1
  8
0
100
AcDbBlockBegin
  2
*Paper_Space
 70
     0
 10
0.0
 20
0.0
 30
0.0
  3
*Paper_Space
  1

  0
ENDBLK
  5
1D
330
1B
100
AcDbEntity
 67
     1
  8
0
100
AcDbBlockEnd
  0
BLOCK
  5
24
330
23
100
AcDbEntity
  8
0
100
AcDbBlockBegin
  2
*Paper_Space0
 70
     0
 10
0.0
 20
0.0
 30
0.0
  3
*Paper_Space0
  1

  0
ENDBLK
  5
25
330
23
100
AcDbEntity
  8
0
100
AcDbBlockEnd
  0
ENDSEC
  0
SECTION
  2
ENTITIES
  0
LWPOLYLINE
  5
62
330
1F
100
AcDbEntity
  8
外枠
  6
Continuous
 62
   250
420
  2367521
370
   100
100
AcDbPolyline
 90
        5
 70
     0
 43
0.0
 10
281.9999662644599
 20
13.29407825637392
 10
20.99981607051935
 20
13.29407825637392
 10
20.99981607051935
 20
193.0018900389566
 10
281.9999662644599
 20
193.0018900389566
 10
281.9999662644599
 20
13.29407825637392
  0
LINE
  5
63
330
1F
100
AcDbEntity
  8
外枠
  6
Continuous
 62
   250
420
  2367521
370
    25
100
AcDbLine
 10
223.3097080177524
 20
174.0786160074276
 30
0.0
 11
281.9999232007669
 21
174.0786160074276
 31
0.0
  0
LINE
  5
64
330
1F
100
AcDbEntity
  8
外枠
  6
Continuous
 62
   250
420
  2367521
370
    25
100
AcDbLine
 10
223.3097080177524
 20
50.37109023844297
 30
0.0
 11
281.9999232007669
 21
50.37109023844297
 31
0.0
  0
LINE
  5
65
330
1F
100
AcDbEntity
  8
外枠
  6
Continuous
 62
   250
420
  2367521
370
    25
100
AcDbLine
 10
223.3097080177524
 20
36.25997933925949
 30
0.0
 11
281.9999232007669
 21
36.25997933925949
 31
0.0
  0
LINE
  5
66
330
1F
100
AcDbEntity
  8
外枠
  6
Continuous
 62
   250
420
  2367521
370
    50
100
AcDbLine
 10
223.0158413772006
 20
193.3637327187979
 30
0.0
 11
223.0158413772006
 21
13.29396655992039
 31
0.0
  0
TEXT
  5
67
330
1F
100
AcDbEntity
  8
外枠
  6
Continuous
 62
   250
420
  2367521
100
AcDbText
 10
224.7190965599536
 20
186.6888051931772
 30
0.0
 40
2.688166626294454
  1
品名：
 41
0.974166170756022
  7
MS Gothic
100
AcDbText
  0
TEXT
  5
68
330
1F
100
AcDbEntity
  8
外枠
  6
Continuous
 62
   250
420
  2367521
100
AcDbText
 10
224.7190965599536
 20
168.1080059455944
 30
0.0
 40
2.688166626294454
  1
仕様：
 41
0.9978878657023111
  7
MS Gothic
100
AcDbText
  0
TEXT
  5
69
330
1F
100
AcDbEntity
  8
外枠
  6
Continuous
 62
   250
420
  2367521
100
AcDbText
 10
224.7190965599536
 20
44.16660664327048
 30
0.0
 40
2.688166626294454
  1
縮尺：
 41
0.9939999262491861
  7
MS Gothic
100
AcDbText
  0
TEXT
  5
6A
330
1F
100
AcDbEntity
  8
外枠
  6
Continuous
 62
   250
420
  2367521
100
AcDbText
 10
250.2379519709696
 20
40.59738467878129
 30
0.0
 40
2.150533301035563
  1
1/1
 41
1.000003814697266
  7
MS Gothic
100
AcDbText
  0
TEXT
  5
6B
330
1F
100
AcDbEntity
  8
外枠
  6
Continuous
 62
   250
420
  2367521
100
AcDbText
 10
232.7757967427735
 20
181.9845273775436
 30
0.0
 40
2.688166626294454
  1
スロープバー　MO-1
 41
1.06054441663954
  7
MS Gothic
100
AcDbText
  0
TEXT
  5
6C
330
1F
100
AcDbEntity
  8
外枠
  6
Continuous
 62
   250
420
  2367521
100
AcDbText
 10
226.1633020978884
 20
24.25683874973963
 30
0.0
 40
2.553758294979732
  1
ヤスダインテリアサプライ株式会社
 41
1.0194908945184
  7
MS Gothic
100
AcDbText
  0
TEXT
  5
6D
330
1F
100
AcDbEntity
  8
外枠
  6
Continuous
 62
   250
420
  2367521
100
AcDbText
 10
227.7635273953072
 20
161.7763665048245
 30
0.0
 40
2.150533301035563
  1
材質
 41
1.028502464294433
  7
MS Gothic
100
AcDbText
  0
TEXT
  5
6E
330
1F
100
AcDbEntity
  8
外枠
  6
Continuous
 62
   250
420
  2367521
100
AcDbText
 10
232.7757967427735
 20
156.199681315683
 30
0.0
 40
2.016124969720841
  1
 アルミ押出形材（A6063S-T5）/
 41
1.008064217403017
  7
MS Gothic
100
AcDbText
  0
TEXT
  5
6F
330
1F
100
AcDbEntity
  8
外枠
  6
Continuous
 62
   250
420
  2367521
100
AcDbText
 10
232.7757967427735
 20
151.9663480459279
 30
0.0
 40
2.016124969720841
  1
シルバー仕上（アルマイト）
 41
1.002858636318109
  7
MS Gothic
100
AcDbText
  0
HATCH
  5
70
330
1F
100
AcDbEntity
  8
ISS138金台
  6
Continuous
 62
     7
420
 16777215
370
    50
100
AcDbHatch
 10
0.0
 20
0.0
 30
0.0
210
0.0
220
0.0
230
1.0
  2
SOLID
 70
     1
 71
     0
 91
        1
 92
        3
 72
     0
 73
     1
 93
        8
 10
123.2756884392479
 20
103.838976762842
 10
123.0770786874564
 20
104.0594628706418
 10
122.8788134452083
 20
103.838976762842
 10
114.0812454892269
 20
103.838976762842
 10
114.0812454892269
 20
105.8674489545996
 10
118.0796232503578
 20
106.8598086944702
 10
128.060409233274
 20
106.8598086944702
 10
128.060409233274
 20
103.838976762842
 97
        0
 75
     1
 76
     1
 98
        0
  0
LWPOLYLINE
  5
71
330
1F
100
AcDbEntity
  8
ISS138金台
  6
Continuous
 62
     7
420
 16777215
370
    50
100
AcDbPolyline
 90
        9
 70
     0
 43
0.0
 10
123.2756884392479
 20
103.838976762842
 10
123.0770786874564
 20
104.0594628706418
 10
122.8788134452083
 20
103.838976762842
 10
114.0812454892269
 20
103.838976762842
 10
114.0812454892269
 20
105.8674489545996
 10
118.0796232503578
 20
106.8598086944702
 10
128.060409233274
 20
106.8598086944702
 10
128.060409233274
 20
103.838976762842
 10
123.2756884392479
 20
103.838976762842
  0
LWPOLYLINE
  5
72
330
1F
100
AcDbEntity
  8
ISS138金台
  6
Continuous
 62
   250
420
  2367521
370
    25
100
AcDbPolyline
 90
        9
 70
     0
 43
0.0
 10
123.2756884392479
 20
103.838976762842
 10
123.0770786874564
 20
104.0594628706418
 10
122.8788134452083
 20
103.838976762842
 10
114.0812454892269
 20
103.838976762842
 10
114.0812454892269
 20
105.8674489545996
 10
118.0796232503578
 20
106.8598086944702
 10
128.060409233274
 20
106.8598086944702
 10
128.060409233274
 20
103.838976762842
 10
123.2756884392479
 20
103.838976762842
  0
LINE
  5
73
330
1F
100
AcDbEntity
  8
ISS138金台
  6
Continuous
 62
   250
420
  2367521
370
    13
100
AcDbLine
 10
108.0841848459224
 20
105.8815630799573
 30
0.0
 11
113.0893917477483
 21
105.8815630799573
 31
0.0
  0
LINE
  5
74
330
1F
100
AcDbEntity
  8
ISS138金台
  6
Continuous
 62
   250
420
  2367521
370
    13
100
AcDbLine
 10
108.5913028938618
 20
105.8815630799573
 30
0.0
 11
108.5913028938618
 21
103.7726586757304
 31
0.0
  0
LINE
  5
75
330
1F
100
AcDbEntity
  8
ISS138金台
  6
Continuous
 62
   250
420
  2367521
370
    13
100
AcDbLine
 10
108.0841848459224
 20
103.7728309305021
 30
0.0
 11
113.0893917477483
 21
103.7728309305021
 31
0.0
  0
LINE
  5
76
330
1F
100
AcDbEntity
  8
ISS138金台
  6
Continuous
 62
   250
420
  2367521
370
    13
100
AcDbLine
 10
114.0152719116587
 20
108.8440114098962
 30
0.0
 11
114.0152719116587
 21
119.846440443875
 31
0.0
  0
LINE
  5
77
330
1F
100
AcDbEntity
  8
ISS138金台
  6
Continuous
 62
   250
420
  2367521
370
    13
100
AcDbLine
 10
129.1406081407978
 20
108.8440114098962
 30
0.0
 11
129.1406081407978
 21
119.846440443875
 31
0.0
  0
LINE
  5
78
330
1F
100
AcDbEntity
  8
ISS138金台
  6
Continuous
 62
   250
420
  2367521
370
    13
100
AcDbLine
 10
118.0798062710528
 20
114.8412335420492
 30
0.0
 11
118.0798062710528
 21
108.8440114098962
 31
0.0
  0
LINE
  5
79
330
1F
100
AcDbEntity
  8
ISS138金台
  6
Continuous
 62
   250
420
  2367521
370
    13
100
AcDbLine
 10
114.0152719116587
 20
114.3341154941097
 30
0.0
 11
118.0796232503578
 21
114.3341154941097
 31
0.0
  0
LINE
  5
7A
330
1F
100
AcDbEntity
  8
ISS138金台
  6
Continuous
 62
   250
420
  2367521
370
    13
100
AcDbLine
 10
114.0152719116587
 20
119.3391501411639
 30
0.0
 11
129.140618906721
 21
119.3391501411639
 31
0.0
  0
LINE
  5
7B
330
1F
100
AcDbEntity
  8
ISS138金台
  6
Continuous
 62
   250
420
  2367521
370
    13
100
AcDbLine
 10
130.0887091702599
 20
106.8596364396985
 30
0.0
 11
136.0859313024129
 21
106.8596364396985
 31
0.0
  0
LINE
  5
7C
330
1F
100
AcDbEntity
  8
ISS138金台
  6
Continuous
 62
   250
420
  2367521
370
    13
100
AcDbLine
 10
130.0887091702599
 20
103.7728309305021
 30
0.0
 11
136.0859313024129
 21
103.7728309305021
 31
0.0
  0
LINE
  5
7D
330
1F
100
AcDbEntity
  8
ISS138金台
  6
Continuous
 62
   250
420
  2367521
370
    13
100
AcDbLine
 10
135.5788024885503
 20
107.3667544876379
 30
0.0
 11
135.5788024885503
 21
103.2657128825627
 31
0.0
  0
HATCH
  5
7E
330
1F
100
AcDbEntity
  8
ISS138金台
  6
Continuous
 62
   250
420
  2367521
370
    13
100
AcDbHatch
 10
0.0
 20
0.0
 30
0.0
210
0.0
220
0.0
230
1.0
  2
SOLID
 70
     1
 71
     0
 91
        1
 92
        3
 72
     0
 73
     1
 93
       67
 10
108.5913028938618
 20
105.6314276195755
 10
108.6168396637691
 20
105.6327087644402
 10
108.6416551168198
 20
105.6365199012645
 10
108.6655985300887
 20
105.6426995411999
 10
108.6885730102666
 20
105.6511184931676
 10
108.7104386003517
 20
105.6616583320122
 10
108.7310553433417
 20
105.6742006325779
 10
108.7503263459277
 20
105.6886054378629
 10
108.7680901192612
 20
105.7047650886347
 10
108.7842390041098
 20
105.7225288619682
 10
108.798654575318
 20
105.7417998645542
 10
108.8111968758838
 20
105.7624166075443
 10
108.8217474806515
 20
105.7842821976293
 10
108.8301664326193
 20
105.807245911884
 10
108.8363353066315
 20
105.8312000910761
 10
108.8401356775325
 20
105.8560155441268
 10
108.8414275883204
 20
105.8815523140341
 10
108.8414275883204
 20
105.8815523140341
 10
108.8401356775325
 20
105.9070890839414
 10
108.8363353066315
 20
105.9319045369921
 10
108.8301664326193
 20
105.9558587161842
 10
108.8217367147283
 20
105.9788224304389
 10
108.8111968758838
 20
106.000688020524
 10
108.798654575318
 20
106.021304763514
 10
108.7842390041098
 20
106.0405757661
 10
108.7680901192612
 20
106.0583395394335
 10
108.7503155800045
 20
106.0744884242821
 10
108.7310553433417
 20
106.0888932295671
 10
108.7104386003517
 20
106.1014355301328
 10
108.6885730102666
 20
106.1119861349006
 10
108.6655985300887
 20
106.1204050868683
 10
108.6416551168198
 20
106.1265739608805
 10
108.6168396637691
 20
106.1303743317815
 10
108.5913028938618
 20
106.1316662425694
 10
108.5913028938618
 20
106.1316662425694
 10
108.5657661239545
 20
106.1303743317815
 10
108.5409506709038
 20
106.1265739608805
 10
108.517007257635
 20
106.1204158527916
 10
108.494032777457
 20
106.1119861349006
 10
108.472167187372
 20
106.1014462960561
 10
108.4515504443819
 20
106.0888932295671
 10
108.4322902077191
 20
106.0744884242821
 10
108.4145156684624
 20
106.0583395394335
 10
108.3983560176906
 20
106.0405650001768
 10
108.3839512124056
 20
106.021304763514
 10
108.3714089118399
 20
106.0006772546007
 10
108.3608583070721
 20
105.9788224304389
 10
108.3524393551044
 20
105.9558479502609
 10
108.3462704810922
 20
105.9319045369921
 10
108.3424701101911
 20
105.9070890839414
 10
108.3411781994033
 20
105.8815523140341
 10
108.3411781994033
 20
105.8815523140341
 10
108.3424808761144
 20
105.8560047782036
 10
108.3462704810922
 20
105.8312000910761
 10
108.3524501210276
 20
105.807245911884
 10
108.3608690729953
 20
105.784271431706
 10
108.3714089118399
 20
105.7624166075443
 10
108.3839512124056
 20
105.741789098631
 10
108.3983560176906
 20
105.7225288619682
 10
108.4145156684624
 20
105.7047650886347
 10
108.4322794417959
 20
105.6886054378629
 10
108.4515504443819
 20
105.6741898666547
 10
108.472167187372
 20
105.6616583320122
 10
108.494032777457
 20
105.6511077272444
 10
108.5169964917117
 20
105.6426887752766
 10
108.5409506709038
 20
105.6365199012645
 10
108.5657661239545
 20
105.6327195303634
 97
        0
 75
     1
 76
     1
 98
        0
  0
LWPOLYLINE
  5
7F
330
1F
100
AcDbEntity
  8
ISS138金台
  6
Continuous
 62
   250
420
  2367521
370
    13
100
AcDbPolyline
 90
       68
 70
     0
 43
0.0
 10
108.5913028938618
 20
105.6314276195755
 10
108.6168396637691
 20
105.6327087644402
 10
108.6416551168198
 20
105.6365199012645
 10
108.6655985300887
 20
105.6426995411999
 10
108.6885730102666
 20
105.6511184931676
 10
108.7104386003517
 20
105.6616583320122
 10
108.7310553433417
 20
105.6742006325779
 10
108.7503263459277
 20
105.6886054378629
 10
108.7680901192612
 20
105.7047650886347
 10
108.7842390041098
 20
105.7225288619682
 10
108.798654575318
 20
105.7417998645542
 10
108.8111968758838
 20
105.7624166075443
 10
108.8217474806515
 20
105.7842821976293
 10
108.8301664326193
 20
105.807245911884
 10
108.8363353066315
 20
105.8312000910761
 10
108.8401356775325
 20
105.8560155441268
 10
108.8414275883204
 20
105.8815523140341
 10
108.8414275883204
 20
105.8815523140341
 10
108.8401356775325
 20
105.9070890839414
 10
108.8363353066315
 20
105.9319045369921
 10
108.8301664326193
 20
105.9558587161842
 10
108.8217367147283
 20
105.9788224304389
 10
108.8111968758838
 20
106.000688020524
 10
108.798654575318
 20
106.021304763514
 10
108.7842390041098
 20
106.0405757661
 10
108.7680901192612
 20
106.0583395394335
 10
108.7503155800045
 20
106.0744884242821
 10
108.7310553433417
 20
106.0888932295671
 10
108.7104386003517
 20
106.1014355301328
 10
108.6885730102666
 20
106.1119861349006
 10
108.6655985300887
 20
106.1204050868683
 10
108.6416551168198
 20
106.1265739608805
 10
108.6168396637691
 20
106.1303743317815
 10
108.5913028938618
 20
106.1316662425694
 10
108.5913028938618
 20
106.1316662425694
 10
108.5657661239545
 20
106.1303743317815
 10
108.5409506709038
 20
106.1265739608805
 10
108.517007257635
 20
106.1204158527916
 10
108.494032777457
 20
106.1119861349006
 10
108.472167187372
 20
106.1014462960561
 10
108.4515504443819
 20
106.0888932295671
 10
108.4322902077191
 20
106.0744884242821
 10
108.4145156684624
 20
106.0583395394335
 10
108.3983560176906
 20
106.0405650001768
 10
108.3839512124056
 20
106.021304763514
 10
108.3714089118399
 20
106.0006772546007
 10
108.3608583070721
 20
105.9788224304389
 10
108.3524393551044
 20
105.9558479502609
 10
108.3462704810922
 20
105.9319045369921
 10
108.3424701101911
 20
105.9070890839414
 10
108.3411781994033
 20
105.8815523140341
 10
108.3411781994033
 20
105.8815523140341
 10
108.3424808761144
 20
105.8560047782036
 10
108.3462704810922
 20
105.8312000910761
 10
108.3524501210276
 20
105.807245911884
 10
108.3608690729953
 20
105.784271431706
 10
108.3714089118399
 20
105.7624166075443
 10
108.3839512124056
 20
105.741789098631
 10
108.3983560176906
 20
105.7225288619682
 10
108.4145156684624
 20
105.7047650886347
 10
108.4322794417959
 20
105.6886054378629
 10
108.4515504443819
 20
105.6741898666547
 10
108.472167187372
 20
105.6616583320122
 10
108.494032777457
 20
105.6511077272444
 10
108.5169964917117
 20
105.6426887752766
 10
108.5409506709038
 20
105.6365199012645
 10
108.5657661239545
 20
105.6327195303634
 10
108.5913028938618
 20
105.6314276195755
  0
HATCH
  5
80
330
1F
100
AcDbEntity
  8
ISS138金台
  6
Continuous
 62
   250
420
  2367521
370
    13
100
AcDbHatch
 10
0.0
 20
0.0
 30
0.0
210
0.0
220
0.0
230
1.0
  2
SOLID
 70
     1
 71
     0
 91
        1
 92
        3
 72
     0
 73
     1
 93
       67
 10
108.5913028938618
 20
103.5227062360435
 10
108.6168396637691
 20
103.5240089127547
 10
108.6416551168198
 20
103.5277877518092
 10
108.6655985300887
 20
103.5339566258214
 10
108.6885730102666
 20
103.5423971096356
 10
108.7104386003517
 20
103.5529369484801
 10
108.7310553433417
 20
103.5654792490459
 10
108.7503263459277
 20
103.5798948202541
 10
108.7680901192612
 20
103.5960437051027
 10
108.7842390041098
 20
103.6138182443594
 10
108.798654575318
 20
103.633067715099
 10
108.8111968758838
 20
103.6536952240123
 10
108.8217474806515
 20
103.675550048174
 10
108.8301664326193
 20
103.698524528352
 10
108.8363353066315
 20
103.7224787075441
 10
108.8401356775325
 20
103.7472941605948
 10
108.8414275883204
 20
103.7728309305021
 10
108.8414275883204
 20
103.7728309305021
 10
108.8401356775325
 20
103.7983784663326
 10
108.8363353066315
 20
103.8231831534601
 10
108.8301664326193
 20
103.8471373326522
 10
108.8217367147283
 20
103.8701118128301
 10
108.8111968758838
 20
103.8919558710687
 10
108.798654575318
 20
103.912583379982
 10
108.7842390041098
 20
103.9318328507215
 10
108.7680901192612
 20
103.9496073899783
 10
108.7503155800045
 20
103.9657670407501
 10
108.7310553433417
 20
103.9801826119583
 10
108.7104386003517
 20
103.9927141466008
 10
108.6885730102666
 20
104.0032647513686
 10
108.6655985300887
 20
104.0116837033363
 10
108.6416551168198
 20
104.0178525773485
 10
108.6168396637691
 20
104.0216529482495
 10
108.5913028938618
 20
104.0229448590374
 10
108.5913028938618
 20
104.0229448590374
 10
108.5657661239545
 20
104.0216529482495
 10
108.5409506709038
 20
104.0178418114253
 10
108.517007257635
 20
104.0116837033363
 10
108.494032777457
 20
104.0032647513686
 10
108.472167187372
 20
103.9927141466008
 10
108.4515504443819
 20
103.9801718460351
 10
108.4322902077191
 20
103.9657670407501
 10
108.4145156684624
 20
103.9496073899783
 10
108.3983560176906
 20
103.9318436166448
 10
108.3839512124056
 20
103.912583379982
 10
108.3714089118399
 20
103.8919558710687
 10
108.3608583070721
 20
103.8701010469069
 10
108.3524393551044
 20
103.8471373326522
 10
108.3462704810922
 20
103.8231831534601
 10
108.3424701101911
 20
103.7983677004094
 10
108.3411781994033
 20
103.7728309305021
 10
108.3411781994033
 20
103.7728309305021
 10
108.3424808761144
 20
103.7472941605948
 10
108.3462704810922
 20
103.7224787075441
 10
108.3524501210276
 20
103.698524528352
 10
108.3608690729953
 20
103.6755608140973
 10
108.3714089118399
 20
103.6536952240123
 10
108.3839512124056
 20
103.633067715099
 10
108.3983560176906
 20
103.6138074784362
 10
108.4145156684624
 20
103.5960437051027
 10
108.4322794417959
 20
103.5798948202541
 10
108.4515504443819
 20
103.5654792490459
 10
108.472167187372
 20
103.5529369484801
 10
108.494032777457
 20
103.5423863437124
 10
108.5169964917117
 20
103.5339673917446
 10
108.5409506709038
 20
103.5277985177324
 10
108.5657661239545
 20
103.5239981468314
 97
        0
 75
     1
 76
     1
 98
        0
  0
LWPOLYLINE
  5
81
330
1F
100
AcDbEntity
  8
ISS138金台
  6
Continuous
 62
   250
420
  2367521
370
    13
100
AcDbPolyline
 90
       68
 70
     0
 43
0.0
 10
108.5913028938618
 20
103.5227062360435
 10
108.6168396637691
 20
103.5240089127547
 10
108.6416551168198
 20
103.5277877518092
 10
108.6655985300887
 20
103.5339566258214
 10
108.6885730102666
 20
103.5423971096356
 10
108.7104386003517
 20
103.5529369484801
 10
108.7310553433417
 20
103.5654792490459
 10
108.7503263459277
 20
103.5798948202541
 10
108.7680901192612
 20
103.5960437051027
 10
108.7842390041098
 20
103.6138182443594
 10
108.798654575318
 20
103.633067715099
 10
108.8111968758838
 20
103.6536952240123
 10
108.8217474806515
 20
103.675550048174
 10
108.8301664326193
 20
103.698524528352
 10
108.8363353066315
 20
103.7224787075441
 10
108.8401356775325
 20
103.7472941605948
 10
108.8414275883204
 20
103.7728309305021
 10
108.8414275883204
 20
103.7728309305021
 10
108.8401356775325
 20
103.7983784663326
 10
108.8363353066315
 20
103.8231831534601
 10
108.8301664326193
 20
103.8471373326522
 10
108.8217367147283
 20
103.8701118128301
 10
108.8111968758838
 20
103.8919558710687
 10
108.798654575318
 20
103.912583379982
 10
108.7842390041098
 20
103.9318328507215
 10
108.7680901192612
 20
103.9496073899783
 10
108.7503155800045
 20
103.9657670407501
 10
108.7310553433417
 20
103.9801826119583
 10
108.7104386003517
 20
103.9927141466008
 10
108.6885730102666
 20
104.0032647513686
 10
108.6655985300887
 20
104.0116837033363
 10
108.6416551168198
 20
104.0178525773485
 10
108.6168396637691
 20
104.0216529482495
 10
108.5913028938618
 20
104.0229448590374
 10
108.5913028938618
 20
104.0229448590374
 10
108.5657661239545
 20
104.0216529482495
 10
108.5409506709038
 20
104.0178418114253
 10
108.517007257635
 20
104.0116837033363
 10
108.494032777457
 20
104.0032647513686
 10
108.472167187372
 20
103.9927141466008
 10
108.4515504443819
 20
103.9801718460351
 10
108.4322902077191
 20
103.9657670407501
 10
108.4145156684624
 20
103.9496073899783
 10
108.3983560176906
 20
103.9318436166448
 10
108.3839512124056
 20
103.912583379982
 10
108.3714089118399
 20
103.8919558710687
 10
108.3608583070721
 20
103.8701010469069
 10
108.3524393551044
 20
103.8471373326522
 10
108.3462704810922
 20
103.8231831534601
 10
108.3424701101911
 20
103.7983677004094
 10
108.3411781994033
 20
103.7728309305021
 10
108.3411781994033
 20
103.7728309305021
 10
108.3424808761144
 20
103.7472941605948
 10
108.3462704810922
 20
103.7224787075441
 10
108.3524501210276
 20
103.698524528352
 10
108.3608690729953
 20
103.6755608140973
 10
108.3714089118399
 20
103.6536952240123
 10
108.3839512124056
 20
103.633067715099
 10
108.3983560176906
 20
103.6138074784362
 10
108.4145156684624
 20
103.5960437051027
 10
108.4322794417959
 20
103.5798948202541
 10
108.4515504443819
 20
103.5654792490459
 10
108.472167187372
 20
103.5529369484801
 10
108.494032777457
 20
103.5423863437124
 10
108.5169964917117
 20
103.5339673917446
 10
108.5409506709038
 20
103.5277985177324
 10
108.5657661239545
 20
103.5239981468314
 10
108.5913028938618
 20
103.5227062360435
  0
HATCH
  5
82
330
1F
100
AcDbEntity
  8
ISS138金台
  6
Continuous
 62
   250
420
  2367521
370
    13
100
AcDbHatch
 10
0.0
 20
0.0
 30
0.0
210
0.0
220
0.0
230
1.0
  2
SOLID
 70
     1
 71
     0
 91
        1
 92
        3
 72
     0
 73
     1
 93
       67
 10
114.0152719116587
 20
114.0839800337279
 10
114.040808681566
 20
114.0852719445158
 10
114.0656241346167
 20
114.0890615494936
 10
114.0895783138088
 20
114.095241189429
 10
114.1125420280635
 20
114.10367090732
 10
114.1344076181485
 20
114.1142107461645
 10
114.1550351270619
 20
114.1267422808071
 10
114.1742845978014
 20
114.1411578520153
 10
114.1920591370581
 20
114.1573175027871
 10
114.2082080219067
 20
114.1750920420438
 10
114.2226235931149
 20
114.1943415127834
 10
114.2351658936807
 20
114.2149690216967
 10
114.2457164984484
 20
114.2368238458585
 10
114.2541354504162
 20
114.2597983260364
 10
114.2603043244283
 20
114.2837525052285
 10
114.2641046953294
 20
114.3085679582792
 10
114.2653966061173
 20
114.3341047281865
 10
114.2653966061173
 20
114.3341047281865
 10
114.2641046953294
 20
114.3596307321705
 10
114.2603043244283
 20
114.3844677170677
 10
114.2541462163394
 20
114.4084003644134
 10
114.2457164984484
 20
114.4313640786681
 10
114.2351658936807
 20
114.4532404346763
 10
114.2226235931149
 20
114.4738571776664
 10
114.2082080219067
 20
114.4931174143292
 10
114.1920591370581
 20
114.5108811876627
 10
114.1742953637246
 20
114.5270408384345
 10
114.1550243611386
 20
114.5414456437195
 10
114.1344076181485
 20
114.5539879442852
 10
114.1125420280635
 20
114.564538549053
 10
114.0895675478856
 20
114.5729575010207
 10
114.0656241346167
 20
114.5791263750329
 10
114.040808681566
 20
114.5829267459339
 10
114.0152719116587
 20
114.5842186567218
 10
114.0152719116587
 20
114.5842186567218
 10
113.9897243758282
 20
114.5829375118572
 10
113.9649196887007
 20
114.5791263750329
 10
113.9409762754319
 20
114.5729575010207
 10
113.9180017952539
 20
114.564538549053
 10
113.8961362051689
 20
114.5539987102085
 10
113.8755194621788
 20
114.5414456437195
 10
113.856259225516
 20
114.5270408384345
 10
113.8384846862593
 20
114.5108811876627
 10
113.8223250354875
 20
114.4931174143292
 10
113.8079202302025
 20
114.4738571776664
 10
113.7953779296367
 20
114.4532296687531
 10
113.784827324869
 20
114.4313748445913
 10
113.7764083729012
 20
114.4084111303366
 10
113.7702394988891
 20
114.3844569511445
 10
113.766439127988
 20
114.3596414980938
 10
113.7651472172001
 20
114.3341047281865
 10
113.7651472172001
 20
114.3341047281865
 10
113.7664498939113
 20
114.3085679582792
 10
113.7702394988891
 20
114.2837525052285
 10
113.7764191388245
 20
114.2597983260364
 10
113.784827324869
 20
114.2368238458585
 10
113.7953779296367
 20
114.2149690216967
 10
113.8079202302025
 20
114.1943415127834
 10
113.8223250354875
 20
114.1750920420438
 10
113.8384846862593
 20
114.1573175027871
 10
113.856259225516
 20
114.1411578520153
 10
113.8755194621788
 20
114.1267530467303
 10
113.8961362051689
 20
114.1142107461645
 10
113.9180017952539
 20
114.1036601413968
 10
113.9409655095086
 20
114.095241189429
 10
113.9649196887007
 20
114.0890723154169
 10
113.9897351417514
 20
114.0852719445158
 97
        0
 75
     1
 76
     1
 98
        0
  0
LWPOLYLINE
  5
83
330
1F
100
AcDbEntity
  8
ISS138金台
  6
Continuous
 62
   250
420
  2367521
370
    13
100
AcDbPolyline
 90
       68
 70
     0
 43
0.0
 10
114.0152719116587
 20
114.0839800337279
 10
114.040808681566
 20
114.0852719445158
 10
114.0656241346167
 20
114.0890615494936
 10
114.0895783138088
 20
114.095241189429
 10
114.1125420280635
 20
114.10367090732
 10
114.1344076181485
 20
114.1142107461645
 10
114.1550351270619
 20
114.1267422808071
 10
114.1742845978014
 20
114.1411578520153
 10
114.1920591370581
 20
114.1573175027871
 10
114.2082080219067
 20
114.1750920420438
 10
114.2226235931149
 20
114.1943415127834
 10
114.2351658936807
 20
114.2149690216967
 10
114.2457164984484
 20
114.2368238458585
 10
114.2541354504162
 20
114.2597983260364
 10
114.2603043244283
 20
114.2837525052285
 10
114.2641046953294
 20
114.3085679582792
 10
114.2653966061173
 20
114.3341047281865
 10
114.2653966061173
 20
114.3341047281865
 10
114.2641046953294
 20
114.3596307321705
 10
114.2603043244283
 20
114.3844677170677
 10
114.2541462163394
 20
114.4084003644134
 10
114.2457164984484
 20
114.4313640786681
 10
114.2351658936807
 20
114.4532404346763
 10
114.2226235931149
 20
114.4738571776664
 10
114.2082080219067
 20
114.4931174143292
 10
114.1920591370581
 20
114.5108811876627
 10
114.1742953637246
 20
114.5270408384345
 10
114.1550243611386
 20
114.5414456437195
 10
114.1344076181485
 20
114.5539879442852
 10
114.1125420280635
 20
114.564538549053
 10
114.0895675478856
 20
114.5729575010207
 10
114.0656241346167
 20
114.5791263750329
 10
114.040808681566
 20
114.5829267459339
 10
114.0152719116587
 20
114.5842186567218
 10
114.0152719116587
 20
114.5842186567218
 10
113.9897243758282
 20
114.5829375118572
 10
113.9649196887007
 20
114.5791263750329
 10
113.9409762754319
 20
114.5729575010207
 10
113.9180017952539
 20
114.564538549053
 10
113.8961362051689
 20
114.5539987102085
 10
113.8755194621788
 20
114.5414456437195
 10
113.856259225516
 20
114.5270408384345
 10
113.8384846862593
 20
114.5108811876627
 10
113.8223250354875
 20
114.4931174143292
 10
113.8079202302025
 20
114.4738571776664
 10
113.7953779296367
 20
114.4532296687531
 10
113.784827324869
 20
114.4313748445913
 10
113.7764083729012
 20
114.4084111303366
 10
113.7702394988891
 20
114.3844569511445
 10
113.766439127988
 20
114.3596414980938
 10
113.7651472172001
 20
114.3341047281865
 10
113.7651472172001
 20
114.3341047281865
 10
113.7664498939113
 20
114.3085679582792
 10
113.7702394988891
 20
114.2837525052285
 10
113.7764191388245
 20
114.2597983260364
 10
113.784827324869
 20
114.2368238458585
 10
113.7953779296367
 20
114.2149690216967
 10
113.8079202302025
 20
114.1943415127834
 10
113.8223250354875
 20
114.1750920420438
 10
113.8384846862593
 20
114.1573175027871
 10
113.856259225516
 20
114.1411578520153
 10
113.8755194621788
 20
114.1267530467303
 10
113.8961362051689
 20
114.1142107461645
 10
113.9180017952539
 20
114.1036601413968
 10
113.9409655095086
 20
114.095241189429
 10
113.9649196887007
 20
114.0890723154169
 10
113.9897351417514
 20
114.0852719445158
 10
114.0152719116587
 20
114.0839800337279
  0
HATCH
  5
84
330
1F
100
AcDbEntity
  8
ISS138金台
  6
Continuous
 62
   250
420
  2367521
370
    13
100
AcDbHatch
 10
0.0
 20
0.0
 30
0.0
210
0.0
220
0.0
230
1.0
  2
SOLID
 70
     1
 71
     0
 91
        1
 92
        3
 72
     0
 73
     1
 93
       67
 10
114.0152719116587
 20
119.0892084674003
 10
114.040808681566
 20
119.0904896122649
 10
114.0656241346167
 20
119.0942792172427
 10
114.0895783138088
 20
119.1004373253317
 10
114.1125420280635
 20
119.108834745453
 10
114.1344076181485
 20
119.1193638183743
 10
114.1550351270619
 20
119.1318630552471
 10
114.1742845978014
 20
119.1462463286856
 10
114.1920591370581
 20
119.1623629157645
 10
114.2082080219067
 20
119.1801051572515
 10
114.2226235931149
 20
119.1993330961446
 10
114.2351658936807
 20
119.2199283072882
 10
114.2457164984484
 20
119.2417615996035
 10
114.2541354504162
 20
119.2647037820118
 10
114.2603043244283
 20
119.2886364293574
 10
114.2641046953294
 20
119.3134411164849
 10
114.2653966061173
 20
119.3389778863922
 10
114.2653966061173
 20
119.3389778863922
 10
114.2641046953294
 20
119.3645684859156
 10
114.2603043244283
 20
119.3894377685825
 10
114.2541462163394
 20
119.413413479621
 10
114.2457164984484
 20
119.436387959799
 10
114.2351658936807
 20
119.4582643158073
 10
114.2226235931149
 20
119.4788810587973
 10
114.2082080219067
 20
119.4981412954601
 10
114.1920591370581
 20
119.5158943028703
 10
114.1742953637246
 20
119.5320216558725
 10
114.1550243611386
 20
119.5464156952342
 10
114.1344076181485
 20
119.5589364639535
 10
114.1125420280635
 20
119.5694547709516
 10
114.0895675478856
 20
119.5778629569961
 10
114.0656241346167
 20
119.584021065085
 10
114.040808681566
 20
119.5877999041396
 10
114.0152719116587
 20
119.5890918149275
 10
114.0152719116587
 20
119.5890918149275
 10
113.9897243758282
 20
119.5877999041396
 10
113.9649196887007
 20
119.5840102991618
 10
113.9409762754319
 20
119.5778521910729
 10
113.9180017952539
 20
119.5694547709516
 10
113.8961362051689
 20
119.5589364639535
 10
113.8755194621788
 20
119.5464156952342
 10
113.856259225516
 20
119.5320324217957
 10
113.8384846862593
 20
119.5158943028703
 10
113.8223250354875
 20
119.4981412954601
 10
113.8079202302025
 20
119.4788918247205
 10
113.7953779296367
 20
119.4582643158073
 10
113.784827324869
 20
119.4363987257222
 10
113.7764083729012
 20
119.413413479621
 10
113.7702394988891
 20
119.3894270026592
 10
113.766439127988
 20
119.3645792518388
 10
113.7651472172001
 20
119.3389778863922
 10
113.7651472172001
 20
119.3389778863922
 10
113.7664498939113
 20
119.3134411164849
 10
113.7702394988891
 20
119.2886471952806
 10
113.7764191388245
 20
119.2647037820118
 10
113.784827324869
 20
119.2417615996035
 10
113.7953779296367
 20
119.2199283072882
 10
113.8079202302025
 20
119.1993330961446
 10
113.8223250354875
 20
119.1801051572515
 10
113.8384846862593
 20
119.1623629157645
 10
113.856259225516
 20
119.1462463286856
 10
113.8755194621788
 20
119.1318630552471
 10
113.8961362051689
 20
119.119353052451
 10
113.9180017952539
 20
119.108834745453
 10
113.9409655095086
 20
119.1004373253317
 10
113.9649196887007
 20
119.0942792172427
 10
113.9897351417514
 20
119.0905003781882
 97
        0
 75
     1
 76
     1
 98
        0
  0
LWPOLYLINE
  5
85
330
1F
100
AcDbEntity
  8
ISS138金台
  6
Continuous
 62
   250
420
  2367521
370
    13
100
AcDbPolyline
 90
       68
 70
     0
 43
0.0
 10
114.0152719116587
 20
119.0892084674003
 10
114.040808681566
 20
119.0904896122649
 10
114.0656241346167
 20
119.0942792172427
 10
114.0895783138088
 20
119.1004373253317
 10
114.1125420280635
 20
119.108834745453
 10
114.1344076181485
 20
119.1193638183743
 10
114.1550351270619
 20
119.1318630552471
 10
114.1742845978014
 20
119.1462463286856
 10
114.1920591370581
 20
119.1623629157645
 10
114.2082080219067
 20
119.1801051572515
 10
114.2226235931149
 20
119.1993330961446
 10
114.2351658936807
 20
119.2199283072882
 10
114.2457164984484
 20
119.2417615996035
 10
114.2541354504162
 20
119.2647037820118
 10
114.2603043244283
 20
119.2886364293574
 10
114.2641046953294
 20
119.3134411164849
 10
114.2653966061173
 20
119.3389778863922
 10
114.2653966061173
 20
119.3389778863922
 10
114.2641046953294
 20
119.3645684859156
 10
114.2603043244283
 20
119.3894377685825
 10
114.2541462163394
 20
119.413413479621
 10
114.2457164984484
 20
119.436387959799
 10
114.2351658936807
 20
119.4582643158073
 10
114.2226235931149
 20
119.4788810587973
 10
114.2082080219067
 20
119.4981412954601
 10
114.1920591370581
 20
119.5158943028703
 10
114.1742953637246
 20
119.5320216558725
 10
114.1550243611386
 20
119.5464156952342
 10
114.1344076181485
 20
119.5589364639535
 10
114.1125420280635
 20
119.5694547709516
 10
114.0895675478856
 20
119.5778629569961
 10
114.0656241346167
 20
119.584021065085
 10
114.040808681566
 20
119.5877999041396
 10
114.0152719116587
 20
119.5890918149275
 10
114.0152719116587
 20
119.5890918149275
 10
113.9897243758282
 20
119.5877999041396
 10
113.9649196887007
 20
119.5840102991618
 10
113.9409762754319
 20
119.5778521910729
 10
113.9180017952539
 20
119.5694547709516
 10
113.8961362051689
 20
119.5589364639535
 10
113.8755194621788
 20
119.5464156952342
 10
113.856259225516
 20
119.5320324217957
 10
113.8384846862593
 20
119.5158943028703
 10
113.8223250354875
 20
119.4981412954601
 10
113.8079202302025
 20
119.4788918247205
 10
113.7953779296367
 20
119.4582643158073
 10
113.784827324869
 20
119.4363987257222
 10
113.7764083729012
 20
119.413413479621
 10
113.7702394988891
 20
119.3894270026592
 10
113.766439127988
 20
119.3645792518388
 10
113.7651472172001
 20
119.3389778863922
 10
113.7651472172001
 20
119.3389778863922
 10
113.7664498939113
 20
119.3134411164849
 10
113.7702394988891
 20
119.2886471952806
 10
113.7764191388245
 20
119.2647037820118
 10
113.784827324869
 20
119.2417615996035
 10
113.7953779296367
 20
119.2199283072882
 10
113.8079202302025
 20
119.1993330961446
 10
113.8223250354875
 20
119.1801051572515
 10
113.8384846862593
 20
119.1623629157645
 10
113.856259225516
 20
119.1462463286856
 10
113.8755194621788
 20
119.1318630552471
 10
113.8961362051689
 20
119.119353052451
 10
113.9180017952539
 20
119.108834745453
 10
113.9409655095086
 20
119.1004373253317
 10
113.9649196887007
 20
119.0942792172427
 10
113.9897351417514
 20
119.0905003781882
 10
114.0152719116587
 20
119.0892084674003
  0
HATCH
  5
86
330
1F
100
AcDbEntity
  8
ISS138金台
  6
Continuous
 62
   250
420
  2367521
370
    13
100
AcDbHatch
 10
0.0
 20
0.0
 30
0.0
210
0.0
220
0.0
230
1.0
  2
SOLID
 70
     1
 71
     0
 91
        1
 92
        3
 72
     0
 73
     1
 93
       67
 10
129.1406081407978
 20
119.0892084674003
 10
129.1661556766283
 20
119.0904896122649
 10
129.1909603637557
 20
119.0942792172427
 10
129.2149037770246
 20
119.1004373253317
 10
129.2378782572026
 20
119.108834745453
 10
129.2597330813644
 20
119.1193638183743
 10
129.2803605902777
 20
119.1318630552471
 10
129.2996315928637
 20
119.1462463286856
 10
129.3173953661972
 20
119.1623629157645
 10
129.333555016969
 20
119.1801051572515
 10
129.347959822254
 20
119.1993330961446
 10
129.3605021228197
 20
119.2199283072882
 10
129.3710527275875
 20
119.2417615996035
 10
129.3794716795553
 20
119.2647037820118
 10
129.3856405535674
 20
119.2886364293574
 10
129.3894409244684
 20
119.3134411164849
 10
129.3907328352563
 20
119.3389778863922
 10
129.3907328352563
 20
119.3389778863922
 10
129.3894409244684
 20
119.3645684859156
 10
129.3856405535674
 20
119.3894377685825
 10
129.3794716795553
 20
119.413413479621
 10
129.3710419616643
 20
119.436387959799
 10
129.3605021228197
 20
119.4582643158073
 10
129.347959822254
 20
119.4788810587973
 10
129.3335442510458
 20
119.4981412954601
 10
129.3173953661972
 20
119.5158943028703
 10
129.2996315928637
 20
119.5320216558725
 10
129.2803605902777
 20
119.5464156952342
 10
129.2597438472876
 20
119.5589364639535
 10
129.2378782572026
 20
119.5694547709516
 10
129.2149037770246
 20
119.5778629569961
 10
129.1909603637557
 20
119.584021065085
 10
129.166144910705
 20
119.5877999041396
 10
129.1406081407978
 20
119.5890918149275
 10
129.1406081407978
 20
119.5890918149275
 10
129.1150713708905
 20
119.5877999041396
 10
129.0902559178398
 20
119.5840102991618
 10
129.0663125045709
 20
119.5778521910729
 10
129.0433380243929
 20
119.5694547709516
 10
129.0214724343079
 20
119.5589364639535
 10
129.0008556913179
 20
119.5464156952342
 10
128.9815954546551
 20
119.5320324217957
 10
128.9638209153984
 20
119.5158943028703
 10
128.9476720305498
 20
119.4981412954601
 10
128.9332564593416
 20
119.4788918247205
 10
128.9207141587758
 20
119.4582643158073
 10
128.9101635540081
 20
119.4363987257222
 10
128.9017446020403
 20
119.413413479621
 10
128.8955757280281
 20
119.3894270026592
 10
128.8917753571271
 20
119.3645792518388
 10
128.8904834463392
 20
119.3389778863922
 10
128.8904834463392
 20
119.3389778863922
 10
128.8917861230503
 20
119.3134411164849
 10
128.8955757280281
 20
119.2886471952806
 10
128.9017553679635
 20
119.2647037820118
 10
128.9101743199313
 20
119.2417615996035
 10
128.9207141587758
 20
119.2199283072882
 10
128.9332564593416
 20
119.1993330961446
 10
128.9476612646265
 20
119.1801051572515
 10
128.9638209153984
 20
119.1623629157645
 10
128.9815954546551
 20
119.1462463286856
 10
129.0008556913179
 20
119.1318630552471
 10
129.0214724343079
 20
119.119353052451
 10
129.0433380243929
 20
119.108834745453
 10
129.0663017386477
 20
119.1004373253317
 10
129.0902559178398
 20
119.0942792172427
 10
129.1150713708905
 20
119.0905003781882
 97
        0
 75
     1
 76
     1
 98
        0
  0
LWPOLYLINE
  5
87
330
1F
100
AcDbEntity
  8
ISS138金台
  6
Continuous
 62
   250
420
  2367521
370
    13
100
AcDbPolyline
 90
       68
 70
     0
 43
0.0
 10
129.1406081407978
 20
119.0892084674003
 10
129.1661556766283
 20
119.0904896122649
 10
129.1909603637557
 20
119.0942792172427
 10
129.2149037770246
 20
119.1004373253317
 10
129.2378782572026
 20
119.108834745453
 10
129.2597330813644
 20
119.1193638183743
 10
129.2803605902777
 20
119.1318630552471
 10
129.2996315928637
 20
119.1462463286856
 10
129.3173953661972
 20
119.1623629157645
 10
129.333555016969
 20
119.1801051572515
 10
129.347959822254
 20
119.1993330961446
 10
129.3605021228197
 20
119.2199283072882
 10
129.3710527275875
 20
119.2417615996035
 10
129.3794716795553
 20
119.2647037820118
 10
129.3856405535674
 20
119.2886364293574
 10
129.3894409244684
 20
119.3134411164849
 10
129.3907328352563
 20
119.3389778863922
 10
129.3907328352563
 20
119.3389778863922
 10
129.3894409244684
 20
119.3645684859156
 10
129.3856405535674
 20
119.3894377685825
 10
129.3794716795553
 20
119.413413479621
 10
129.3710419616643
 20
119.436387959799
 10
129.3605021228197
 20
119.4582643158073
 10
129.347959822254
 20
119.4788810587973
 10
129.3335442510458
 20
119.4981412954601
 10
129.3173953661972
 20
119.5158943028703
 10
129.2996315928637
 20
119.5320216558725
 10
129.2803605902777
 20
119.5464156952342
 10
129.2597438472876
 20
119.5589364639535
 10
129.2378782572026
 20
119.5694547709516
 10
129.2149037770246
 20
119.5778629569961
 10
129.1909603637557
 20
119.584021065085
 10
129.166144910705
 20
119.5877999041396
 10
129.1406081407978
 20
119.5890918149275
 10
129.1406081407978
 20
119.5890918149275
 10
129.1150713708905
 20
119.5877999041396
 10
129.0902559178398
 20
119.5840102991618
 10
129.0663125045709
 20
119.5778521910729
 10
129.0433380243929
 20
119.5694547709516
 10
129.0214724343079
 20
119.5589364639535
 10
129.0008556913179
 20
119.5464156952342
 10
128.9815954546551
 20
119.5320324217957
 10
128.9638209153984
 20
119.5158943028703
 10
128.9476720305498
 20
119.4981412954601
 10
128.9332564593416
 20
119.4788918247205
 10
128.9207141587758
 20
119.4582643158073
 10
128.9101635540081
 20
119.4363987257222
 10
128.9017446020403
 20
119.413413479621
 10
128.8955757280281
 20
119.3894270026592
 10
128.8917753571271
 20
119.3645792518388
 10
128.8904834463392
 20
119.3389778863922
 10
128.8904834463392
 20
119.3389778863922
 10
128.8917861230503
 20
119.3134411164849
 10
128.8955757280281
 20
119.2886471952806
 10
128.9017553679635
 20
119.2647037820118
 10
128.9101743199313
 20
119.2417615996035
 10
128.9207141587758
 20
119.2199283072882
 10
128.9332564593416
 20
119.1993330961446
 10
128.9476612646265
 20
119.1801051572515
 10
128.9638209153984
 20
119.1623629157645
 10
128.9815954546551
 20
119.1462463286856
 10
129.0008556913179
 20
119.1318630552471
 10
129.0214724343079
 20
119.119353052451
 10
129.0433380243929
 20
119.108834745453
 10
129.0663017386477
 20
119.1004373253317
 10
129.0902559178398
 20
119.0942792172427
 10
129.1150713708905
 20
119.0905003781882
 10
129.1406081407978
 20
119.0892084674003
  0
HATCH
  5
88
330
1F
100
AcDbEntity
  8
ISS138金台
  6
Continuous
 62
   250
420
  2367521
370
    13
100
AcDbHatch
 10
0.0
 20
0.0
 30
0.0
210
0.0
220
0.0
230
1.0
  2
SOLID
 70
     1
 71
     0
 91
        1
 92
        3
 72
     0
 73
     1
 93
       67
 10
135.5788024885503
 20
106.6095225111631
 10
135.6043500243807
 20
106.610814421951
 10
135.6291547115082
 20
106.6146040269289
 10
135.6530981247771
 20
106.620772900941
 10
135.676072604955
 20
106.6292133847552
 10
135.6979274291168
 20
106.6397532235998
 10
135.7185549380301
 20
106.6522847582423
 10
135.7378259406161
 20
106.6667003294505
 10
135.7555897139496
 20
106.6828492142991
 10
135.7717493647215
 20
106.7006237535558
 10
135.7861541700065
 20
106.7198839902186
 10
135.7986964705722
 20
106.7405114991319
 10
135.80924707534
 20
106.7623663232937
 10
135.8176660273077
 20
106.7853408034716
 10
135.8238349013199
 20
106.8092949826637
 10
135.8276352722209
 20
106.8340996697912
 10
135.8289271830088
 20
106.8596472056217
 10
135.8289271830088
 20
106.8596472056217
 10
135.8276352722209
 20
106.8851947414522
 10
135.8238349013199
 20
106.9099994285797
 10
135.8176660273077
 20
106.9339536077718
 10
135.8092363094167
 20
106.9569173220265
 10
135.7986964705722
 20
106.9787721461883
 10
135.7861541700065
 20
106.9993996551016
 10
135.7717385987982
 20
107.0186598917644
 10
135.7555897139496
 20
107.0364236650979
 10
135.7378259406161
 20
107.0525833158697
 10
135.7185549380301
 20
107.0669881211547
 10
135.6979381950401
 20
107.0795304217204
 10
135.676072604955
 20
107.0900810264882
 10
135.6530981247771
 20
107.0984999784559
 10
135.6291547115082
 20
107.1046688524681
 10
135.6043392584575
 20
107.1084692233692
 10
135.5788024885503
 20
107.1097611341571
 10
135.5788024885503
 20
107.1097611341571
 10
135.553265718643
 20
107.1084584574459
 10
135.5284502655923
 20
107.1046796183913
 10
135.5045068523234
 20
107.0984999784559
 10
135.4815323721454
 20
107.0900810264882
 10
135.4596667820604
 20
107.0795304217204
 10
135.4390500390703
 20
107.0669881211547
 10
135.4197898024075
 20
107.0525833158697
 10
135.4020152631508
 20
107.0364236650979
 10
135.3858663783022
 20
107.0186598917644
 10
135.371450807094
 20
106.9993996551016
 10
135.3589085065283
 20
106.9787829121116
 10
135.3483579017605
 20
106.9569173220265
 10
135.3399389497928
 20
106.9339428418486
 10
135.3337700757806
 20
106.9099994285797
 10
135.3299697048795
 20
106.885183975529
 10
135.3286777940917
 20
106.8596472056217
 10
135.3286777940917
 20
106.8596472056217
 10
135.3299804708028
 20
106.8341104357144
 10
135.3337700757806
 20
106.8092949826637
 10
135.339949715716
 20
106.7853408034716
 10
135.3483686676838
 20
106.7623770892169
 10
135.3589085065283
 20
106.7405007332086
 10
135.3714400411708
 20
106.7198839902186
 10
135.385855612379
 20
106.7006237535558
 10
135.4020152631508
 20
106.6828492142991
 10
135.4197898024075
 20
106.6667003294505
 10
135.4390500390703
 20
106.6522955241655
 10
135.4596775479836
 20
106.6397532235998
 10
135.4815323721454
 20
106.629202618832
 10
135.5044960864001
 20
106.6207836668643
 10
135.5284502655923
 20
106.6146147928521
 10
135.553265718643
 20
106.610814421951
 97
        0
 75
     1
 76
     1
 98
        0
  0
LWPOLYLINE
  5
89
330
1F
100
AcDbEntity
  8
ISS138金台
  6
Continuous
 62
   250
420
  2367521
370
    13
100
AcDbPolyline
 90
       68
 70
     0
 43
0.0
 10
135.5788024885503
 20
106.6095225111631
 10
135.6043500243807
 20
106.610814421951
 10
135.6291547115082
 20
106.6146040269289
 10
135.6530981247771
 20
106.620772900941
 10
135.676072604955
 20
106.6292133847552
 10
135.6979274291168
 20
106.6397532235998
 10
135.7185549380301
 20
106.6522847582423
 10
135.7378259406161
 20
106.6667003294505
 10
135.7555897139496
 20
106.6828492142991
 10
135.7717493647215
 20
106.7006237535558
 10
135.7861541700065
 20
106.7198839902186
 10
135.7986964705722
 20
106.7405114991319
 10
135.80924707534
 20
106.7623663232937
 10
135.8176660273077
 20
106.7853408034716
 10
135.8238349013199
 20
106.8092949826637
 10
135.8276352722209
 20
106.8340996697912
 10
135.8289271830088
 20
106.8596472056217
 10
135.8289271830088
 20
106.8596472056217
 10
135.8276352722209
 20
106.8851947414522
 10
135.8238349013199
 20
106.9099994285797
 10
135.8176660273077
 20
106.9339536077718
 10
135.8092363094167
 20
106.9569173220265
 10
135.7986964705722
 20
106.9787721461883
 10
135.7861541700065
 20
106.9993996551016
 10
135.7717385987982
 20
107.0186598917644
 10
135.7555897139496
 20
107.0364236650979
 10
135.7378259406161
 20
107.0525833158697
 10
135.7185549380301
 20
107.0669881211547
 10
135.6979381950401
 20
107.0795304217204
 10
135.676072604955
 20
107.0900810264882
 10
135.6530981247771
 20
107.0984999784559
 10
135.6291547115082
 20
107.1046688524681
 10
135.6043392584575
 20
107.1084692233692
 10
135.5788024885503
 20
107.1097611341571
 10
135.5788024885503
 20
107.1097611341571
 10
135.553265718643
 20
107.1084584574459
 10
135.5284502655923
 20
107.1046796183913
 10
135.5045068523234
 20
107.0984999784559
 10
135.4815323721454
 20
107.0900810264882
 10
135.4596667820604
 20
107.0795304217204
 10
135.4390500390703
 20
107.0669881211547
 10
135.4197898024075
 20
107.0525833158697
 10
135.4020152631508
 20
107.0364236650979
 10
135.3858663783022
 20
107.0186598917644
 10
135.371450807094
 20
106.9993996551016
 10
135.3589085065283
 20
106.9787829121116
 10
135.3483579017605
 20
106.9569173220265
 10
135.3399389497928
 20
106.9339428418486
 10
135.3337700757806
 20
106.9099994285797
 10
135.3299697048795
 20
106.885183975529
 10
135.3286777940917
 20
106.8596472056217
 10
135.3286777940917
 20
106.8596472056217
 10
135.3299804708028
 20
106.8341104357144
 10
135.3337700757806
 20
106.8092949826637
 10
135.339949715716
 20
106.7853408034716
 10
135.3483686676838
 20
106.7623770892169
 10
135.3589085065283
 20
106.7405007332086
 10
135.3714400411708
 20
106.7198839902186
 10
135.385855612379
 20
106.7006237535558
 10
135.4020152631508
 20
106.6828492142991
 10
135.4197898024075
 20
106.6667003294505
 10
135.4390500390703
 20
106.6522955241655
 10
135.4596775479836
 20
106.6397532235998
 10
135.4815323721454
 20
106.629202618832
 10
135.5044960864001
 20
106.6207836668643
 10
135.5284502655923
 20
106.6146147928521
 10
135.553265718643
 20
106.610814421951
 10
135.5788024885503
 20
106.6095225111631
  0
HATCH
  5
8A
330
1F
100
AcDbEntity
  8
ISS138金台
  6
Continuous
 62
   250
420
  2367521
370
    13
100
AcDbHatch
 10
0.0
 20
0.0
 30
0.0
210
0.0
220
0.0
230
1.0
  2
SOLID
 70
     1
 71
     0
 91
        1
 92
        3
 72
     0
 73
     1
 93
       67
 10
135.5788024885503
 20
103.5227062360435
 10
135.6043500243807
 20
103.5240089127547
 10
135.6291547115082
 20
103.5277877518092
 10
135.6530981247771
 20
103.5339566258214
 10
135.676072604955
 20
103.5423971096356
 10
135.6979274291168
 20
103.5529369484801
 10
135.7185549380301
 20
103.5654792490459
 10
135.7378259406161
 20
103.5798948202541
 10
135.7555897139496
 20
103.5960437051027
 10
135.7717493647215
 20
103.6138182443594
 10
135.7861541700065
 20
103.633067715099
 10
135.7986964705722
 20
103.6536952240123
 10
135.80924707534
 20
103.675550048174
 10
135.8176660273077
 20
103.698524528352
 10
135.8238349013199
 20
103.7224787075441
 10
135.8276352722209
 20
103.7472941605948
 10
135.8289271830088
 20
103.7728309305021
 10
135.8289271830088
 20
103.7728309305021
 10
135.8276352722209
 20
103.7983784663326
 10
135.8238349013199
 20
103.8231831534601
 10
135.8176660273077
 20
103.8471373326522
 10
135.8092363094167
 20
103.8701118128301
 10
135.7986964705722
 20
103.8919558710687
 10
135.7861541700065
 20
103.912583379982
 10
135.7717385987982
 20
103.9318328507215
 10
135.7555897139496
 20
103.9496073899783
 10
135.7378259406161
 20
103.9657670407501
 10
135.7185549380301
 20
103.9801826119583
 10
135.6979381950401
 20
103.9927141466008
 10
135.676072604955
 20
104.0032647513686
 10
135.6530981247771
 20
104.0116837033363
 10
135.6291547115082
 20
104.0178525773485
 10
135.6043392584575
 20
104.0216529482495
 10
135.5788024885503
 20
104.0229448590374
 10
135.5788024885503
 20
104.0229448590374
 10
135.553265718643
 20
104.0216529482495
 10
135.5284502655923
 20
104.0178418114253
 10
135.5045068523234
 20
104.0116837033363
 10
135.4815323721454
 20
104.0032647513686
 10
135.4596667820604
 20
103.9927141466008
 10
135.4390500390703
 20
103.9801718460351
 10
135.4197898024075
 20
103.9657670407501
 10
135.4020152631508
 20
103.9496073899783
 10
135.3858663783022
 20
103.9318436166448
 10
135.371450807094
 20
103.912583379982
 10
135.3589085065283
 20
103.8919558710687
 10
135.3483579017605
 20
103.8701010469069
 10
135.3399389497928
 20
103.8471373326522
 10
135.3337700757806
 20
103.8231831534601
 10
135.3299697048795
 20
103.7983677004094
 10
135.3286777940917
 20
103.7728309305021
 10
135.3286777940917
 20
103.7728309305021
 10
135.3299804708028
 20
103.7472941605948
 10
135.3337700757806
 20
103.7224787075441
 10
135.339949715716
 20
103.698524528352
 10
135.3483686676838
 20
103.6755608140973
 10
135.3589085065283
 20
103.6536952240123
 10
135.3714400411708
 20
103.633067715099
 10
135.385855612379
 20
103.6138074784362
 10
135.4020152631508
 20
103.5960437051027
 10
135.4197898024075
 20
103.5798948202541
 10
135.4390500390703
 20
103.5654792490459
 10
135.4596775479836
 20
103.5529369484801
 10
135.4815323721454
 20
103.5423863437124
 10
135.5044960864001
 20
103.5339673917446
 10
135.5284502655923
 20
103.5277985177324
 10
135.553265718643
 20
103.5239981468314
 97
        0
 75
     1
 76
     1
 98
        0
  0
LWPOLYLINE
  5
8B
330
1F
100
AcDbEntity
  8
ISS138金台
  6
Continuous
 62
   250
420
  2367521
370
    13
100
AcDbPolyline
 90
       68
 70
     0
 43
0.0
 10
135.5788024885503
 20
103.5227062360435
 10
135.6043500243807
 20
103.5240089127547
 10
135.6291547115082
 20
103.5277877518092
 10
135.6530981247771
 20
103.5339566258214
 10
135.676072604955
 20
103.5423971096356
 10
135.6979274291168
 20
103.5529369484801
 10
135.7185549380301
 20
103.5654792490459
 10
135.7378259406161
 20
103.5798948202541
 10
135.7555897139496
 20
103.5960437051027
 10
135.7717493647215
 20
103.6138182443594
 10
135.7861541700065
 20
103.633067715099
 10
135.7986964705722
 20
103.6536952240123
 10
135.80924707534
 20
103.675550048174
 10
135.8176660273077
 20
103.698524528352
 10
135.8238349013199
 20
103.7224787075441
 10
135.8276352722209
 20
103.7472941605948
 10
135.8289271830088
 20
103.7728309305021
 10
135.8289271830088
 20
103.7728309305021
 10
135.8276352722209
 20
103.7983784663326
 10
135.8238349013199
 20
103.8231831534601
 10
135.8176660273077
 20
103.8471373326522
 10
135.8092363094167
 20
103.8701118128301
 10
135.7986964705722
 20
103.8919558710687
 10
135.7861541700065
 20
103.912583379982
 10
135.7717385987982
 20
103.9318328507215
 10
135.7555897139496
 20
103.9496073899783
 10
135.7378259406161
 20
103.9657670407501
 10
135.7185549380301
 20
103.9801826119583
 10
135.6979381950401
 20
103.9927141466008
 10
135.676072604955
 20
104.0032647513686
 10
135.6530981247771
 20
104.0116837033363
 10
135.6291547115082
 20
104.0178525773485
 10
135.6043392584575
 20
104.0216529482495
 10
135.5788024885503
 20
104.0229448590374
 10
135.5788024885503
 20
104.0229448590374
 10
135.553265718643
 20
104.0216529482495
 10
135.5284502655923
 20
104.0178418114253
 10
135.5045068523234
 20
104.0116837033363
 10
135.4815323721454
 20
104.0032647513686
 10
135.4596667820604
 20
103.9927141466008
 10
135.4390500390703
 20
103.9801718460351
 10
135.4197898024075
 20
103.9657670407501
 10
135.4020152631508
 20
103.9496073899783
 10
135.3858663783022
 20
103.9318436166448
 10
135.371450807094
 20
103.912583379982
 10
135.3589085065283
 20
103.8919558710687
 10
135.3483579017605
 20
103.8701010469069
 10
135.3399389497928
 20
103.8471373326522
 10
135.3337700757806
 20
103.8231831534601
 10
135.3299697048795
 20
103.7983677004094
 10
135.3286777940917
 20
103.7728309305021
 10
135.3286777940917
 20
103.7728309305021
 10
135.3299804708028
 20
103.7472941605948
 10
135.3337700757806
 20
103.7224787075441
 10
135.339949715716
 20
103.698524528352
 10
135.3483686676838
 20
103.6755608140973
 10
135.3589085065283
 20
103.6536952240123
 10
135.3714400411708
 20
103.633067715099
 10
135.385855612379
 20
103.6138074784362
 10
135.4020152631508
 20
103.5960437051027
 10
135.4197898024075
 20
103.5798948202541
 10
135.4390500390703
 20
103.5654792490459
 10
135.4596775479836
 20
103.5529369484801
 10
135.4815323721454
 20
103.5423863437124
 10
135.5044960864001
 20
103.5339673917446
 10
135.5284502655923
 20
103.5277985177324
 10
135.553265718643
 20
103.5239981468314
 10
135.5788024885503
 20
103.5227062360435
  0
TEXT
  5
8C
330
1F
100
AcDbEntity
  8
ISS138金台
  6
Continuous
 62
   250
420
  2367521
100
AcDbText
 10
119.8361051575719
 20
120.1780556841203
 30
0.0
 40
2.150533301035563
  1
14
 41
1.012501716613769
  7
MS Gothic
100
AcDbText
  0
TEXT
  5
8D
330
1F
100
AcDbEntity
  8
ISS138金台
  6
Continuous
 62
   250
420
  2367521
100
AcDbText
 10
115.2584561309979
 20
115.0839437882413
 30
0.0
 40
2.150533301035563
  1
4
 41
0.9520034790039061
  7
MS Gothic
100
AcDbText
  0
TEXT
  5
8E
330
1F
100
AcDbEntity
  8
ISS138金台
  6
Continuous
 62
   250
420
  2367521
100
AcDbText
 10
134.8501399994936
 20
104.5886295119669
 30
0.0
 40
2.150533301035563
  1
3
 50
90.00000250447816
 41
0.8120040893554685
  7
MS Gothic
100
AcDbText
  0
TEXT
  5
8F
330
1F
100
AcDbEntity
  8
ISS138金台
  6
Continuous
 62
   250
420
  2367521
100
AcDbText
 10
107.8838062098801
 20
104.0891014399064
 30
0.0
 40
2.150533301035563
  1
2
 50
90.00000250447816
 41
0.8300018310546873
  7
MS Gothic
100
AcDbText
  0
HATCH
  5
90
330
1F
100
AcDbEntity
  8
ISS138金台
  6
Continuous
 62
   250
420
  2367521
370
    13
100
AcDbHatch
 10
0.0
 20
0.0
 30
0.0
210
0.0
220
0.0
230
1.0
  2
SOLID
 70
     1
 71
     0
 91
        1
 92
        3
 72
     0
 73
     1
 93
       67
 10
118.0798062710528
 20
114.0839800337279
 10
118.1053322750368
 20
114.0852719445158
 10
118.1301477280876
 20
114.0890615494936
 10
118.15406960951
 20
114.095241189429
 10
118.1770225578415
 20
114.10367090732
 10
118.1988558501568
 20
114.1142107461645
 10
118.2194510613004
 20
114.1267422808071
 10
118.2386790001935
 20
114.1411578520153
 10
118.2564104757572
 20
114.1573175027871
 10
118.2725378287594
 20
114.1750920420438
 10
118.2869103362747
 20
114.1943415127834
 10
118.2994203390707
 20
114.2149690216967
 10
118.309949411992
 20
114.2368238458585
 10
118.3183468321133
 20
114.2597983260364
 10
118.3245049402022
 20
114.2837525052285
 10
118.3282837792568
 20
114.3085679582792
 10
118.3295756900447
 20
114.3341047281865
 10
118.3295756900447
 20
114.3341047281865
 10
118.3282837792568
 20
114.3596307321705
 10
118.3245049402022
 20
114.3844677170677
 10
118.3183468321133
 20
114.4084003644134
 10
118.309949411992
 20
114.4313640786681
 10
118.299431104994
 20
114.4532404346763
 10
118.2869211021979
 20
114.4738571776664
 10
118.2725378287594
 20
114.4931174143292
 10
118.2564104757572
 20
114.5108811876627
 10
118.2386682342702
 20
114.5270408384345
 10
118.2194510613004
 20
114.5414456437195
 10
118.1988558501568
 20
114.5539879442852
 10
118.1770225578415
 20
114.564538549053
 10
118.1540803754332
 20
114.5729575010207
 10
118.1301369621643
 20
114.5791263750329
 10
118.1053430409601
 20
114.5829267459339
 10
118.0798062710528
 20
114.5842186567218
 10
118.0798062710528
 20
114.5842186567218
 10
118.05415107599
 20
114.5829375118572
 10
118.0292494955534
 20
114.5791263750329
 10
118.0052307208219
 20
114.5729575010207
 10
117.9822347087975
 20
114.564538549053
 10
117.9603583527892
 20
114.5539987102085
 10
117.9397308438759
 20
114.5414456437195
 10
117.9205029049829
 20
114.5270408384345
 10
117.9027498975726
 20
114.5108811876627
 10
117.8866440764169
 20
114.4931174143292
 10
117.8722715689016
 20
114.4738571776664
 10
117.8597723320288
 20
114.4532296687531
 10
117.849264790954
 20
114.4313748445913
 10
117.8408781367559
 20
114.4084111303366
 10
117.8347415605135
 20
114.3844569511445
 10
117.8309627214589
 20
114.3596414980938
 10
117.8296815765942
 20
114.3341047281865
 10
117.8296815765942
 20
114.3341047281865
 10
117.8309734873821
 20
114.3085679582792
 10
117.8347415605135
 20
114.2837525052285
 10
117.8408889026792
 20
114.2597983260364
 10
117.849264790954
 20
114.2368238458585
 10
117.8597615661056
 20
114.2149690216967
 10
117.8722715689016
 20
114.1943415127834
 10
117.8866333104937
 20
114.1750920420438
 10
117.9027498975726
 20
114.1573175027871
 10
117.9204921390596
 20
114.1411578520153
 10
117.9397416097992
 20
114.1267530467303
 10
117.9603583527892
 20
114.1142107461645
 10
117.9822347087975
 20
114.1036601413968
 10
118.0052414867451
 20
114.095241189429
 10
118.0292494955534
 20
114.0890723154169
 10
118.05415107599
 20
114.0852719445158
 97
        0
 75
     1
 76
     1
 98
        0
  0
LWPOLYLINE
  5
91
330
1F
100
AcDbEntity
  8
ISS138金台
  6
Continuous
 62
   250
420
  2367521
370
    13
100
AcDbPolyline
 90
       68
 70
     0
 43
0.0
 10
118.0798062710528
 20
114.0839800337279
 10
118.1053322750368
 20
114.0852719445158
 10
118.1301477280876
 20
114.0890615494936
 10
118.15406960951
 20
114.095241189429
 10
118.1770225578415
 20
114.10367090732
 10
118.1988558501568
 20
114.1142107461645
 10
118.2194510613004
 20
114.1267422808071
 10
118.2386790001935
 20
114.1411578520153
 10
118.2564104757572
 20
114.1573175027871
 10
118.2725378287594
 20
114.1750920420438
 10
118.2869103362747
 20
114.1943415127834
 10
118.2994203390707
 20
114.2149690216967
 10
118.309949411992
 20
114.2368238458585
 10
118.3183468321133
 20
114.2597983260364
 10
118.3245049402022
 20
114.2837525052285
 10
118.3282837792568
 20
114.3085679582792
 10
118.3295756900447
 20
114.3341047281865
 10
118.3295756900447
 20
114.3341047281865
 10
118.3282837792568
 20
114.3596307321705
 10
118.3245049402022
 20
114.3844677170677
 10
118.3183468321133
 20
114.4084003644134
 10
118.309949411992
 20
114.4313640786681
 10
118.299431104994
 20
114.4532404346763
 10
118.2869211021979
 20
114.4738571776664
 10
118.2725378287594
 20
114.4931174143292
 10
118.2564104757572
 20
114.5108811876627
 10
118.2386682342702
 20
114.5270408384345
 10
118.2194510613004
 20
114.5414456437195
 10
118.1988558501568
 20
114.5539879442852
 10
118.1770225578415
 20
114.564538549053
 10
118.1540803754332
 20
114.5729575010207
 10
118.1301369621643
 20
114.5791263750329
 10
118.1053430409601
 20
114.5829267459339
 10
118.0798062710528
 20
114.5842186567218
 10
118.0798062710528
 20
114.5842186567218
 10
118.05415107599
 20
114.5829375118572
 10
118.0292494955534
 20
114.5791263750329
 10
118.0052307208219
 20
114.5729575010207
 10
117.9822347087975
 20
114.564538549053
 10
117.9603583527892
 20
114.5539987102085
 10
117.9397308438759
 20
114.5414456437195
 10
117.9205029049829
 20
114.5270408384345
 10
117.9027498975726
 20
114.5108811876627
 10
117.8866440764169
 20
114.4931174143292
 10
117.8722715689016
 20
114.4738571776664
 10
117.8597723320288
 20
114.4532296687531
 10
117.849264790954
 20
114.4313748445913
 10
117.8408781367559
 20
114.4084111303366
 10
117.8347415605135
 20
114.3844569511445
 10
117.8309627214589
 20
114.3596414980938
 10
117.8296815765942
 20
114.3341047281865
 10
117.8296815765942
 20
114.3341047281865
 10
117.8309734873821
 20
114.3085679582792
 10
117.8347415605135
 20
114.2837525052285
 10
117.8408889026792
 20
114.2597983260364
 10
117.849264790954
 20
114.2368238458585
 10
117.8597615661056
 20
114.2149690216967
 10
117.8722715689016
 20
114.1943415127834
 10
117.8866333104937
 20
114.1750920420438
 10
117.9027498975726
 20
114.1573175027871
 10
117.9204921390596
 20
114.1411578520153
 10
117.9397416097992
 20
114.1267530467303
 10
117.9603583527892
 20
114.1142107461645
 10
117.9822347087975
 20
114.1036601413968
 10
118.0052414867451
 20
114.095241189429
 10
118.0292494955534
 20
114.0890723154169
 10
118.05415107599
 20
114.0852719445158
 10
118.0798062710528
 20
114.0839800337279
  0
LINE
  5
92
330
1F
100
AcDbEntity
  8
ISS138金台
  6
UserDefined01
 62
   140
420
    44526
370
    13
100
AcDbLine
 10
123.0772401763049
 20
98.9000879481278
 30
0.0
 11
128.060226212579
 21
98.9000879481278
 31
0.0
  0
TEXT
  5
93
330
1F
100
AcDbEntity
  8
ISS138金台
  6
Continuous
 62
   140
420
    44526
100
AcDbText
 10
124.8691742687232
 20
99.68925182516465
 30
0.0
 40
1.881716638406118
  1
5
 41
1.010001046316964
  7
MS Gothic
100
AcDbText
  0
HATCH
  5
94
330
1F
100
AcDbEntity
  8
ISS138金台
  6
Continuous
 62
   140
420
    44526
370
    13
100
AcDbHatch
 10
0.0
 20
0.0
 30
0.0
210
0.0
220
0.0
230
1.0
  2
SOLID
 70
     1
 71
     0
 91
        1
 92
        3
 72
     0
 73
     1
 93
        3
 10
122.211143184104
 20
110.2475432898589
 10
123.9432833388896
 20
110.2468327389255
 10
123.0779184294685
 20
108.7482377568206
 97
        0
 75
     1
 76
     1
 98
        0
  0
LWPOLYLINE
  5
95
330
1F
100
AcDbEntity
  8
ISS138金台
  6
Continuous
 62
   140
420
    44526
370
    13
100
AcDbPolyline
 90
        4
 70
     0
 43
0.0
 10
122.211143184104
 20
110.2475432898589
 10
123.9432833388896
 20
110.2468327389255
 10
123.0779184294685
 20
108.7482377568206
 10
122.211143184104
 20
110.2475432898589
  0
ENDSEC
  0
SECTION
  2
OBJECTS
  0
DICTIONARY
  5
C
330
0
100
AcDbDictionary
281
     1
  3
ACAD_DETAILVIEWSTYLE
350
9D
  3
ACAD_GROUP
350
D
  3
ACAD_LAYOUT
350
1A
  3
ACAD_MATERIAL
350
43
  3
ACAD_MLEADERSTYLE
350
5B
  3
ACAD_MLINESTYLE
350
17
  3
ACAD_PLOTSETTINGS
350
19
  3
ACAD_PLOTSTYLENAME
350
E
  3
ACAD_SCALELIST
350
47
  3
ACAD_SECTIONVIEWSTYLE
350
9E
  3
ACAD_TABLESTYLE
350
59
  3
ACAD_VISUALSTYLE
350
2A
  3
ACDB_RECOMPOSE_DATA
350
9A
  3
AcDbVariableDictionary
350
96
  0
SUN
  5
5D
330
29
100
AcDbSun
 90
        1
290
     0
 63
     7
421
 16777215
 40
1.0
291
     1
 91
  2455826
 92
 54000000
292
     0
 70
     2
 71
   256
280
     1
  0
DICTIONARY
  5
9D
102
{ACAD_REACTORS
330
C
102
}
330
C
100
AcDbDictionary
281
     1
  0
DICTIONARY
  5
D
102
{ACAD_REACTORS
330
C
102
}
330
C
100
AcDbDictionary
281
     1
  0
DICTIONARY
  5
1A
102
{ACAD_REACTORS
330
C
102
}
330
C
100
AcDbDictionary
281
     1
  3
Layout1
350
1E
  3
Layout2
350
26
  3
Model
350
22
  0
DICTIONARY
  5
43
102
{ACAD_REACTORS
330
C
102
}
330
C
100
AcDbDictionary
281
     1
  3
ByBlock
350
45
  3
ByLayer
350
44
  3
Global
350
46
  0
DICTIONARY
  5
5B
102
{ACAD_REACTORS
330
C
102
}
330
C
100
AcDbDictionary
281
     1
  3
Standard
350
5C
  0
DICTIONARY
  5
17
102
{ACAD_REACTORS
330
C
102
}
330
C
100
AcDbDictionary
281
     1
  3
Standard
350
18
  0
DICTIONARY
  5
19
102
{ACAD_REACTORS
330
C
102
}
330
C
100
AcDbDictionary
281
     1
  0
ACDBDICTIONARYWDFLT
  5
E
102
{ACAD_REACTORS
330
C
102
}
330
C
100
AcDbDictionary
281
     1
  3
Normal
350
F
100
AcDbDictionaryWithDefault
340
F
  0
DICTIONARY
  5
47
102
{ACAD_REACTORS
330
C
102
}
330
C
100
AcDbDictionary
281
     1
  3
A0
350
48
  3
A1
350
49
  3
A2
350
4A
  3
A3
350
4B
  3
A4
350
4C
  3
A5
350
4D
  3
A6
350
4E
  3
A7
350
4F
  3
A8
350
50
  3
A9
350
51
  3
B0
350
52
  3
B1
350
53
  3
B2
350
54
  3
B3
350
55
  3
B4
350
56
  3
B5
350
57
  3
B6
350
58
  0
DICTIONARY
  5
9E
102
{ACAD_REACTORS
330
C
102
}
330
C
100
AcDbDictionary
281
     1
  0
DICTIONARY
  5
59
102
{ACAD_REACTORS
330
C
102
}
330
C
100
AcDbDictionary
281
     1
  3
Standard
350
5A
  0
DICTIONARY
  5
2A
102
{ACAD_REACTORS
330
C
102
}
330
C
100
AcDbDictionary
281
     1
  3
2dWireframe
350
2F
  3
Basic
350
32
  3
Brighten
350
36
  3
ColorChange
350
3A
  3
Conceptual
350
34
  3
Dim
350
35
  3
EdgeColorOff
350
3D
  3
Facepattern
350
39
  3
Flat
350
2B
  3
FlatWithEdges
350
2C
  3
Gouraud
350
2D
  3
GouraudWithEdges
350
2E
  3
Hidden
350
31
  3
JitterOff
350
3B
  3
Linepattern
350
38
  3
OverhangOff
350
3C
  3
Realistic
350
33
  3
Shaded
350
42
  3
Shaded with edges
350
41
  3
Shades of Gray
350
3E
  3
Sketchy
350
3F
  3
Thicken
350
37
  3
Wireframe
350
30
  3
X-Ray
350
40
  0
XRECORD
  5
9A
102
{ACAD_REACTORS
330
C
102
}
330
C
100
AcDbXrecord
280
     1
 90
        1
330
5A
  0
DICTIONARY
  5
96
102
{ACAD_REACTORS
330
C
102
}
330
C
100
AcDbDictionary
281
     1
  3
CANNOSCALE
350
97
  3
CENTEREXE
350
9F
  3
CENTERLTYPEFILE
350
A0
  3
CMLEADERSTYLE
350
9C
  3
CTABLESTYLE
350
9B
  0
LAYOUT
  5
1E
102
{ACAD_REACTORS
330
1A
102
}
330
1A
100
AcDbPlotSettings
  1

  2
none_device
  4

  6

 40
0.0
 41
0.0
 42
0.0
 43
0.0
 44
0.0
 45
0.0
 46
0.0
 47
0.0
 48
0.0
 49
0.0
140
0.0
141
0.0
142
1.0
143
1.0
 70
   688
 72
     1
 73
     0
 74
     5
  7

 75
    16
 76
     0
 77
     5
 78
   300
147
1.0
148
0.0
149
0.0
100
AcDbLayout
  1
Layout1
 70
     1
 71
     1
 10
0.0
 20
0.0
 11
420.0
 21
297.0
 12
0.0
 22
0.0
 32
0.0
 14
1.000000000000000E+20
 24
1.000000000000000E+20
 34
1.000000000000000E+20
 15
-1.000000000000000E+20
 25
-1.000000000000000E+20
 35
-1.000000000000000E+20
146
0.0
 13
0.0
 23
0.0
 33
0.0
 16
1.0
 26
0.0
 36
0.0
 17
0.0
 27
1.0
 37
0.0
 76
     0
330
1B
  0
LAYOUT
  5
26
102
{ACAD_REACTORS
330
1A
102
}
330
1A
100
AcDbPlotSettings
  1

  2
none_device
  4

  6

 40
0.0
 41
0.0
 42
0.0
 43
0.0
 44
0.0
 45
0.0
 46
0.0
 47
0.0
 48
0.0
 49
0.0
140
0.0
141
0.0
142
1.0
143
1.0
 70
   688
 72
     1
 73
     0
 74
     5
  7

 75
    16
 76
     0
 77
     5
 78
   300
147
1.0
148
0.0
149
0.0
100
AcDbLayout
  1
Layout2
 70
     1
 71
     2
 10
0.0
 20
0.0
 11
0.0
 21
0.0
 12
0.0
 22
0.0
 32
0.0
 14
0.0
 24
0.0
 34
0.0
 15
0.0
 25
0.0
 35
0.0
146
0.0
 13
0.0
 23
0.0
 33
0.0
 16
1.0
 26
0.0
 36
0.0
 17
0.0
 27
1.0
 37
0.0
 76
     0
330
23
  0
LAYOUT
  5
22
102
{ACAD_REACTORS
330
1A
102
}
330
1A
100
AcDbPlotSettings
  1

  2
none_device
  4
Letter_(8.50_x_11.00_Inches)
  6

 40
6.35
 41
6.35
 42
6.35000508
 43
6.35000508
 44
215.9
 45
279.4
 46
0.0
 47
0.0
 48
0.0
 49
0.0
140
0.0
141
0.0
142
1.0
143
1.0
 70
  1712
 72
     1
 73
     0
 74
     0
  7

 75
     0
 76
     0
 77
     5
 78
   300
147
1.0
148
0.0
149
0.0
100
AcDbLayout
  1
Model
 70
     1
 71
     0
 10
0.0
 20
0.0
 11
302.9997823349792
 21
216.0016055409748
 12
0.0
 22
0.0
 32
0.0
 14
0.0
 24
0.0
 34
0.0
 15
302.9997823349792
 25
216.0016055409748
 35
0.0
146
0.0
 13
0.0
 23
0.0
 33
0.0
 16
1.0
 26
0.0
 36
0.0
 17
0.0
 27
1.0
 37
0.0
 76
     0
330
1F
331
29
  0
MATERIAL
  5
45
102
{ACAD_REACTORS
330
43
102
}
330
43
100
AcDbMaterial
  1
ByBlock
 72
     1
 94
      127
  0
MATERIAL
  5
44
102
{ACAD_REACTORS
330
43
102
}
330
43
100
AcDbMaterial
  1
ByLayer
 72
     1
 94
      127
  0
MATERIAL
  5
46
102
{ACAD_REACTORS
330
43
102
}
330
43
100
AcDbMaterial
  1
Global
 72
     1
 94
      127
  0
MLEADERSTYLE
  5
5C
102
{ACAD_REACTORS
330
5B
102
}
330
5B
100
AcDbMLeaderStyle
179
     2
170
     2
171
     1
172
     0
 90
        2
 40
0.0
 41
0.0
173
     1
 91
-1056964608
340
14
 92
       -2
290
     1
 42
2.0
291
     1
 43
8.0
  3
Standard
341
0
 44
4.0
300

342
11
174
     1
178
     6
175
     1
176
     0
 93
-1056964608
 45
4.0
292
     0
297
     0
 46
4.0
343
0
 94
-1056964608
 47
1.0
 49
1.0
140
1.0
293
     1
141
0.0
294
     1
177
     0
142
1.0
295
     0
296
     0
143
3.75
271
     0
272
     9
273
     9
298
     0
  0
MLINESTYLE
  5
18
102
{ACAD_REACTORS
330
17
102
}
330
17
100
AcDbMlineStyle
  2
Standard
 70
     0
  3

 62
   256
 51
90.0
 52
90.0
 71
     2
 49
0.5
 62
   256
  6
BYLAYER
 49
-0.5
 62
   256
  6
BYLAYER
  0
ACDBPLACEHOLDER
  5
F
102
{ACAD_REACTORS
330
E
102
}
330
E
  0
SCALE
  5
48
102
{ACAD_REACTORS
330
47
102
}
330
47
100
AcDbScale
 70
     0
300
1:1
140
1.0
141
1.0
290
     1
  0
SCALE
  5
49
102
{ACAD_REACTORS
330
47
102
}
330
47
100
AcDbScale
 70
     0
300
1:2
140
1.0
141
2.0
290
     0
  0
SCALE
  5
4A
102
{ACAD_REACTORS
330
47
102
}
330
47
100
AcDbScale
 70
     0
300
1:4
140
1.0
141
4.0
290
     0
  0
SCALE
  5
4B
102
{ACAD_REACTORS
330
47
102
}
330
47
100
AcDbScale
 70
     0
300
1:5
140
1.0
141
5.0
290
     0
  0
SCALE
  5
4C
102
{ACAD_REACTORS
330
47
102
}
330
47
100
AcDbScale
 70
     0
300
1:8
140
1.0
141
8.0
290
     0
  0
SCALE
  5
4D
102
{ACAD_REACTORS
330
47
102
}
330
47
100
AcDbScale
 70
     0
300
1:10
140
1.0
141
10.0
290
     0
  0
SCALE
  5
4E
102
{ACAD_REACTORS
330
47
102
}
330
47
100
AcDbScale
 70
     0
300
1:16
140
1.0
141
16.0
290
     0
  0
SCALE
  5
4F
102
{ACAD_REACTORS
330
47
102
}
330
47
100
AcDbScale
 70
     0
300
1:20
140
1.0
141
20.0
290
     0
  0
SCALE
  5
50
102
{ACAD_REACTORS
330
47
102
}
330
47
100
AcDbScale
 70
     0
300
1:30
140
1.0
141
30.0
290
     0
  0
SCALE
  5
51
102
{ACAD_REACTORS
330
47
102
}
330
47
100
AcDbScale
 70
     0
300
1:40
140
1.0
141
40.0
290
     0
  0
SCALE
  5
52
102
{ACAD_REACTORS
330
47
102
}
330
47
100
AcDbScale
 70
     0
300
1:50
140
1.0
141
50.0
290
     0
  0
SCALE
  5
53
102
{ACAD_REACTORS
330
47
102
}
330
47
100
AcDbScale
 70
     0
300
1:100
140
1.0
141
100.0
290
     0
  0
SCALE
  5
54
102
{ACAD_REACTORS
330
47
102
}
330
47
100
AcDbScale
 70
     0
300
2:1
140
2.0
141
1.0
290
     0
  0
SCALE
  5
55
102
{ACAD_REACTORS
330
47
102
}
330
47
100
AcDbScale
 70
     0
300
4:1
140
4.0
141
1.0
290
     0
  0
SCALE
  5
56
102
{ACAD_REACTORS
330
47
102
}
330
47
100
AcDbScale
 70
     0
300
8:1
140
8.0
141
1.0
290
     0
  0
SCALE
  5
57
102
{ACAD_REACTORS
330
47
102
}
330
47
100
AcDbScale
 70
     0
300
10:1
140
10.0
141
1.0
290
     0
  0
SCALE
  5
58
102
{ACAD_REACTORS
330
47
102
}
330
47
100
AcDbScale
 70
     0
300
100:1
140
100.0
141
1.0
290
     0
  0
TABLESTYLE
  5
5A
102
{ACAD_REACTORS
330
59
102
}
102
{ACAD_XDICTIONARY
360
98
102
}
330
59
100
AcDbTableStyle
  3
Standard
 70
     0
 71
     0
 40
0.06
 41
0.06
280
     0
281
     0
  7
Standard
140
4.5
170
     2
 62
     0
 63
   257
283
     0
 90
        4
 91
        0
  1

274
    -2
284
     1
 64
     0
275
    -2
285
     1
 65
     0
276
    -2
286
     1
 66
     0
277
    -2
287
     1
 67
     0
278
    -2
288
     1
 68
     0
279
    -2
289
     1
 69
     0
  7
Standard
140
6.0
170
     5
 62
     0
 63
   257
283
     0
 90
        4
 91
        0
  1

274
    -2
284
     1
 64
     0
275
    -2
285
     1
 65
     0
276
    -2
286
     1
 66
     0
277
    -2
287
     1
 67
     0
278
    -2
288
     1
 68
     0
279
    -2
289
     1
 69
     0
  7
Standard
140
4.5
170
     5
 62
     0
 63
   257
283
     0
 90
        4
 91
        0
  1

274
    -2
284
     1
 64
     0
275
    -2
285
     1
 65
     0
276
    -2
286
     1
 66
     0
277
    -2
287
     1
 67
     0
278
    -2
288
     1
 68
     0
279
    -2
289
     1
 69
     0
  0
VISUALSTYLE
  5
2F
102
{ACAD_REACTORS
330
2A
102
}
330
2A
100
AcDbVisualStyle
  2
2dWireframe
 70
     4
177
     3
291
     0
 70
    58
 90
        0
176
     1
 90
        2
176
     1
 90
        0
176
     1
 90
        0
176
     1
 40
0.6
176
     1
 40
30.0
176
     1
 62
     7
420
 16777215
176
     1
 90
        1
176
     1
 90
        4
176
     1
 62
     7
176
     1
 62
   257
176
     1
 90
        1
176
     1
 90
        1
176
     1
 40
1.0
176
     1
 90
        0
176
     1
 62
   257
176
     1
 40
1.0
176
     1
 90
        1
176
     1
 90
        6
176
     1
 90
        2
176
     1
 62
     7
176
     1
 90
        5
176
     1
 90
        0
176
     1
 90
        0
176
     1
290
     0
176
     1
 90
        1
176
     1
 40
0.0
176
     1
 90
        0
176
     1
290
     1
176
     1
290
     1
176
     1
290
     0
176
     1
290
     0
176
     1
290
     0
176
     1
290
     0
176
     1
290
     0
176
     1
290
     0
176
     1
290
     0
176
     1
 90
       50
176
     1
 40
0.0
176
     1
 40
1.0
176
     1
 90
        0
176
     1
 62
    18
420
        0
176
     1
 90
       50
176
     1
 90
        3
176
     1
 62
     5
420
      255
176
     1
290
     0
176
     1
 90
       50
176
     1
 90
       50
176
     1
 90
       50
176
     1
290
     0
176
     1
 90
       50
176
     1
 62
   256
176
     0
 40
1.0
176
     0
 90
        2
176
     1
  1
strokes_ogs.tif
176
     1
290
     0
176
     1
 40
1.0
176
     1
 40
1.0
176
     1
  0
VISUALSTYLE
  5
32
102
{ACAD_REACTORS
330
2A
102
}
330
2A
100
AcDbVisualStyle
  2
Basic
 70
     7
177
     3
291
     1
 70
    58
 90
        1
176
     1
 90
        0
176
     1
 90
        1
176
     1
 90
        0
176
     1
 40
0.6
176
     1
 40
30.0
176
     1
 62
     7
420
 16777215
176
     1
 90
        0
176
     1
 90
        4
176
     1
 62
     7
176
     1
 62
   257
176
     1
 90
        1
176
     1
 90
        1
176
     1
 40
1.0
176
     1
 90
        8
176
     1
 62
     7
176
     1
 40
1.0
176
     1
 90
        1
176
     1
 90
        6
176
     1
 90
        2
176
     1
 62
     7
176
     1
 90
        5
176
     1
 90
        0
176
     1
 90
        0
176
     1
290
     0
176
     1
 90
        1
176
     1
 40
0.0
176
     1
 90
        0
176
     1
290
     0
176
     1
290
     1
176
     1
290
     1
176
     1
290
     0
176
     1
290
     0
176
     1
290
     0
176
     1
290
     0
176
     1
290
     0
176
     1
290
     0
176
     1
 90
       50
176
     1
 40
0.0
176
     1
 40
1.0
176
     1
 90
        0
176
     1
 62
    18
420
        0
176
     1
 90
       50
176
     1
 90
        3
176
     1
 62
     5
420
      255
176
     1
290
     0
176
     1
 90
       50
176
     1
 90
       50
176
     1
 90
       50
176
     1
290
     0
176
     1
 90
       50
176
     1
 62
   256
176
     0
 40
1.0
176
     0
 90
        2
176
     1
  1
strokes_ogs.tif
176
     1
290
     0
176
     1
 40
1.0
176
     1
 40
1.0
176
     1
  0
VISUALSTYLE
  5
36
102
{ACAD_REACTORS
330
2A
102
}
330
2A
100
AcDbVisualStyle
  2
Brighten
 70
    12
177
     3
291
     1
 70
    58
 90
        2
176
     1
 90
        2
176
     1
 90
        0
176
     1
 90
        0
176
     1
 40
0.6
176
     1
 40
30.0
176
     1
 62
     7
420
 16777215
176
     1
 90
        1
176
     1
 90
        4
176
     1
 62
     7
176
     1
 62
   257
176
     1
 90
        1
176
     1
 90
        1
176
     1
 40
1.0
176
     1
 90
        8
176
     1
 62
     7
176
     1
 40
1.0
176
     1
 90
        1
176
     1
 90
        6
176
     1
 90
        2
176
     1
 62
     7
176
     1
 90
        5
176
     1
 90
        0
176
     1
 90
        0
176
     1
290
     0
176
     1
 90
        1
176
     1
 40
50.0
176
     1
 90
        0
176
     1
290
     0
176
     1
290
     1
176
     1
290
     1
176
     1
290
     0
176
     1
290
     0
176
     1
290
     0
176
     1
290
     0
176
     1
290
     0
176
     1
290
     0
176
     1
 90
       50
176
     1
 40
0.0
176
     1
 40
1.0
176
     1
 90
        0
176
     1
 62
    18
420
        0
176
     1
 90
       50
176
     1
 90
        3
176
     1
 62
     5
420
      255
176
     1
290
     0
176
     1
 90
       50
176
     1
 90
       50
176
     1
 90
       50
176
     1
290
     0
176
     1
 90
       50
176
     1
 62
   256
176
     0
 40
1.0
176
     0
 90
        2
176
     1
  1
strokes_ogs.tif
176
     1
290
     0
176
     1
 40
1.0
176
     1
 40
1.0
176
     1
  0
VISUALSTYLE
  5
3A
102
{ACAD_REACTORS
330
2A
102
}
330
2A
100
AcDbVisualStyle
  2
ColorChange
 70
    16
177
     3
291
     1
 70
    58
 90
        2
176
     1
 90
        2
176
     1
 90
        3
176
     1
 90
        0
176
     1
 40
0.6
176
     1
 40
30.0
176
     1
 62
     8
420
  8421504
176
     1
 90
        1
176
     1
 90
        4
176
     1
 62
     7
176
     1
 62
   257
176
     1
 90
        1
176
     1
 90
        1
176
     1
 40
1.0
176
     1
 90
        8
176
     1
 62
     8
420
  8421504
176
     1
 40
1.0
176
     1
 90
        1
176
     1
 90
        6
176
     1
 90
        2
176
     1
 62
     7
176
     1
 90
        5
176
     1
 90
        0
176
     1
 90
        0
176
     1
290
     0
176
     1
 90
        1
176
     1
 40
0.0
176
     1
 90
        0
176
     1
290
     0
176
     1
290
     1
176
     1
290
     1
176
     1
290
     0
176
     1
290
     0
176
     1
290
     0
176
     1
290
     0
176
     1
290
     0
176
     1
290
     0
176
     1
 90
       50
176
     1
 40
0.0
176
     1
 40
1.0
176
     1
 90
        0
176
     1
 62
    18
420
        0
176
     1
 90
       50
176
     1
 90
        3
176
     1
 62
     5
420
      255
176
     1
290
     0
176
     1
 90
       50
176
     1
 90
       50
176
     1
 90
       50
176
     1
290
     0
176
     1
 90
       50
176
     1
 62
   256
176
     0
 40
1.0
176
     0
 90
        2
176
     1
  1
strokes_ogs.tif
176
     1
290
     0
176
     1
 40
1.0
176
     1
 40
1.0
176
     1
  0
VISUALSTYLE
  5
34
102
{ACAD_REACTORS
330
2A
102
}
330
2A
100
AcDbVisualStyle
  2
Conceptual
 70
     9
177
     3
291
     0
 70
    58
 90
        3
176
     1
 90
        2
176
     1
 90
        0
176
     1
 90
        0
176
     1
 40
0.6
176
     1
 40
30.0
176
     1
 62
     7
420
 16777215
176
     1
 90
        2
176
     1
 90
        2
176
     1
 62
     7
176
     1
 62
   257
176
     1
 90
        1
176
     1
 90
        1
176
     1
 40
179.0
176
     1
 90
        8
176
     1
 62
     7
176
     1
 40
1.0
176
     1
 90
        1
176
     1
 90
        6
176
     1
 90
        2
176
     1
 62
     7
176
     1
 90
        3
176
     1
 90
        0
176
     1
 90
        0
176
     1
290
     0
176
     1
 90
        1
176
     1
 40
0.0
176
     1
 90
        0
176
     1
290
     0
176
     1
290
     1
176
     1
290
     1
176
     1
290
     0
176
     1
290
     0
176
     1
290
     0
176
     1
290
     0
176
     1
290
     0
176
     1
290
     0
176
     1
 90
       50
176
     1
 40
0.0
176
     1
 40
1.0
176
     1
 90
        0
176
     1
 62
    18
420
        0
176
     1
 90
       50
176
     1
 90
        3
176
     1
 62
     5
420
      255
176
     1
290
     0
176
     1
 90
       50
176
     1
 90
       50
176
     1
 90
       50
176
     1
290
     0
176
     1
 90
       50
176
     1
 62
   256
176
     0
 40
1.0
176
     0
 90
        2
176
     1
  1
strokes_ogs.tif
176
     1
290
     0
176
     1
 40
1.0
176
     1
 40
1.0
176
     1
  0
VISUALSTYLE
  5
35
102
{ACAD_REACTORS
330
2A
102
}
330
2A
100
AcDbVisualStyle
  2
Dim
 70
    11
177
     3
291
     1
 70
    58
 90
        2
176
     1
 90
        2
176
     1
 90
        0
176
     1
 90
        0
176
     1
 40
0.6
176
     1
 40
30.0
176
     1
 62
     7
420
 16777215
176
     1
 90
        1
176
     1
 90
        4
176
     1
 62
     7
176
     1
 62
   257
176
     1
 90
        1
176
     1
 90
        1
176
     1
 40
1.0
176
     1
 90
        8
176
     1
 62
     7
176
     1
 40
1.0
176
     1
 90
        1
176
     1
 90
        6
176
     1
 90
        2
176
     1
 62
     7
176
     1
 90
        5
176
     1
 90
        0
176
     1
 90
        0
176
     1
290
     0
176
     1
 90
        1
176
     1
 40
-50.0
176
     1
 90
        0
176
     1
290
     0
176
     1
290
     1
176
     1
290
     1
176
     1
290
     0
176
     1
290
     0
176
     1
290
     0
176
     1
290
     0
176
     1
290
     0
176
     1
290
     0
176
     1
 90
       50
176
     1
 40
0.0
176
     1
 40
1.0
176
     1
 90
        0
176
     1
 62
    18
420
        0
176
     1
 90
       50
176
     1
 90
        3
176
     1
 62
     5
420
      255
176
     1
290
     0
176
     1
 90
       50
176
     1
 90
       50
176
     1
 90
       50
176
     1
290
     0
176
     1
 90
       50
176
     1
 62
   256
176
     0
 40
1.0
176
     0
 90
        2
176
     1
  1
strokes_ogs.tif
176
     1
290
     0
176
     1
 40
1.0
176
     1
 40
1.0
176
     1
  0
VISUALSTYLE
  5
3D
102
{ACAD_REACTORS
330
2A
102
}
330
2A
100
AcDbVisualStyle
  2
EdgeColorOff
 70
    22
177
     3
291
     1
 70
    58
 90
        2
176
     0
 90
        2
176
     0
 90
        0
176
     0
 90
        0
176
     0
 40
0.6
176
     0
 40
30.0
176
     0
 62
     7
420
 16777215
176
     0
 90
        1
176
     0
 90
        4
176
     0
 62
     7
176
     0
 62
   257
176
     0
 90
        1
176
     0
 90
        1
176
     0
 40
1.0
176
     0
 90
        8
176
     2
 62
     7
176
     0
 40
1.0
176
     0
 90
        1
176
     0
 90
        6
176
     0
 90
        2
176
     0
 62
     7
176
     0
 90
        5
176
     0
 90
        0
176
     0
 90
        0
176
     0
290
     0
176
     0
 90
        1
176
     0
 40
0.0
176
     0
 90
        0
176
     0
290
     0
176
     0
290
     1
176
     0
290
     1
176
     0
290
     0
176
     0
290
     0
176
     0
290
     0
176
     0
290
     0
176
     0
290
     0
176
     0
290
     0
176
     0
 90
       50
176
     0
 40
0.0
176
     0
 40
1.0
176
     0
 90
        0
176
     0
 62
    18
420
        0
176
     0
 90
       50
176
     0
 90
        3
176
     0
 62
     5
420
      255
176
     0
290
     0
176
     0
 90
       50
176
     0
 90
       50
176
     0
 90
       50
176
     0
290
     0
176
     0
 90
       50
176
     0
 62
   256
176
     0
 40
1.0
176
     0
 90
        2
176
     0
  1
strokes_ogs.tif
176
     0
290
     0
176
     0
 40
1.0
176
     0
 40
1.0
176
     0
  0
VISUALSTYLE
  5
39
102
{ACAD_REACTORS
330
2A
102
}
330
2A
100
AcDbVisualStyle
  2
Facepattern
 70
    15
177
     3
291
     1
 70
    58
 90
        2
176
     1
 90
        2
176
     1
 90
        0
176
     1
 90
        0
176
     1
 40
0.6
176
     1
 40
30.0
176
     1
 62
     7
420
 16777215
176
     1
 90
        1
176
     1
 90
        4
176
     1
 62
     7
176
     1
 62
   257
176
     1
 90
        1
176
     1
 90
        1
176
     1
 40
1.0
176
     1
 90
        8
176
     1
 62
     7
176
     1
 40
1.0
176
     1
 90
        1
176
     1
 90
        6
176
     1
 90
        2
176
     1
 62
     7
176
     1
 90
        5
176
     1
 90
        0
176
     1
 90
        0
176
     1
290
     0
176
     1
 90
        1
176
     1
 40
0.0
176
     1
 90
        0
176
     1
290
     0
176
     1
290
     1
176
     1
290
     1
176
     1
290
     0
176
     1
290
     0
176
     1
290
     0
176
     1
290
     0
176
     1
290
     0
176
     1
290
     0
176
     1
 90
       50
176
     1
 40
0.0
176
     1
 40
1.0
176
     1
 90
        0
176
     1
 62
    18
420
        0
176
     1
 90
       50
176
     1
 90
        3
176
     1
 62
     5
420
      255
176
     1
290
     0
176
     1
 90
       50
176
     1
 90
       50
176
     1
 90
       50
176
     1
290
     0
176
     1
 90
       50
176
     1
 62
   256
176
     0
 40
1.0
176
     0
 90
        2
176
     1
  1
strokes_ogs.tif
176
     1
290
     0
176
     1
 40
1.0
176
     1
 40
1.0
176
     1
  0
VISUALSTYLE
  5
2B
102
{ACAD_REACTORS
330
2A
102
}
330
2A
100
AcDbVisualStyle
  2
Flat
 70
     0
177
     3
291
     1
 70
    58
 90
        2
176
     1
 90
        1
176
     1
 90
        1
176
     1
 90
        2
176
     1
 40
0.6
176
     1
 40
30.0
176
     1
 62
     7
420
 16777215
176
     1
 90
        0
176
     1
 90
        0
176
     1
 62
     7
176
     1
 62
   257
176
     1
 90
        1
176
     1
 90
        1
176
     1
 40
1.0
176
     1
 90
        8
176
     1
 62
     7
176
     1
 40
1.0
176
     1
 90
        1
176
     1
 90
        6
176
     1
 90
        2
176
     1
 62
     7
176
     1
 90
        5
176
     1
 90
        0
176
     1
 90
        0
176
     1
290
     0
176
     1
 90
       13
176
     1
 40
0.0
176
     1
 90
        0
176
     1
290
     0
176
     1
290
     1
176
     1
290
     1
176
     1
290
     0
176
     1
290
     0
176
     1
290
     0
176
     1
290
     0
176
     1
290
     0
176
     1
290
     0
176
     1
 90
       50
176
     1
 40
0.0
176
     1
 40
1.0
176
     1
 90
        0
176
     1
 62
    18
420
        0
176
     1
 90
       50
176
     1
 90
        3
176
     1
 62
     5
420
      255
176
     1
290
     0
176
     1
 90
       50
176
     1
 90
       50
176
     1
 90
       50
176
     1
290
     0
176
     1
 90
       50
176
     1
 62
   256
176
     0
 40
1.0
176
     0
 90
        2
176
     1
  1
strokes_ogs.tif
176
     1
290
     0
176
     1
 40
1.0
176
     1
 40
1.0
176
     1
  0
VISUALSTYLE
  5
2C
102
{ACAD_REACTORS
330
2A
102
}
330
2A
100
AcDbVisualStyle
  2
FlatWithEdges
 70
     1
177
     3
291
     1
 70
    58
 90
        2
176
     1
 90
        1
176
     1
 90
        1
176
     1
 90
        2
176
     1
 40
0.6
176
     1
 40
30.0
176
     1
 62
     7
420
 16777215
176
     1
 90
        1
176
     1
 90
        0
176
     1
 62
     7
176
     1
 62
   257
176
     1
 90
        1
176
     1
 90
        1
176
     1
 40
1.0
176
     1
 90
        0
176
     1
 62
   257
176
     1
 40
1.0
176
     1
 90
        1
176
     1
 90
        6
176
     1
 90
        2
176
     1
 62
     7
176
     1
 90
        5
176
     1
 90
        0
176
     1
 90
        0
176
     1
290
     0
176
     1
 90
       13
176
     1
 40
0.0
176
     1
 90
        0
176
     1
290
     0
176
     1
290
     1
176
     1
290
     1
176
     1
290
     0
176
     1
290
     0
176
     1
290
     0
176
     1
290
     0
176
     1
290
     0
176
     1
290
     0
176
     1
 90
       50
176
     1
 40
0.0
176
     1
 40
1.0
176
     1
 90
        0
176
     1
 62
    18
420
        0
176
     1
 90
       50
176
     1
 90
        3
176
     1
 62
     5
420
      255
176
     1
290
     0
176
     1
 90
       50
176
     1
 90
       50
176
     1
 90
       50
176
     1
290
     0
176
     1
 90
       50
176
     1
 62
   256
176
     0
 40
1.0
176
     0
 90
        2
176
     1
  1
strokes_ogs.tif
176
     1
290
     0
176
     1
 40
1.0
176
     1
 40
1.0
176
     1
  0
VISUALSTYLE
  5
2D
102
{ACAD_REACTORS
330
2A
102
}
330
2A
100
AcDbVisualStyle
  2
Gouraud
 70
     2
177
     3
291
     1
 70
    58
 90
        2
176
     1
 90
        2
176
     1
 90
        1
176
     1
 90
        2
176
     1
 40
0.6
176
     1
 40
30.0
176
     1
 62
     7
420
 16777215
176
     1
 90
        0
176
     1
 90
        0
176
     1
 62
     7
176
     1
 62
   257
176
     1
 90
        1
176
     1
 90
        1
176
     1
 40
1.0
176
     1
 90
        0
176
     1
 62
     7
176
     1
 40
1.0
176
     1
 90
        1
176
     1
 90
        6
176
     1
 90
        2
176
     1
 62
     7
176
     1
 90
        5
176
     1
 90
        0
176
     1
 90
        0
176
     1
290
     0
176
     1
 90
       13
176
     1
 40
0.0
176
     1
 90
        0
176
     1
290
     0
176
     1
290
     1
176
     1
290
     1
176
     1
290
     0
176
     1
290
     0
176
     1
290
     0
176
     1
290
     0
176
     1
290
     0
176
     1
290
     0
176
     1
 90
       50
176
     1
 40
0.0
176
     1
 40
1.0
176
     1
 90
        0
176
     1
 62
    18
420
        0
176
     1
 90
       50
176
     1
 90
        3
176
     1
 62
     5
420
      255
176
     1
290
     0
176
     1
 90
       50
176
     1
 90
       50
176
     1
 90
       50
176
     1
290
     0
176
     1
 90
       50
176
     1
 62
   256
176
     0
 40
1.0
176
     0
 90
        2
176
     1
  1
strokes_ogs.tif
176
     1
290
     0
176
     1
 40
1.0
176
     1
 40
1.0
176
     1
  0
VISUALSTYLE
  5
2E
102
{ACAD_REACTORS
330
2A
102
}
330
2A
100
AcDbVisualStyle
  2
GouraudWithEdges
 70
     3
177
     3
291
     1
 70
    58
 90
        2
176
     1
 90
        2
176
     1
 90
        1
176
     1
 90
        2
176
     1
 40
0.6
176
     1
 40
30.0
176
     1
 62
     7
420
 16777215
176
     1
 90
        1
176
     1
 90
        0
176
     1
 62
     7
176
     1
 62
   257
176
     1
 90
        1
176
     1
 90
        1
176
     1
 40
1.0
176
     1
 90
        0
176
     1
 62
   257
176
     1
 40
1.0
176
     1
 90
        1
176
     1
 90
        6
176
     1
 90
        2
176
     1
 62
     7
176
     1
 90
        5
176
     1
 90
        0
176
     1
 90
        0
176
     1
290
     0
176
     1
 90
       13
176
     1
 40
0.0
176
     1
 90
        0
176
     1
290
     0
176
     1
290
     1
176
     1
290
     1
176
     1
290
     0
176
     1
290
     0
176
     1
290
     0
176
     1
290
     0
176
     1
290
     0
176
     1
290
     0
176
     1
 90
       50
176
     1
 40
0.0
176
     1
 40
1.0
176
     1
 90
        0
176
     1
 62
    18
420
        0
176
     1
 90
       50
176
     1
 90
        3
176
     1
 62
     5
420
      255
176
     1
290
     0
176
     1
 90
       50
176
     1
 90
       50
176
     1
 90
       50
176
     1
290
     0
176
     1
 90
       50
176
     1
 62
   256
176
     0
 40
1.0
176
     0
 90
        2
176
     1
  1
strokes_ogs.tif
176
     1
290
     0
176
     1
 40
1.0
176
     1
 40
1.0
176
     1
  0
VISUALSTYLE
  5
31
102
{ACAD_REACTORS
330
2A
102
}
330
2A
100
AcDbVisualStyle
  2
Hidden
 70
     6
177
     3
291
     0
 70
    58
 90
        1
176
     1
 90
        2
176
     1
 90
        2
176
     1
 90
        0
176
     1
 40
0.6
176
     1
 40
30.0
176
     1
 62
     7
420
 16777215
176
     1
 90
        2
176
     1
 90
        2
176
     1
 62
     7
176
     1
 62
   257
176
     1
 90
        2
176
     1
 90
        1
176
     1
 40
40.0
176
     1
 90
        0
176
     1
 62
   257
176
     1
 40
1.0
176
     1
 90
        1
176
     1
 90
        6
176
     1
 90
        2
176
     1
 62
     7
176
     1
 90
        3
176
     1
 90
        0
176
     1
 90
        0
176
     1
290
     0
176
     1
 90
        1
176
     1
 40
0.0
176
     1
 90
        0
176
     1
290
     0
176
     1
290
     1
176
     1
290
     1
176
     1
290
     0
176
     1
290
     0
176
     1
290
     0
176
     1
290
     0
176
     1
290
     0
176
     1
290
     0
176
     1
 90
       50
176
     1
 40
0.0
176
     1
 40
1.0
176
     1
 90
        0
176
     1
 62
    18
420
        0
176
     1
 90
       50
176
     1
 90
        3
176
     1
 62
     5
420
      255
176
     1
290
     0
176
     1
 90
       50
176
     1
 90
       50
176
     1
 90
       50
176
     1
290
     0
176
     1
 90
       50
176
     1
 62
   256
176
     0
 40
1.0
176
     0
 90
        2
176
     1
  1
strokes_ogs.tif
176
     1
290
     0
176
     1
 40
1.0
176
     1
 40
1.0
176
     1
  0
VISUALSTYLE
  5
3B
102
{ACAD_REACTORS
330
2A
102
}
330
2A
100
AcDbVisualStyle
  2
JitterOff
 70
    20
177
     3
291
     1
 70
    58
 90
        2
176
     0
 90
        2
176
     0
 90
        0
176
     0
 90
        0
176
     0
 40
0.6
176
     0
 40
30.0
176
     0
 62
     7
420
 16777215
176
     0
 90
        1
176
     0
 90
        4
176
     0
 62
     7
176
     0
 62
   257
176
     0
 90
        1
176
     0
 90
        1
176
     0
 40
1.0
176
     0
 90
       10
176
     2
 62
     7
176
     0
 40
1.0
176
     0
 90
        1
176
     0
 90
        6
176
     0
 90
        2
176
     0
 62
     7
176
     0
 90
        5
176
     0
 90
        0
176
     0
 90
        0
176
     0
290
     0
176
     0
 90
        1
176
     0
 40
0.0
176
     0
 90
        0
176
     0
290
     0
176
     0
290
     1
176
     0
290
     1
176
     0
290
     0
176
     0
290
     0
176
     0
290
     0
176
     0
290
     0
176
     0
290
     0
176
     0
290
     0
176
     0
 90
       50
176
     0
 40
0.0
176
     0
 40
1.0
176
     0
 90
        0
176
     0
 62
    18
420
        0
176
     0
 90
       50
176
     0
 90
        3
176
     0
 62
     5
420
      255
176
     0
290
     0
176
     0
 90
       50
176
     0
 90
       50
176
     0
 90
       50
176
     0
290
     0
176
     0
 90
       50
176
     0
 62
   256
176
     0
 40
1.0
176
     0
 90
        2
176
     0
  1
strokes_ogs.tif
176
     0
290
     0
176
     0
 40
1.0
176
     0
 40
1.0
176
     0
  0
VISUALSTYLE
  5
38
102
{ACAD_REACTORS
330
2A
102
}
330
2A
100
AcDbVisualStyle
  2
Linepattern
 70
    14
177
     3
291
     1
 70
    58
 90
        2
176
     1
 90
        2
176
     1
 90
        0
176
     1
 90
        0
176
     1
 40
0.6
176
     1
 40
30.0
176
     1
 62
     7
420
 16777215
176
     1
 90
        1
176
     1
 90
        4
176
     1
 62
     7
176
     1
 62
   257
176
     1
 90
        7
176
     1
 90
        7
176
     1
 40
1.0
176
     1
 90
        8
176
     1
 62
     7
176
     1
 40
1.0
176
     1
 90
        1
176
     1
 90
        6
176
     1
 90
        2
176
     1
 62
     7
176
     1
 90
        5
176
     1
 90
        0
176
     1
 90
        0
176
     1
290
     0
176
     1
 90
        1
176
     1
 40
0.0
176
     1
 90
        0
176
     1
290
     0
176
     1
290
     1
176
     1
290
     1
176
     1
290
     0
176
     1
290
     0
176
     1
290
     0
176
     1
290
     0
176
     1
290
     0
176
     1
290
     0
176
     1
 90
       50
176
     1
 40
0.0
176
     1
 40
1.0
176
     1
 90
        0
176
     1
 62
    18
420
        0
176
     1
 90
       50
176
     1
 90
        3
176
     1
 62
     5
420
      255
176
     1
290
     0
176
     1
 90
       50
176
     1
 90
       50
176
     1
 90
       50
176
     1
290
     0
176
     1
 90
       50
176
     1
 62
   256
176
     0
 40
1.0
176
     0
 90
        2
176
     1
  1
strokes_ogs.tif
176
     1
290
     0
176
     1
 40
1.0
176
     1
 40
1.0
176
     1
  0
VISUALSTYLE
  5
3C
102
{ACAD_REACTORS
330
2A
102
}
330
2A
100
AcDbVisualStyle
  2
OverhangOff
 70
    21
177
     3
291
     1
 70
    58
 90
        2
176
     0
 90
        2
176
     0
 90
        0
176
     0
 90
        0
176
     0
 40
0.6
176
     0
 40
30.0
176
     0
 62
     7
420
 16777215
176
     0
 90
        1
176
     0
 90
        4
176
     0
 62
     7
176
     0
 62
   257
176
     0
 90
        1
176
     0
 90
        1
176
     0
 40
1.0
176
     0
 90
        9
176
     2
 62
     7
176
     0
 40
1.0
176
     0
 90
        1
176
     0
 90
        6
176
     0
 90
        2
176
     0
 62
     7
176
     0
 90
        5
176
     0
 90
        0
176
     0
 90
        0
176
     0
290
     0
176
     0
 90
        1
176
     0
 40
0.0
176
     0
 90
        0
176
     0
290
     0
176
     0
290
     1
176
     0
290
     1
176
     0
290
     0
176
     0
290
     0
176
     0
290
     0
176
     0
290
     0
176
     0
290
     0
176
     0
290
     0
176
     0
 90
       50
176
     0
 40
0.0
176
     0
 40
1.0
176
     0
 90
        0
176
     0
 62
    18
420
        0
176
     0
 90
       50
176
     0
 90
        3
176
     0
 62
     5
420
      255
176
     0
290
     0
176
     0
 90
       50
176
     0
 90
       50
176
     0
 90
       50
176
     0
290
     0
176
     0
 90
       50
176
     0
 62
   256
176
     0
 40
1.0
176
     0
 90
        2
176
     0
  1
strokes_ogs.tif
176
     0
290
     0
176
     0
 40
1.0
176
     0
 40
1.0
176
     0
  0
VISUALSTYLE
  5
33
102
{ACAD_REACTORS
330
2A
102
}
330
2A
100
AcDbVisualStyle
  2
Realistic
 70
     8
177
     3
291
     0
 70
    58
 90
        2
176
     1
 90
        3
176
     1
 90
        0
176
     1
 90
        2
176
     1
 40
0.6
176
     1
 40
30.0
176
     1
 62
     7
420
 16777215
176
     1
 90
        0
176
     1
 90
        0
176
     1
 62
     7
176
     1
 62
   257
176
     1
 90
        1
176
     1
 90
        1
176
     1
 40
1.0
176
     1
 90
        8
176
     1
 62
   257
176
     1
 40
1.0
176
     1
 90
        1
176
     1
 90
        6
176
     1
 90
        2
176
     1
 62
     7
176
     1
 90
        3
176
     1
 90
        0
176
     1
 90
        0
176
     1
290
     0
176
     1
 90
       13
176
     1
 40
0.0
176
     1
 90
        0
176
     1
290
     0
176
     1
290
     1
176
     1
290
     1
176
     1
290
     0
176
     1
290
     0
176
     1
290
     0
176
     1
290
     0
176
     1
290
     0
176
     1
290
     0
176
     1
 90
       50
176
     1
 40
0.0
176
     1
 40
1.0
176
     1
 90
        0
176
     1
 62
    18
420
        0
176
     1
 90
       50
176
     1
 90
        3
176
     1
 62
     5
420
      255
176
     1
290
     0
176
     1
 90
       50
176
     1
 90
       50
176
     1
 90
       50
176
     1
290
     0
176
     1
 90
       50
176
     1
 62
   256
176
     0
 40
1.0
176
     0
 90
        2
176
     1
  1
strokes_ogs.tif
176
     1
290
     0
176
     1
 40
1.0
176
     1
 40
1.0
176
     1
  0
VISUALSTYLE
  5
42
102
{ACAD_REACTORS
330
2A
102
}
330
2A
100
AcDbVisualStyle
  2
Shaded
 70
    27
177
     3
291
     0
 70
    58
 90
        2
176
     1
 90
        2
176
     1
 90
        1
176
     1
 90
        2
176
     1
 40
0.6
176
     1
 40
30.0
176
     1
 62
     7
420
 16777215
176
     1
 90
        0
176
     1
 90
        4
176
     1
 62
     7
176
     1
 62
   257
176
     1
 90
        1
176
     1
 90
        1
176
     1
 40
1.0
176
     1
 90
        8
176
     1
 62
   257
176
     1
 40
1.0
176
     1
 90
        1
176
     1
 90
        6
176
     1
 90
        2
176
     1
 62
     8
420
  7895160
176
     1
 90
        3
176
     1
 90
        0
176
     1
 90
        0
176
     1
290
     0
176
     1
 90
        5
176
     1
 40
0.0
176
     1
 90
        0
176
     1
290
     0
176
     1
290
     1
176
     1
290
     1
176
     1
290
     0
176
     1
290
     0
176
     1
290
     0
176
     1
290
     0
176
     1
290
     0
176
     1
290
     0
176
     1
 90
       50
176
     1
 40
0.0
176
     1
 40
1.0
176
     1
 90
        0
176
     1
 62
    18
420
        0
176
     1
 90
       50
176
     1
 90
        3
176
     1
 62
     5
420
      255
176
     1
290
     0
176
     1
 90
       50
176
     1
 90
       50
176
     1
 90
       50
176
     1
290
     0
176
     1
 90
       50
176
     1
 62
   256
176
     0
 40
1.0
176
     0
 90
        2
176
     1
  1
strokes_ogs.tif
176
     1
290
     0
176
     1
 40
1.0
176
     1
 40
1.0
176
     1
  0
VISUALSTYLE
  5
41
102
{ACAD_REACTORS
330
2A
102
}
330
2A
100
AcDbVisualStyle
  2
Shaded with edges
 70
    26
177
     3
291
     0
 70
    58
 90
        2
176
     1
 90
        2
176
     1
 90
        1
176
     1
 90
        2
176
     1
 40
0.6
176
     1
 40
30.0
176
     1
 62
     7
420
 16777215
176
     1
 90
        1
176
     1
 90
       10
176
     1
 62
     7
176
     1
 62
   257
176
     1
 90
        2
176
     1
 90
        1
176
     1
 40
1.0
176
     1
 90
        8
176
     1
 62
   257
176
     1
 40
1.0
176
     1
 90
        1
176
     1
 90
        6
176
     1
 90
        2
176
     1
 62
     7
176
     1
 90
        3
176
     1
 90
        0
176
     1
 90
        0
176
     1
290
     0
176
     1
 90
        5
176
     1
 40
0.0
176
     1
 90
        0
176
     1
290
     0
176
     1
290
     1
176
     1
290
     1
176
     1
290
     0
176
     1
290
     0
176
     1
290
     0
176
     1
290
     0
176
     1
290
     0
176
     1
290
     0
176
     1
 90
       50
176
     1
 40
0.0
176
     1
 40
1.0
176
     1
 90
        0
176
     1
 62
    18
420
        0
176
     1
 90
       50
176
     1
 90
        3
176
     1
 62
     5
420
      255
176
     1
290
     0
176
     1
 90
       50
176
     1
 90
       50
176
     1
 90
       50
176
     1
290
     0
176
     1
 90
       50
176
     1
 62
   256
176
     0
 40
1.0
176
     0
 90
        2
176
     1
  1
strokes_ogs.tif
176
     1
290
     0
176
     1
 40
1.0
176
     1
 40
1.0
176
     1
  0
VISUALSTYLE
  5
3E
102
{ACAD_REACTORS
330
2A
102
}
330
2A
100
AcDbVisualStyle
  2
Shades of Gray
 70
    23
177
     3
291
     0
 70
    58
 90
        2
176
     1
 90
        2
176
     1
 90
        3
176
     1
 90
        0
176
     1
 40
0.6
176
     1
 40
30.0
176
     1
 62
     7
420
 16777215
176
     1
 90
        2
176
     1
 90
        2
176
     1
 62
     7
176
     1
 62
     7
176
     1
 90
        1
176
     1
 90
        1
176
     1
 40
40.0
176
     1
 90
        8
176
     1
 62
     7
176
     1
 40
1.0
176
     1
 90
        1
176
     1
 90
        6
176
     1
 90
        2
176
     1
 62
     7
176
     1
 90
        3
176
     1
 90
        0
176
     1
 90
        0
176
     1
290
     0
176
     1
 90
        1
176
     1
 40
0.0
176
     1
 90
        0
176
     1
290
     0
176
     1
290
     1
176
     1
290
     1
176
     1
290
     0
176
     1
290
     0
176
     1
290
     0
176
     1
290
     0
176
     1
290
     0
176
     1
290
     0
176
     1
 90
       50
176
     1
 40
0.0
176
     1
 40
1.0
176
     1
 90
        0
176
     1
 62
    18
420
        0
176
     1
 90
       50
176
     1
 90
        3
176
     1
 62
     5
420
      255
176
     1
290
     0
176
     1
 90
       50
176
     1
 90
       50
176
     1
 90
       50
176
     1
290
     0
176
     1
 90
       50
176
     1
 62
   256
176
     0
 40
1.0
176
     0
 90
        2
176
     1
  1
strokes_ogs.tif
176
     1
290
     0
176
     1
 40
1.0
176
     1
 40
1.0
176
     1
  0
VISUALSTYLE
  5
3F
102
{ACAD_REACTORS
330
2A
102
}
330
2A
100
AcDbVisualStyle
  2
Sketchy
 70
    24
177
     3
291
     0
 70
    58
 90
        1
176
     1
 90
        2
176
     1
 90
        2
176
     1
 90
        0
176
     1
 40
0.6
176
     1
 40
30.0
176
     1
 62
     7
420
 16777215
176
     1
 90
        2
176
     1
 90
        2
176
     1
 62
     7
176
     1
 62
     7
176
     1
 90
        1
176
     1
 90
        1
176
     1
 40
40.0
176
     1
 90
       11
176
     1
 62
     7
176
     1
 40
1.0
176
     1
 90
        1
176
     1
 90
        6
176
     1
 90
        2
176
     1
 62
     7
176
     1
 90
        6
176
     1
 90
        0
176
     1
 90
        0
176
     1
290
     0
176
     1
 90
        1
176
     1
 40
0.0
176
     1
 90
        0
176
     1
290
     0
176
     1
290
     1
176
     1
290
     1
176
     1
290
     0
176
     1
290
     0
176
     1
290
     0
176
     1
290
     0
176
     1
290
     0
176
     1
290
     0
176
     1
 90
       50
176
     1
 40
0.0
176
     1
 40
1.0
176
     1
 90
        0
176
     1
 62
    18
420
        0
176
     1
 90
       50
176
     1
 90
        3
176
     1
 62
     5
420
      255
176
     1
290
     0
176
     1
 90
       50
176
     1
 90
       50
176
     1
 90
       50
176
     1
290
     0
176
     1
 90
       50
176
     1
 62
   256
176
     0
 40
1.0
176
     0
 90
        2
176
     1
  1
strokes_ogs.tif
176
     1
290
     0
176
     1
 40
1.0
176
     1
 40
1.0
176
     1
  0
VISUALSTYLE
  5
37
102
{ACAD_REACTORS
330
2A
102
}
330
2A
100
AcDbVisualStyle
  2
Thicken
 70
    13
177
     3
291
     1
 70
    58
 90
        2
176
     1
 90
        2
176
     1
 90
        0
176
     1
 90
        0
176
     1
 40
0.6
176
     1
 40
30.0
176
     1
 62
     7
420
 16777215
176
     1
 90
        1
176
     1
 90
        4
176
     1
 62
     7
176
     1
 62
   257
176
     1
 90
        1
176
     1
 90
        1
176
     1
 40
1.0
176
     1
 90
       12
176
     1
 62
     7
176
     1
 40
1.0
176
     1
 90
        1
176
     1
 90
        6
176
     1
 90
        2
176
     1
 62
     7
176
     1
 90
        5
176
     1
 90
        0
176
     1
 90
        0
176
     1
290
     0
176
     1
 90
        1
176
     1
 40
0.0
176
     1
 90
        0
176
     1
290
     0
176
     1
290
     1
176
     1
290
     1
176
     1
290
     0
176
     1
290
     0
176
     1
290
     0
176
     1
290
     0
176
     1
290
     0
176
     1
290
     0
176
     1
 90
       50
176
     1
 40
0.0
176
     1
 40
1.0
176
     1
 90
        0
176
     1
 62
    18
420
        0
176
     1
 90
       50
176
     1
 90
        3
176
     1
 62
     5
420
      255
176
     1
290
     0
176
     1
 90
       50
176
     1
 90
       50
176
     1
 90
       50
176
     1
290
     0
176
     1
 90
       50
176
     1
 62
   256
176
     0
 40
1.0
176
     0
 90
        2
176
     1
  1
strokes_ogs.tif
176
     1
290
     0
176
     1
 40
1.0
176
     1
 40
1.0
176
     1
  0
VISUALSTYLE
  5
30
102
{ACAD_REACTORS
330
2A
102
}
330
2A
100
AcDbVisualStyle
  2
Wireframe
 70
     5
177
     3
291
     0
 70
    58
 90
        0
176
     1
 90
        2
176
     1
 90
        0
176
     1
 90
        0
176
     1
 40
0.6
176
     1
 40
30.0
176
     1
 62
     7
420
 16777215
176
     1
 90
        1
176
     1
 90
        4
176
     1
 62
     7
176
     1
 62
   257
176
     1
 90
        1
176
     1
 90
        1
176
     1
 40
1.0
176
     1
 90
        0
176
     1
 62
   257
176
     1
 40
1.0
176
     1
 90
        1
176
     1
 90
        6
176
     1
 90
        2
176
     1
 62
     7
176
     1
 90
        3
176
     1
 90
        0
176
     1
 90
        0
176
     1
290
     0
176
     1
 90
        1
176
     1
 40
0.0
176
     1
 90
        0
176
     1
290
     0
176
     1
290
     1
176
     1
290
     1
176
     1
290
     0
176
     1
290
     0
176
     1
290
     0
176
     1
290
     0
176
     1
290
     0
176
     1
290
     0
176
     1
 90
       50
176
     1
 40
0.0
176
     1
 40
1.0
176
     1
 90
        0
176
     1
 62
    18
420
        0
176
     1
 90
       50
176
     1
 90
        3
176
     1
 62
     5
420
      255
176
     1
290
     0
176
     1
 90
       50
176
     1
 90
       50
176
     1
 90
       50
176
     1
290
     0
176
     1
 90
       50
176
     1
 62
   256
176
     0
 40
1.0
176
     0
 90
        2
176
     1
  1
strokes_ogs.tif
176
     1
290
     0
176
     1
 40
1.0
176
     1
 40
1.0
176
     1
  0
VISUALSTYLE
  5
40
102
{ACAD_REACTORS
330
2A
102
}
330
2A
100
AcDbVisualStyle
  2
X-Ray
 70
    25
177
     3
291
     0
 70
    58
 90
        2
176
     1
 90
        2
176
     1
 90
        1
176
     1
 90
        1
176
     1
 40
0.5
176
     1
 40
30.0
176
     1
 62
     7
420
 16777215
176
     1
 90
        1
176
     1
 90
        0
176
     1
 62
     7
176
     1
 62
   257
176
     1
 90
        1
176
     1
 90
        1
176
     1
 40
1.0
176
     1
 90
        8
176
     1
 62
     7
176
     1
 40
1.0
176
     1
 90
        1
176
     1
 90
        6
176
     1
 90
        2
176
     1
 62
     7
176
     1
 90
        3
176
     1
 90
        0
176
     1
 90
        0
176
     1
290
     0
176
     1
 90
       13
176
     1
 40
0.0
176
     1
 90
        0
176
     1
290
     0
176
     1
290
     1
176
     1
290
     1
176
     1
290
     0
176
     1
290
     0
176
     1
290
     0
176
     1
290
     0
176
     1
290
     0
176
     1
290
     0
176
     1
 90
       50
176
     1
 40
0.0
176
     1
 40
1.0
176
     1
 90
        0
176
     1
 62
    18
420
        0
176
     1
 90
       50
176
     1
 90
        3
176
     1
 62
     5
420
      255
176
     1
290
     0
176
     1
 90
       50
176
     1
 90
       50
176
     1
 90
       50
176
     1
290
     0
176
     1
 90
       50
176
     1
 62
   256
176
     0
 40
1.0
176
     0
 90
        2
176
     1
  1
strokes_ogs.tif
176
     1
290
     0
176
     1
 40
1.0
176
     1
 40
1.0
176
     1
  0
DICTIONARYVAR
  5
97
102
{ACAD_REACTORS
330
96
102
}
330
96
100
DictionaryVariables
280
     0
  1
1:1
  0
DICTIONARYVAR
  5
9F
102
{ACAD_REACTORS
330
96
102
}
330
96
100
DictionaryVariables
280
     0
  1
3.500000
  0
DICTIONARYVAR
  5
A0
102
{ACAD_REACTORS
330
96
102
}
330
96
100
DictionaryVariables
280
     0
  1
acadiso.lin
  0
DICTIONARYVAR
  5
9C
102
{ACAD_REACTORS
330
96
102
}
330
96
100
DictionaryVariables
280
     0
  1
Standard
  0
DICTIONARYVAR
  5
9B
102
{ACAD_REACTORS
330
96
102
}
330
96
100
DictionaryVariables
280
     0
  1
Standard
  0
DICTIONARY
  5
98
330
5A
100
AcDbDictionary
280
     1
281
     1
  3
ACAD_ROUNDTRIP_2008_TABLESTYLE_CELLSTYLEMAP
360
99
  0
CELLSTYLEMAP
  5
99
102
{ACAD_REACTORS
330
98
102
}
330
98
100
AcDbCellStyleMap
 90
        3
300
CELLSTYLE
  1
TABLEFORMAT_BEGIN
 90
        5
170
     1
 91
        0
 92
    32768
 62
   257
 93
        1
300
CONTENTFORMAT
  1
CONTENTFORMAT_BEGIN
 90
        0
 91
        0
 92
        4
 93
        0
300

 40
0.0
140
1.0
 94
        5
 62
     0
340
11
144
6.0
309
CONTENTFORMAT_END
171
     1
301
MARGIN
  1
CELLMARGIN_BEGIN
 40
1.5
 40
1.5
 40
1.5
 40
1.5
 40
1.5
 40
1.5
309
CELLMARGIN_END
 94
        6
 95
        1
302
GRIDFORMAT
  1
GRIDFORMAT_BEGIN
 90
        0
 91
        1
 62
     0
 92
       -2
340
14
 93
        0
 40
0.045
309
GRIDFORMAT_END
 95
        2
302
GRIDFORMAT
  1
GRIDFORMAT_BEGIN
 90
        0
 91
        1
 62
     0
 92
       -2
340
14
 93
        0
 40
0.045
309
GRIDFORMAT_END
 95
        4
302
GRIDFORMAT
  1
GRIDFORMAT_BEGIN
 90
        0
 91
        1
 62
     0
 92
       -2
340
14
 93
        0
 40
0.045
309
GRIDFORMAT_END
 95
        8
302
GRIDFORMAT
  1
GRIDFORMAT_BEGIN
 90
        0
 91
        1
 62
     0
 92
       -2
340
14
 93
        0
 40
0.045
309
GRIDFORMAT_END
 95
       16
302
GRIDFORMAT
  1
GRIDFORMAT_BEGIN
 90
        0
 91
        1
 62
     0
 92
       -2
340
14
 93
        0
 40
0.045
309
GRIDFORMAT_END
 95
       32
302
GRIDFORMAT
  1
GRIDFORMAT_BEGIN
 90
        0
 91
        1
 62
     0
 92
       -2
340
14
 93
        0
 40
0.045
309
GRIDFORMAT_END
309
TABLEFORMAT_END
  1
CELLSTYLE_BEGIN
 90
        1
 91
        1
300
_TITLE
309
CELLSTYLE_END
300
CELLSTYLE
  1
TABLEFORMAT_BEGIN
 90
        5
170
     1
 91
        0
 92
        0
 62
   257
 93
        1
300
CONTENTFORMAT
  1
CONTENTFORMAT_BEGIN
 90
        0
 91
        0
 92
        4
 93
        0
300

 40
0.0
140
1.0
 94
        5
 62
     0
340
11
144
4.5
309
CONTENTFORMAT_END
171
     1
301
MARGIN
  1
CELLMARGIN_BEGIN
 40
1.5
 40
1.5
 40
1.5
 40
1.5
 40
1.5
 40
1.5
309
CELLMARGIN_END
 94
        6
 95
        1
302
GRIDFORMAT
  1
GRIDFORMAT_BEGIN
 90
        0
 91
        1
 62
     0
 92
       -2
340
14
 93
        0
 40
0.045
309
GRIDFORMAT_END
 95
        2
302
GRIDFORMAT
  1
GRIDFORMAT_BEGIN
 90
        0
 91
        1
 62
     0
 92
       -2
340
14
 93
        0
 40
0.045
309
GRIDFORMAT_END
 95
        4
302
GRIDFORMAT
  1
GRIDFORMAT_BEGIN
 90
        0
 91
        1
 62
     0
 92
       -2
340
14
 93
        0
 40
0.045
309
GRIDFORMAT_END
 95
        8
302
GRIDFORMAT
  1
GRIDFORMAT_BEGIN
 90
        0
 91
        1
 62
     0
 92
       -2
340
14
 93
        0
 40
0.045
309
GRIDFORMAT_END
 95
       16
302
GRIDFORMAT
  1
GRIDFORMAT_BEGIN
 90
        0
 91
        1
 62
     0
 92
       -2
340
14
 93
        0
 40
0.045
309
GRIDFORMAT_END
 95
       32
302
GRIDFORMAT
  1
GRIDFORMAT_BEGIN
 90
        0
 91
        1
 62
     0
 92
       -2
340
14
 93
        0
 40
0.045
309
GRIDFORMAT_END
309
TABLEFORMAT_END
  1
CELLSTYLE_BEGIN
 90
        2
 91
        1
300
_HEADER
309
CELLSTYLE_END
300
CELLSTYLE
  1
TABLEFORMAT_BEGIN
 90
        5
170
     1
 91
        0
 92
        0
 62
   257
 93
        1
300
CONTENTFORMAT
  1
CONTENTFORMAT_BEGIN
 90
        0
 91
        0
 92
        4
 93
        0
300

 40
0.0
140
1.0
 94
        2
 62
     0
340
11
144
4.5
309
CONTENTFORMAT_END
171
     1
301
MARGIN
  1
CELLMARGIN_BEGIN
 40
1.5
 40
1.5
 40
1.5
 40
1.5
 40
1.5
 40
1.5
309
CELLMARGIN_END
 94
        6
 95
        1
302
GRIDFORMAT
  1
GRIDFORMAT_BEGIN
 90
        0
 91
        1
 62
     0
 92
       -2
340
14
 93
        0
 40
0.045
309
GRIDFORMAT_END
 95
        2
302
GRIDFORMAT
  1
GRIDFORMAT_BEGIN
 90
        0
 91
        1
 62
     0
 92
       -2
340
14
 93
        0
 40
0.045
309
GRIDFORMAT_END
 95
        4
302
GRIDFORMAT
  1
GRIDFORMAT_BEGIN
 90
        0
 91
        1
 62
     0
 92
       -2
340
14
 93
        0
 40
0.045
309
GRIDFORMAT_END
 95
        8
302
GRIDFORMAT
  1
GRIDFORMAT_BEGIN
 90
        0
 91
        1
 62
     0
 92
       -2
340
14
 93
        0
 40
0.045
309
GRIDFORMAT_END
 95
       16
302
GRIDFORMAT
  1
GRIDFORMAT_BEGIN
 90
        0
 91
        1
 62
     0
 92
       -2
340
14
 93
        0
 40
0.045
309
GRIDFORMAT_END
 95
       32
302
GRIDFORMAT
  1
GRIDFORMAT_BEGIN
 90
        0
 91
        1
 62
     0
 92
       -2
340
14
 93
        0
 40
0.045
309
GRIDFORMAT_END
309
TABLEFORMAT_END
  1
CELLSTYLE_BEGIN
 90
        3
 91
        2
300
_DATA
309
CELLSTYLE_END
  0
ENDSEC
  0
EOF
