  0
SECTION
  2
HEADER
  9
$ACADVER
  1
AC1027
  9
$ACADMAINTVER
 70
   105
  9
$DWGCODEPAGE
  3
ANSI_932
  9
$LASTSAVEDBY
  1
a.yasuda
  9
$REQUIREDVERSIONS
160
                 0
  9
$INSBASE
 10
0.0
 20
0.0
 30
0.0
  9
$EXTMIN
 10
0.0
 20
0.0
 30
0.0
  9
$EXTMAX
 10
302.9997823349792
 20
216.0016055409748
 30
0.0
  9
$LIMMIN
 10
0.0
 20
0.0
  9
$LIMMAX
 10
302.9997823349792
 20
216.0016055409748
  9
$ORTHOMODE
 70
     0
  9
$REGENMODE
 70
     1
  9
$FILLMODE
 70
     1
  9
$QTEXTMODE
 70
     0
  9
$MIRRTEXT
 70
     1
  9
$LTSCALE
 40
1.0
  9
$ATTMODE
 70
     1
  9
$TEXTSIZE
 40
2.5
  9
$TRACEWID
 40
1.0
  9
$TEXTSTYLE
  7
Standard
  9
$CLAYER
  8
0
  9
$CELTYPE
  6
ByLayer
  9
$CECOLOR
 62
   256
  9
$CELTSCALE
 40
1.0
  9
$DISPSILH
 70
     0
  9
$DIMSCALE
 40
1.0
  9
$DIMASZ
 40
2.5
  9
$DIMEXO
 40
0.625
  9
$DIMDLI
 40
3.75
  9
$DIMRND
 40
0.0
  9
$DIMDLE
 40
0.0
  9
$DIMEXE
 40
1.25
  9
$DIMTP
 40
0.0
  9
$DIMTM
 40
0.0
  9
$DIMTXT
 40
2.5
  9
$DIMCEN
 40
2.5
  9
$DIMTSZ
 40
0.0
  9
$DIMTOL
 70
     0
  9
$DIMLIM
 70
     0
  9
$DIMTIH
 70
     0
  9
$DIMTOH
 70
     0
  9
$DIMSE1
 70
     0
  9
$DIMSE2
 70
     0
  9
$DIMTAD
 70
     1
  9
$DIMZIN
 70
     8
  9
$DIMBLK
  1

  9
$DIMASO
 70
     1
  9
$DIMSHO
 70
     1
  9
$DIMPOST
  1

  9
$DIMAPOST
  1

  9
$DIMALT
 70
     0
  9
$DIMALTD
 70
     3
  9
$DIMALTF
 40
0.03937007874016
  9
$DIMLFAC
 40
1.0
  9
$DIMTOFL
 70
     1
  9
$DIMTVP
 40
0.0
  9
$DIMTIX
 70
     0
  9
$DIMSOXD
 70
     0
  9
$DIMSAH
 70
     0
  9
$DIMBLK1
  1

  9
$DIMBLK2
  1

  9
$DIMSTYLE
  2
ISO-25
  9
$DIMCLRD
 70
     0
  9
$DIMCLRE
 70
     0
  9
$DIMCLRT
 70
     0
  9
$DIMTFAC
 40
1.0
  9
$DIMGAP
 40
0.625
  9
$DIMJUST
 70
     0
  9
$DIMSD1
 70
     0
  9
$DIMSD2
 70
     0
  9
$DIMTOLJ
 70
     0
  9
$DIMTZIN
 70
     8
  9
$DIMALTZ
 70
     0
  9
$DIMALTTZ
 70
     0
  9
$DIMUPT
 70
     0
  9
$DIMDEC
 70
     2
  9
$DIMTDEC
 70
     2
  9
$DIMALTU
 70
     2
  9
$DIMALTTD
 70
     3
  9
$DIMTXSTY
  7
Standard
  9
$DIMAUNIT
 70
     0
  9
$DIMADEC
 70
     0
  9
$DIMALTRND
 40
0.0
  9
$DIMAZIN
 70
     0
  9
$DIMDSEP
 70
    44
  9
$DIMATFIT
 70
     3
  9
$DIMFRAC
 70
     0
  9
$DIMLDRBLK
  1

  9
$DIMLUNIT
 70
     2
  9
$DIMLWD
 70
    -2
  9
$DIMLWE
 70
    -2
  9
$DIMTMOVE
 70
     0
  9
$DIMFXL
 40
1.0
  9
$DIMFXLON
 70
     0
  9
$DIMJOGANG
 40
0.7853981633974483
  9
$DIMTFILL
 70
     0
  9
$DIMTFILLCLR
 70
     0
  9
$DIMARCSYM
 70
     0
  9
$DIMLTYPE
  6

  9
$DIMLTEX1
  6

  9
$DIMLTEX2
  6

  9
$DIMTXTDIRECTION
 70
     0
  9
$LUNITS
 70
     2
  9
$LUPREC
 70
     4
  9
$SKETCHINC
 40
1.0
  9
$FILLETRAD
 40
0.0
  9
$AUNITS
 70
     0
  9
$AUPREC
 70
     0
  9
$MENU
  1
.
  9
$ELEVATION
 40
0.0
  9
$PELEVATION
 40
0.0
  9
$THICKNESS
 40
0.0
  9
$LIMCHECK
 70
     0
  9
$CHAMFERA
 40
0.0
  9
$CHAMFERB
 40
0.0
  9
$CHAMFERC
 40
0.0
  9
$CHAMFERD
 40
0.0
  9
$SKPOLY
 70
     0
  9
$TDCREATE
 40
2459866.620512384
  9
$TDUCREATE
 40
2459866.245512384
  9
$TDUPDATE
 40
2459866.620512431
  9
$TDUUPDATE
 40
2459866.245512431
  9
$TDINDWG
 40
0.0000000116
  9
$TDUSRTIMER
 40
0.0000000116
  9
$USRTIMER
 70
     1
  9
$ANGBASE
 50
0.0
  9
$ANGDIR
 70
     0
  9
$PDMODE
 70
     0
  9
$PDSIZE
 40
0.0
  9
$PLINEWID
 40
0.0
  9
$SPLFRAME
 70
     0
  9
$SPLINETYPE
 70
     6
  9
$SPLINESEGS
 70
     8
  9
$HANDSEED
  5
A8
  9
$SURFTAB1
 70
     6
  9
$SURFTAB2
 70
     6
  9
$SURFTYPE
 70
     6
  9
$SURFU
 70
     6
  9
$SURFV
 70
     6
  9
$UCSBASE
  2

  9
$UCSNAME
  2

  9
$UCSORG
 10
0.0
 20
0.0
 30
0.0
  9
$UCSXDIR
 10
1.0
 20
0.0
 30
0.0
  9
$UCSYDIR
 10
0.0
 20
1.0
 30
0.0
  9
$UCSORTHOREF
  2

  9
$UCSORTHOVIEW
 70
     0
  9
$UCSORGTOP
 10
0.0
 20
0.0
 30
0.0
  9
$UCSORGBOTTOM
 10
0.0
 20
0.0
 30
0.0
  9
$UCSORGLEFT
 10
0.0
 20
0.0
 30
0.0
  9
$UCSORGRIGHT
 10
0.0
 20
0.0
 30
0.0
  9
$UCSORGFRONT
 10
0.0
 20
0.0
 30
0.0
  9
$UCSORGBACK
 10
0.0
 20
0.0
 30
0.0
  9
$PUCSBASE
  2

  9
$PUCSNAME
  2

  9
$PUCSORG
 10
0.0
 20
0.0
 30
0.0
  9
$PUCSXDIR
 10
1.0
 20
0.0
 30
0.0
  9
$PUCSYDIR
 10
0.0
 20
1.0
 30
0.0
  9
$PUCSORTHOREF
  2

  9
$PUCSORTHOVIEW
 70
     0
  9
$PUCSORGTOP
 10
0.0
 20
0.0
 30
0.0
  9
$PUCSORGBOTTOM
 10
0.0
 20
0.0
 30
0.0
  9
$PUCSORGLEFT
 10
0.0
 20
0.0
 30
0.0
  9
$PUCSORGRIGHT
 10
0.0
 20
0.0
 30
0.0
  9
$PUCSORGFRONT
 10
0.0
 20
0.0
 30
0.0
  9
$PUCSORGBACK
 10
0.0
 20
0.0
 30
0.0
  9
$USERI1
 70
     0
  9
$USERI2
 70
     0
  9
$USERI3
 70
     0
  9
$USERI4
 70
     0
  9
$USERI5
 70
     0
  9
$USERR1
 40
0.0
  9
$USERR2
 40
0.0
  9
$USERR3
 40
0.0
  9
$USERR4
 40
0.0
  9
$USERR5
 40
0.0
  9
$WORLDVIEW
 70
     1
  9
$SHADEDGE
 70
     3
  9
$SHADEDIF
 70
    70
  9
$TILEMODE
 70
     1
  9
$MAXACTVP
 70
    64
  9
$PINSBASE
 10
0.0
 20
0.0
 30
0.0
  9
$PLIMCHECK
 70
     0
  9
$PEXTMIN
 10
1.000000000000000E+20
 20
1.000000000000000E+20
 30
1.000000000000000E+20
  9
$PEXTMAX
 10
-1.000000000000000E+20
 20
-1.000000000000000E+20
 30
-1.000000000000000E+20
  9
$PLIMMIN
 10
0.0
 20
0.0
  9
$PLIMMAX
 10
420.0
 20
297.0
  9
$UNITMODE
 70
     0
  9
$VISRETAIN
 70
     1
  9
$PLINEGEN
 70
     0
  9
$PSLTSCALE
 70
     1
  9
$TREEDEPTH
 70
  3020
  9
$CMLSTYLE
  2
Standard
  9
$CMLJUST
 70
     0
  9
$CMLSCALE
 40
20.0
  9
$PROXYGRAPHICS
 70
     1
  9
$MEASUREMENT
 70
     1
  9
$CELWEIGHT
370
    -1
  9
$ENDCAPS
280
     0
  9
$JOINSTYLE
280
     0
  9
$LWDISPLAY
290
     0
  9
$INSUNITS
 70
     4
  9
$HYPERLINKBASE
  1

  9
$STYLESHEET
  1

  9
$XEDIT
290
     1
  9
$CEPSNTYPE
380
     0
  9
$PSTYLEMODE
290
     1
  9
$FINGERPRINTGUID
  2
{f25ebca6-33af-489a-a0b3-f5deee90d25d}
  9
$VERSIONGUID
  2
{FAEB1C32-E019-11D5-929B-00C0DF256EC4}
  9
$EXTNAMES
290
     1
  9
$PSVPSCALE
 40
0.0
  9
$OLESTARTUP
290
     0
  9
$SORTENTS
280
   127
  9
$INDEXCTL
280
     0
  9
$HIDETEXT
280
     1
  9
$XCLIPFRAME
280
     2
  9
$HALOGAP
280
     0
  9
$OBSCOLOR
 70
   257
  9
$OBSLTYPE
280
     0
  9
$INTERSECTIONDISPLAY
280
     0
  9
$INTERSECTIONCOLOR
 70
   257
  9
$DIMASSOC
280
     2
  9
$PROJECTNAME
  1

  9
$CAMERADISPLAY
290
     0
  9
$LENSLENGTH
 40
50.0
  9
$CAMERAHEIGHT
 40
0.0
  9
$STEPSPERSEC
 40
2.0
  9
$STEPSIZE
 40
6.0
  9
$3DDWFPREC
 40
2.0
  9
$PSOLWIDTH
 40
5.0
  9
$PSOLHEIGHT
 40
80.0
  9
$LOFTANG1
 40
1.570796326794897
  9
$LOFTANG2
 40
1.570796326794897
  9
$LOFTMAG1
 40
0.0
  9
$LOFTMAG2
 40
0.0
  9
$LOFTPARAM
 70
     7
  9
$LOFTNORMALS
280
     1
  9
$LATITUDE
 40
37.795
  9
$LONGITUDE
 40
-122.394
  9
$NORTHDIRECTION
 40
0.0
  9
$TIMEZONE
 70
 -8000
  9
$LIGHTGLYPHDISPLAY
280
     1
  9
$TILEMODELIGHTSYNCH
280
     1
  9
$CMATERIAL
347
44
  9
$SOLIDHIST
280
     0
  9
$SHOWHIST
280
     1
  9
$DWFFRAME
280
     2
  9
$DGNFRAME
280
     2
  9
$REALWORLDSCALE
290
     1
  9
$INTERFERECOLOR
 62
   256
  9
$CSHADOW
280
     0
  9
$SHADOWPLANELOCATION
 40
0.0
  0
ENDSEC
  0
SECTION
  2
CLASSES
  0
CLASS
  1
ACDBDICTIONARYWDFLT
  2
AcDbDictionaryWithDefault
  3
ObjectDBX Classes
 90
        0
 91
        3
280
     0
281
     0
  0
CLASS
  1
VISUALSTYLE
  2
AcDbVisualStyle
  3
ObjectDBX Classes
 90
     4095
 91
        3
280
     0
281
     0
  0
CLASS
  1
MATERIAL
  2
AcDbMaterial
  3
ObjectDBX Classes
 90
     1153
 91
        3
280
     0
281
     0
  0
CLASS
  1
SCALE
  2
AcDbScale
  3
ObjectDBX Classes
 90
     1153
 91
        3
280
     0
281
     0
  0
CLASS
  1
TABLESTYLE
  2
AcDbTableStyle
  3
ObjectDBX Classes
 90
     4095
 91
        3
280
     0
281
     0
  0
CLASS
  1
MLEADERSTYLE
  2
AcDbMLeaderStyle
  3
ACDB_MLEADERSTYLE_CLASS
 90
     4095
 91
        3
280
     0
281
     0
  0
CLASS
  1
SUN
  2
AcDbSun
  3
SCENEOE
 90
     1153
 91
        3
280
     0
281
     0
  0
CLASS
  1
DICTIONARYVAR
  2
AcDbDictionaryVar
  3
ObjectDBX Classes
 90
        0
 91
        3
280
     0
281
     0
  0
CLASS
  1
CELLSTYLEMAP
  2
AcDbCellStyleMap
  3
ObjectDBX Classes
 90
     1152
 91
        3
280
     0
281
     0
  0
ENDSEC
  0
SECTION
  2
TABLES
  0
TABLE
  2
VPORT
  5
8
330
0
100
AcDbSymbolTable
 70
     1
  0
VPORT
  5
29
330
8
100
AcDbSymbolTableRecord
100
AcDbViewportTableRecord
  2
*Active
 70
     0
 10
0.0
 20
0.0
 11
1.0
 21
1.0
 12
151.4998911674896
 22
108.0008027704874
 13
0.0
 23
0.0
 14
10.0
 24
10.0
 15
10.0
 25
10.0
 16
0.0
 26
0.0
 36
1.0
 17
0.0
 27
0.0
 37
0.0
 40
237.6017660950723
 41
1.402766343222857
 42
50.0
 43
0.0
 44
0.0
 50
0.0
 51
0.0
 71
     0
 72
 10000
 73
     1
 74
     3
 75
     0
 76
     0
 77
     0
 78
     0
281
     0
 65
     1
110
0.0
120
0.0
130
0.0
111
1.0
121
0.0
131
0.0
112
0.0
122
1.0
132
0.0
 79
     0
146
0.0
348
2F
 60
     3
 61
     5
292
     1
282
     1
141
0.0
142
0.0
 63
   250
361
5D
  0
ENDTAB
  0
TABLE
  2
LTYPE
  5
5
330
0
100
AcDbSymbolTable
 70
     2
  0
LTYPE
  5
14
330
5
100
AcDbSymbolTableRecord
100
AcDbLinetypeTableRecord
  2
ByBlock
 70
     0
  3

 72
    65
 73
     0
 40
0.0
  0
LTYPE
  5
15
330
5
100
AcDbSymbolTableRecord
100
AcDbLinetypeTableRecord
  2
ByLayer
 70
     0
  3

 72
    65
 73
     0
 40
0.0
  0
LTYPE
  5
16
330
5
100
AcDbSymbolTableRecord
100
AcDbLinetypeTableRecord
  2
Continuous
 70
     0
  3
Solid line
 72
    65
 73
     0
 40
0.0
  0
LTYPE
  5
5F
330
5
100
AcDbSymbolTableRecord
100
AcDbLinetypeTableRecord
  2
UserDefined01
 70
     0
  3
----------------                
 72
    65
 73
     2
 40
0.7055555449591743
 49
0.3527777724795871
 74
     0
 49
-0.3527777724795871
 74
     0
  0
ENDTAB
  0
TABLE
  2
LAYER
  5
2
330
0
100
AcDbSymbolTable
 70
     3
  0
LAYER
  5
10
330
2
100
AcDbSymbolTableRecord
100
AcDbLayerTableRecord
  2
0
 70
     0
 62
     7
  6
Continuous
370
    -3
390
F
347
46
348
0
  0
LAYER
  5
60
330
2
100
AcDbSymbolTableRecord
100
AcDbLayerTableRecord
  2
外枠
 70
     0
 62
     7
  6
Continuous
370
    -3
390
F
347
46
348
0
  0
LAYER
  5
61
330
2
100
AcDbSymbolTableRecord
100
AcDbLayerTableRecord
  2
ISS138金台
 70
     0
 62
     7
  6
Continuous
370
    -3
390
F
347
46
348
0
  0
ENDTAB
  0
TABLE
  2
STYLE
  5
3
330
0
100
AcDbSymbolTable
 70
     2
  0
STYLE
  5
11
330
3
100
AcDbSymbolTableRecord
100
AcDbTextStyleTableRecord
  2
Standard
 70
     0
 40
0.0
 41
1.0
 50
0.0
 71
     0
 42
2.5
  3

  4

  0
STYLE
  5
5E
330
3
100
AcDbSymbolTableRecord
100
AcDbTextStyleTableRecord
  2
MS Gothic
 70
     0
 40
1.0
 41
1.0
 50
0.0
 71
     0
 42
2.5
  3
msgothic.ttc
  4

1001
ACAD
1000
MS Gothic
1071
    32817
  0
ENDTAB
  0
TABLE
  2
VIEW
  5
6
330
0
100
AcDbSymbolTable
 70
     0
  0
ENDTAB
  0
TABLE
  2
UCS
  5
7
330
0
100
AcDbSymbolTable
 70
     0
  0
ENDTAB
  0
TABLE
  2
APPID
  5
9
330
0
100
AcDbSymbolTable
 70
     1
  0
APPID
  5
12
330
9
100
AcDbSymbolTableRecord
100
AcDbRegAppTableRecord
  2
ACAD
 70
     0
  0
ENDTAB
  0
TABLE
  2
DIMSTYLE
  5
A
330
0
100
AcDbSymbolTable
 70
     1
100
AcDbDimStyleTable
  0
DIMSTYLE
105
27
330
A
100
AcDbSymbolTableRecord
100
AcDbDimStyleTableRecord
  2
ISO-25
 70
     0
 41
2.5
 42
0.625
 43
3.75
 44
1.25
 73
     0
 74
     0
 77
     1
 78
     8
140
2.5
141
2.5
143
0.03937007874016
147
0.625
171
     3
172
     1
178
     0
271
     2
272
     2
274
     3
278
    44
283
     0
284
     8
340
11
  0
ENDTAB
  0
TABLE
  2
BLOCK_RECORD
  5
1
330
0
100
AcDbSymbolTable
 70
     1
  0
BLOCK_RECORD
  5
1F
330
1
100
AcDbSymbolTableRecord
100
AcDbBlockTableRecord
  2
*Model_Space
340
22
 70
     0
280
     1
281
     0
  0
BLOCK_RECORD
  5
1B
330
1
100
AcDbSymbolTableRecord
100
AcDbBlockTableRecord
  2
*Paper_Space
340
1E
 70
     0
280
     1
281
     0
  0
BLOCK_RECORD
  5
23
330
1
100
AcDbSymbolTableRecord
100
AcDbBlockTableRecord
  2
*Paper_Space0
340
26
 70
     0
280
     1
281
     0
  0
ENDTAB
  0
ENDSEC
  0
SECTION
  2
BLOCKS
  0
BLOCK
  5
20
330
1F
100
AcDbEntity
  8
0
100
AcDbBlockBegin
  2
*Model_Space
 70
     0
 10
0.0
 20
0.0
 30
0.0
  3
*Model_Space
  1

  0
ENDBLK
  5
21
330
1F
100
AcDbEntity
  8
0
100
AcDbBlockEnd
  0
BLOCK
  5
1C
330
1B
100
AcDbEntity
 67
     1
  8
0
100
AcDbBlockBegin
  2
*Paper_Space
 70
     0
 10
0.0
 20
0.0
 30
0.0
  3
*Paper_Space
  1

  0
ENDBLK
  5
1D
330
1B
100
AcDbEntity
 67
     1
  8
0
100
AcDbBlockEnd
  0
BLOCK
  5
24
330
23
100
AcDbEntity
  8
0
100
AcDbBlockBegin
  2
*Paper_Space0
 70
     0
 10
0.0
 20
0.0
 30
0.0
  3
*Paper_Space0
  1

  0
ENDBLK
  5
25
330
23
100
AcDbEntity
  8
0
100
AcDbBlockEnd
  0
ENDSEC
  0
SECTION
  2
ENTITIES
  0
LWPOLYLINE
  5
62
330
1F
100
AcDbEntity
  8
外枠
  6
Continuous
 62
   250
420
  2367521
370
   100
100
AcDbPolyline
 90
        5
 70
     0
 43
0.0
 10
281.9999662644599
 20
13.29407825637392
 10
20.99981607051935
 20
13.29407825637392
 10
20.99981607051935
 20
193.0018900389566
 10
281.9999662644599
 20
193.0018900389566
 10
281.9999662644599
 20
13.29407825637392
  0
LINE
  5
63
330
1F
100
AcDbEntity
  8
外枠
  6
Continuous
 62
   250
420
  2367521
370
    25
100
AcDbLine
 10
223.3097080177524
 20
174.0786160074276
 30
0.0
 11
281.9999232007669
 21
174.0786160074276
 31
0.0
  0
LINE
  5
64
330
1F
100
AcDbEntity
  8
外枠
  6
Continuous
 62
   250
420
  2367521
370
    25
100
AcDbLine
 10
223.3097080177524
 20
50.37109023844297
 30
0.0
 11
281.9999232007669
 21
50.37109023844297
 31
0.0
  0
LINE
  5
65
330
1F
100
AcDbEntity
  8
外枠
  6
Continuous
 62
   250
420
  2367521
370
    25
100
AcDbLine
 10
223.3097080177524
 20
36.25997933925949
 30
0.0
 11
281.9999232007669
 21
36.25997933925949
 31
0.0
  0
LINE
  5
66
330
1F
100
AcDbEntity
  8
外枠
  6
Continuous
 62
   250
420
  2367521
370
    50
100
AcDbLine
 10
223.0158413772006
 20
193.3637327187979
 30
0.0
 11
223.0158413772006
 21
13.29396655992039
 31
0.0
  0
TEXT
  5
67
330
1F
100
AcDbEntity
  8
外枠
  6
Continuous
 62
   250
420
  2367521
100
AcDbText
 10
224.7190965599536
 20
186.6888051931772
 30
0.0
 40
2.688166626294454
  1
品名：
 41
0.974166170756022
  7
MS Gothic
100
AcDbText
  0
TEXT
  5
68
330
1F
100
AcDbEntity
  8
外枠
  6
Continuous
 62
   250
420
  2367521
100
AcDbText
 10
224.7190965599536
 20
168.1080059455944
 30
0.0
 40
2.688166626294454
  1
仕様：
 41
0.9978878657023111
  7
MS Gothic
100
AcDbText
  0
TEXT
  5
69
330
1F
100
AcDbEntity
  8
外枠
  6
Continuous
 62
   250
420
  2367521
100
AcDbText
 10
224.7190965599536
 20
44.16660664327048
 30
0.0
 40
2.688166626294454
  1
縮尺：
 41
0.9939999262491861
  7
MS Gothic
100
AcDbText
  0
TEXT
  5
6A
330
1F
100
AcDbEntity
  8
外枠
  6
Continuous
 62
   250
420
  2367521
100
AcDbText
 10
250.2379519709696
 20
40.59738467878129
 30
0.0
 40
2.150533301035563
  1
1/1
 41
1.000003814697266
  7
MS Gothic
100
AcDbText
  0
TEXT
  5
6B
330
1F
100
AcDbEntity
  8
外枠
  6
Continuous
 62
   250
420
  2367521
100
AcDbText
 10
232.7757967427735
 20
181.9845273775436
 30
0.0
 40
2.688166626294454
  1
チャンネル　SF-2040
 41
1.024922421104029
  7
MS Gothic
100
AcDbText
  0
TEXT
  5
6C
330
1F
100
AcDbEntity
  8
外枠
  6
Continuous
 62
   250
420
  2367521
100
AcDbText
 10
226.1633020978884
 20
24.25683874973963
 30
0.0
 40
2.553758294979732
  1
ヤスダインテリアサプライ株式会社
 41
1.0194908945184
  7
MS Gothic
100
AcDbText
  0
TEXT
  5
6D
330
1F
100
AcDbEntity
  8
外枠
  6
Continuous
 62
   250
420
  2367521
100
AcDbText
 10
227.7635273953072
 20
161.7763665048245
 30
0.0
 40
2.150533301035563
  1
材質
 41
1.028502464294433
  7
MS Gothic
100
AcDbText
  0
TEXT
  5
6E
330
1F
100
AcDbEntity
  8
外枠
  6
Continuous
 62
   250
420
  2367521
100
AcDbText
 10
232.7757967427735
 20
156.199681315683
 30
0.0
 40
2.016124969720841
  1
 ステンレスSUS304（18.8CR）/HL仕上
 41
1.066277118757659
  7
MS Gothic
100
AcDbText
  0
LWPOLYLINE
  5
6F
330
1F
100
AcDbEntity
  8
ISS138金台
  6
Continuous
 62
   250
420
  2367521
370
   158
100
AcDbPolyline
 90
       53
 70
     0
 43
0.0
 10
139.4354145725568
 20
98.64926346865913
 10
139.4354145725568
 20
116.4430198983367
 10
139.4334228767588
 20
116.6198717192755
 10
139.4267910680476
 20
116.7789920646505
 10
139.4144640859465
 20
116.92127450609
 10
139.3954299336717
 20
117.0475587856062
 10
139.3686227848229
 20
117.1587492407505
 10
139.3330414085398
 20
117.2556856135351
 10
139.2876307443455
 20
117.3392614755883
 10
139.2313787954562
 20
117.4103381007687
 10
139.1632412673183
 20
117.4697982947813
 10
139.0821738653783
 20
117.5184925655615
 10
138.987153826929
 20
117.5573037188143
 10
138.8771583892635
 20
117.5871145602448
 10
138.7511432578281
 20
117.6087755977884
 10
138.6080856699159
 20
117.6231696371502
 10
138.4469305650499
 20
117.6311687181118
 10
138.2666659464465
 20
117.6336448804553
 10
121.5097217536661
 20
117.6336448804553
 10
121.3753737976488
 20
117.6323099059745
 10
121.2525130817206
 20
117.6281757914532
 10
121.1396539084752
 20
117.620984154734
 10
121.0353536441996
 20
117.6105412091986
 10
120.9381696551807
 20
117.5965993386126
 10
120.8466270099355
 20
117.5789539904347
 10
120.759283074751
 20
117.5573683143537
 10
120.674695215914
 20
117.5316054600585
 10
120.5913992678648
 20
117.5014608750078
 10
120.5079202991207
 20
117.4666977088903
 10
120.4228264418917
 20
117.4270898773183
 10
120.3346750624648
 20
117.382422061827
 10
120.2419804634337
 20
117.3324681780286
 10
120.1433215429319
 20
117.2769806096888
 10
120.0372126035533
 20
117.2157655701893
 10
119.9222217775079
 20
117.1485754432959
 10
101.5336803870095
 20
106.0357203347222
 10
101.3764333122769
 20
105.9104372860667
 10
101.2349044854636
 20
105.7901280939445
 10
101.1082218667879
 20
105.6735654431072
 10
100.9955564801607
 20
105.5595327842295
 10
100.89606858357
 20
105.4468028020629
 10
100.8089184350037
 20
105.3341266495126
 10
100.7332662924495
 20
105.2202985431763
 10
100.6682724138955
 20
105.1040804018824
 10
100.6130970573294
 20
104.9842449103825
 10
100.5669004807391
 20
104.8595647534279
 10
100.5288429421125
 20
104.7288126157703
 10
100.4980846994375
 20
104.5907504162379
 10
100.473786010702
 20
104.4441616055054
 10
100.4551071338938
 20
104.2878188683244
 10
100.4412083270007
 20
104.1204841235231
 10
100.4312498480107
 20
103.9409300558529
 10
100.4312498480107
 20
98.64926346865913
  0
LWPOLYLINE
  5
70
330
1F
100
AcDbEntity
  8
ISS138金台
  6
Continuous
 62
     7
420
 16777215
370
   100
100
AcDbPolyline
 90
       53
 70
     0
 43
0.0
 10
139.4354145725568
 20
98.64996325366923
 10
139.4354145725568
 20
116.44266462287
 10
139.4334228767588
 20
116.6195810393482
 10
139.4267910680476
 20
116.7787444484161
 10
139.4144640859465
 20
116.9210484217021
 10
139.3954299336717
 20
117.047364998988
 10
139.3686227848229
 20
117.1585446882091
 10
139.3330414085398
 20
117.2554810609937
 10
139.2876307443455
 20
117.3390461571237
 10
139.2313787954562
 20
117.4101120163808
 10
139.1632412673183
 20
117.4695506785469
 10
139.0821738653783
 20
117.5182234174806
 10
138.987153826929
 20
117.5570238048102
 10
138.8771583892635
 20
117.5868023484711
 10
138.7511432578281
 20
117.6084526200915
 10
138.6080856699159
 20
117.62283589353
 10
138.4469305650499
 20
117.6308242085684
 10
138.2666659464465
 20
117.6332896049886
 10
121.5100662632095
 20
117.6332896049886
 10
121.3757290731155
 20
117.631965396431
 10
121.2528468253408
 20
117.6278312819098
 10
121.1399984180187
 20
117.620661177037
 10
121.0357089196663
 20
117.610239763348
 10
120.9385141647241
 20
117.5963194246085
 10
120.8469822854022
 20
117.5786848423538
 10
120.7596383502177
 20
117.5571206981193
 10
120.6750397254574
 20
117.5313793756707
 10
120.591733011485
 20
117.5012563224664
 10
120.5082755745874
 20
117.4664931563489
 10
120.4231817173584
 20
117.4268853247769
 10
120.3350195720082
 20
117.3822175092856
 10
120.2423357389004
 20
117.3322313277175
 10
120.1436660524754
 20
117.2767329934545
 10
120.0375571130967
 20
117.2154641243388
 10
119.9225662870514
 20
117.1482201678292
 10
101.5340248965529
 20
106.0364201197323
 10
101.3767993536668
 20
105.9111263051535
 10
101.2352489950071
 20
105.7908278789546
 10
101.1085663763313
 20
105.6742652281173
 10
100.9959009897042
 20
105.5602433351629
 10
100.8964130931135
 20
105.4475025870731
 10
100.8092629445471
 20
105.3348264345227
 10
100.733610801993
 20
105.2209983281864
 10
100.6686169234389
 20
105.1047801868925
 10
100.6134415668728
 20
104.9849446953926
 10
100.5672449902825
 20
104.8602645384381
 10
100.529187451656
 20
104.7295124007805
 10
100.498429208981
 20
104.591450201248
 10
100.4741305202454
 20
104.4448613905155
 10
100.4554516434372
 20
104.2885186533345
 10
100.4415528365442
 20
104.1211839085332
 10
100.4315943575542
 20
103.941629840863
 10
100.4315943575542
 20
98.64996325366923
  0
LINE
  5
71
330
1F
100
AcDbEntity
  8
ISS138金台
  6
Continuous
 62
   250
420
  2367521
370
    13
100
AcDbLine
 10
98.9541651805242
 20
97.9878051452599
 30
0.0
 11
92.93472218281951
 21
97.9878051452599
 31
0.0
  0
LINE
  5
72
330
1F
100
AcDbEntity
  8
ISS138金台
  6
Continuous
 62
   250
420
  2367521
370
    13
100
AcDbLine
 10
93.44201248553064
 20
105.1315550379716
 30
0.0
 11
93.44201248553064
 21
97.9878051452599
 31
0.0
  0
LINE
  5
73
330
1F
100
AcDbEntity
  8
ISS138金台
  6
Continuous
 62
   250
420
  2367521
370
    13
100
AcDbLine
 10
92.934883671668
 20
105.1315550379716
 30
0.0
 11
98.95432666937268
 21
105.1315550379716
 31
0.0
  0
LINE
  5
74
330
1F
100
AcDbEntity
  8
ISS138金台
  6
Continuous
 62
   250
420
  2367521
370
    13
100
AcDbLine
 10
99.83610961172316
 20
130.4438985095435
 30
0.0
 11
99.83610961172316
 21
120.1692458860756
 31
0.0
  0
LINE
  5
75
330
1F
100
AcDbEntity
  8
ISS138金台
  6
Continuous
 62
   250
420
  2367521
370
    13
100
AcDbLine
 10
140.0307162976929
 20
129.9588075405376
 30
0.0
 11
99.83591582510498
 21
129.9588075405376
 31
0.0
  0
LINE
  5
76
330
1F
100
AcDbEntity
  8
ISS138金台
  6
Continuous
 62
   250
420
  2367521
370
    13
100
AcDbLine
 10
140.0307162976929
 20
130.4438985095435
 30
0.0
 11
140.0307162976929
 21
120.1911222420838
 31
0.0
  0
LINE
  5
77
330
1F
100
AcDbEntity
  8
ISS138金台
  6
Continuous
 62
   250
420
  2367521
370
    13
100
AcDbLine
 10
144.4442280586655
 20
118.2730653589978
 30
0.0
 11
151.522004373809
 21
118.2730653589978
 31
0.0
  0
LINE
  5
78
330
1F
100
AcDbEntity
  8
ISS138金台
  6
Continuous
 62
   250
420
  2367521
370
    13
100
AcDbLine
 10
151.0367626818778
 20
97.9878051452599
 30
0.0
 11
151.0367626818778
 21
118.2728823383028
 31
0.0
  0
LINE
  5
79
330
1F
100
AcDbEntity
  8
ISS138金台
  6
Continuous
 62
   250
420
  2367521
370
    13
100
AcDbLine
 10
144.4442280586655
 20
97.9878051452599
 30
0.0
 11
151.522004373809
 21
97.9878051452599
 31
0.0
  0
HATCH
  5
7A
330
1F
100
AcDbEntity
  8
ISS138金台
  6
Continuous
 62
   250
420
  2367521
370
    13
100
AcDbHatch
 10
0.0
 20
0.0
 30
0.0
210
0.0
220
0.0
230
1.0
  2
SOLID
 70
     1
 71
     0
 91
        1
 92
        3
 72
     0
 73
     1
 93
       67
 10
93.44271227054074
 20
104.8814626412827
 10
93.46825980637126
 20
104.8827545520706
 10
93.49304296165226
 20
104.8865549229716
 10
93.51697560899791
 20
104.8927130310606
 10
93.53993932325264
 20
104.9011535148747
 10
93.56176184964474
 20
104.9116933537193
 10
93.58235706078833
 20
104.924235654285
 10
93.60158499968142
 20
104.93864045957
 10
93.61932724116842
 20
104.9547893444186
 10
93.63544382824733
 20
104.9725638836753
 10
93.64981633576261
 20
104.9918241203381
 10
93.66232633855867
 20
105.0124516292514
 10
93.67285541147996
 20
105.0343064534132
 10
93.68125283160124
 20
105.0572809335911
 10
93.68741093969018
 20
105.0812351127833
 10
93.69118977874476
 20
105.106050565834
 10
93.69248168953264
 20
105.1315873357412
 10
93.69248168953264
 20
105.1315873357412
 10
93.69118977874476
 20
105.1571241056485
 10
93.68740017376695
 20
105.181928792776
 10
93.681242065678
 20
105.2058829719681
 10
93.67285541147996
 20
105.228857452146
 10
93.6623371044819
 20
105.2507230422311
 10
93.64982710168584
 20
105.2713397852211
 10
93.6354330623241
 20
105.2906000218839
 10
93.61932724116842
 20
105.3083637952174
 10
93.60158499968142
 20
105.3245234459892
 10
93.58235706078833
 20
105.3389282512742
 10
93.56176184964474
 20
105.35147055184
 10
93.5399285573294
 20
105.3620211566077
 10
93.51698637492115
 20
105.3704401085755
 10
93.49304296165226
 20
105.3766089825876
 10
93.46824904044803
 20
105.3804093534887
 10
93.44271227054074
 20
105.3817012642766
 10
93.44271227054074
 20
105.3817012642766
 10
93.41710013917086
 20
105.3804093534887
 10
93.39226315427368
 20
105.3766197485109
 10
93.36827667731187
 20
105.3704293426522
 10
93.34529143121068
 20
105.3620211566077
 10
93.32342584112565
 20
105.35147055184
 10
93.30279833221235
 20
105.3389390171974
 10
93.28354886147281
 20
105.3245234459892
 10
93.26579585406256
 20
105.3083637952174
 10
93.24965773513719
 20
105.2906000218839
 10
93.23526369577544
 20
105.2713397852211
 10
93.2227536929794
 20
105.2507230422311
 10
93.2122246200581
 20
105.228857452146
 10
93.20381643401359
 20
105.2058829719681
 10
93.19766909184787
 20
105.1819395586992
 10
93.19387948687007
 20
105.1571241056485
 10
93.19258757608219
 20
105.1315873357412
 10
93.19258757608219
 20
105.1315873357412
 10
93.19387948687007
 20
105.1060397999107
 10
93.19765832592465
 20
105.0812351127833
 10
93.20381643401359
 20
105.0572809335911
 10
93.2122246200581
 20
105.0343172193364
 10
93.22274292705616
 20
105.0124516292514
 10
93.23526369577544
 20
104.9918241203381
 10
93.24965773513719
 20
104.9725638836753
 10
93.26579585406256
 20
104.9547893444186
 10
93.28354886147281
 20
104.93864045957
 10
93.30279833221235
 20
104.924235654285
 10
93.32342584112565
 20
104.9116825877961
 10
93.34529143121068
 20
104.9011427489515
 10
93.36827667731187
 20
104.8927237969838
 10
93.39226315427368
 20
104.8865549229716
 10
93.41711090509408
 20
104.8827545520706
 97
        0
 75
     1
 76
     1
 98
        0
  0
LWPOLYLINE
  5
7B
330
1F
100
AcDbEntity
  8
ISS138金台
  6
Continuous
 62
   250
420
  2367521
370
    13
100
AcDbPolyline
 90
       68
 70
     0
 43
0.0
 10
93.44271227054074
 20
104.8814626412827
 10
93.46825980637126
 20
104.8827545520706
 10
93.49304296165226
 20
104.8865549229716
 10
93.51697560899791
 20
104.8927130310606
 10
93.53993932325264
 20
104.9011535148747
 10
93.56176184964474
 20
104.9116933537193
 10
93.58235706078833
 20
104.924235654285
 10
93.60158499968142
 20
104.93864045957
 10
93.61932724116842
 20
104.9547893444186
 10
93.63544382824733
 20
104.9725638836753
 10
93.64981633576261
 20
104.9918241203381
 10
93.66232633855867
 20
105.0124516292514
 10
93.67285541147996
 20
105.0343064534132
 10
93.68125283160124
 20
105.0572809335911
 10
93.68741093969018
 20
105.0812351127833
 10
93.69118977874476
 20
105.106050565834
 10
93.69248168953264
 20
105.1315873357412
 10
93.69248168953264
 20
105.1315873357412
 10
93.69118977874476
 20
105.1571241056485
 10
93.68740017376695
 20
105.181928792776
 10
93.681242065678
 20
105.2058829719681
 10
93.67285541147996
 20
105.228857452146
 10
93.6623371044819
 20
105.2507230422311
 10
93.64982710168584
 20
105.2713397852211
 10
93.6354330623241
 20
105.2906000218839
 10
93.61932724116842
 20
105.3083637952174
 10
93.60158499968142
 20
105.3245234459892
 10
93.58235706078833
 20
105.3389282512742
 10
93.56176184964474
 20
105.35147055184
 10
93.5399285573294
 20
105.3620211566077
 10
93.51698637492115
 20
105.3704401085755
 10
93.49304296165226
 20
105.3766089825876
 10
93.46824904044803
 20
105.3804093534887
 10
93.44271227054074
 20
105.3817012642766
 10
93.44271227054074
 20
105.3817012642766
 10
93.41710013917086
 20
105.3804093534887
 10
93.39226315427368
 20
105.3766197485109
 10
93.36827667731187
 20
105.3704293426522
 10
93.34529143121068
 20
105.3620211566077
 10
93.32342584112565
 20
105.35147055184
 10
93.30279833221235
 20
105.3389390171974
 10
93.28354886147281
 20
105.3245234459892
 10
93.26579585406256
 20
105.3083637952174
 10
93.24965773513719
 20
105.2906000218839
 10
93.23526369577544
 20
105.2713397852211
 10
93.2227536929794
 20
105.2507230422311
 10
93.2122246200581
 20
105.228857452146
 10
93.20381643401359
 20
105.2058829719681
 10
93.19766909184787
 20
105.1819395586992
 10
93.19387948687007
 20
105.1571241056485
 10
93.19258757608219
 20
105.1315873357412
 10
93.19258757608219
 20
105.1315873357412
 10
93.19387948687007
 20
105.1060397999107
 10
93.19765832592465
 20
105.0812351127833
 10
93.20381643401359
 20
105.0572809335911
 10
93.2122246200581
 20
105.0343172193364
 10
93.22274292705616
 20
105.0124516292514
 10
93.23526369577544
 20
104.9918241203381
 10
93.24965773513719
 20
104.9725638836753
 10
93.26579585406256
 20
104.9547893444186
 10
93.28354886147281
 20
104.93864045957
 10
93.30279833221235
 20
104.924235654285
 10
93.32342584112565
 20
104.9116825877961
 10
93.34529143121068
 20
104.9011427489515
 10
93.36827667731187
 20
104.8927237969838
 10
93.39226315427368
 20
104.8865549229716
 10
93.41711090509408
 20
104.8827545520706
 10
93.44271227054074
 20
104.8814626412827
  0
HATCH
  5
7C
330
1F
100
AcDbEntity
  8
ISS138金台
  6
Continuous
 62
   250
420
  2367521
370
    13
100
AcDbHatch
 10
0.0
 20
0.0
 30
0.0
210
0.0
220
0.0
230
1.0
  2
SOLID
 70
     1
 71
     0
 91
        1
 92
        3
 72
     0
 73
     1
 93
       67
 10
93.44201248553064
 20
97.73838023581143
 10
93.46766768059348
 20
97.7396613806761
 10
93.4925584951068
 20
97.74345098565391
 10
93.51657726983831
 20
97.74957679597316
 10
93.53958404778597
 20
97.75795268424795
 10
93.56146040379423
 20
97.76844945939956
 10
93.58208791270752
 20
97.78092716442592
 10
93.60132661752382
 20
97.79527814009472
 10
93.61906885901084
 20
97.81136242940394
 10
93.63518544608976
 20
97.82906160719803
 10
93.64955795360503
 20
97.8482572483214
 10
93.66205719047785
 20
97.86883092761855
 10
93.67255396562945
 20
97.89063192216418
 10
93.68092985390427
 20
97.91355257272598
 10
93.68707719606996
 20
97.93747445414839
 10
93.69085603512454
 20
97.96226837535264
 10
93.6921371799892
 20
97.98779437933666
 10
93.6921371799892
 20
97.98779437933666
 10
93.69084526920132
 20
98.0134495743995
 10
93.68707719606996
 20
98.03834038891283
 10
93.68094061982751
 20
98.06234839772111
 10
93.67255396562945
 20
98.08536594159199
 10
93.66204642455463
 20
98.10724229760025
 10
93.64955795360503
 20
98.12785904059032
 10
93.63518544608976
 20
98.14709774540663
 10
93.61906885901084
 20
98.16483998689364
 10
93.60132661752382
 20
98.18095657397257
 10
93.58207714678429
 20
98.19532908148781
 10
93.56146040379423
 20
98.20781755243742
 10
93.53958404778597
 20
98.21832509351225
 10
93.51657726983831
 20
98.2267117477103
 10
93.49256926103004
 20
98.23284832395277
 10
93.46766768059348
 20
98.23662716300734
 10
93.44201248553064
 20
98.237908307872
 10
93.44201248553064
 20
98.237908307872
 10
93.41647571562336
 20
98.2366163970841
 10
93.39168179441913
 20
98.232859089876
 10
93.36773838115025
 20
98.2267117477103
 10
93.34479619874199
 20
98.21832509351225
 10
93.32296290642665
 20
98.20782831836064
 10
93.30236769528307
 20
98.19531831556459
 10
93.28313975638997
 20
98.18095657397257
 10
93.2654082808262
 20
98.16483998689364
 10
93.24928092782406
 20
98.14709774540663
 10
93.23489765438555
 20
98.12785904059032
 10
93.22238765158949
 20
98.10724229760025
 10
93.21188011051467
 20
98.08536594159199
 10
93.20347192447015
 20
98.06235916364435
 10
93.19731381638121
 20
98.03835115483606
 10
93.19353497732664
 20
98.0134495743995
 10
93.19224306653874
 20
97.98779437933666
 10
93.19224306653874
 20
97.98779437933666
 10
93.19353497732664
 20
97.9622576094294
 10
93.19732458230445
 20
97.93747445414839
 10
93.20347192447015
 20
97.9135633386492
 10
93.21186934459143
 20
97.89063192216418
 10
93.22238765158949
 20
97.86883092761855
 10
93.23489765438555
 20
97.84826801424464
 10
93.24928092782406
 20
97.82906160719803
 10
93.2654082808262
 20
97.81136242940394
 10
93.28313975638997
 20
97.79527814009472
 10
93.30236769528307
 20
97.78092716442592
 10
93.32296290642665
 20
97.76844945939956
 10
93.34479619874199
 20
97.75795268424795
 10
93.36774914707348
 20
97.74957679597316
 10
93.39168179441913
 20
97.74344021973067
 10
93.41647571562336
 20
97.7396613806761
 97
        0
 75
     1
 76
     1
 98
        0
  0
LWPOLYLINE
  5
7D
330
1F
100
AcDbEntity
  8
ISS138金台
  6
Continuous
 62
   250
420
  2367521
370
    13
100
AcDbPolyline
 90
       68
 70
     0
 43
0.0
 10
93.44201248553064
 20
97.73838023581143
 10
93.46766768059348
 20
97.7396613806761
 10
93.4925584951068
 20
97.74345098565391
 10
93.51657726983831
 20
97.74957679597316
 10
93.53958404778597
 20
97.75795268424795
 10
93.56146040379423
 20
97.76844945939956
 10
93.58208791270752
 20
97.78092716442592
 10
93.60132661752382
 20
97.79527814009472
 10
93.61906885901084
 20
97.81136242940394
 10
93.63518544608976
 20
97.82906160719803
 10
93.64955795360503
 20
97.8482572483214
 10
93.66205719047785
 20
97.86883092761855
 10
93.67255396562945
 20
97.89063192216418
 10
93.68092985390427
 20
97.91355257272598
 10
93.68707719606996
 20
97.93747445414839
 10
93.69085603512454
 20
97.96226837535264
 10
93.6921371799892
 20
97.98779437933666
 10
93.6921371799892
 20
97.98779437933666
 10
93.69084526920132
 20
98.0134495743995
 10
93.68707719606996
 20
98.03834038891283
 10
93.68094061982751
 20
98.06234839772111
 10
93.67255396562945
 20
98.08536594159199
 10
93.66204642455463
 20
98.10724229760025
 10
93.64955795360503
 20
98.12785904059032
 10
93.63518544608976
 20
98.14709774540663
 10
93.61906885901084
 20
98.16483998689364
 10
93.60132661752382
 20
98.18095657397257
 10
93.58207714678429
 20
98.19532908148781
 10
93.56146040379423
 20
98.20781755243742
 10
93.53958404778597
 20
98.21832509351225
 10
93.51657726983831
 20
98.2267117477103
 10
93.49256926103004
 20
98.23284832395277
 10
93.46766768059348
 20
98.23662716300734
 10
93.44201248553064
 20
98.237908307872
 10
93.44201248553064
 20
98.237908307872
 10
93.41647571562336
 20
98.2366163970841
 10
93.39168179441913
 20
98.232859089876
 10
93.36773838115025
 20
98.2267117477103
 10
93.34479619874199
 20
98.21832509351225
 10
93.32296290642665
 20
98.20782831836064
 10
93.30236769528307
 20
98.19531831556459
 10
93.28313975638997
 20
98.18095657397257
 10
93.2654082808262
 20
98.16483998689364
 10
93.24928092782406
 20
98.14709774540663
 10
93.23489765438555
 20
98.12785904059032
 10
93.22238765158949
 20
98.10724229760025
 10
93.21188011051467
 20
98.08536594159199
 10
93.20347192447015
 20
98.06235916364435
 10
93.19731381638121
 20
98.03835115483606
 10
93.19353497732664
 20
98.0134495743995
 10
93.19224306653874
 20
97.98779437933666
 10
93.19224306653874
 20
97.98779437933666
 10
93.19353497732664
 20
97.9622576094294
 10
93.19732458230445
 20
97.93747445414839
 10
93.20347192447015
 20
97.9135633386492
 10
93.21186934459143
 20
97.89063192216418
 10
93.22238765158949
 20
97.86883092761855
 10
93.23489765438555
 20
97.84826801424464
 10
93.24928092782406
 20
97.82906160719803
 10
93.2654082808262
 20
97.81136242940394
 10
93.28313975638997
 20
97.79527814009472
 10
93.30236769528307
 20
97.78092716442592
 10
93.32296290642665
 20
97.76844945939956
 10
93.34479619874199
 20
97.75795268424795
 10
93.36774914707348
 20
97.74957679597316
 10
93.39168179441913
 20
97.74344021973067
 10
93.41647571562336
 20
97.7396613806761
 10
93.44201248553064
 20
97.73838023581143
  0
HATCH
  5
7E
330
1F
100
AcDbEntity
  8
ISS138金台
  6
Continuous
 62
   250
420
  2367521
370
    13
100
AcDbHatch
 10
0.0
 20
0.0
 30
0.0
210
0.0
220
0.0
230
1.0
  2
SOLID
 70
     1
 71
     0
 91
        1
 92
        3
 72
     0
 73
     1
 93
       67
 10
99.83610961172316
 20
129.7087043779255
 10
99.86250765548903
 20
129.7099855227902
 10
99.88948705910944
 20
129.7137643618448
 10
99.91676790858037
 20
129.7199117040105
 10
99.94399492843513
 20
129.7282875922853
 10
99.9708559069
 20
129.7387951333601
 10
99.99704939812445
 20
129.7512836043097
 10
100.0222524244115
 20
129.7656668777482
 10
100.0461420080642
 20
129.7817726989039
 10
100.0684059373089
 20
129.7995149403909
 10
100.0887427662949
 20
129.8187644111305
 10
100.1068079854789
 20
129.8393811541205
 10
100.1223001490103
 20
129.8612575101288
 10
100.1349070451155
 20
129.8842642880765
 10
100.1443056960973
 20
129.9082722968847
 10
100.150173124259
 20
129.9331738773213
 10
100.1521971178267
 20
129.9588290723841
 10
100.1521971178267
 20
129.9588290723841
 10
100.1501623583358
 20
129.9843550763682
 10
100.1443056960973
 20
130.0091597634956
 10
100.1349070451155
 20
130.0330924108413
 10
100.1223001490103
 20
130.0560453591727
 10
100.1068079854789
 20
130.0778678855648
 10
100.0887427662949
 20
130.0984738626317
 10
100.0684167032321
 20
130.1176910356015
 10
100.0461420080642
 20
130.1354332770886
 10
100.0222524244115
 20
130.1515498641675
 10
99.99704939812445
 20
130.165933137606
 10
99.9708559069
 20
130.178443140402
 10
99.9439841625119
 20
130.1889614474001
 10
99.91676790858037
 20
130.1973588675214
 10
99.88949782503268
 20
130.2035169756103
 10
99.86250765548903
 20
130.2072958146649
 10
99.83610961172316
 20
130.2085877254528
 10
99.83610961172316
 20
130.2085877254528
 10
99.81057284181588
 20
130.2072958146649
 10
99.78577892061165
 20
130.2035169756103
 10
99.76183550734277
 20
130.1973588675214
 10
99.73889332493451
 20
130.1889506814769
 10
99.71706003261917
 20
130.1784323744788
 10
99.69646482147559
 20
130.165933137606
 10
99.67723688258249
 20
130.1515606300907
 10
99.65950540701871
 20
130.1354332770886
 10
99.64337805401657
 20
130.1176910356015
 10
99.62899478057807
 20
130.0984738626317
 10
99.616484777782
 20
130.0778786514881
 10
99.60597723670718
 20
130.0560453591727
 10
99.59756905066266
 20
130.0331031767645
 10
99.59141094257373
 20
130.0091597634956
 10
99.58763210351916
 20
129.9843658422914
 10
99.58634019273126
 20
129.9588290723841
 10
99.58634019273126
 20
129.9588290723841
 10
99.58763210351916
 20
129.933163111398
 10
99.59142170849697
 20
129.9082722968847
 10
99.59756905066266
 20
129.8842535221532
 10
99.60596647078395
 20
129.8612467442055
 10
99.616484777782
 20
129.8393811541205
 10
99.62899478057807
 20
129.8187644111305
 10
99.64337805401657
 20
129.7995149403909
 10
99.65950540701871
 20
129.7817726989039
 10
99.67723688258249
 20
129.765656111825
 10
99.69646482147559
 20
129.751294370233
 10
99.71706003261917
 20
129.7387951333601
 10
99.73889332493451
 20
129.7282875922853
 10
99.761846273266
 20
129.7199009380872
 10
99.78577892061165
 20
129.7137643618448
 10
99.81057284181588
 20
129.7099962887134
 97
        0
 75
     1
 76
     1
 98
        0
  0
LWPOLYLINE
  5
7F
330
1F
100
AcDbEntity
  8
ISS138金台
  6
Continuous
 62
   250
420
  2367521
370
    13
100
AcDbPolyline
 90
       68
 70
     0
 43
0.0
 10
99.83610961172316
 20
129.7087043779255
 10
99.86250765548903
 20
129.7099855227902
 10
99.88948705910944
 20
129.7137643618448
 10
99.91676790858037
 20
129.7199117040105
 10
99.94399492843513
 20
129.7282875922853
 10
99.9708559069
 20
129.7387951333601
 10
99.99704939812445
 20
129.7512836043097
 10
100.0222524244115
 20
129.7656668777482
 10
100.0461420080642
 20
129.7817726989039
 10
100.0684059373089
 20
129.7995149403909
 10
100.0887427662949
 20
129.8187644111305
 10
100.1068079854789
 20
129.8393811541205
 10
100.1223001490103
 20
129.8612575101288
 10
100.1349070451155
 20
129.8842642880765
 10
100.1443056960973
 20
129.9082722968847
 10
100.150173124259
 20
129.9331738773213
 10
100.1521971178267
 20
129.9588290723841
 10
100.1521971178267
 20
129.9588290723841
 10
100.1501623583358
 20
129.9843550763682
 10
100.1443056960973
 20
130.0091597634956
 10
100.1349070451155
 20
130.0330924108413
 10
100.1223001490103
 20
130.0560453591727
 10
100.1068079854789
 20
130.0778678855648
 10
100.0887427662949
 20
130.0984738626317
 10
100.0684167032321
 20
130.1176910356015
 10
100.0461420080642
 20
130.1354332770886
 10
100.0222524244115
 20
130.1515498641675
 10
99.99704939812445
 20
130.165933137606
 10
99.9708559069
 20
130.178443140402
 10
99.9439841625119
 20
130.1889614474001
 10
99.91676790858037
 20
130.1973588675214
 10
99.88949782503268
 20
130.2035169756103
 10
99.86250765548903
 20
130.2072958146649
 10
99.83610961172316
 20
130.2085877254528
 10
99.83610961172316
 20
130.2085877254528
 10
99.81057284181588
 20
130.2072958146649
 10
99.78577892061165
 20
130.2035169756103
 10
99.76183550734277
 20
130.1973588675214
 10
99.73889332493451
 20
130.1889506814769
 10
99.71706003261917
 20
130.1784323744788
 10
99.69646482147559
 20
130.165933137606
 10
99.67723688258249
 20
130.1515606300907
 10
99.65950540701871
 20
130.1354332770886
 10
99.64337805401657
 20
130.1176910356015
 10
99.62899478057807
 20
130.0984738626317
 10
99.616484777782
 20
130.0778786514881
 10
99.60597723670718
 20
130.0560453591727
 10
99.59756905066266
 20
130.0331031767645
 10
99.59141094257373
 20
130.0091597634956
 10
99.58763210351916
 20
129.9843658422914
 10
99.58634019273126
 20
129.9588290723841
 10
99.58634019273126
 20
129.9588290723841
 10
99.58763210351916
 20
129.933163111398
 10
99.59142170849697
 20
129.9082722968847
 10
99.59756905066266
 20
129.8842535221532
 10
99.60596647078395
 20
129.8612467442055
 10
99.616484777782
 20
129.8393811541205
 10
99.62899478057807
 20
129.8187644111305
 10
99.64337805401657
 20
129.7995149403909
 10
99.65950540701871
 20
129.7817726989039
 10
99.67723688258249
 20
129.765656111825
 10
99.69646482147559
 20
129.751294370233
 10
99.71706003261917
 20
129.7387951333601
 10
99.73889332493451
 20
129.7282875922853
 10
99.761846273266
 20
129.7199009380872
 10
99.78577892061165
 20
129.7137643618448
 10
99.81057284181588
 20
129.7099962887134
 10
99.83610961172316
 20
129.7087043779255
  0
HATCH
  5
80
330
1F
100
AcDbEntity
  8
ISS138金台
  6
Continuous
 62
   250
420
  2367521
370
    13
100
AcDbHatch
 10
0.0
 20
0.0
 30
0.0
210
0.0
220
0.0
230
1.0
  2
SOLID
 70
     1
 71
     0
 91
        1
 92
        3
 72
     0
 73
     1
 93
       67
 10
140.0307162976929
 20
129.7087043779255
 10
140.0563176631396
 20
129.7099855227902
 10
140.08116541396
 20
129.7137643618448
 10
140.1051518909218
 20
129.7199117040105
 10
140.128137137023
 20
129.7282875922853
 10
140.150002727108
 20
129.7387951333601
 10
140.1706302360213
 20
129.7512836043097
 10
140.1898797067608
 20
129.7656668777482
 10
140.2076327141711
 20
129.7817726989039
 10
140.2237708330965
 20
129.7995149403909
 10
140.2381648724582
 20
129.8187644111305
 10
140.2506856411775
 20
129.8393811541205
 10
140.2612039481755
 20
129.8612575101288
 10
140.26961213422
 20
129.8842642880765
 10
140.275770242309
 20
129.9082722968847
 10
140.2795490813635
 20
129.9331738773213
 10
140.2808409921515
 20
129.9588290723841
 10
140.2808409921515
 20
129.9588290723841
 10
140.2795490813635
 20
129.9843550763682
 10
140.275770242309
 20
130.0091597634956
 10
140.2696013682968
 20
130.0330924108413
 10
140.2612039481755
 20
130.0560453591727
 10
140.2506748752542
 20
130.0778678855648
 10
140.2381648724582
 20
130.0984738626317
 10
140.2237708330965
 20
130.1176910356015
 10
140.2076327141711
 20
130.1354332770886
 10
140.1898797067608
 20
130.1515498641675
 10
140.1706302360213
 20
130.165933137606
 10
140.150002727108
 20
130.178443140402
 10
140.128137137023
 20
130.1889614474001
 10
140.1051518909218
 20
130.1973588675214
 10
140.08116541396
 20
130.2035169756103
 10
140.0563176631396
 20
130.2072958146649
 10
140.0307162976929
 20
130.2085877254528
 10
140.0307162976929
 20
130.2085877254528
 10
140.0051902937088
 20
130.2072958146649
 10
139.9803748406582
 20
130.2035169756103
 10
139.9564529592357
 20
130.1973588675214
 10
139.933489244981
 20
130.1889506814769
 10
139.9116559526657
 20
130.1784323744788
 10
139.8910822733685
 20
130.165933137606
 10
139.8718435685522
 20
130.1515606300907
 10
139.8541120929884
 20
130.1354332770886
 10
139.8379847399863
 20
130.1176910356015
 10
139.823612232471
 20
130.0984738626317
 10
139.8110914637517
 20
130.0778786514881
 10
139.8005731567537
 20
130.0560453591727
 10
139.7921757366324
 20
130.0331031767645
 10
139.7860176285434
 20
130.0091597634956
 10
139.7822387894889
 20
129.9843658422914
 10
139.780946878701
 20
129.9588290723841
 10
139.780946878701
 20
129.9588290723841
 10
139.7822280235657
 20
129.933163111398
 10
139.7860176285434
 20
129.9082722968847
 10
139.7921757366324
 20
129.8842535221532
 10
139.8005731567537
 20
129.8612467442055
 10
139.8110914637517
 20
129.8393811541205
 10
139.823612232471
 20
129.8187644111305
 10
139.8379847399863
 20
129.7995149403909
 10
139.8541120929884
 20
129.7817726989039
 10
139.871832802629
 20
129.765656111825
 10
139.8910715074453
 20
129.751294370233
 10
139.9116667185889
 20
129.7387951333601
 10
139.9335000109042
 20
129.7282875922853
 10
139.9564421933125
 20
129.7199009380872
 10
139.9803856065814
 20
129.7137643618448
 10
140.0051795277856
 20
129.7099962887134
 97
        0
 75
     1
 76
     1
 98
        0
  0
LWPOLYLINE
  5
81
330
1F
100
AcDbEntity
  8
ISS138金台
  6
Continuous
 62
   250
420
  2367521
370
    13
100
AcDbPolyline
 90
       68
 70
     0
 43
0.0
 10
140.0307162976929
 20
129.7087043779255
 10
140.0563176631396
 20
129.7099855227902
 10
140.08116541396
 20
129.7137643618448
 10
140.1051518909218
 20
129.7199117040105
 10
140.128137137023
 20
129.7282875922853
 10
140.150002727108
 20
129.7387951333601
 10
140.1706302360213
 20
129.7512836043097
 10
140.1898797067608
 20
129.7656668777482
 10
140.2076327141711
 20
129.7817726989039
 10
140.2237708330965
 20
129.7995149403909
 10
140.2381648724582
 20
129.8187644111305
 10
140.2506856411775
 20
129.8393811541205
 10
140.2612039481755
 20
129.8612575101288
 10
140.26961213422
 20
129.8842642880765
 10
140.275770242309
 20
129.9082722968847
 10
140.2795490813635
 20
129.9331738773213
 10
140.2808409921515
 20
129.9588290723841
 10
140.2808409921515
 20
129.9588290723841
 10
140.2795490813635
 20
129.9843550763682
 10
140.275770242309
 20
130.0091597634956
 10
140.2696013682968
 20
130.0330924108413
 10
140.2612039481755
 20
130.0560453591727
 10
140.2506748752542
 20
130.0778678855648
 10
140.2381648724582
 20
130.0984738626317
 10
140.2237708330965
 20
130.1176910356015
 10
140.2076327141711
 20
130.1354332770886
 10
140.1898797067608
 20
130.1515498641675
 10
140.1706302360213
 20
130.165933137606
 10
140.150002727108
 20
130.178443140402
 10
140.128137137023
 20
130.1889614474001
 10
140.1051518909218
 20
130.1973588675214
 10
140.08116541396
 20
130.2035169756103
 10
140.0563176631396
 20
130.2072958146649
 10
140.0307162976929
 20
130.2085877254528
 10
140.0307162976929
 20
130.2085877254528
 10
140.0051902937088
 20
130.2072958146649
 10
139.9803748406582
 20
130.2035169756103
 10
139.9564529592357
 20
130.1973588675214
 10
139.933489244981
 20
130.1889506814769
 10
139.9116559526657
 20
130.1784323744788
 10
139.8910822733685
 20
130.165933137606
 10
139.8718435685522
 20
130.1515606300907
 10
139.8541120929884
 20
130.1354332770886
 10
139.8379847399863
 20
130.1176910356015
 10
139.823612232471
 20
130.0984738626317
 10
139.8110914637517
 20
130.0778786514881
 10
139.8005731567537
 20
130.0560453591727
 10
139.7921757366324
 20
130.0331031767645
 10
139.7860176285434
 20
130.0091597634956
 10
139.7822387894889
 20
129.9843658422914
 10
139.780946878701
 20
129.9588290723841
 10
139.780946878701
 20
129.9588290723841
 10
139.7822280235657
 20
129.933163111398
 10
139.7860176285434
 20
129.9082722968847
 10
139.7921757366324
 20
129.8842535221532
 10
139.8005731567537
 20
129.8612467442055
 10
139.8110914637517
 20
129.8393811541205
 10
139.823612232471
 20
129.8187644111305
 10
139.8379847399863
 20
129.7995149403909
 10
139.8541120929884
 20
129.7817726989039
 10
139.871832802629
 20
129.765656111825
 10
139.8910715074453
 20
129.751294370233
 10
139.9116667185889
 20
129.7387951333601
 10
139.9335000109042
 20
129.7282875922853
 10
139.9564421933125
 20
129.7199009380872
 10
139.9803856065814
 20
129.7137643618448
 10
140.0051795277856
 20
129.7099962887134
 10
140.0307162976929
 20
129.7087043779255
  0
HATCH
  5
82
330
1F
100
AcDbEntity
  8
ISS138金台
  6
Continuous
 62
   250
420
  2367521
370
    13
100
AcDbHatch
 10
0.0
 20
0.0
 30
0.0
210
0.0
220
0.0
230
1.0
  2
SOLID
 70
     1
 71
     0
 91
        1
 92
        3
 72
     0
 73
     1
 93
       67
 10
151.0367626818778
 20
118.022929898616
 10
151.0623640473245
 20
118.0242110434806
 10
151.0872117981449
 20
118.0279898825352
 10
151.1111982751067
 20
118.0341372247009
 10
151.1341835212079
 20
118.0425131129757
 10
151.1560491112929
 20
118.0530206540506
 10
151.1766766202062
 20
118.0655091250002
 10
151.1959260909458
 20
118.0798816325154
 10
151.213679098356
 20
118.0959982195943
 10
151.2298172172814
 20
118.1137404610814
 10
151.2442112566431
 20
118.1329899318209
 10
151.2567320253624
 20
118.153606674811
 10
151.2672503323604
 20
118.1754830308192
 10
151.275658518405
 20
118.1984898087669
 10
151.2818058605707
 20
118.2224978175752
 10
151.2855954655485
 20
118.2473993980117
 10
151.2868873763364
 20
118.2730545930745
 10
151.2868873763364
 20
118.2730545930745
 10
151.2856062314717
 20
118.2985913629818
 10
151.2818058605707
 20
118.3233852841861
 10
151.275658518405
 20
118.3473286974549
 10
151.2672503323604
 20
118.3702816457864
 10
151.2567320253624
 20
118.3920934062553
 10
151.2442112566431
 20
118.4126886173989
 10
151.2298172172814
 20
118.431916556292
 10
151.213679098356
 20
118.449658797779
 10
151.1959260909458
 20
118.4657753848579
 10
151.1766766202062
 20
118.4801586582964
 10
151.1560491112929
 20
118.4926686610925
 10
151.1341835212079
 20
118.5031869680905
 10
151.1111982751067
 20
118.5115843882118
 10
151.0872117981449
 20
118.5177424963007
 10
151.0623640473245
 20
118.5215213353553
 10
151.0367626818778
 20
118.5228132461432
 10
151.0367626818778
 20
118.5228132461432
 10
151.0112151460473
 20
118.5215213353553
 10
150.9864212248431
 20
118.5177424963007
 10
150.9624885774974
 20
118.5115843882118
 10
150.9395463950892
 20
118.5031869680905
 10
150.9177131027738
 20
118.4926686610925
 10
150.8971178916302
 20
118.4801586582964
 10
150.8778899527371
 20
118.4657753848579
 10
150.8601584771734
 20
118.449658797779
 10
150.8440311241712
 20
118.431916556292
 10
150.829658616656
 20
118.4126993833221
 10
150.8171378479367
 20
118.3921041721785
 10
150.8066303068618
 20
118.3702708798632
 10
150.7982221208173
 20
118.3473286974549
 10
150.7920640127284
 20
118.3233852841861
 10
150.7882851736738
 20
118.2985913629818
 10
150.7869932628859
 20
118.2730545930745
 10
150.7869932628859
 20
118.2730545930745
 10
150.7882851736738
 20
118.2473993980117
 10
150.7920747786516
 20
118.2224870516519
 10
150.7982221208173
 20
118.1984790428436
 10
150.8066195409386
 20
118.1754830308192
 10
150.8171378479367
 20
118.153606674811
 10
150.829658616656
 20
118.1329899318209
 10
150.8440311241712
 20
118.1137404610814
 10
150.8601584771734
 20
118.0960089855176
 10
150.8778899527371
 20
118.0798816325154
 10
150.8971178916302
 20
118.0655198909234
 10
150.9177131027738
 20
118.0530206540506
 10
150.9395463950892
 20
118.0425131129757
 10
150.9624885774974
 20
118.0341264587777
 10
150.9864319907663
 20
118.0279898825352
 10
151.0112259119705
 20
118.0242110434806
 97
        0
 75
     1
 76
     1
 98
        0
  0
LWPOLYLINE
  5
83
330
1F
100
AcDbEntity
  8
ISS138金台
  6
Continuous
 62
   250
420
  2367521
370
    13
100
AcDbPolyline
 90
       68
 70
     0
 43
0.0
 10
151.0367626818778
 20
118.022929898616
 10
151.0623640473245
 20
118.0242110434806
 10
151.0872117981449
 20
118.0279898825352
 10
151.1111982751067
 20
118.0341372247009
 10
151.1341835212079
 20
118.0425131129757
 10
151.1560491112929
 20
118.0530206540506
 10
151.1766766202062
 20
118.0655091250002
 10
151.1959260909458
 20
118.0798816325154
 10
151.213679098356
 20
118.0959982195943
 10
151.2298172172814
 20
118.1137404610814
 10
151.2442112566431
 20
118.1329899318209
 10
151.2567320253624
 20
118.153606674811
 10
151.2672503323604
 20
118.1754830308192
 10
151.275658518405
 20
118.1984898087669
 10
151.2818058605707
 20
118.2224978175752
 10
151.2855954655485
 20
118.2473993980117
 10
151.2868873763364
 20
118.2730545930745
 10
151.2868873763364
 20
118.2730545930745
 10
151.2856062314717
 20
118.2985913629818
 10
151.2818058605707
 20
118.3233852841861
 10
151.275658518405
 20
118.3473286974549
 10
151.2672503323604
 20
118.3702816457864
 10
151.2567320253624
 20
118.3920934062553
 10
151.2442112566431
 20
118.4126886173989
 10
151.2298172172814
 20
118.431916556292
 10
151.213679098356
 20
118.449658797779
 10
151.1959260909458
 20
118.4657753848579
 10
151.1766766202062
 20
118.4801586582964
 10
151.1560491112929
 20
118.4926686610925
 10
151.1341835212079
 20
118.5031869680905
 10
151.1111982751067
 20
118.5115843882118
 10
151.0872117981449
 20
118.5177424963007
 10
151.0623640473245
 20
118.5215213353553
 10
151.0367626818778
 20
118.5228132461432
 10
151.0367626818778
 20
118.5228132461432
 10
151.0112151460473
 20
118.5215213353553
 10
150.9864212248431
 20
118.5177424963007
 10
150.9624885774974
 20
118.5115843882118
 10
150.9395463950892
 20
118.5031869680905
 10
150.9177131027738
 20
118.4926686610925
 10
150.8971178916302
 20
118.4801586582964
 10
150.8778899527371
 20
118.4657753848579
 10
150.8601584771734
 20
118.449658797779
 10
150.8440311241712
 20
118.431916556292
 10
150.829658616656
 20
118.4126993833221
 10
150.8171378479367
 20
118.3921041721785
 10
150.8066303068618
 20
118.3702708798632
 10
150.7982221208173
 20
118.3473286974549
 10
150.7920640127284
 20
118.3233852841861
 10
150.7882851736738
 20
118.2985913629818
 10
150.7869932628859
 20
118.2730545930745
 10
150.7869932628859
 20
118.2730545930745
 10
150.7882851736738
 20
118.2473993980117
 10
150.7920747786516
 20
118.2224870516519
 10
150.7982221208173
 20
118.1984790428436
 10
150.8066195409386
 20
118.1754830308192
 10
150.8171378479367
 20
118.153606674811
 10
150.829658616656
 20
118.1329899318209
 10
150.8440311241712
 20
118.1137404610814
 10
150.8601584771734
 20
118.0960089855176
 10
150.8778899527371
 20
118.0798816325154
 10
150.8971178916302
 20
118.0655198909234
 10
150.9177131027738
 20
118.0530206540506
 10
150.9395463950892
 20
118.0425131129757
 10
150.9624885774974
 20
118.0341264587777
 10
150.9864319907663
 20
118.0279898825352
 10
151.0112259119705
 20
118.0242110434806
 10
151.0367626818778
 20
118.022929898616
  0
HATCH
  5
84
330
1F
100
AcDbEntity
  8
ISS138金台
  6
Continuous
 62
   250
420
  2367521
370
    13
100
AcDbHatch
 10
0.0
 20
0.0
 30
0.0
210
0.0
220
0.0
230
1.0
  2
SOLID
 70
     1
 71
     0
 91
        1
 92
        3
 72
     0
 73
     1
 93
       67
 10
151.0367626818778
 20
97.73838023581143
 10
151.0623640473245
 20
97.7396613806761
 10
151.0872117981449
 20
97.74345098565391
 10
151.1111982751067
 20
97.74957679597316
 10
151.1341835212079
 20
97.75795268424795
 10
151.1560491112929
 20
97.76844945939956
 10
151.1766766202062
 20
97.78092716442592
 10
151.1959260909458
 20
97.79527814009472
 10
151.213679098356
 20
97.81136242940394
 10
151.2298172172814
 20
97.82906160719803
 10
151.2442112566431
 20
97.8482572483214
 10
151.2567320253624
 20
97.86883092761855
 10
151.2672503323604
 20
97.89063192216418
 10
151.275658518405
 20
97.91355257272598
 10
151.2818058605707
 20
97.93747445414839
 10
151.2855954655485
 20
97.96226837535264
 10
151.2868873763364
 20
97.98779437933666
 10
151.2868873763364
 20
97.98779437933666
 10
151.2856062314717
 20
98.0134495743995
 10
151.2818058605707
 20
98.03834038891283
 10
151.275658518405
 20
98.06234839772111
 10
151.2672503323604
 20
98.08536594159199
 10
151.2567320253624
 20
98.10724229760025
 10
151.2442112566431
 20
98.12785904059032
 10
151.2298172172814
 20
98.14709774540663
 10
151.213679098356
 20
98.16483998689364
 10
151.1959260909458
 20
98.18095657397257
 10
151.1766766202062
 20
98.19532908148781
 10
151.1560491112929
 20
98.20781755243742
 10
151.1341835212079
 20
98.21832509351225
 10
151.1111982751067
 20
98.2267117477103
 10
151.0872117981449
 20
98.23284832395277
 10
151.0623640473245
 20
98.23662716300734
 10
151.0367626818778
 20
98.237908307872
 10
151.0367626818778
 20
98.237908307872
 10
151.0112151460473
 20
98.2366163970841
 10
150.9864212248431
 20
98.232859089876
 10
150.9624885774974
 20
98.2267117477103
 10
150.9395463950892
 20
98.21832509351225
 10
150.9177131027738
 20
98.20782831836064
 10
150.8971178916302
 20
98.19531831556459
 10
150.8778899527371
 20
98.18095657397257
 10
150.8601584771734
 20
98.16483998689364
 10
150.8440311241712
 20
98.14709774540663
 10
150.829658616656
 20
98.12785904059032
 10
150.8171378479367
 20
98.10724229760025
 10
150.8066303068618
 20
98.08536594159199
 10
150.7982221208173
 20
98.06235916364435
 10
150.7920640127284
 20
98.03835115483606
 10
150.7882851736738
 20
98.0134495743995
 10
150.7869932628859
 20
97.98779437933666
 10
150.7869932628859
 20
97.98779437933666
 10
150.7882851736738
 20
97.9622576094294
 10
150.7920747786516
 20
97.93747445414839
 10
150.7982221208173
 20
97.9135633386492
 10
150.8066195409386
 20
97.89063192216418
 10
150.8171378479367
 20
97.86883092761855
 10
150.829658616656
 20
97.84826801424464
 10
150.8440311241712
 20
97.82906160719803
 10
150.8601584771734
 20
97.81136242940394
 10
150.8778899527371
 20
97.79527814009472
 10
150.8971178916302
 20
97.78092716442592
 10
150.9177131027738
 20
97.76844945939956
 10
150.9395463950892
 20
97.75795268424795
 10
150.9624885774974
 20
97.74957679597316
 10
150.9864319907663
 20
97.74344021973067
 10
151.0112259119705
 20
97.7396613806761
 97
        0
 75
     1
 76
     1
 98
        0
  0
LWPOLYLINE
  5
85
330
1F
100
AcDbEntity
  8
ISS138金台
  6
Continuous
 62
   250
420
  2367521
370
    13
100
AcDbPolyline
 90
       68
 70
     0
 43
0.0
 10
151.0367626818778
 20
97.73838023581143
 10
151.0623640473245
 20
97.7396613806761
 10
151.0872117981449
 20
97.74345098565391
 10
151.1111982751067
 20
97.74957679597316
 10
151.1341835212079
 20
97.75795268424795
 10
151.1560491112929
 20
97.76844945939956
 10
151.1766766202062
 20
97.78092716442592
 10
151.1959260909458
 20
97.79527814009472
 10
151.213679098356
 20
97.81136242940394
 10
151.2298172172814
 20
97.82906160719803
 10
151.2442112566431
 20
97.8482572483214
 10
151.2567320253624
 20
97.86883092761855
 10
151.2672503323604
 20
97.89063192216418
 10
151.275658518405
 20
97.91355257272598
 10
151.2818058605707
 20
97.93747445414839
 10
151.2855954655485
 20
97.96226837535264
 10
151.2868873763364
 20
97.98779437933666
 10
151.2868873763364
 20
97.98779437933666
 10
151.2856062314717
 20
98.0134495743995
 10
151.2818058605707
 20
98.03834038891283
 10
151.275658518405
 20
98.06234839772111
 10
151.2672503323604
 20
98.08536594159199
 10
151.2567320253624
 20
98.10724229760025
 10
151.2442112566431
 20
98.12785904059032
 10
151.2298172172814
 20
98.14709774540663
 10
151.213679098356
 20
98.16483998689364
 10
151.1959260909458
 20
98.18095657397257
 10
151.1766766202062
 20
98.19532908148781
 10
151.1560491112929
 20
98.20781755243742
 10
151.1341835212079
 20
98.21832509351225
 10
151.1111982751067
 20
98.2267117477103
 10
151.0872117981449
 20
98.23284832395277
 10
151.0623640473245
 20
98.23662716300734
 10
151.0367626818778
 20
98.237908307872
 10
151.0367626818778
 20
98.237908307872
 10
151.0112151460473
 20
98.2366163970841
 10
150.9864212248431
 20
98.232859089876
 10
150.9624885774974
 20
98.2267117477103
 10
150.9395463950892
 20
98.21832509351225
 10
150.9177131027738
 20
98.20782831836064
 10
150.8971178916302
 20
98.19531831556459
 10
150.8778899527371
 20
98.18095657397257
 10
150.8601584771734
 20
98.16483998689364
 10
150.8440311241712
 20
98.14709774540663
 10
150.829658616656
 20
98.12785904059032
 10
150.8171378479367
 20
98.10724229760025
 10
150.8066303068618
 20
98.08536594159199
 10
150.7982221208173
 20
98.06235916364435
 10
150.7920640127284
 20
98.03835115483606
 10
150.7882851736738
 20
98.0134495743995
 10
150.7869932628859
 20
97.98779437933666
 10
150.7869932628859
 20
97.98779437933666
 10
150.7882851736738
 20
97.9622576094294
 10
150.7920747786516
 20
97.93747445414839
 10
150.7982221208173
 20
97.9135633386492
 10
150.8066195409386
 20
97.89063192216418
 10
150.8171378479367
 20
97.86883092761855
 10
150.829658616656
 20
97.84826801424464
 10
150.8440311241712
 20
97.82906160719803
 10
150.8601584771734
 20
97.81136242940394
 10
150.8778899527371
 20
97.79527814009472
 10
150.8971178916302
 20
97.78092716442592
 10
150.9177131027738
 20
97.76844945939956
 10
150.9395463950892
 20
97.75795268424795
 10
150.9624885774974
 20
97.74957679597316
 10
150.9864319907663
 20
97.74344021973067
 10
151.0112259119705
 20
97.7396613806761
 10
151.0367626818778
 20
97.73838023581143
  0
LINE
  5
86
330
1F
100
AcDbEntity
  8
ISS138金台
  6
Continuous
 62
   250
420
  2367521
370
    13
100
AcDbLine
 10
99.83610961172316
 20
97.03971488172101
 30
0.0
 11
99.83610961172316
 21
91.04249274956803
 31
0.0
  0
LINE
  5
87
330
1F
100
AcDbEntity
  8
ISS138金台
  6
Continuous
 62
   250
420
  2367521
370
    13
100
AcDbLine
 10
101.0928804261817
 20
91.04249274956803
 30
0.0
 11
101.0928804261817
 21
97.03971488172101
 31
0.0
  0
LINE
  5
88
330
1F
100
AcDbEntity
  8
ISS138金台
  6
Continuous
 62
   250
420
  2367521
370
    13
100
AcDbLine
 10
99.83610961172316
 20
91.54961079750743
 30
0.0
 11
103.0774276511511
 21
91.54961079750743
 31
0.0
  0
HATCH
  5
89
330
1F
100
AcDbEntity
  8
ISS138金台
  6
Continuous
 62
   250
420
  2367521
370
    13
100
AcDbHatch
 10
0.0
 20
0.0
 30
0.0
210
0.0
220
0.0
230
1.0
  2
SOLID
 70
     1
 71
     0
 91
        1
 92
        3
 72
     0
 73
     1
 93
       67
 10
99.8368201626565
 20
91.29951840081857
 10
99.862367698487
 20
91.30081031160645
 10
99.88714008784478
 20
91.3046106825075
 10
99.91109426703689
 20
91.31076879059643
 10
99.93403644944516
 20
91.31920927441064
 10
99.95586974176048
 20
91.32974911325518
 10
99.97646495290408
 20
91.34229141382093
 10
99.99569289179716
 20
91.35669621910588
 10
100.0134243673609
 20
91.37285586987774
 10
100.0295517203631
 20
91.39061964321121
 10
100.0439349938016
 20
91.409879879874
 10
100.0564449965976
 20
91.43050738878729
 10
100.0669633035957
 20
91.45236221294908
 10
100.075360723717
 20
91.47533669312705
 10
100.0815188318059
 20
91.49929087231916
 10
100.0852976708605
 20
91.52410632536986
 10
100.0865895816484
 20
91.54964309527713
 10
100.0865895816484
 20
91.54964309527713
 10
100.0852976708605
 20
91.57517986518441
 10
100.0815080658827
 20
91.59998455231188
 10
100.075360723717
 20
91.62393873150398
 10
100.0669525376725
 20
91.64691321168195
 10
100.0564449965976
 20
91.66876803584374
 10
100.0439242278784
 20
91.68939554475705
 10
100.0295624862863
 20
91.70865578141982
 10
100.0134243673609
 20
91.72641955475329
 10
99.99569289179716
 20
91.74257920552515
 10
99.97646495290408
 20
91.7569840108101
 10
99.95586974176048
 20
91.76952631137587
 10
99.93403644944516
 20
91.78007691614363
 10
99.91108350111367
 20
91.78849586811137
 10
99.88715085376802
 20
91.79466474212353
 10
99.86235693256377
 20
91.79846511302458
 10
99.8368201626565
 20
91.79975702381248
 10
99.8368201626565
 20
91.79975702381248
 10
99.81121879720982
 20
91.79846511302458
 10
99.78637104638943
 20
91.79467550804677
 10
99.76238456942761
 20
91.78849586811137
 10
99.73939932332642
 20
91.78007691614363
 10
99.7175337332414
 20
91.76952631137587
 10
99.6969062243281
 20
91.7569840108101
 10
99.67765675358856
 20
91.74257920552515
 10
99.65990374617832
 20
91.72641955475329
 10
99.64376562725293
 20
91.70865578141982
 10
99.6293715878912
 20
91.68939554475705
 10
99.6168508191719
 20
91.66877880176698
 10
99.60633251217385
 20
91.64691321168195
 10
99.59792432612934
 20
91.62394949742722
 10
99.59176621804039
 20
91.5999953182351
 10
99.58798737898582
 20
91.57517986518441
 10
99.58669546819793
 20
91.54964309527713
 10
99.58669546819793
 20
91.54964309527713
 10
99.58798737898582
 20
91.52409555944664
 10
99.59177698396363
 20
91.49929087231916
 10
99.59792432612934
 20
91.47533669312705
 10
99.60633251217385
 20
91.45236221294908
 10
99.6168508191719
 20
91.43050738878729
 10
99.6293715878912
 20
91.409879879874
 10
99.64376562725293
 20
91.39061964321121
 10
99.65990374617832
 20
91.37285586987774
 10
99.67765675358856
 20
91.35669621910588
 10
99.6969062243281
 20
91.34229141382093
 10
99.71752296731816
 20
91.32974911325518
 10
99.73939932332642
 20
91.3191985084874
 10
99.76238456942761
 20
91.31077955651966
 10
99.78637104638943
 20
91.3046106825075
 10
99.81121879720982
 20
91.30081031160645
 97
        0
 75
     1
 76
     1
 98
        0
  0
LWPOLYLINE
  5
8A
330
1F
100
AcDbEntity
  8
ISS138金台
  6
Continuous
 62
   250
420
  2367521
370
    13
100
AcDbPolyline
 90
       68
 70
     0
 43
0.0
 10
99.8368201626565
 20
91.29951840081857
 10
99.862367698487
 20
91.30081031160645
 10
99.88714008784478
 20
91.3046106825075
 10
99.91109426703689
 20
91.31076879059643
 10
99.93403644944516
 20
91.31920927441064
 10
99.95586974176048
 20
91.32974911325518
 10
99.97646495290408
 20
91.34229141382093
 10
99.99569289179716
 20
91.35669621910588
 10
100.0134243673609
 20
91.37285586987774
 10
100.0295517203631
 20
91.39061964321121
 10
100.0439349938016
 20
91.409879879874
 10
100.0564449965976
 20
91.43050738878729
 10
100.0669633035957
 20
91.45236221294908
 10
100.075360723717
 20
91.47533669312705
 10
100.0815188318059
 20
91.49929087231916
 10
100.0852976708605
 20
91.52410632536986
 10
100.0865895816484
 20
91.54964309527713
 10
100.0865895816484
 20
91.54964309527713
 10
100.0852976708605
 20
91.57517986518441
 10
100.0815080658827
 20
91.59998455231188
 10
100.075360723717
 20
91.62393873150398
 10
100.0669525376725
 20
91.64691321168195
 10
100.0564449965976
 20
91.66876803584374
 10
100.0439242278784
 20
91.68939554475705
 10
100.0295624862863
 20
91.70865578141982
 10
100.0134243673609
 20
91.72641955475329
 10
99.99569289179716
 20
91.74257920552515
 10
99.97646495290408
 20
91.7569840108101
 10
99.95586974176048
 20
91.76952631137587
 10
99.93403644944516
 20
91.78007691614363
 10
99.91108350111367
 20
91.78849586811137
 10
99.88715085376802
 20
91.79466474212353
 10
99.86235693256377
 20
91.79846511302458
 10
99.8368201626565
 20
91.79975702381248
 10
99.8368201626565
 20
91.79975702381248
 10
99.81121879720982
 20
91.79846511302458
 10
99.78637104638943
 20
91.79467550804677
 10
99.76238456942761
 20
91.78849586811137
 10
99.73939932332642
 20
91.78007691614363
 10
99.7175337332414
 20
91.76952631137587
 10
99.6969062243281
 20
91.7569840108101
 10
99.67765675358856
 20
91.74257920552515
 10
99.65990374617832
 20
91.72641955475329
 10
99.64376562725293
 20
91.70865578141982
 10
99.6293715878912
 20
91.68939554475705
 10
99.6168508191719
 20
91.66877880176698
 10
99.60633251217385
 20
91.64691321168195
 10
99.59792432612934
 20
91.62394949742722
 10
99.59176621804039
 20
91.5999953182351
 10
99.58798737898582
 20
91.57517986518441
 10
99.58669546819793
 20
91.54964309527713
 10
99.58669546819793
 20
91.54964309527713
 10
99.58798737898582
 20
91.52409555944664
 10
99.59177698396363
 20
91.49929087231916
 10
99.59792432612934
 20
91.47533669312705
 10
99.60633251217385
 20
91.45236221294908
 10
99.6168508191719
 20
91.43050738878729
 10
99.6293715878912
 20
91.409879879874
 10
99.64376562725293
 20
91.39061964321121
 10
99.65990374617832
 20
91.37285586987774
 10
99.67765675358856
 20
91.35669621910588
 10
99.6969062243281
 20
91.34229141382093
 10
99.71752296731816
 20
91.32974911325518
 10
99.73939932332642
 20
91.3191985084874
 10
99.76238456942761
 20
91.31077955651966
 10
99.78637104638943
 20
91.3046106825075
 10
99.81121879720982
 20
91.30081031160645
 10
99.8368201626565
 20
91.29951840081857
  0
ELLIPSE
  5
8B
330
1F
100
AcDbEntity
  8
ISS138金台
  6
Continuous
 62
   250
420
  2367521
100
AcDbEllipse
 10
99.8368201626565
 20
91.54964309527713
 30
0.0
 11
-1.093306277184042E-8
 21
0.2501193114969482
 31
0.0
210
0.0
220
0.0
230
1.0
 40
0.9993113095878619
 41
0.0
 42
6.283185307179586
  0
HATCH
  5
8C
330
1F
100
AcDbEntity
  8
ISS138金台
  6
Continuous
 62
   250
420
  2367521
370
    13
100
AcDbHatch
 10
0.0
 20
0.0
 30
0.0
210
0.0
220
0.0
230
1.0
  2
SOLID
 70
     1
 71
     0
 91
        1
 92
        3
 72
     0
 73
     1
 93
       67
 10
101.0935802111918
 20
91.29951840081857
 10
101.1191169810991
 20
91.30081031160645
 10
101.1439109023033
 20
91.3046106825075
 10
101.1678543155722
 20
91.31076879059643
 10
101.1908072639037
 20
91.31920927441064
 10
101.2126190243725
 20
91.32974911325518
 10
101.2332250014394
 20
91.34229141382093
 10
101.2524529403325
 20
91.35669621910588
 10
101.2701951818195
 20
91.37285586987774
 10
101.2863117688984
 20
91.39061964321121
 10
101.3006842764136
 20
91.409879879874
 10
101.3131942792097
 20
91.43050738878729
 10
101.323723352131
 20
91.45236221294908
 10
101.3321207722523
 20
91.47533669312705
 10
101.3382788803412
 20
91.49929087231916
 10
101.3420577193958
 20
91.52410632536986
 10
101.3433496301837
 20
91.54964309527713
 10
101.3433496301837
 20
91.54964309527713
 10
101.342068485319
 20
91.57517986518441
 10
101.338268114418
 20
91.59998455231188
 10
101.3321207722523
 20
91.62393873150398
 10
101.323723352131
 20
91.64691321168195
 10
101.3131942792097
 20
91.66876803584374
 10
101.3006842764136
 20
91.68939554475705
 10
101.2863117688984
 20
91.70865578141982
 10
101.2701951818195
 20
91.72641955475329
 10
101.2524529403325
 20
91.74257920552515
 10
101.2332250014394
 20
91.7569840108101
 10
101.2126297902958
 20
91.76952631137587
 10
101.1907964979804
 20
91.78007691614363
 10
101.1678435496489
 20
91.78849586811137
 10
101.1439109023033
 20
91.79466474212353
 10
101.1191169810991
 20
91.79846511302458
 10
101.0935802111918
 20
91.79975702381248
 10
101.0935802111918
 20
91.79975702381248
 10
101.0679788457451
 20
91.79846511302458
 10
101.0431310949247
 20
91.79467550804677
 10
101.0191446179629
 20
91.78849586811137
 10
100.9961593718617
 20
91.78007691614363
 10
100.9742830158535
 20
91.76952631137587
 10
100.9536662728634
 20
91.7569840108101
 10
100.9344168021238
 20
91.74257920552515
 10
100.9166637947136
 20
91.72641955475329
 10
100.9005256757882
 20
91.70865578141982
 10
100.8861316364265
 20
91.68939554475705
 10
100.8736108677072
 20
91.66877880176698
 10
100.8630925607091
 20
91.64691321168195
 10
100.8546843746646
 20
91.62394949742722
 10
100.8485370324989
 20
91.5999953182351
 10
100.8447474275211
 20
91.57517986518441
 10
100.8434555167332
 20
91.54964309527713
 10
100.8434555167332
 20
91.54964309527713
 10
100.8447474275211
 20
91.52409555944664
 10
100.8485262665757
 20
91.49929087231916
 10
100.8546843746646
 20
91.47533669312705
 10
100.8630925607091
 20
91.45236221294908
 10
100.8736108677072
 20
91.43050738878729
 10
100.8861316364265
 20
91.409879879874
 10
100.9005256757882
 20
91.39061964321121
 10
100.9166637947136
 20
91.37285586987774
 10
100.9344168021238
 20
91.35669621910588
 10
100.9536662728634
 20
91.34229141382093
 10
100.9742937817767
 20
91.32974911325518
 10
100.9961593718617
 20
91.3191985084874
 10
101.0191446179629
 20
91.31077955651966
 10
101.0431310949247
 20
91.3046106825075
 10
101.0679788457451
 20
91.30081031160645
 97
        0
 75
     1
 76
     1
 98
        0
  0
LWPOLYLINE
  5
8D
330
1F
100
AcDbEntity
  8
ISS138金台
  6
Continuous
 62
   250
420
  2367521
370
    13
100
AcDbPolyline
 90
       68
 70
     0
 43
0.0
 10
101.0935802111918
 20
91.29951840081857
 10
101.1191169810991
 20
91.30081031160645
 10
101.1439109023033
 20
91.3046106825075
 10
101.1678543155722
 20
91.31076879059643
 10
101.1908072639037
 20
91.31920927441064
 10
101.2126190243725
 20
91.32974911325518
 10
101.2332250014394
 20
91.34229141382093
 10
101.2524529403325
 20
91.35669621910588
 10
101.2701951818195
 20
91.37285586987774
 10
101.2863117688984
 20
91.39061964321121
 10
101.3006842764136
 20
91.409879879874
 10
101.3131942792097
 20
91.43050738878729
 10
101.323723352131
 20
91.45236221294908
 10
101.3321207722523
 20
91.47533669312705
 10
101.3382788803412
 20
91.49929087231916
 10
101.3420577193958
 20
91.52410632536986
 10
101.3433496301837
 20
91.54964309527713
 10
101.3433496301837
 20
91.54964309527713
 10
101.342068485319
 20
91.57517986518441
 10
101.338268114418
 20
91.59998455231188
 10
101.3321207722523
 20
91.62393873150398
 10
101.323723352131
 20
91.64691321168195
 10
101.3131942792097
 20
91.66876803584374
 10
101.3006842764136
 20
91.68939554475705
 10
101.2863117688984
 20
91.70865578141982
 10
101.2701951818195
 20
91.72641955475329
 10
101.2524529403325
 20
91.74257920552515
 10
101.2332250014394
 20
91.7569840108101
 10
101.2126297902958
 20
91.76952631137587
 10
101.1907964979804
 20
91.78007691614363
 10
101.1678435496489
 20
91.78849586811137
 10
101.1439109023033
 20
91.79466474212353
 10
101.1191169810991
 20
91.79846511302458
 10
101.0935802111918
 20
91.79975702381248
 10
101.0935802111918
 20
91.79975702381248
 10
101.0679788457451
 20
91.79846511302458
 10
101.0431310949247
 20
91.79467550804677
 10
101.0191446179629
 20
91.78849586811137
 10
100.9961593718617
 20
91.78007691614363
 10
100.9742830158535
 20
91.76952631137587
 10
100.9536662728634
 20
91.7569840108101
 10
100.9344168021238
 20
91.74257920552515
 10
100.9166637947136
 20
91.72641955475329
 10
100.9005256757882
 20
91.70865578141982
 10
100.8861316364265
 20
91.68939554475705
 10
100.8736108677072
 20
91.66877880176698
 10
100.8630925607091
 20
91.64691321168195
 10
100.8546843746646
 20
91.62394949742722
 10
100.8485370324989
 20
91.5999953182351
 10
100.8447474275211
 20
91.57517986518441
 10
100.8434555167332
 20
91.54964309527713
 10
100.8434555167332
 20
91.54964309527713
 10
100.8447474275211
 20
91.52409555944664
 10
100.8485262665757
 20
91.49929087231916
 10
100.8546843746646
 20
91.47533669312705
 10
100.8630925607091
 20
91.45236221294908
 10
100.8736108677072
 20
91.43050738878729
 10
100.8861316364265
 20
91.409879879874
 10
100.9005256757882
 20
91.39061964321121
 10
100.9166637947136
 20
91.37285586987774
 10
100.9344168021238
 20
91.35669621910588
 10
100.9536662728634
 20
91.34229141382093
 10
100.9742937817767
 20
91.32974911325518
 10
100.9961593718617
 20
91.3191985084874
 10
101.0191446179629
 20
91.31077955651966
 10
101.0431310949247
 20
91.3046106825075
 10
101.0679788457451
 20
91.30081031160645
 10
101.0935802111918
 20
91.29951840081857
  0
ELLIPSE
  5
8E
330
1F
100
AcDbEntity
  8
ISS138金台
  6
Continuous
 62
   250
420
  2367521
100
AcDbEllipse
 10
101.0935802111918
 20
91.54964309527713
 30
0.0
 11
-1.093306277184042E-8
 21
0.2501193114969482
 31
0.0
210
0.0
220
0.0
230
1.0
 40
0.9993113095878619
 41
0.0
 42
6.283185307179586
  0
TEXT
  5
8F
330
1F
100
AcDbEntity
  8
ISS138金台
  6
Continuous
 62
   250
420
  2367521
100
AcDbText
 10
103.6505192766587
 20
90.91125941820563
 30
0.0
 40
2.150533301035563
  1
1.  5
 41
0.4561193943023681
  7
MS Gothic
100
AcDbText
  0
TEXT
  5
90
330
1F
100
AcDbEntity
  8
ISS138金台
  6
Continuous
 62
   250
420
  2367521
100
AcDbText
 10
92.44875590119113
 20
100.9423189723822
 30
0.0
 40
2.150533301035563
  1
7
 50
90.00000250447816
 41
1.024999618530273
  7
MS Gothic
100
AcDbText
  0
TEXT
  5
91
330
1F
100
AcDbEntity
  8
ISS138金台
  6
Continuous
 62
   250
420
  2367521
100
AcDbText
 10
118.2907968345616
 20
130.9961613464371
 30
0.0
 40
2.150533301035563
  1
40
 41
0.976001739501953
  7
MS Gothic
100
AcDbText
  0
TEXT
  5
92
330
1F
100
AcDbEntity
  8
ISS138金台
  6
Continuous
 62
   250
420
  2367521
100
AcDbText
 10
150.0214574867583
 20
106.5426661104957
 30
0.0
 40
2.150533301035563
  1
20
 50
90.00000250447816
 41
0.9460029602050779
  7
MS Gothic
100
AcDbText
  0
LINE
  5
93
330
1F
100
AcDbEntity
  8
ISS138金台
  6
UserDefined01
 62
   140
420
    44526
370
    13
100
AcDbLine
 10
129.9620911471235
 20
125.1115797962241
 30
0.0
 11
139.9280632196719
 21
125.1115797962241
 31
0.0
  0
TEXT
  5
94
330
1F
100
AcDbEntity
  8
ISS138金台
  6
Continuous
 62
   140
420
    44526
100
AcDbText
 10
133.722391281893
 20
125.9007329073378
 30
0.0
 40
1.881716638406118
  1
10
 41
1.108752659388951
  7
MS Gothic
100
AcDbText
  0
LINE
  5
95
330
1F
100
AcDbEntity
  8
ISS138金台
  6
UserDefined01
 62
   140
420
    44526
370
    13
100
AcDbLine
 10
147.3181266700178
 20
108.178246717204
 30
0.0
 11
147.3181266700178
 21
118.1442187897523
 31
0.0
  0
TEXT
  5
96
330
1F
100
AcDbEntity
  8
ISS138金台
  6
Continuous
 62
   140
420
    44526
100
AcDbText
 10
146.528962792981
 20
111.9385360708303
 30
0.0
 40
1.881716638406118
  1
10
 50
90.00000250447816
 41
1.108752659388951
  7
MS Gothic
100
AcDbText
  0
HATCH
  5
97
330
1F
100
AcDbEntity
  8
ISS138金台
  6
Continuous
 62
   140
420
    44526
370
    50
100
AcDbHatch
 10
0.0
 20
0.0
 30
0.0
210
0.0
220
0.0
230
1.0
  2
SOLID
 70
     1
 71
     0
 91
        1
 92
        3
 72
     0
 73
     1
 93
        3
 10
129.0959941549227
 20
120.2973926703109
 10
130.8281343097082
 20
120.2966821193776
 10
129.9627694002872
 20
118.7980871372727
 97
        0
 75
     1
 76
     1
 98
        0
  0
LWPOLYLINE
  5
98
330
1F
100
AcDbEntity
  8
ISS138金台
  6
Continuous
 62
   140
420
    44526
370
    50
100
AcDbPolyline
 90
        4
 70
     0
 43
0.0
 10
129.0959941549227
 20
120.2973926703109
 10
130.8281343097082
 20
120.2966821193776
 10
129.9627694002872
 20
118.7980871372727
 10
129.0959941549227
 20
120.2973926703109
  0
HATCH
  5
99
330
1F
100
AcDbEntity
  8
ISS138金台
  6
Continuous
 62
   140
420
    44526
370
    50
100
AcDbHatch
 10
0.0
 20
0.0
 30
0.0
210
0.0
220
0.0
230
1.0
  2
SOLID
 70
     1
 71
     0
 91
        1
 92
        3
 72
     0
 73
     1
 93
        3
 10
141.8690192214733
 20
108.9561492662849
 10
141.8683086705399
 20
107.2240091114994
 10
140.3700689639016
 20
108.0893740209204
 97
        0
 75
     1
 76
     1
 98
        0
  0
LWPOLYLINE
  5
9A
330
1F
100
AcDbEntity
  8
ISS138金台
  6
Continuous
 62
   140
420
    44526
370
    50
100
AcDbPolyline
 90
        4
 70
     0
 43
0.0
 10
141.8690192214733
 20
108.9561492662849
 10
141.8683086705399
 20
107.2240091114994
 10
140.3700689639016
 20
108.0893740209204
 10
141.8690192214733
 20
108.9561492662849
  0
TEXT
  5
9B
330
1F
100
AcDbEntity
  8
ISS138金台
  6
Continuous
 62
   250
420
  2367521
100
AcDbText
 10
128.9037578296848
 20
121.0500493016667
 30
0.0
 40
1.881716638406118
  1
①
 41
0.9479980468749999
  7
MS Gothic
100
AcDbText
  0
TEXT
  5
9C
330
1F
100
AcDbEntity
  8
ISS138金台
  6
Continuous
 62
   250
420
  2367521
100
AcDbText
 10
142.5375615223594
 20
107.2186909176773
 30
0.0
 40
1.881716638406118
  1
②
 41
0.9479980468749999
  7
MS Gothic
100
AcDbText
  0
ENDSEC
  0
SECTION
  2
OBJECTS
  0
DICTIONARY
  5
C
330
0
100
AcDbDictionary
281
     1
  3
ACAD_DETAILVIEWSTYLE
350
A4
  3
ACAD_GROUP
350
D
  3
ACAD_LAYOUT
350
1A
  3
ACAD_MATERIAL
350
43
  3
ACAD_MLEADERSTYLE
350
5B
  3
ACAD_MLINESTYLE
350
17
  3
ACAD_PLOTSETTINGS
350
19
  3
ACAD_PLOTSTYLENAME
350
E
  3
ACAD_SCALELIST
350
47
  3
ACAD_SECTIONVIEWSTYLE
350
A5
  3
ACAD_TABLESTYLE
350
59
  3
ACAD_VISUALSTYLE
350
2A
  3
ACDB_RECOMPOSE_DATA
350
A1
  3
AcDbVariableDictionary
350
9D
  0
SUN
  5
5D
330
29
100
AcDbSun
 90
        1
290
     0
 63
     7
421
 16777215
 40
1.0
291
     1
 91
  2455826
 92
 54000000
292
     0
 70
     2
 71
   256
280
     1
  0
DICTIONARY
  5
A4
102
{ACAD_REACTORS
330
C
102
}
330
C
100
AcDbDictionary
281
     1
  0
DICTIONARY
  5
D
102
{ACAD_REACTORS
330
C
102
}
330
C
100
AcDbDictionary
281
     1
  0
DICTIONARY
  5
1A
102
{ACAD_REACTORS
330
C
102
}
330
C
100
AcDbDictionary
281
     1
  3
Layout1
350
1E
  3
Layout2
350
26
  3
Model
350
22
  0
DICTIONARY
  5
43
102
{ACAD_REACTORS
330
C
102
}
330
C
100
AcDbDictionary
281
     1
  3
ByBlock
350
45
  3
ByLayer
350
44
  3
Global
350
46
  0
DICTIONARY
  5
5B
102
{ACAD_REACTORS
330
C
102
}
330
C
100
AcDbDictionary
281
     1
  3
Standard
350
5C
  0
DICTIONARY
  5
17
102
{ACAD_REACTORS
330
C
102
}
330
C
100
AcDbDictionary
281
     1
  3
Standard
350
18
  0
DICTIONARY
  5
19
102
{ACAD_REACTORS
330
C
102
}
330
C
100
AcDbDictionary
281
     1
  0
ACDBDICTIONARYWDFLT
  5
E
102
{ACAD_REACTORS
330
C
102
}
330
C
100
AcDbDictionary
281
     1
  3
Normal
350
F
100
AcDbDictionaryWithDefault
340
F
  0
DICTIONARY
  5
47
102
{ACAD_REACTORS
330
C
102
}
330
C
100
AcDbDictionary
281
     1
  3
A0
350
48
  3
A1
350
49
  3
A2
350
4A
  3
A3
350
4B
  3
A4
350
4C
  3
A5
350
4D
  3
A6
350
4E
  3
A7
350
4F
  3
A8
350
50
  3
A9
350
51
  3
B0
350
52
  3
B1
350
53
  3
B2
350
54
  3
B3
350
55
  3
B4
350
56
  3
B5
350
57
  3
B6
350
58
  0
DICTIONARY
  5
A5
102
{ACAD_REACTORS
330
C
102
}
330
C
100
AcDbDictionary
281
     1
  0
DICTIONARY
  5
59
102
{ACAD_REACTORS
330
C
102
}
330
C
100
AcDbDictionary
281
     1
  3
Standard
350
5A
  0
DICTIONARY
  5
2A
102
{ACAD_REACTORS
330
C
102
}
330
C
100
AcDbDictionary
281
     1
  3
2dWireframe
350
2F
  3
Basic
350
32
  3
Brighten
350
36
  3
ColorChange
350
3A
  3
Conceptual
350
34
  3
Dim
350
35
  3
EdgeColorOff
350
3D
  3
Facepattern
350
39
  3
Flat
350
2B
  3
FlatWithEdges
350
2C
  3
Gouraud
350
2D
  3
GouraudWithEdges
350
2E
  3
Hidden
350
31
  3
JitterOff
350
3B
  3
Linepattern
350
38
  3
OverhangOff
350
3C
  3
Realistic
350
33
  3
Shaded
350
42
  3
Shaded with edges
350
41
  3
Shades of Gray
350
3E
  3
Sketchy
350
3F
  3
Thicken
350
37
  3
Wireframe
350
30
  3
X-Ray
350
40
  0
XRECORD
  5
A1
102
{ACAD_REACTORS
330
C
102
}
330
C
100
AcDbXrecord
280
     1
 90
        1
330
5A
  0
DICTIONARY
  5
9D
102
{ACAD_REACTORS
330
C
102
}
330
C
100
AcDbDictionary
281
     1
  3
CANNOSCALE
350
9E
  3
CENTEREXE
350
A6
  3
CENTERLTYPEFILE
350
A7
  3
CMLEADERSTYLE
350
A3
  3
CTABLESTYLE
350
A2
  0
LAYOUT
  5
1E
102
{ACAD_REACTORS
330
1A
102
}
330
1A
100
AcDbPlotSettings
  1

  2
none_device
  4

  6

 40
0.0
 41
0.0
 42
0.0
 43
0.0
 44
0.0
 45
0.0
 46
0.0
 47
0.0
 48
0.0
 49
0.0
140
0.0
141
0.0
142
1.0
143
1.0
 70
   688
 72
     1
 73
     0
 74
     5
  7

 75
    16
 76
     0
 77
     5
 78
   300
147
1.0
148
0.0
149
0.0
100
AcDbLayout
  1
Layout1
 70
     1
 71
     1
 10
0.0
 20
0.0
 11
420.0
 21
297.0
 12
0.0
 22
0.0
 32
0.0
 14
1.000000000000000E+20
 24
1.000000000000000E+20
 34
1.000000000000000E+20
 15
-1.000000000000000E+20
 25
-1.000000000000000E+20
 35
-1.000000000000000E+20
146
0.0
 13
0.0
 23
0.0
 33
0.0
 16
1.0
 26
0.0
 36
0.0
 17
0.0
 27
1.0
 37
0.0
 76
     0
330
1B
  0
LAYOUT
  5
26
102
{ACAD_REACTORS
330
1A
102
}
330
1A
100
AcDbPlotSettings
  1

  2
none_device
  4

  6

 40
0.0
 41
0.0
 42
0.0
 43
0.0
 44
0.0
 45
0.0
 46
0.0
 47
0.0
 48
0.0
 49
0.0
140
0.0
141
0.0
142
1.0
143
1.0
 70
   688
 72
     1
 73
     0
 74
     5
  7

 75
    16
 76
     0
 77
     5
 78
   300
147
1.0
148
0.0
149
0.0
100
AcDbLayout
  1
Layout2
 70
     1
 71
     2
 10
0.0
 20
0.0
 11
0.0
 21
0.0
 12
0.0
 22
0.0
 32
0.0
 14
0.0
 24
0.0
 34
0.0
 15
0.0
 25
0.0
 35
0.0
146
0.0
 13
0.0
 23
0.0
 33
0.0
 16
1.0
 26
0.0
 36
0.0
 17
0.0
 27
1.0
 37
0.0
 76
     0
330
23
  0
LAYOUT
  5
22
102
{ACAD_REACTORS
330
1A
102
}
330
1A
100
AcDbPlotSettings
  1

  2
none_device
  4
Letter_(8.50_x_11.00_Inches)
  6

 40
6.35
 41
6.35
 42
6.35000508
 43
6.35000508
 44
215.9
 45
279.4
 46
0.0
 47
0.0
 48
0.0
 49
0.0
140
0.0
141
0.0
142
1.0
143
1.0
 70
  1712
 72
     1
 73
     0
 74
     0
  7

 75
     0
 76
     0
 77
     5
 78
   300
147
1.0
148
0.0
149
0.0
100
AcDbLayout
  1
Model
 70
     1
 71
     0
 10
0.0
 20
0.0
 11
302.9997823349792
 21
216.0016055409748
 12
0.0
 22
0.0
 32
0.0
 14
0.0
 24
0.0
 34
0.0
 15
302.9997823349792
 25
216.0016055409748
 35
0.0
146
0.0
 13
0.0
 23
0.0
 33
0.0
 16
1.0
 26
0.0
 36
0.0
 17
0.0
 27
1.0
 37
0.0
 76
     0
330
1F
331
29
  0
MATERIAL
  5
45
102
{ACAD_REACTORS
330
43
102
}
330
43
100
AcDbMaterial
  1
ByBlock
 72
     1
 94
      127
  0
MATERIAL
  5
44
102
{ACAD_REACTORS
330
43
102
}
330
43
100
AcDbMaterial
  1
ByLayer
 72
     1
 94
      127
  0
MATERIAL
  5
46
102
{ACAD_REACTORS
330
43
102
}
330
43
100
AcDbMaterial
  1
Global
 72
     1
 94
      127
  0
MLEADERSTYLE
  5
5C
102
{ACAD_REACTORS
330
5B
102
}
330
5B
100
AcDbMLeaderStyle
179
     2
170
     2
171
     1
172
     0
 90
        2
 40
0.0
 41
0.0
173
     1
 91
-1056964608
340
14
 92
       -2
290
     1
 42
2.0
291
     1
 43
8.0
  3
Standard
341
0
 44
4.0
300

342
11
174
     1
178
     6
175
     1
176
     0
 93
-1056964608
 45
4.0
292
     0
297
     0
 46
4.0
343
0
 94
-1056964608
 47
1.0
 49
1.0
140
1.0
293
     1
141
0.0
294
     1
177
     0
142
1.0
295
     0
296
     0
143
3.75
271
     0
272
     9
273
     9
298
     0
  0
MLINESTYLE
  5
18
102
{ACAD_REACTORS
330
17
102
}
330
17
100
AcDbMlineStyle
  2
Standard
 70
     0
  3

 62
   256
 51
90.0
 52
90.0
 71
     2
 49
0.5
 62
   256
  6
BYLAYER
 49
-0.5
 62
   256
  6
BYLAYER
  0
ACDBPLACEHOLDER
  5
F
102
{ACAD_REACTORS
330
E
102
}
330
E
  0
SCALE
  5
48
102
{ACAD_REACTORS
330
47
102
}
330
47
100
AcDbScale
 70
     0
300
1:1
140
1.0
141
1.0
290
     1
  0
SCALE
  5
49
102
{ACAD_REACTORS
330
47
102
}
330
47
100
AcDbScale
 70
     0
300
1:2
140
1.0
141
2.0
290
     0
  0
SCALE
  5
4A
102
{ACAD_REACTORS
330
47
102
}
330
47
100
AcDbScale
 70
     0
300
1:4
140
1.0
141
4.0
290
     0
  0
SCALE
  5
4B
102
{ACAD_REACTORS
330
47
102
}
330
47
100
AcDbScale
 70
     0
300
1:5
140
1.0
141
5.0
290
     0
  0
SCALE
  5
4C
102
{ACAD_REACTORS
330
47
102
}
330
47
100
AcDbScale
 70
     0
300
1:8
140
1.0
141
8.0
290
     0
  0
SCALE
  5
4D
102
{ACAD_REACTORS
330
47
102
}
330
47
100
AcDbScale
 70
     0
300
1:10
140
1.0
141
10.0
290
     0
  0
SCALE
  5
4E
102
{ACAD_REACTORS
330
47
102
}
330
47
100
AcDbScale
 70
     0
300
1:16
140
1.0
141
16.0
290
     0
  0
SCALE
  5
4F
102
{ACAD_REACTORS
330
47
102
}
330
47
100
AcDbScale
 70
     0
300
1:20
140
1.0
141
20.0
290
     0
  0
SCALE
  5
50
102
{ACAD_REACTORS
330
47
102
}
330
47
100
AcDbScale
 70
     0
300
1:30
140
1.0
141
30.0
290
     0
  0
SCALE
  5
51
102
{ACAD_REACTORS
330
47
102
}
330
47
100
AcDbScale
 70
     0
300
1:40
140
1.0
141
40.0
290
     0
  0
SCALE
  5
52
102
{ACAD_REACTORS
330
47
102
}
330
47
100
AcDbScale
 70
     0
300
1:50
140
1.0
141
50.0
290
     0
  0
SCALE
  5
53
102
{ACAD_REACTORS
330
47
102
}
330
47
100
AcDbScale
 70
     0
300
1:100
140
1.0
141
100.0
290
     0
  0
SCALE
  5
54
102
{ACAD_REACTORS
330
47
102
}
330
47
100
AcDbScale
 70
     0
300
2:1
140
2.0
141
1.0
290
     0
  0
SCALE
  5
55
102
{ACAD_REACTORS
330
47
102
}
330
47
100
AcDbScale
 70
     0
300
4:1
140
4.0
141
1.0
290
     0
  0
SCALE
  5
56
102
{ACAD_REACTORS
330
47
102
}
330
47
100
AcDbScale
 70
     0
300
8:1
140
8.0
141
1.0
290
     0
  0
SCALE
  5
57
102
{ACAD_REACTORS
330
47
102
}
330
47
100
AcDbScale
 70
     0
300
10:1
140
10.0
141
1.0
290
     0
  0
SCALE
  5
58
102
{ACAD_REACTORS
330
47
102
}
330
47
100
AcDbScale
 70
     0
300
100:1
140
100.0
141
1.0
290
     0
  0
TABLESTYLE
  5
5A
102
{ACAD_REACTORS
330
59
102
}
102
{ACAD_XDICTIONARY
360
9F
102
}
330
59
100
AcDbTableStyle
  3
Standard
 70
     0
 71
     0
 40
0.06
 41
0.06
280
     0
281
     0
  7
Standard
140
4.5
170
     2
 62
     0
 63
   257
283
     0
 90
        4
 91
        0
  1

274
    -2
284
     1
 64
     0
275
    -2
285
     1
 65
     0
276
    -2
286
     1
 66
     0
277
    -2
287
     1
 67
     0
278
    -2
288
     1
 68
     0
279
    -2
289
     1
 69
     0
  7
Standard
140
6.0
170
     5
 62
     0
 63
   257
283
     0
 90
        4
 91
        0
  1

274
    -2
284
     1
 64
     0
275
    -2
285
     1
 65
     0
276
    -2
286
     1
 66
     0
277
    -2
287
     1
 67
     0
278
    -2
288
     1
 68
     0
279
    -2
289
     1
 69
     0
  7
Standard
140
4.5
170
     5
 62
     0
 63
   257
283
     0
 90
        4
 91
        0
  1

274
    -2
284
     1
 64
     0
275
    -2
285
     1
 65
     0
276
    -2
286
     1
 66
     0
277
    -2
287
     1
 67
     0
278
    -2
288
     1
 68
     0
279
    -2
289
     1
 69
     0
  0
VISUALSTYLE
  5
2F
102
{ACAD_REACTORS
330
2A
102
}
330
2A
100
AcDbVisualStyle
  2
2dWireframe
 70
     4
177
     3
291
     0
 70
    58
 90
        0
176
     1
 90
        2
176
     1
 90
        0
176
     1
 90
        0
176
     1
 40
0.6
176
     1
 40
30.0
176
     1
 62
     7
420
 16777215
176
     1
 90
        1
176
     1
 90
        4
176
     1
 62
     7
176
     1
 62
   257
176
     1
 90
        1
176
     1
 90
        1
176
     1
 40
1.0
176
     1
 90
        0
176
     1
 62
   257
176
     1
 40
1.0
176
     1
 90
        1
176
     1
 90
        6
176
     1
 90
        2
176
     1
 62
     7
176
     1
 90
        5
176
     1
 90
        0
176
     1
 90
        0
176
     1
290
     0
176
     1
 90
        1
176
     1
 40
0.0
176
     1
 90
        0
176
     1
290
     1
176
     1
290
     1
176
     1
290
     0
176
     1
290
     0
176
     1
290
     0
176
     1
290
     0
176
     1
290
     0
176
     1
290
     0
176
     1
290
     0
176
     1
 90
       50
176
     1
 40
0.0
176
     1
 40
1.0
176
     1
 90
        0
176
     1
 62
    18
420
        0
176
     1
 90
       50
176
     1
 90
        3
176
     1
 62
     5
420
      255
176
     1
290
     0
176
     1
 90
       50
176
     1
 90
       50
176
     1
 90
       50
176
     1
290
     0
176
     1
 90
       50
176
     1
 62
   256
176
     0
 40
1.0
176
     0
 90
        2
176
     1
  1
strokes_ogs.tif
176
     1
290
     0
176
     1
 40
1.0
176
     1
 40
1.0
176
     1
  0
VISUALSTYLE
  5
32
102
{ACAD_REACTORS
330
2A
102
}
330
2A
100
AcDbVisualStyle
  2
Basic
 70
     7
177
     3
291
     1
 70
    58
 90
        1
176
     1
 90
        0
176
     1
 90
        1
176
     1
 90
        0
176
     1
 40
0.6
176
     1
 40
30.0
176
     1
 62
     7
420
 16777215
176
     1
 90
        0
176
     1
 90
        4
176
     1
 62
     7
176
     1
 62
   257
176
     1
 90
        1
176
     1
 90
        1
176
     1
 40
1.0
176
     1
 90
        8
176
     1
 62
     7
176
     1
 40
1.0
176
     1
 90
        1
176
     1
 90
        6
176
     1
 90
        2
176
     1
 62
     7
176
     1
 90
        5
176
     1
 90
        0
176
     1
 90
        0
176
     1
290
     0
176
     1
 90
        1
176
     1
 40
0.0
176
     1
 90
        0
176
     1
290
     0
176
     1
290
     1
176
     1
290
     1
176
     1
290
     0
176
     1
290
     0
176
     1
290
     0
176
     1
290
     0
176
     1
290
     0
176
     1
290
     0
176
     1
 90
       50
176
     1
 40
0.0
176
     1
 40
1.0
176
     1
 90
        0
176
     1
 62
    18
420
        0
176
     1
 90
       50
176
     1
 90
        3
176
     1
 62
     5
420
      255
176
     1
290
     0
176
     1
 90
       50
176
     1
 90
       50
176
     1
 90
       50
176
     1
290
     0
176
     1
 90
       50
176
     1
 62
   256
176
     0
 40
1.0
176
     0
 90
        2
176
     1
  1
strokes_ogs.tif
176
     1
290
     0
176
     1
 40
1.0
176
     1
 40
1.0
176
     1
  0
VISUALSTYLE
  5
36
102
{ACAD_REACTORS
330
2A
102
}
330
2A
100
AcDbVisualStyle
  2
Brighten
 70
    12
177
     3
291
     1
 70
    58
 90
        2
176
     1
 90
        2
176
     1
 90
        0
176
     1
 90
        0
176
     1
 40
0.6
176
     1
 40
30.0
176
     1
 62
     7
420
 16777215
176
     1
 90
        1
176
     1
 90
        4
176
     1
 62
     7
176
     1
 62
   257
176
     1
 90
        1
176
     1
 90
        1
176
     1
 40
1.0
176
     1
 90
        8
176
     1
 62
     7
176
     1
 40
1.0
176
     1
 90
        1
176
     1
 90
        6
176
     1
 90
        2
176
     1
 62
     7
176
     1
 90
        5
176
     1
 90
        0
176
     1
 90
        0
176
     1
290
     0
176
     1
 90
        1
176
     1
 40
50.0
176
     1
 90
        0
176
     1
290
     0
176
     1
290
     1
176
     1
290
     1
176
     1
290
     0
176
     1
290
     0
176
     1
290
     0
176
     1
290
     0
176
     1
290
     0
176
     1
290
     0
176
     1
 90
       50
176
     1
 40
0.0
176
     1
 40
1.0
176
     1
 90
        0
176
     1
 62
    18
420
        0
176
     1
 90
       50
176
     1
 90
        3
176
     1
 62
     5
420
      255
176
     1
290
     0
176
     1
 90
       50
176
     1
 90
       50
176
     1
 90
       50
176
     1
290
     0
176
     1
 90
       50
176
     1
 62
   256
176
     0
 40
1.0
176
     0
 90
        2
176
     1
  1
strokes_ogs.tif
176
     1
290
     0
176
     1
 40
1.0
176
     1
 40
1.0
176
     1
  0
VISUALSTYLE
  5
3A
102
{ACAD_REACTORS
330
2A
102
}
330
2A
100
AcDbVisualStyle
  2
ColorChange
 70
    16
177
     3
291
     1
 70
    58
 90
        2
176
     1
 90
        2
176
     1
 90
        3
176
     1
 90
        0
176
     1
 40
0.6
176
     1
 40
30.0
176
     1
 62
     8
420
  8421504
176
     1
 90
        1
176
     1
 90
        4
176
     1
 62
     7
176
     1
 62
   257
176
     1
 90
        1
176
     1
 90
        1
176
     1
 40
1.0
176
     1
 90
        8
176
     1
 62
     8
420
  8421504
176
     1
 40
1.0
176
     1
 90
        1
176
     1
 90
        6
176
     1
 90
        2
176
     1
 62
     7
176
     1
 90
        5
176
     1
 90
        0
176
     1
 90
        0
176
     1
290
     0
176
     1
 90
        1
176
     1
 40
0.0
176
     1
 90
        0
176
     1
290
     0
176
     1
290
     1
176
     1
290
     1
176
     1
290
     0
176
     1
290
     0
176
     1
290
     0
176
     1
290
     0
176
     1
290
     0
176
     1
290
     0
176
     1
 90
       50
176
     1
 40
0.0
176
     1
 40
1.0
176
     1
 90
        0
176
     1
 62
    18
420
        0
176
     1
 90
       50
176
     1
 90
        3
176
     1
 62
     5
420
      255
176
     1
290
     0
176
     1
 90
       50
176
     1
 90
       50
176
     1
 90
       50
176
     1
290
     0
176
     1
 90
       50
176
     1
 62
   256
176
     0
 40
1.0
176
     0
 90
        2
176
     1
  1
strokes_ogs.tif
176
     1
290
     0
176
     1
 40
1.0
176
     1
 40
1.0
176
     1
  0
VISUALSTYLE
  5
34
102
{ACAD_REACTORS
330
2A
102
}
330
2A
100
AcDbVisualStyle
  2
Conceptual
 70
     9
177
     3
291
     0
 70
    58
 90
        3
176
     1
 90
        2
176
     1
 90
        0
176
     1
 90
        0
176
     1
 40
0.6
176
     1
 40
30.0
176
     1
 62
     7
420
 16777215
176
     1
 90
        2
176
     1
 90
        2
176
     1
 62
     7
176
     1
 62
   257
176
     1
 90
        1
176
     1
 90
        1
176
     1
 40
179.0
176
     1
 90
        8
176
     1
 62
     7
176
     1
 40
1.0
176
     1
 90
        1
176
     1
 90
        6
176
     1
 90
        2
176
     1
 62
     7
176
     1
 90
        3
176
     1
 90
        0
176
     1
 90
        0
176
     1
290
     0
176
     1
 90
        1
176
     1
 40
0.0
176
     1
 90
        0
176
     1
290
     0
176
     1
290
     1
176
     1
290
     1
176
     1
290
     0
176
     1
290
     0
176
     1
290
     0
176
     1
290
     0
176
     1
290
     0
176
     1
290
     0
176
     1
 90
       50
176
     1
 40
0.0
176
     1
 40
1.0
176
     1
 90
        0
176
     1
 62
    18
420
        0
176
     1
 90
       50
176
     1
 90
        3
176
     1
 62
     5
420
      255
176
     1
290
     0
176
     1
 90
       50
176
     1
 90
       50
176
     1
 90
       50
176
     1
290
     0
176
     1
 90
       50
176
     1
 62
   256
176
     0
 40
1.0
176
     0
 90
        2
176
     1
  1
strokes_ogs.tif
176
     1
290
     0
176
     1
 40
1.0
176
     1
 40
1.0
176
     1
  0
VISUALSTYLE
  5
35
102
{ACAD_REACTORS
330
2A
102
}
330
2A
100
AcDbVisualStyle
  2
Dim
 70
    11
177
     3
291
     1
 70
    58
 90
        2
176
     1
 90
        2
176
     1
 90
        0
176
     1
 90
        0
176
     1
 40
0.6
176
     1
 40
30.0
176
     1
 62
     7
420
 16777215
176
     1
 90
        1
176
     1
 90
        4
176
     1
 62
     7
176
     1
 62
   257
176
     1
 90
        1
176
     1
 90
        1
176
     1
 40
1.0
176
     1
 90
        8
176
     1
 62
     7
176
     1
 40
1.0
176
     1
 90
        1
176
     1
 90
        6
176
     1
 90
        2
176
     1
 62
     7
176
     1
 90
        5
176
     1
 90
        0
176
     1
 90
        0
176
     1
290
     0
176
     1
 90
        1
176
     1
 40
-50.0
176
     1
 90
        0
176
     1
290
     0
176
     1
290
     1
176
     1
290
     1
176
     1
290
     0
176
     1
290
     0
176
     1
290
     0
176
     1
290
     0
176
     1
290
     0
176
     1
290
     0
176
     1
 90
       50
176
     1
 40
0.0
176
     1
 40
1.0
176
     1
 90
        0
176
     1
 62
    18
420
        0
176
     1
 90
       50
176
     1
 90
        3
176
     1
 62
     5
420
      255
176
     1
290
     0
176
     1
 90
       50
176
     1
 90
       50
176
     1
 90
       50
176
     1
290
     0
176
     1
 90
       50
176
     1
 62
   256
176
     0
 40
1.0
176
     0
 90
        2
176
     1
  1
strokes_ogs.tif
176
     1
290
     0
176
     1
 40
1.0
176
     1
 40
1.0
176
     1
  0
VISUALSTYLE
  5
3D
102
{ACAD_REACTORS
330
2A
102
}
330
2A
100
AcDbVisualStyle
  2
EdgeColorOff
 70
    22
177
     3
291
     1
 70
    58
 90
        2
176
     0
 90
        2
176
     0
 90
        0
176
     0
 90
        0
176
     0
 40
0.6
176
     0
 40
30.0
176
     0
 62
     7
420
 16777215
176
     0
 90
        1
176
     0
 90
        4
176
     0
 62
     7
176
     0
 62
   257
176
     0
 90
        1
176
     0
 90
        1
176
     0
 40
1.0
176
     0
 90
        8
176
     2
 62
     7
176
     0
 40
1.0
176
     0
 90
        1
176
     0
 90
        6
176
     0
 90
        2
176
     0
 62
     7
176
     0
 90
        5
176
     0
 90
        0
176
     0
 90
        0
176
     0
290
     0
176
     0
 90
        1
176
     0
 40
0.0
176
     0
 90
        0
176
     0
290
     0
176
     0
290
     1
176
     0
290
     1
176
     0
290
     0
176
     0
290
     0
176
     0
290
     0
176
     0
290
     0
176
     0
290
     0
176
     0
290
     0
176
     0
 90
       50
176
     0
 40
0.0
176
     0
 40
1.0
176
     0
 90
        0
176
     0
 62
    18
420
        0
176
     0
 90
       50
176
     0
 90
        3
176
     0
 62
     5
420
      255
176
     0
290
     0
176
     0
 90
       50
176
     0
 90
       50
176
     0
 90
       50
176
     0
290
     0
176
     0
 90
       50
176
     0
 62
   256
176
     0
 40
1.0
176
     0
 90
        2
176
     0
  1
strokes_ogs.tif
176
     0
290
     0
176
     0
 40
1.0
176
     0
 40
1.0
176
     0
  0
VISUALSTYLE
  5
39
102
{ACAD_REACTORS
330
2A
102
}
330
2A
100
AcDbVisualStyle
  2
Facepattern
 70
    15
177
     3
291
     1
 70
    58
 90
        2
176
     1
 90
        2
176
     1
 90
        0
176
     1
 90
        0
176
     1
 40
0.6
176
     1
 40
30.0
176
     1
 62
     7
420
 16777215
176
     1
 90
        1
176
     1
 90
        4
176
     1
 62
     7
176
     1
 62
   257
176
     1
 90
        1
176
     1
 90
        1
176
     1
 40
1.0
176
     1
 90
        8
176
     1
 62
     7
176
     1
 40
1.0
176
     1
 90
        1
176
     1
 90
        6
176
     1
 90
        2
176
     1
 62
     7
176
     1
 90
        5
176
     1
 90
        0
176
     1
 90
        0
176
     1
290
     0
176
     1
 90
        1
176
     1
 40
0.0
176
     1
 90
        0
176
     1
290
     0
176
     1
290
     1
176
     1
290
     1
176
     1
290
     0
176
     1
290
     0
176
     1
290
     0
176
     1
290
     0
176
     1
290
     0
176
     1
290
     0
176
     1
 90
       50
176
     1
 40
0.0
176
     1
 40
1.0
176
     1
 90
        0
176
     1
 62
    18
420
        0
176
     1
 90
       50
176
     1
 90
        3
176
     1
 62
     5
420
      255
176
     1
290
     0
176
     1
 90
       50
176
     1
 90
       50
176
     1
 90
       50
176
     1
290
     0
176
     1
 90
       50
176
     1
 62
   256
176
     0
 40
1.0
176
     0
 90
        2
176
     1
  1
strokes_ogs.tif
176
     1
290
     0
176
     1
 40
1.0
176
     1
 40
1.0
176
     1
  0
VISUALSTYLE
  5
2B
102
{ACAD_REACTORS
330
2A
102
}
330
2A
100
AcDbVisualStyle
  2
Flat
 70
     0
177
     3
291
     1
 70
    58
 90
        2
176
     1
 90
        1
176
     1
 90
        1
176
     1
 90
        2
176
     1
 40
0.6
176
     1
 40
30.0
176
     1
 62
     7
420
 16777215
176
     1
 90
        0
176
     1
 90
        0
176
     1
 62
     7
176
     1
 62
   257
176
     1
 90
        1
176
     1
 90
        1
176
     1
 40
1.0
176
     1
 90
        8
176
     1
 62
     7
176
     1
 40
1.0
176
     1
 90
        1
176
     1
 90
        6
176
     1
 90
        2
176
     1
 62
     7
176
     1
 90
        5
176
     1
 90
        0
176
     1
 90
        0
176
     1
290
     0
176
     1
 90
       13
176
     1
 40
0.0
176
     1
 90
        0
176
     1
290
     0
176
     1
290
     1
176
     1
290
     1
176
     1
290
     0
176
     1
290
     0
176
     1
290
     0
176
     1
290
     0
176
     1
290
     0
176
     1
290
     0
176
     1
 90
       50
176
     1
 40
0.0
176
     1
 40
1.0
176
     1
 90
        0
176
     1
 62
    18
420
        0
176
     1
 90
       50
176
     1
 90
        3
176
     1
 62
     5
420
      255
176
     1
290
     0
176
     1
 90
       50
176
     1
 90
       50
176
     1
 90
       50
176
     1
290
     0
176
     1
 90
       50
176
     1
 62
   256
176
     0
 40
1.0
176
     0
 90
        2
176
     1
  1
strokes_ogs.tif
176
     1
290
     0
176
     1
 40
1.0
176
     1
 40
1.0
176
     1
  0
VISUALSTYLE
  5
2C
102
{ACAD_REACTORS
330
2A
102
}
330
2A
100
AcDbVisualStyle
  2
FlatWithEdges
 70
     1
177
     3
291
     1
 70
    58
 90
        2
176
     1
 90
        1
176
     1
 90
        1
176
     1
 90
        2
176
     1
 40
0.6
176
     1
 40
30.0
176
     1
 62
     7
420
 16777215
176
     1
 90
        1
176
     1
 90
        0
176
     1
 62
     7
176
     1
 62
   257
176
     1
 90
        1
176
     1
 90
        1
176
     1
 40
1.0
176
     1
 90
        0
176
     1
 62
   257
176
     1
 40
1.0
176
     1
 90
        1
176
     1
 90
        6
176
     1
 90
        2
176
     1
 62
     7
176
     1
 90
        5
176
     1
 90
        0
176
     1
 90
        0
176
     1
290
     0
176
     1
 90
       13
176
     1
 40
0.0
176
     1
 90
        0
176
     1
290
     0
176
     1
290
     1
176
     1
290
     1
176
     1
290
     0
176
     1
290
     0
176
     1
290
     0
176
     1
290
     0
176
     1
290
     0
176
     1
290
     0
176
     1
 90
       50
176
     1
 40
0.0
176
     1
 40
1.0
176
     1
 90
        0
176
     1
 62
    18
420
        0
176
     1
 90
       50
176
     1
 90
        3
176
     1
 62
     5
420
      255
176
     1
290
     0
176
     1
 90
       50
176
     1
 90
       50
176
     1
 90
       50
176
     1
290
     0
176
     1
 90
       50
176
     1
 62
   256
176
     0
 40
1.0
176
     0
 90
        2
176
     1
  1
strokes_ogs.tif
176
     1
290
     0
176
     1
 40
1.0
176
     1
 40
1.0
176
     1
  0
VISUALSTYLE
  5
2D
102
{ACAD_REACTORS
330
2A
102
}
330
2A
100
AcDbVisualStyle
  2
Gouraud
 70
     2
177
     3
291
     1
 70
    58
 90
        2
176
     1
 90
        2
176
     1
 90
        1
176
     1
 90
        2
176
     1
 40
0.6
176
     1
 40
30.0
176
     1
 62
     7
420
 16777215
176
     1
 90
        0
176
     1
 90
        0
176
     1
 62
     7
176
     1
 62
   257
176
     1
 90
        1
176
     1
 90
        1
176
     1
 40
1.0
176
     1
 90
        0
176
     1
 62
     7
176
     1
 40
1.0
176
     1
 90
        1
176
     1
 90
        6
176
     1
 90
        2
176
     1
 62
     7
176
     1
 90
        5
176
     1
 90
        0
176
     1
 90
        0
176
     1
290
     0
176
     1
 90
       13
176
     1
 40
0.0
176
     1
 90
        0
176
     1
290
     0
176
     1
290
     1
176
     1
290
     1
176
     1
290
     0
176
     1
290
     0
176
     1
290
     0
176
     1
290
     0
176
     1
290
     0
176
     1
290
     0
176
     1
 90
       50
176
     1
 40
0.0
176
     1
 40
1.0
176
     1
 90
        0
176
     1
 62
    18
420
        0
176
     1
 90
       50
176
     1
 90
        3
176
     1
 62
     5
420
      255
176
     1
290
     0
176
     1
 90
       50
176
     1
 90
       50
176
     1
 90
       50
176
     1
290
     0
176
     1
 90
       50
176
     1
 62
   256
176
     0
 40
1.0
176
     0
 90
        2
176
     1
  1
strokes_ogs.tif
176
     1
290
     0
176
     1
 40
1.0
176
     1
 40
1.0
176
     1
  0
VISUALSTYLE
  5
2E
102
{ACAD_REACTORS
330
2A
102
}
330
2A
100
AcDbVisualStyle
  2
GouraudWithEdges
 70
     3
177
     3
291
     1
 70
    58
 90
        2
176
     1
 90
        2
176
     1
 90
        1
176
     1
 90
        2
176
     1
 40
0.6
176
     1
 40
30.0
176
     1
 62
     7
420
 16777215
176
     1
 90
        1
176
     1
 90
        0
176
     1
 62
     7
176
     1
 62
   257
176
     1
 90
        1
176
     1
 90
        1
176
     1
 40
1.0
176
     1
 90
        0
176
     1
 62
   257
176
     1
 40
1.0
176
     1
 90
        1
176
     1
 90
        6
176
     1
 90
        2
176
     1
 62
     7
176
     1
 90
        5
176
     1
 90
        0
176
     1
 90
        0
176
     1
290
     0
176
     1
 90
       13
176
     1
 40
0.0
176
     1
 90
        0
176
     1
290
     0
176
     1
290
     1
176
     1
290
     1
176
     1
290
     0
176
     1
290
     0
176
     1
290
     0
176
     1
290
     0
176
     1
290
     0
176
     1
290
     0
176
     1
 90
       50
176
     1
 40
0.0
176
     1
 40
1.0
176
     1
 90
        0
176
     1
 62
    18
420
        0
176
     1
 90
       50
176
     1
 90
        3
176
     1
 62
     5
420
      255
176
     1
290
     0
176
     1
 90
       50
176
     1
 90
       50
176
     1
 90
       50
176
     1
290
     0
176
     1
 90
       50
176
     1
 62
   256
176
     0
 40
1.0
176
     0
 90
        2
176
     1
  1
strokes_ogs.tif
176
     1
290
     0
176
     1
 40
1.0
176
     1
 40
1.0
176
     1
  0
VISUALSTYLE
  5
31
102
{ACAD_REACTORS
330
2A
102
}
330
2A
100
AcDbVisualStyle
  2
Hidden
 70
     6
177
     3
291
     0
 70
    58
 90
        1
176
     1
 90
        2
176
     1
 90
        2
176
     1
 90
        0
176
     1
 40
0.6
176
     1
 40
30.0
176
     1
 62
     7
420
 16777215
176
     1
 90
        2
176
     1
 90
        2
176
     1
 62
     7
176
     1
 62
   257
176
     1
 90
        2
176
     1
 90
        1
176
     1
 40
40.0
176
     1
 90
        0
176
     1
 62
   257
176
     1
 40
1.0
176
     1
 90
        1
176
     1
 90
        6
176
     1
 90
        2
176
     1
 62
     7
176
     1
 90
        3
176
     1
 90
        0
176
     1
 90
        0
176
     1
290
     0
176
     1
 90
        1
176
     1
 40
0.0
176
     1
 90
        0
176
     1
290
     0
176
     1
290
     1
176
     1
290
     1
176
     1
290
     0
176
     1
290
     0
176
     1
290
     0
176
     1
290
     0
176
     1
290
     0
176
     1
290
     0
176
     1
 90
       50
176
     1
 40
0.0
176
     1
 40
1.0
176
     1
 90
        0
176
     1
 62
    18
420
        0
176
     1
 90
       50
176
     1
 90
        3
176
     1
 62
     5
420
      255
176
     1
290
     0
176
     1
 90
       50
176
     1
 90
       50
176
     1
 90
       50
176
     1
290
     0
176
     1
 90
       50
176
     1
 62
   256
176
     0
 40
1.0
176
     0
 90
        2
176
     1
  1
strokes_ogs.tif
176
     1
290
     0
176
     1
 40
1.0
176
     1
 40
1.0
176
     1
  0
VISUALSTYLE
  5
3B
102
{ACAD_REACTORS
330
2A
102
}
330
2A
100
AcDbVisualStyle
  2
JitterOff
 70
    20
177
     3
291
     1
 70
    58
 90
        2
176
     0
 90
        2
176
     0
 90
        0
176
     0
 90
        0
176
     0
 40
0.6
176
     0
 40
30.0
176
     0
 62
     7
420
 16777215
176
     0
 90
        1
176
     0
 90
        4
176
     0
 62
     7
176
     0
 62
   257
176
     0
 90
        1
176
     0
 90
        1
176
     0
 40
1.0
176
     0
 90
       10
176
     2
 62
     7
176
     0
 40
1.0
176
     0
 90
        1
176
     0
 90
        6
176
     0
 90
        2
176
     0
 62
     7
176
     0
 90
        5
176
     0
 90
        0
176
     0
 90
        0
176
     0
290
     0
176
     0
 90
        1
176
     0
 40
0.0
176
     0
 90
        0
176
     0
290
     0
176
     0
290
     1
176
     0
290
     1
176
     0
290
     0
176
     0
290
     0
176
     0
290
     0
176
     0
290
     0
176
     0
290
     0
176
     0
290
     0
176
     0
 90
       50
176
     0
 40
0.0
176
     0
 40
1.0
176
     0
 90
        0
176
     0
 62
    18
420
        0
176
     0
 90
       50
176
     0
 90
        3
176
     0
 62
     5
420
      255
176
     0
290
     0
176
     0
 90
       50
176
     0
 90
       50
176
     0
 90
       50
176
     0
290
     0
176
     0
 90
       50
176
     0
 62
   256
176
     0
 40
1.0
176
     0
 90
        2
176
     0
  1
strokes_ogs.tif
176
     0
290
     0
176
     0
 40
1.0
176
     0
 40
1.0
176
     0
  0
VISUALSTYLE
  5
38
102
{ACAD_REACTORS
330
2A
102
}
330
2A
100
AcDbVisualStyle
  2
Linepattern
 70
    14
177
     3
291
     1
 70
    58
 90
        2
176
     1
 90
        2
176
     1
 90
        0
176
     1
 90
        0
176
     1
 40
0.6
176
     1
 40
30.0
176
     1
 62
     7
420
 16777215
176
     1
 90
        1
176
     1
 90
        4
176
     1
 62
     7
176
     1
 62
   257
176
     1
 90
        7
176
     1
 90
        7
176
     1
 40
1.0
176
     1
 90
        8
176
     1
 62
     7
176
     1
 40
1.0
176
     1
 90
        1
176
     1
 90
        6
176
     1
 90
        2
176
     1
 62
     7
176
     1
 90
        5
176
     1
 90
        0
176
     1
 90
        0
176
     1
290
     0
176
     1
 90
        1
176
     1
 40
0.0
176
     1
 90
        0
176
     1
290
     0
176
     1
290
     1
176
     1
290
     1
176
     1
290
     0
176
     1
290
     0
176
     1
290
     0
176
     1
290
     0
176
     1
290
     0
176
     1
290
     0
176
     1
 90
       50
176
     1
 40
0.0
176
     1
 40
1.0
176
     1
 90
        0
176
     1
 62
    18
420
        0
176
     1
 90
       50
176
     1
 90
        3
176
     1
 62
     5
420
      255
176
     1
290
     0
176
     1
 90
       50
176
     1
 90
       50
176
     1
 90
       50
176
     1
290
     0
176
     1
 90
       50
176
     1
 62
   256
176
     0
 40
1.0
176
     0
 90
        2
176
     1
  1
strokes_ogs.tif
176
     1
290
     0
176
     1
 40
1.0
176
     1
 40
1.0
176
     1
  0
VISUALSTYLE
  5
3C
102
{ACAD_REACTORS
330
2A
102
}
330
2A
100
AcDbVisualStyle
  2
OverhangOff
 70
    21
177
     3
291
     1
 70
    58
 90
        2
176
     0
 90
        2
176
     0
 90
        0
176
     0
 90
        0
176
     0
 40
0.6
176
     0
 40
30.0
176
     0
 62
     7
420
 16777215
176
     0
 90
        1
176
     0
 90
        4
176
     0
 62
     7
176
     0
 62
   257
176
     0
 90
        1
176
     0
 90
        1
176
     0
 40
1.0
176
     0
 90
        9
176
     2
 62
     7
176
     0
 40
1.0
176
     0
 90
        1
176
     0
 90
        6
176
     0
 90
        2
176
     0
 62
     7
176
     0
 90
        5
176
     0
 90
        0
176
     0
 90
        0
176
     0
290
     0
176
     0
 90
        1
176
     0
 40
0.0
176
     0
 90
        0
176
     0
290
     0
176
     0
290
     1
176
     0
290
     1
176
     0
290
     0
176
     0
290
     0
176
     0
290
     0
176
     0
290
     0
176
     0
290
     0
176
     0
290
     0
176
     0
 90
       50
176
     0
 40
0.0
176
     0
 40
1.0
176
     0
 90
        0
176
     0
 62
    18
420
        0
176
     0
 90
       50
176
     0
 90
        3
176
     0
 62
     5
420
      255
176
     0
290
     0
176
     0
 90
       50
176
     0
 90
       50
176
     0
 90
       50
176
     0
290
     0
176
     0
 90
       50
176
     0
 62
   256
176
     0
 40
1.0
176
     0
 90
        2
176
     0
  1
strokes_ogs.tif
176
     0
290
     0
176
     0
 40
1.0
176
     0
 40
1.0
176
     0
  0
VISUALSTYLE
  5
33
102
{ACAD_REACTORS
330
2A
102
}
330
2A
100
AcDbVisualStyle
  2
Realistic
 70
     8
177
     3
291
     0
 70
    58
 90
        2
176
     1
 90
        3
176
     1
 90
        0
176
     1
 90
        2
176
     1
 40
0.6
176
     1
 40
30.0
176
     1
 62
     7
420
 16777215
176
     1
 90
        0
176
     1
 90
        0
176
     1
 62
     7
176
     1
 62
   257
176
     1
 90
        1
176
     1
 90
        1
176
     1
 40
1.0
176
     1
 90
        8
176
     1
 62
   257
176
     1
 40
1.0
176
     1
 90
        1
176
     1
 90
        6
176
     1
 90
        2
176
     1
 62
     7
176
     1
 90
        3
176
     1
 90
        0
176
     1
 90
        0
176
     1
290
     0
176
     1
 90
       13
176
     1
 40
0.0
176
     1
 90
        0
176
     1
290
     0
176
     1
290
     1
176
     1
290
     1
176
     1
290
     0
176
     1
290
     0
176
     1
290
     0
176
     1
290
     0
176
     1
290
     0
176
     1
290
     0
176
     1
 90
       50
176
     1
 40
0.0
176
     1
 40
1.0
176
     1
 90
        0
176
     1
 62
    18
420
        0
176
     1
 90
       50
176
     1
 90
        3
176
     1
 62
     5
420
      255
176
     1
290
     0
176
     1
 90
       50
176
     1
 90
       50
176
     1
 90
       50
176
     1
290
     0
176
     1
 90
       50
176
     1
 62
   256
176
     0
 40
1.0
176
     0
 90
        2
176
     1
  1
strokes_ogs.tif
176
     1
290
     0
176
     1
 40
1.0
176
     1
 40
1.0
176
     1
  0
VISUALSTYLE
  5
42
102
{ACAD_REACTORS
330
2A
102
}
330
2A
100
AcDbVisualStyle
  2
Shaded
 70
    27
177
     3
291
     0
 70
    58
 90
        2
176
     1
 90
        2
176
     1
 90
        1
176
     1
 90
        2
176
     1
 40
0.6
176
     1
 40
30.0
176
     1
 62
     7
420
 16777215
176
     1
 90
        0
176
     1
 90
        4
176
     1
 62
     7
176
     1
 62
   257
176
     1
 90
        1
176
     1
 90
        1
176
     1
 40
1.0
176
     1
 90
        8
176
     1
 62
   257
176
     1
 40
1.0
176
     1
 90
        1
176
     1
 90
        6
176
     1
 90
        2
176
     1
 62
     8
420
  7895160
176
     1
 90
        3
176
     1
 90
        0
176
     1
 90
        0
176
     1
290
     0
176
     1
 90
        5
176
     1
 40
0.0
176
     1
 90
        0
176
     1
290
     0
176
     1
290
     1
176
     1
290
     1
176
     1
290
     0
176
     1
290
     0
176
     1
290
     0
176
     1
290
     0
176
     1
290
     0
176
     1
290
     0
176
     1
 90
       50
176
     1
 40
0.0
176
     1
 40
1.0
176
     1
 90
        0
176
     1
 62
    18
420
        0
176
     1
 90
       50
176
     1
 90
        3
176
     1
 62
     5
420
      255
176
     1
290
     0
176
     1
 90
       50
176
     1
 90
       50
176
     1
 90
       50
176
     1
290
     0
176
     1
 90
       50
176
     1
 62
   256
176
     0
 40
1.0
176
     0
 90
        2
176
     1
  1
strokes_ogs.tif
176
     1
290
     0
176
     1
 40
1.0
176
     1
 40
1.0
176
     1
  0
VISUALSTYLE
  5
41
102
{ACAD_REACTORS
330
2A
102
}
330
2A
100
AcDbVisualStyle
  2
Shaded with edges
 70
    26
177
     3
291
     0
 70
    58
 90
        2
176
     1
 90
        2
176
     1
 90
        1
176
     1
 90
        2
176
     1
 40
0.6
176
     1
 40
30.0
176
     1
 62
     7
420
 16777215
176
     1
 90
        1
176
     1
 90
       10
176
     1
 62
     7
176
     1
 62
   257
176
     1
 90
        2
176
     1
 90
        1
176
     1
 40
1.0
176
     1
 90
        8
176
     1
 62
   257
176
     1
 40
1.0
176
     1
 90
        1
176
     1
 90
        6
176
     1
 90
        2
176
     1
 62
     7
176
     1
 90
        3
176
     1
 90
        0
176
     1
 90
        0
176
     1
290
     0
176
     1
 90
        5
176
     1
 40
0.0
176
     1
 90
        0
176
     1
290
     0
176
     1
290
     1
176
     1
290
     1
176
     1
290
     0
176
     1
290
     0
176
     1
290
     0
176
     1
290
     0
176
     1
290
     0
176
     1
290
     0
176
     1
 90
       50
176
     1
 40
0.0
176
     1
 40
1.0
176
     1
 90
        0
176
     1
 62
    18
420
        0
176
     1
 90
       50
176
     1
 90
        3
176
     1
 62
     5
420
      255
176
     1
290
     0
176
     1
 90
       50
176
     1
 90
       50
176
     1
 90
       50
176
     1
290
     0
176
     1
 90
       50
176
     1
 62
   256
176
     0
 40
1.0
176
     0
 90
        2
176
     1
  1
strokes_ogs.tif
176
     1
290
     0
176
     1
 40
1.0
176
     1
 40
1.0
176
     1
  0
VISUALSTYLE
  5
3E
102
{ACAD_REACTORS
330
2A
102
}
330
2A
100
AcDbVisualStyle
  2
Shades of Gray
 70
    23
177
     3
291
     0
 70
    58
 90
        2
176
     1
 90
        2
176
     1
 90
        3
176
     1
 90
        0
176
     1
 40
0.6
176
     1
 40
30.0
176
     1
 62
     7
420
 16777215
176
     1
 90
        2
176
     1
 90
        2
176
     1
 62
     7
176
     1
 62
     7
176
     1
 90
        1
176
     1
 90
        1
176
     1
 40
40.0
176
     1
 90
        8
176
     1
 62
     7
176
     1
 40
1.0
176
     1
 90
        1
176
     1
 90
        6
176
     1
 90
        2
176
     1
 62
     7
176
     1
 90
        3
176
     1
 90
        0
176
     1
 90
        0
176
     1
290
     0
176
     1
 90
        1
176
     1
 40
0.0
176
     1
 90
        0
176
     1
290
     0
176
     1
290
     1
176
     1
290
     1
176
     1
290
     0
176
     1
290
     0
176
     1
290
     0
176
     1
290
     0
176
     1
290
     0
176
     1
290
     0
176
     1
 90
       50
176
     1
 40
0.0
176
     1
 40
1.0
176
     1
 90
        0
176
     1
 62
    18
420
        0
176
     1
 90
       50
176
     1
 90
        3
176
     1
 62
     5
420
      255
176
     1
290
     0
176
     1
 90
       50
176
     1
 90
       50
176
     1
 90
       50
176
     1
290
     0
176
     1
 90
       50
176
     1
 62
   256
176
     0
 40
1.0
176
     0
 90
        2
176
     1
  1
strokes_ogs.tif
176
     1
290
     0
176
     1
 40
1.0
176
     1
 40
1.0
176
     1
  0
VISUALSTYLE
  5
3F
102
{ACAD_REACTORS
330
2A
102
}
330
2A
100
AcDbVisualStyle
  2
Sketchy
 70
    24
177
     3
291
     0
 70
    58
 90
        1
176
     1
 90
        2
176
     1
 90
        2
176
     1
 90
        0
176
     1
 40
0.6
176
     1
 40
30.0
176
     1
 62
     7
420
 16777215
176
     1
 90
        2
176
     1
 90
        2
176
     1
 62
     7
176
     1
 62
     7
176
     1
 90
        1
176
     1
 90
        1
176
     1
 40
40.0
176
     1
 90
       11
176
     1
 62
     7
176
     1
 40
1.0
176
     1
 90
        1
176
     1
 90
        6
176
     1
 90
        2
176
     1
 62
     7
176
     1
 90
        6
176
     1
 90
        0
176
     1
 90
        0
176
     1
290
     0
176
     1
 90
        1
176
     1
 40
0.0
176
     1
 90
        0
176
     1
290
     0
176
     1
290
     1
176
     1
290
     1
176
     1
290
     0
176
     1
290
     0
176
     1
290
     0
176
     1
290
     0
176
     1
290
     0
176
     1
290
     0
176
     1
 90
       50
176
     1
 40
0.0
176
     1
 40
1.0
176
     1
 90
        0
176
     1
 62
    18
420
        0
176
     1
 90
       50
176
     1
 90
        3
176
     1
 62
     5
420
      255
176
     1
290
     0
176
     1
 90
       50
176
     1
 90
       50
176
     1
 90
       50
176
     1
290
     0
176
     1
 90
       50
176
     1
 62
   256
176
     0
 40
1.0
176
     0
 90
        2
176
     1
  1
strokes_ogs.tif
176
     1
290
     0
176
     1
 40
1.0
176
     1
 40
1.0
176
     1
  0
VISUALSTYLE
  5
37
102
{ACAD_REACTORS
330
2A
102
}
330
2A
100
AcDbVisualStyle
  2
Thicken
 70
    13
177
     3
291
     1
 70
    58
 90
        2
176
     1
 90
        2
176
     1
 90
        0
176
     1
 90
        0
176
     1
 40
0.6
176
     1
 40
30.0
176
     1
 62
     7
420
 16777215
176
     1
 90
        1
176
     1
 90
        4
176
     1
 62
     7
176
     1
 62
   257
176
     1
 90
        1
176
     1
 90
        1
176
     1
 40
1.0
176
     1
 90
       12
176
     1
 62
     7
176
     1
 40
1.0
176
     1
 90
        1
176
     1
 90
        6
176
     1
 90
        2
176
     1
 62
     7
176
     1
 90
        5
176
     1
 90
        0
176
     1
 90
        0
176
     1
290
     0
176
     1
 90
        1
176
     1
 40
0.0
176
     1
 90
        0
176
     1
290
     0
176
     1
290
     1
176
     1
290
     1
176
     1
290
     0
176
     1
290
     0
176
     1
290
     0
176
     1
290
     0
176
     1
290
     0
176
     1
290
     0
176
     1
 90
       50
176
     1
 40
0.0
176
     1
 40
1.0
176
     1
 90
        0
176
     1
 62
    18
420
        0
176
     1
 90
       50
176
     1
 90
        3
176
     1
 62
     5
420
      255
176
     1
290
     0
176
     1
 90
       50
176
     1
 90
       50
176
     1
 90
       50
176
     1
290
     0
176
     1
 90
       50
176
     1
 62
   256
176
     0
 40
1.0
176
     0
 90
        2
176
     1
  1
strokes_ogs.tif
176
     1
290
     0
176
     1
 40
1.0
176
     1
 40
1.0
176
     1
  0
VISUALSTYLE
  5
30
102
{ACAD_REACTORS
330
2A
102
}
330
2A
100
AcDbVisualStyle
  2
Wireframe
 70
     5
177
     3
291
     0
 70
    58
 90
        0
176
     1
 90
        2
176
     1
 90
        0
176
     1
 90
        0
176
     1
 40
0.6
176
     1
 40
30.0
176
     1
 62
     7
420
 16777215
176
     1
 90
        1
176
     1
 90
        4
176
     1
 62
     7
176
     1
 62
   257
176
     1
 90
        1
176
     1
 90
        1
176
     1
 40
1.0
176
     1
 90
        0
176
     1
 62
   257
176
     1
 40
1.0
176
     1
 90
        1
176
     1
 90
        6
176
     1
 90
        2
176
     1
 62
     7
176
     1
 90
        3
176
     1
 90
        0
176
     1
 90
        0
176
     1
290
     0
176
     1
 90
        1
176
     1
 40
0.0
176
     1
 90
        0
176
     1
290
     0
176
     1
290
     1
176
     1
290
     1
176
     1
290
     0
176
     1
290
     0
176
     1
290
     0
176
     1
290
     0
176
     1
290
     0
176
     1
290
     0
176
     1
 90
       50
176
     1
 40
0.0
176
     1
 40
1.0
176
     1
 90
        0
176
     1
 62
    18
420
        0
176
     1
 90
       50
176
     1
 90
        3
176
     1
 62
     5
420
      255
176
     1
290
     0
176
     1
 90
       50
176
     1
 90
       50
176
     1
 90
       50
176
     1
290
     0
176
     1
 90
       50
176
     1
 62
   256
176
     0
 40
1.0
176
     0
 90
        2
176
     1
  1
strokes_ogs.tif
176
     1
290
     0
176
     1
 40
1.0
176
     1
 40
1.0
176
     1
  0
VISUALSTYLE
  5
40
102
{ACAD_REACTORS
330
2A
102
}
330
2A
100
AcDbVisualStyle
  2
X-Ray
 70
    25
177
     3
291
     0
 70
    58
 90
        2
176
     1
 90
        2
176
     1
 90
        1
176
     1
 90
        1
176
     1
 40
0.5
176
     1
 40
30.0
176
     1
 62
     7
420
 16777215
176
     1
 90
        1
176
     1
 90
        0
176
     1
 62
     7
176
     1
 62
   257
176
     1
 90
        1
176
     1
 90
        1
176
     1
 40
1.0
176
     1
 90
        8
176
     1
 62
     7
176
     1
 40
1.0
176
     1
 90
        1
176
     1
 90
        6
176
     1
 90
        2
176
     1
 62
     7
176
     1
 90
        3
176
     1
 90
        0
176
     1
 90
        0
176
     1
290
     0
176
     1
 90
       13
176
     1
 40
0.0
176
     1
 90
        0
176
     1
290
     0
176
     1
290
     1
176
     1
290
     1
176
     1
290
     0
176
     1
290
     0
176
     1
290
     0
176
     1
290
     0
176
     1
290
     0
176
     1
290
     0
176
     1
 90
       50
176
     1
 40
0.0
176
     1
 40
1.0
176
     1
 90
        0
176
     1
 62
    18
420
        0
176
     1
 90
       50
176
     1
 90
        3
176
     1
 62
     5
420
      255
176
     1
290
     0
176
     1
 90
       50
176
     1
 90
       50
176
     1
 90
       50
176
     1
290
     0
176
     1
 90
       50
176
     1
 62
   256
176
     0
 40
1.0
176
     0
 90
        2
176
     1
  1
strokes_ogs.tif
176
     1
290
     0
176
     1
 40
1.0
176
     1
 40
1.0
176
     1
  0
DICTIONARYVAR
  5
9E
102
{ACAD_REACTORS
330
9D
102
}
330
9D
100
DictionaryVariables
280
     0
  1
1:1
  0
DICTIONARYVAR
  5
A6
102
{ACAD_REACTORS
330
9D
102
}
330
9D
100
DictionaryVariables
280
     0
  1
3.500000
  0
DICTIONARYVAR
  5
A7
102
{ACAD_REACTORS
330
9D
102
}
330
9D
100
DictionaryVariables
280
     0
  1
acadiso.lin
  0
DICTIONARYVAR
  5
A3
102
{ACAD_REACTORS
330
9D
102
}
330
9D
100
DictionaryVariables
280
     0
  1
Standard
  0
DICTIONARYVAR
  5
A2
102
{ACAD_REACTORS
330
9D
102
}
330
9D
100
DictionaryVariables
280
     0
  1
Standard
  0
DICTIONARY
  5
9F
330
5A
100
AcDbDictionary
280
     1
281
     1
  3
ACAD_ROUNDTRIP_2008_TABLESTYLE_CELLSTYLEMAP
360
A0
  0
CELLSTYLEMAP
  5
A0
102
{ACAD_REACTORS
330
9F
102
}
330
9F
100
AcDbCellStyleMap
 90
        3
300
CELLSTYLE
  1
TABLEFORMAT_BEGIN
 90
        5
170
     1
 91
        0
 92
    32768
 62
   257
 93
        1
300
CONTENTFORMAT
  1
CONTENTFORMAT_BEGIN
 90
        0
 91
        0
 92
        4
 93
        0
300

 40
0.0
140
1.0
 94
        5
 62
     0
340
11
144
6.0
309
CONTENTFORMAT_END
171
     1
301
MARGIN
  1
CELLMARGIN_BEGIN
 40
1.5
 40
1.5
 40
1.5
 40
1.5
 40
1.5
 40
1.5
309
CELLMARGIN_END
 94
        6
 95
        1
302
GRIDFORMAT
  1
GRIDFORMAT_BEGIN
 90
        0
 91
        1
 62
     0
 92
       -2
340
14
 93
        0
 40
0.045
309
GRIDFORMAT_END
 95
        2
302
GRIDFORMAT
  1
GRIDFORMAT_BEGIN
 90
        0
 91
        1
 62
     0
 92
       -2
340
14
 93
        0
 40
0.045
309
GRIDFORMAT_END
 95
        4
302
GRIDFORMAT
  1
GRIDFORMAT_BEGIN
 90
        0
 91
        1
 62
     0
 92
       -2
340
14
 93
        0
 40
0.045
309
GRIDFORMAT_END
 95
        8
302
GRIDFORMAT
  1
GRIDFORMAT_BEGIN
 90
        0
 91
        1
 62
     0
 92
       -2
340
14
 93
        0
 40
0.045
309
GRIDFORMAT_END
 95
       16
302
GRIDFORMAT
  1
GRIDFORMAT_BEGIN
 90
        0
 91
        1
 62
     0
 92
       -2
340
14
 93
        0
 40
0.045
309
GRIDFORMAT_END
 95
       32
302
GRIDFORMAT
  1
GRIDFORMAT_BEGIN
 90
        0
 91
        1
 62
     0
 92
       -2
340
14
 93
        0
 40
0.045
309
GRIDFORMAT_END
309
TABLEFORMAT_END
  1
CELLSTYLE_BEGIN
 90
        1
 91
        1
300
_TITLE
309
CELLSTYLE_END
300
CELLSTYLE
  1
TABLEFORMAT_BEGIN
 90
        5
170
     1
 91
        0
 92
        0
 62
   257
 93
        1
300
CONTENTFORMAT
  1
CONTENTFORMAT_BEGIN
 90
        0
 91
        0
 92
        4
 93
        0
300

 40
0.0
140
1.0
 94
        5
 62
     0
340
11
144
4.5
309
CONTENTFORMAT_END
171
     1
301
MARGIN
  1
CELLMARGIN_BEGIN
 40
1.5
 40
1.5
 40
1.5
 40
1.5
 40
1.5
 40
1.5
309
CELLMARGIN_END
 94
        6
 95
        1
302
GRIDFORMAT
  1
GRIDFORMAT_BEGIN
 90
        0
 91
        1
 62
     0
 92
       -2
340
14
 93
        0
 40
0.045
309
GRIDFORMAT_END
 95
        2
302
GRIDFORMAT
  1
GRIDFORMAT_BEGIN
 90
        0
 91
        1
 62
     0
 92
       -2
340
14
 93
        0
 40
0.045
309
GRIDFORMAT_END
 95
        4
302
GRIDFORMAT
  1
GRIDFORMAT_BEGIN
 90
        0
 91
        1
 62
     0
 92
       -2
340
14
 93
        0
 40
0.045
309
GRIDFORMAT_END
 95
        8
302
GRIDFORMAT
  1
GRIDFORMAT_BEGIN
 90
        0
 91
        1
 62
     0
 92
       -2
340
14
 93
        0
 40
0.045
309
GRIDFORMAT_END
 95
       16
302
GRIDFORMAT
  1
GRIDFORMAT_BEGIN
 90
        0
 91
        1
 62
     0
 92
       -2
340
14
 93
        0
 40
0.045
309
GRIDFORMAT_END
 95
       32
302
GRIDFORMAT
  1
GRIDFORMAT_BEGIN
 90
        0
 91
        1
 62
     0
 92
       -2
340
14
 93
        0
 40
0.045
309
GRIDFORMAT_END
309
TABLEFORMAT_END
  1
CELLSTYLE_BEGIN
 90
        2
 91
        1
300
_HEADER
309
CELLSTYLE_END
300
CELLSTYLE
  1
TABLEFORMAT_BEGIN
 90
        5
170
     1
 91
        0
 92
        0
 62
   257
 93
        1
300
CONTENTFORMAT
  1
CONTENTFORMAT_BEGIN
 90
        0
 91
        0
 92
        4
 93
        0
300

 40
0.0
140
1.0
 94
        2
 62
     0
340
11
144
4.5
309
CONTENTFORMAT_END
171
     1
301
MARGIN
  1
CELLMARGIN_BEGIN
 40
1.5
 40
1.5
 40
1.5
 40
1.5
 40
1.5
 40
1.5
309
CELLMARGIN_END
 94
        6
 95
        1
302
GRIDFORMAT
  1
GRIDFORMAT_BEGIN
 90
        0
 91
        1
 62
     0
 92
       -2
340
14
 93
        0
 40
0.045
309
GRIDFORMAT_END
 95
        2
302
GRIDFORMAT
  1
GRIDFORMAT_BEGIN
 90
        0
 91
        1
 62
     0
 92
       -2
340
14
 93
        0
 40
0.045
309
GRIDFORMAT_END
 95
        4
302
GRIDFORMAT
  1
GRIDFORMAT_BEGIN
 90
        0
 91
        1
 62
     0
 92
       -2
340
14
 93
        0
 40
0.045
309
GRIDFORMAT_END
 95
        8
302
GRIDFORMAT
  1
GRIDFORMAT_BEGIN
 90
        0
 91
        1
 62
     0
 92
       -2
340
14
 93
        0
 40
0.045
309
GRIDFORMAT_END
 95
       16
302
GRIDFORMAT
  1
GRIDFORMAT_BEGIN
 90
        0
 91
        1
 62
     0
 92
       -2
340
14
 93
        0
 40
0.045
309
GRIDFORMAT_END
 95
       32
302
GRIDFORMAT
  1
GRIDFORMAT_BEGIN
 90
        0
 91
        1
 62
     0
 92
       -2
340
14
 93
        0
 40
0.045
309
GRIDFORMAT_END
309
TABLEFORMAT_END
  1
CELLSTYLE_BEGIN
 90
        3
 91
        2
300
_DATA
309
CELLSTYLE_END
  0
ENDSEC
  0
EOF
