  0
SECTION
  2
HEADER
  9
$ACADVER
  1
AC1027
  9
$ACADMAINTVER
 70
   105
  9
$DWGCODEPAGE
  3
ANSI_932
  9
$LASTSAVEDBY
  1
a.yasuda
  9
$REQUIREDVERSIONS
160
                 0
  9
$INSBASE
 10
0.0
 20
0.0
 30
0.0
  9
$EXTMIN
 10
0.0
 20
0.0
 30
0.0
  9
$EXTMAX
 10
302.9997823349792
 20
216.0016055409748
 30
0.0
  9
$LIMMIN
 10
0.0
 20
0.0
  9
$LIMMAX
 10
302.9997823349792
 20
216.0016055409748
  9
$ORTHOMODE
 70
     0
  9
$REGENMODE
 70
     1
  9
$FILLMODE
 70
     1
  9
$QTEXTMODE
 70
     0
  9
$MIRRTEXT
 70
     1
  9
$LTSCALE
 40
1.0
  9
$ATTMODE
 70
     1
  9
$TEXTSIZE
 40
2.5
  9
$TRACEWID
 40
1.0
  9
$TEXTSTYLE
  7
Standard
  9
$CLAYER
  8
0
  9
$CELTYPE
  6
ByLayer
  9
$CECOLOR
 62
   256
  9
$CELTSCALE
 40
1.0
  9
$DISPSILH
 70
     0
  9
$DIMSCALE
 40
1.0
  9
$DIMASZ
 40
2.5
  9
$DIMEXO
 40
0.625
  9
$DIMDLI
 40
3.75
  9
$DIMRND
 40
0.0
  9
$DIMDLE
 40
0.0
  9
$DIMEXE
 40
1.25
  9
$DIMTP
 40
0.0
  9
$DIMTM
 40
0.0
  9
$DIMTXT
 40
2.5
  9
$DIMCEN
 40
2.5
  9
$DIMTSZ
 40
0.0
  9
$DIMTOL
 70
     0
  9
$DIMLIM
 70
     0
  9
$DIMTIH
 70
     0
  9
$DIMTOH
 70
     0
  9
$DIMSE1
 70
     0
  9
$DIMSE2
 70
     0
  9
$DIMTAD
 70
     1
  9
$DIMZIN
 70
     8
  9
$DIMBLK
  1

  9
$DIMASO
 70
     1
  9
$DIMSHO
 70
     1
  9
$DIMPOST
  1

  9
$DIMAPOST
  1

  9
$DIMALT
 70
     0
  9
$DIMALTD
 70
     3
  9
$DIMALTF
 40
0.03937007874016
  9
$DIMLFAC
 40
1.0
  9
$DIMTOFL
 70
     1
  9
$DIMTVP
 40
0.0
  9
$DIMTIX
 70
     0
  9
$DIMSOXD
 70
     0
  9
$DIMSAH
 70
     0
  9
$DIMBLK1
  1

  9
$DIMBLK2
  1

  9
$DIMSTYLE
  2
ISO-25
  9
$DIMCLRD
 70
     0
  9
$DIMCLRE
 70
     0
  9
$DIMCLRT
 70
     0
  9
$DIMTFAC
 40
1.0
  9
$DIMGAP
 40
0.625
  9
$DIMJUST
 70
     0
  9
$DIMSD1
 70
     0
  9
$DIMSD2
 70
     0
  9
$DIMTOLJ
 70
     0
  9
$DIMTZIN
 70
     8
  9
$DIMALTZ
 70
     0
  9
$DIMALTTZ
 70
     0
  9
$DIMUPT
 70
     0
  9
$DIMDEC
 70
     2
  9
$DIMTDEC
 70
     2
  9
$DIMALTU
 70
     2
  9
$DIMALTTD
 70
     3
  9
$DIMTXSTY
  7
Standard
  9
$DIMAUNIT
 70
     0
  9
$DIMADEC
 70
     0
  9
$DIMALTRND
 40
0.0
  9
$DIMAZIN
 70
     0
  9
$DIMDSEP
 70
    44
  9
$DIMATFIT
 70
     3
  9
$DIMFRAC
 70
     0
  9
$DIMLDRBLK
  1

  9
$DIMLUNIT
 70
     2
  9
$DIMLWD
 70
    -2
  9
$DIMLWE
 70
    -2
  9
$DIMTMOVE
 70
     0
  9
$DIMFXL
 40
1.0
  9
$DIMFXLON
 70
     0
  9
$DIMJOGANG
 40
0.7853981633974483
  9
$DIMTFILL
 70
     0
  9
$DIMTFILLCLR
 70
     0
  9
$DIMARCSYM
 70
     0
  9
$DIMLTYPE
  6

  9
$DIMLTEX1
  6

  9
$DIMLTEX2
  6

  9
$DIMTXTDIRECTION
 70
     0
  9
$LUNITS
 70
     2
  9
$LUPREC
 70
     4
  9
$SKETCHINC
 40
1.0
  9
$FILLETRAD
 40
0.0
  9
$AUNITS
 70
     0
  9
$AUPREC
 70
     0
  9
$MENU
  1
.
  9
$ELEVATION
 40
0.0
  9
$PELEVATION
 40
0.0
  9
$THICKNESS
 40
0.0
  9
$LIMCHECK
 70
     0
  9
$CHAMFERA
 40
0.0
  9
$CHAMFERB
 40
0.0
  9
$CHAMFERC
 40
0.0
  9
$CHAMFERD
 40
0.0
  9
$SKPOLY
 70
     0
  9
$TDCREATE
 40
2459866.620511366
  9
$TDUCREATE
 40
2459866.245511366
  9
$TDUPDATE
 40
2459866.620511401
  9
$TDUUPDATE
 40
2459866.245511401
  9
$TDINDWG
 40
0.0000000116
  9
$TDUSRTIMER
 40
0.0000000116
  9
$USRTIMER
 70
     1
  9
$ANGBASE
 50
0.0
  9
$ANGDIR
 70
     0
  9
$PDMODE
 70
     0
  9
$PDSIZE
 40
0.0
  9
$PLINEWID
 40
0.0
  9
$SPLFRAME
 70
     0
  9
$SPLINETYPE
 70
     6
  9
$SPLINESEGS
 70
     8
  9
$HANDSEED
  5
9A
  9
$SURFTAB1
 70
     6
  9
$SURFTAB2
 70
     6
  9
$SURFTYPE
 70
     6
  9
$SURFU
 70
     6
  9
$SURFV
 70
     6
  9
$UCSBASE
  2

  9
$UCSNAME
  2

  9
$UCSORG
 10
0.0
 20
0.0
 30
0.0
  9
$UCSXDIR
 10
1.0
 20
0.0
 30
0.0
  9
$UCSYDIR
 10
0.0
 20
1.0
 30
0.0
  9
$UCSORTHOREF
  2

  9
$UCSORTHOVIEW
 70
     0
  9
$UCSORGTOP
 10
0.0
 20
0.0
 30
0.0
  9
$UCSORGBOTTOM
 10
0.0
 20
0.0
 30
0.0
  9
$UCSORGLEFT
 10
0.0
 20
0.0
 30
0.0
  9
$UCSORGRIGHT
 10
0.0
 20
0.0
 30
0.0
  9
$UCSORGFRONT
 10
0.0
 20
0.0
 30
0.0
  9
$UCSORGBACK
 10
0.0
 20
0.0
 30
0.0
  9
$PUCSBASE
  2

  9
$PUCSNAME
  2

  9
$PUCSORG
 10
0.0
 20
0.0
 30
0.0
  9
$PUCSXDIR
 10
1.0
 20
0.0
 30
0.0
  9
$PUCSYDIR
 10
0.0
 20
1.0
 30
0.0
  9
$PUCSORTHOREF
  2

  9
$PUCSORTHOVIEW
 70
     0
  9
$PUCSORGTOP
 10
0.0
 20
0.0
 30
0.0
  9
$PUCSORGBOTTOM
 10
0.0
 20
0.0
 30
0.0
  9
$PUCSORGLEFT
 10
0.0
 20
0.0
 30
0.0
  9
$PUCSORGRIGHT
 10
0.0
 20
0.0
 30
0.0
  9
$PUCSORGFRONT
 10
0.0
 20
0.0
 30
0.0
  9
$PUCSORGBACK
 10
0.0
 20
0.0
 30
0.0
  9
$USERI1
 70
     0
  9
$USERI2
 70
     0
  9
$USERI3
 70
     0
  9
$USERI4
 70
     0
  9
$USERI5
 70
     0
  9
$USERR1
 40
0.0
  9
$USERR2
 40
0.0
  9
$USERR3
 40
0.0
  9
$USERR4
 40
0.0
  9
$USERR5
 40
0.0
  9
$WORLDVIEW
 70
     1
  9
$SHADEDGE
 70
     3
  9
$SHADEDIF
 70
    70
  9
$TILEMODE
 70
     1
  9
$MAXACTVP
 70
    64
  9
$PINSBASE
 10
0.0
 20
0.0
 30
0.0
  9
$PLIMCHECK
 70
     0
  9
$PEXTMIN
 10
1.000000000000000E+20
 20
1.000000000000000E+20
 30
1.000000000000000E+20
  9
$PEXTMAX
 10
-1.000000000000000E+20
 20
-1.000000000000000E+20
 30
-1.000000000000000E+20
  9
$PLIMMIN
 10
0.0
 20
0.0
  9
$PLIMMAX
 10
420.0
 20
297.0
  9
$UNITMODE
 70
     0
  9
$VISRETAIN
 70
     1
  9
$PLINEGEN
 70
     0
  9
$PSLTSCALE
 70
     1
  9
$TREEDEPTH
 70
  3020
  9
$CMLSTYLE
  2
Standard
  9
$CMLJUST
 70
     0
  9
$CMLSCALE
 40
20.0
  9
$PROXYGRAPHICS
 70
     1
  9
$MEASUREMENT
 70
     1
  9
$CELWEIGHT
370
    -1
  9
$ENDCAPS
280
     0
  9
$JOINSTYLE
280
     0
  9
$LWDISPLAY
290
     0
  9
$INSUNITS
 70
     4
  9
$HYPERLINKBASE
  1

  9
$STYLESHEET
  1

  9
$XEDIT
290
     1
  9
$CEPSNTYPE
380
     0
  9
$PSTYLEMODE
290
     1
  9
$FINGERPRINTGUID
  2
{5ab584b1-f380-4a6c-ac63-96c110b15c23}
  9
$VERSIONGUID
  2
{FAEB1C32-E019-11D5-929B-00C0DF256EC4}
  9
$EXTNAMES
290
     1
  9
$PSVPSCALE
 40
0.0
  9
$OLESTARTUP
290
     0
  9
$SORTENTS
280
   127
  9
$INDEXCTL
280
     0
  9
$HIDETEXT
280
     1
  9
$XCLIPFRAME
280
     2
  9
$HALOGAP
280
     0
  9
$OBSCOLOR
 70
   257
  9
$OBSLTYPE
280
     0
  9
$INTERSECTIONDISPLAY
280
     0
  9
$INTERSECTIONCOLOR
 70
   257
  9
$DIMASSOC
280
     2
  9
$PROJECTNAME
  1

  9
$CAMERADISPLAY
290
     0
  9
$LENSLENGTH
 40
50.0
  9
$CAMERAHEIGHT
 40
0.0
  9
$STEPSPERSEC
 40
2.0
  9
$STEPSIZE
 40
6.0
  9
$3DDWFPREC
 40
2.0
  9
$PSOLWIDTH
 40
5.0
  9
$PSOLHEIGHT
 40
80.0
  9
$LOFTANG1
 40
1.570796326794897
  9
$LOFTANG2
 40
1.570796326794897
  9
$LOFTMAG1
 40
0.0
  9
$LOFTMAG2
 40
0.0
  9
$LOFTPARAM
 70
     7
  9
$LOFTNORMALS
280
     1
  9
$LATITUDE
 40
37.795
  9
$LONGITUDE
 40
-122.394
  9
$NORTHDIRECTION
 40
0.0
  9
$TIMEZONE
 70
 -8000
  9
$LIGHTGLYPHDISPLAY
280
     1
  9
$TILEMODELIGHTSYNCH
280
     1
  9
$CMATERIAL
347
44
  9
$SOLIDHIST
280
     0
  9
$SHOWHIST
280
     1
  9
$DWFFRAME
280
     2
  9
$DGNFRAME
280
     2
  9
$REALWORLDSCALE
290
     1
  9
$INTERFERECOLOR
 62
   256
  9
$CSHADOW
280
     0
  9
$SHADOWPLANELOCATION
 40
0.0
  0
ENDSEC
  0
SECTION
  2
CLASSES
  0
CLASS
  1
ACDBDICTIONARYWDFLT
  2
AcDbDictionaryWithDefault
  3
ObjectDBX Classes
 90
        0
 91
        3
280
     0
281
     0
  0
CLASS
  1
VISUALSTYLE
  2
AcDbVisualStyle
  3
ObjectDBX Classes
 90
     4095
 91
        3
280
     0
281
     0
  0
CLASS
  1
MATERIAL
  2
AcDbMaterial
  3
ObjectDBX Classes
 90
     1153
 91
        3
280
     0
281
     0
  0
CLASS
  1
SCALE
  2
AcDbScale
  3
ObjectDBX Classes
 90
     1153
 91
        3
280
     0
281
     0
  0
CLASS
  1
TABLESTYLE
  2
AcDbTableStyle
  3
ObjectDBX Classes
 90
     4095
 91
        3
280
     0
281
     0
  0
CLASS
  1
MLEADERSTYLE
  2
AcDbMLeaderStyle
  3
ACDB_MLEADERSTYLE_CLASS
 90
     4095
 91
        3
280
     0
281
     0
  0
CLASS
  1
SUN
  2
AcDbSun
  3
SCENEOE
 90
     1153
 91
        3
280
     0
281
     0
  0
CLASS
  1
DICTIONARYVAR
  2
AcDbDictionaryVar
  3
ObjectDBX Classes
 90
        0
 91
        3
280
     0
281
     0
  0
CLASS
  1
CELLSTYLEMAP
  2
AcDbCellStyleMap
  3
ObjectDBX Classes
 90
     1152
 91
        3
280
     0
281
     0
  0
ENDSEC
  0
SECTION
  2
TABLES
  0
TABLE
  2
VPORT
  5
8
330
0
100
AcDbSymbolTable
 70
     1
  0
VPORT
  5
29
330
8
100
AcDbSymbolTableRecord
100
AcDbViewportTableRecord
  2
*Active
 70
     0
 10
0.0
 20
0.0
 11
1.0
 21
1.0
 12
151.4998911674896
 22
108.0008027704874
 13
0.0
 23
0.0
 14
10.0
 24
10.0
 15
10.0
 25
10.0
 16
0.0
 26
0.0
 36
1.0
 17
0.0
 27
0.0
 37
0.0
 40
237.6017660950723
 41
1.402766343222857
 42
50.0
 43
0.0
 44
0.0
 50
0.0
 51
0.0
 71
     0
 72
 10000
 73
     1
 74
     3
 75
     0
 76
     0
 77
     0
 78
     0
281
     0
 65
     1
110
0.0
120
0.0
130
0.0
111
1.0
121
0.0
131
0.0
112
0.0
122
1.0
132
0.0
 79
     0
146
0.0
348
2F
 60
     3
 61
     5
292
     1
282
     1
141
0.0
142
0.0
 63
   250
361
5D
  0
ENDTAB
  0
TABLE
  2
LTYPE
  5
5
330
0
100
AcDbSymbolTable
 70
     3
  0
LTYPE
  5
14
330
5
100
AcDbSymbolTableRecord
100
AcDbLinetypeTableRecord
  2
ByBlock
 70
     0
  3

 72
    65
 73
     0
 40
0.0
  0
LTYPE
  5
15
330
5
100
AcDbSymbolTableRecord
100
AcDbLinetypeTableRecord
  2
ByLayer
 70
     0
  3

 72
    65
 73
     0
 40
0.0
  0
LTYPE
  5
16
330
5
100
AcDbSymbolTableRecord
100
AcDbLinetypeTableRecord
  2
Continuous
 70
     0
  3
Solid line
 72
    65
 73
     0
 40
0.0
  0
LTYPE
  5
5F
330
5
100
AcDbSymbolTableRecord
100
AcDbLinetypeTableRecord
  2
UserDefined01
 70
     0
  3
--------------------------------
 72
    65
 73
     1
 40
0.3527777724795871
 49
0.3527777724795871
 74
     0
  0
LTYPE
  5
60
330
5
100
AcDbSymbolTableRecord
100
AcDbLinetypeTableRecord
  2
UserDefined02
 70
     0
  3
----------------                
 72
    65
 73
     2
 40
0.7055555449591743
 49
0.3527777724795871
 74
     0
 49
-0.3527777724795871
 74
     0
  0
ENDTAB
  0
TABLE
  2
LAYER
  5
2
330
0
100
AcDbSymbolTable
 70
     3
  0
LAYER
  5
10
330
2
100
AcDbSymbolTableRecord
100
AcDbLayerTableRecord
  2
0
 70
     0
 62
     7
  6
Continuous
370
    -3
390
F
347
46
348
0
  0
LAYER
  5
61
330
2
100
AcDbSymbolTableRecord
100
AcDbLayerTableRecord
  2
外枠
 70
     0
 62
     7
  6
Continuous
370
    -3
390
F
347
46
348
0
  0
LAYER
  5
62
330
2
100
AcDbSymbolTableRecord
100
AcDbLayerTableRecord
  2
ISS138金台
 70
     0
 62
     7
  6
Continuous
370
    -3
390
F
347
46
348
0
  0
ENDTAB
  0
TABLE
  2
STYLE
  5
3
330
0
100
AcDbSymbolTable
 70
     2
  0
STYLE
  5
11
330
3
100
AcDbSymbolTableRecord
100
AcDbTextStyleTableRecord
  2
Standard
 70
     0
 40
0.0
 41
1.0
 50
0.0
 71
     0
 42
2.5
  3

  4

  0
STYLE
  5
5E
330
3
100
AcDbSymbolTableRecord
100
AcDbTextStyleTableRecord
  2
MS Gothic
 70
     0
 40
1.0
 41
1.0
 50
0.0
 71
     0
 42
2.5
  3
msgothic.ttc
  4

1001
ACAD
1000
MS Gothic
1071
    32817
  0
ENDTAB
  0
TABLE
  2
VIEW
  5
6
330
0
100
AcDbSymbolTable
 70
     0
  0
ENDTAB
  0
TABLE
  2
UCS
  5
7
330
0
100
AcDbSymbolTable
 70
     0
  0
ENDTAB
  0
TABLE
  2
APPID
  5
9
330
0
100
AcDbSymbolTable
 70
     1
  0
APPID
  5
12
330
9
100
AcDbSymbolTableRecord
100
AcDbRegAppTableRecord
  2
ACAD
 70
     0
  0
ENDTAB
  0
TABLE
  2
DIMSTYLE
  5
A
330
0
100
AcDbSymbolTable
 70
     1
100
AcDbDimStyleTable
  0
DIMSTYLE
105
27
330
A
100
AcDbSymbolTableRecord
100
AcDbDimStyleTableRecord
  2
ISO-25
 70
     0
 41
2.5
 42
0.625
 43
3.75
 44
1.25
 73
     0
 74
     0
 77
     1
 78
     8
140
2.5
141
2.5
143
0.03937007874016
147
0.625
171
     3
172
     1
178
     0
271
     2
272
     2
274
     3
278
    44
283
     0
284
     8
340
11
  0
ENDTAB
  0
TABLE
  2
BLOCK_RECORD
  5
1
330
0
100
AcDbSymbolTable
 70
     1
  0
BLOCK_RECORD
  5
1F
330
1
100
AcDbSymbolTableRecord
100
AcDbBlockTableRecord
  2
*Model_Space
340
22
 70
     0
280
     1
281
     0
  0
BLOCK_RECORD
  5
1B
330
1
100
AcDbSymbolTableRecord
100
AcDbBlockTableRecord
  2
*Paper_Space
340
1E
 70
     0
280
     1
281
     0
  0
BLOCK_RECORD
  5
23
330
1
100
AcDbSymbolTableRecord
100
AcDbBlockTableRecord
  2
*Paper_Space0
340
26
 70
     0
280
     1
281
     0
  0
ENDTAB
  0
ENDSEC
  0
SECTION
  2
BLOCKS
  0
BLOCK
  5
20
330
1F
100
AcDbEntity
  8
0
100
AcDbBlockBegin
  2
*Model_Space
 70
     0
 10
0.0
 20
0.0
 30
0.0
  3
*Model_Space
  1

  0
ENDBLK
  5
21
330
1F
100
AcDbEntity
  8
0
100
AcDbBlockEnd
  0
BLOCK
  5
1C
330
1B
100
AcDbEntity
 67
     1
  8
0
100
AcDbBlockBegin
  2
*Paper_Space
 70
     0
 10
0.0
 20
0.0
 30
0.0
  3
*Paper_Space
  1

  0
ENDBLK
  5
1D
330
1B
100
AcDbEntity
 67
     1
  8
0
100
AcDbBlockEnd
  0
BLOCK
  5
24
330
23
100
AcDbEntity
  8
0
100
AcDbBlockBegin
  2
*Paper_Space0
 70
     0
 10
0.0
 20
0.0
 30
0.0
  3
*Paper_Space0
  1

  0
ENDBLK
  5
25
330
23
100
AcDbEntity
  8
0
100
AcDbBlockEnd
  0
ENDSEC
  0
SECTION
  2
ENTITIES
  0
LWPOLYLINE
  5
63
330
1F
100
AcDbEntity
  8
外枠
  6
Continuous
 62
   250
420
  2367521
370
   100
100
AcDbPolyline
 90
        5
 70
     0
 43
0.0
 10
281.9999662644599
 20
13.29407825637392
 10
20.99981607051935
 20
13.29407825637392
 10
20.99981607051935
 20
193.0018900389566
 10
281.9999662644599
 20
193.0018900389566
 10
281.9999662644599
 20
13.29407825637392
  0
LINE
  5
64
330
1F
100
AcDbEntity
  8
外枠
  6
Continuous
 62
   250
420
  2367521
370
    25
100
AcDbLine
 10
223.3097080177524
 20
174.0786160074276
 30
0.0
 11
281.9999232007669
 21
174.0786160074276
 31
0.0
  0
LINE
  5
65
330
1F
100
AcDbEntity
  8
外枠
  6
Continuous
 62
   250
420
  2367521
370
    25
100
AcDbLine
 10
223.3097080177524
 20
50.37109023844297
 30
0.0
 11
281.9999232007669
 21
50.37109023844297
 31
0.0
  0
LINE
  5
66
330
1F
100
AcDbEntity
  8
外枠
  6
Continuous
 62
   250
420
  2367521
370
    25
100
AcDbLine
 10
223.3097080177524
 20
36.25997933925949
 30
0.0
 11
281.9999232007669
 21
36.25997933925949
 31
0.0
  0
LINE
  5
67
330
1F
100
AcDbEntity
  8
外枠
  6
Continuous
 62
   250
420
  2367521
370
    50
100
AcDbLine
 10
223.0158413772006
 20
193.3637327187979
 30
0.0
 11
223.0158413772006
 21
13.29396655992039
 31
0.0
  0
TEXT
  5
68
330
1F
100
AcDbEntity
  8
外枠
  6
Continuous
 62
   250
420
  2367521
100
AcDbText
 10
224.7190965599536
 20
186.6888051931772
 30
0.0
 40
2.688166626294454
  1
品名：
 41
0.974166170756022
  7
MS Gothic
100
AcDbText
  0
TEXT
  5
69
330
1F
100
AcDbEntity
  8
外枠
  6
Continuous
 62
   250
420
  2367521
100
AcDbText
 10
224.7190965599536
 20
168.1080059455944
 30
0.0
 40
2.688166626294454
  1
仕様：
 41
0.9978878657023111
  7
MS Gothic
100
AcDbText
  0
TEXT
  5
6A
330
1F
100
AcDbEntity
  8
外枠
  6
Continuous
 62
   250
420
  2367521
100
AcDbText
 10
224.7190965599536
 20
44.16660664327048
 30
0.0
 40
2.688166626294454
  1
縮尺：
 41
0.9939999262491861
  7
MS Gothic
100
AcDbText
  0
TEXT
  5
6B
330
1F
100
AcDbEntity
  8
外枠
  6
Continuous
 62
   250
420
  2367521
100
AcDbText
 10
250.2379519709696
 20
40.59738467878129
 30
0.0
 40
2.150533301035563
  1
1/1
 41
1.000003814697266
  7
MS Gothic
100
AcDbText
  0
TEXT
  5
6C
330
1F
100
AcDbEntity
  8
外枠
  6
Continuous
 62
   250
420
  2367521
100
AcDbText
 10
232.7757967427735
 20
181.9845273775436
 30
0.0
 40
2.688166626294454
  1
ヘガタ　S-35A
 41
1.048530109112079
  7
MS Gothic
100
AcDbText
  0
TEXT
  5
6D
330
1F
100
AcDbEntity
  8
外枠
  6
Continuous
 62
   250
420
  2367521
100
AcDbText
 10
226.1633020978884
 20
24.25683874973963
 30
0.0
 40
2.553758294979732
  1
ヤスダインテリアサプライ株式会社
 41
1.0194908945184
  7
MS Gothic
100
AcDbText
  0
TEXT
  5
6E
330
1F
100
AcDbEntity
  8
外枠
  6
Continuous
 62
   250
420
  2367521
100
AcDbText
 10
227.7635273953072
 20
161.7763665048245
 30
0.0
 40
2.150533301035563
  1
材質
 41
1.028502464294433
  7
MS Gothic
100
AcDbText
  0
TEXT
  5
6F
330
1F
100
AcDbEntity
  8
外枠
  6
Continuous
 62
   250
420
  2367521
100
AcDbText
 10
232.7757967427735
 20
156.199681315683
 30
0.0
 40
2.016124969720841
  1
 ステンレスSUS304（18.8CR）/HL仕上
 41
1.066277118757659
  7
MS Gothic
100
AcDbText
  0
LWPOLYLINE
  5
70
330
1F
100
AcDbEntity
  8
ISS138金台
  6
Continuous
 62
   250
420
  2367521
370
   140
100
AcDbPolyline
 90
        3
 70
     0
 43
0.0
 10
136.3940735571709
 20
105.4388467847942
 10
114.0586585822853
 20
105.4388467847942
 10
102.7697590970153
 20
101.4478759788472
  0
LWPOLYLINE
  5
71
330
1F
100
AcDbEntity
  8
ISS138金台
  6
Continuous
 62
     7
420
 16777215
370
   100
100
AcDbPolyline
 90
        3
 70
     0
 43
0.0
 10
136.3940735571709
 20
105.4388467847942
 10
114.0586585822853
 20
105.4388467847942
 10
102.7697590970153
 20
101.4478759788472
  0
LINE
  5
72
330
1F
100
AcDbEntity
  8
ISS138金台
  6
Continuous
 62
   250
420
  2367521
370
    13
100
AcDbLine
 10
137.0555318805701
 20
107.4011839101351
 30
0.0
 11
137.0555318805701
 21
117.2789615395636
 31
0.0
  0
LINE
  5
73
330
1F
100
AcDbEntity
  8
ISS138金台
  6
Continuous
 62
   250
420
  2367521
370
    13
100
AcDbLine
 10
102.0203001171143
 20
117.2789615395636
 30
0.0
 11
102.0203001171143
 21
107.4011839101351
 31
0.0
  0
LINE
  5
74
330
1F
100
AcDbEntity
  8
ISS138金台
  6
Continuous
 62
   250
420
  2367521
370
    13
100
AcDbLine
 10
102.0203001171143
 20
116.7497948808442
 30
0.0
 11
137.055714901265
 21
116.7497948808442
 31
0.0
  0
LINE
  5
75
330
1F
100
AcDbEntity
  8
ISS138金台
  6
Continuous
 62
   250
420
  2367521
370
    13
100
AcDbLine
 10
101.8659490757313
 20
100.3873248812225
 30
0.0
 11
97.17294318172208
 21
98.71198573741114
 31
0.0
  0
LINE
  5
76
330
1F
100
AcDbEntity
  8
ISS138金台
  6
Continuous
 62
   250
420
  2367521
370
    13
100
AcDbLine
 10
96.7431029307449
 20
100.0142210456801
 30
0.0
 11
101.4361088247541
 21
101.6895601894915
 31
0.0
  0
LINE
  5
77
330
1F
100
AcDbEntity
  8
ISS138金台
  6
Continuous
 62
   250
420
  2367521
370
    13
100
AcDbLine
 10
97.1096718508852
 20
100.2078246431685
 30
0.0
 11
97.89283893642681
 21
98.02518443072282
 31
0.0
  0
TEXT
  5
78
330
1F
100
AcDbEntity
  8
ISS138金台
  6
Continuous
 62
   250
420
  2367521
100
AcDbText
 10
97.21421001050952
 20
97.55823110242436
 30
0.0
 40
2.150552271938039
  1
1.2
 50
289.6453459438728
 41
0.9916113957671382
  7
MS Gothic
100
AcDbText
  0
HATCH
  5
79
330
1F
100
AcDbEntity
  8
ISS138金台
  6
Continuous
 62
   250
420
  2367521
370
    13
100
AcDbHatch
 10
0.0
 20
0.0
 30
0.0
210
0.0
220
0.0
230
1.0
  2
SOLID
 70
     1
 71
     0
 91
        1
 92
        3
 72
     0
 73
     1
 93
       67
 10
97.23162822926193
 20
99.88121883006696
 10
97.25529172852677
 20
99.89098352243875
 10
97.27741570076938
 20
99.90289063353379
 10
97.29791401860388
 20
99.91672484488744
 10
97.31674361833737
 20
99.93234619949766
 10
97.3337968407375
 20
99.94960397443921
 10
97.34901985618814
 20
99.96831514901714
 10
97.36231577138015
 20
99.9883290003062
 10
97.37361999077419
 20
100.0095055713043
 10
97.38285715290759
 20
100.0316403094702
 10
97.38996266224098
 20
100.0545932578017
 10
97.39483962546527
 20
100.0782136933736
 10
97.39742344704104
 20
100.1023293614142
 10
97.39763876550569
 20
100.1267680071518
 10
97.39541021939658
 20
100.1513896735843
 10
97.39066244725109
 20
100.1760113400168
 10
97.38332008760659
 20
100.2004822835241
 10
97.38332008760659
 20
100.2004822835241
 10
97.373426204156
 20
100.2240919531727
 10
97.36145449752156
 20
100.2461728617224
 10
97.34755569062852
 20
100.2666496477104
 10
97.33189127232536
 20
100.2854577155975
 10
97.31460119961412
 20
100.3025109379976
 10
97.29587925911295
 20
100.317723187525
 10
97.27585464190068
 20
100.3310298686402
 10
97.25468883682575
 20
100.3423448539575
 10
97.2325433327367
 20
100.3516035479374
 10
97.20957961848197
 20
100.358719823194
 10
97.18595918291007
 20
100.363629084188
 10
97.161821983023
 20
100.3662344376102
 10
97.13732950766926
 20
100.3664605219981
 10
97.11265401162058
 20
100.3642535077355
 10
97.0879462178022
 20
100.3595165015132
 10
97.06335684913938
 20
100.3521741418687
 10
97.06335684913938
 20
100.3521741418687
 10
97.03975794541394
 20
100.3423340880343
 10
97.01769856871073
 20
100.3304054450928
 10
96.99722178272269
 20
100.3165389359694
 10
96.97844601260536
 20
100.300906815436
 10
96.96143585389817
 20
100.2836490404944
 10
96.94625590214046
 20
100.2649270999933
 10
96.9329815187949
 20
100.2449132487042
 10
96.92172036309381
 20
100.2237689754757
 10
96.9125154987301
 20
100.2016450032332
 10
96.90544228716641
 20
100.1787028208249
 10
96.90060838763506
 20
100.1551146830227
 10
96.89805686382897
 20
100.1310205468286
 10
96.89788460905726
 20
100.1065926670142
 10
96.90015621885928
 20
100.0819925324282
 10
96.90495782062095
 20
100.0573816319189
 10
96.91236477580483
 20
100.0329106884116
 10
96.91236477580483
 20
100.0329106884116
 10
96.92219406371603
 20
100.0092471891468
 10
96.93412270665755
 20
99.9871016850577
 10
96.94796768393442
 20
99.96658183537673
 10
96.96358903854465
 20
99.94774146972
 10
96.98082528163974
 20
99.93066671547341
 10
96.99952569029443
 20
99.91543293409956
 10
97.01951800973701
 20
99.90211548706105
 10
97.040640751119
 20
99.89078973582056
 10
97.06275395743836
 20
99.8815310418407
 10
97.0856853739234
 20
99.8744255325073
 10
97.10928427764884
 20
99.86954856928301
 10
97.13337841384296
 20
99.86697551363048
 10
97.15781705958054
 20
99.86677096108906
 10
97.1824494919363
 20
99.86903180496788
 10
97.20710345613851
 20
99.87382264080628
 97
        0
 75
     1
 76
     1
 98
        0
  0
LWPOLYLINE
  5
7A
330
1F
100
AcDbEntity
  8
ISS138金台
  6
Continuous
 62
   250
420
  2367521
370
    13
100
AcDbPolyline
 90
       68
 70
     0
 43
0.0
 10
97.23162822926193
 20
99.88121883006696
 10
97.25529172852677
 20
99.89098352243875
 10
97.27741570076938
 20
99.90289063353379
 10
97.29791401860388
 20
99.91672484488744
 10
97.31674361833737
 20
99.93234619949766
 10
97.3337968407375
 20
99.94960397443921
 10
97.34901985618814
 20
99.96831514901714
 10
97.36231577138015
 20
99.9883290003062
 10
97.37361999077419
 20
100.0095055713043
 10
97.38285715290759
 20
100.0316403094702
 10
97.38996266224098
 20
100.0545932578017
 10
97.39483962546527
 20
100.0782136933736
 10
97.39742344704104
 20
100.1023293614142
 10
97.39763876550569
 20
100.1267680071518
 10
97.39541021939658
 20
100.1513896735843
 10
97.39066244725109
 20
100.1760113400168
 10
97.38332008760659
 20
100.2004822835241
 10
97.38332008760659
 20
100.2004822835241
 10
97.373426204156
 20
100.2240919531727
 10
97.36145449752156
 20
100.2461728617224
 10
97.34755569062852
 20
100.2666496477104
 10
97.33189127232536
 20
100.2854577155975
 10
97.31460119961412
 20
100.3025109379976
 10
97.29587925911295
 20
100.317723187525
 10
97.27585464190068
 20
100.3310298686402
 10
97.25468883682575
 20
100.3423448539575
 10
97.2325433327367
 20
100.3516035479374
 10
97.20957961848197
 20
100.358719823194
 10
97.18595918291007
 20
100.363629084188
 10
97.161821983023
 20
100.3662344376102
 10
97.13732950766926
 20
100.3664605219981
 10
97.11265401162058
 20
100.3642535077355
 10
97.0879462178022
 20
100.3595165015132
 10
97.06335684913938
 20
100.3521741418687
 10
97.06335684913938
 20
100.3521741418687
 10
97.03975794541394
 20
100.3423340880343
 10
97.01769856871073
 20
100.3304054450928
 10
96.99722178272269
 20
100.3165389359694
 10
96.97844601260536
 20
100.300906815436
 10
96.96143585389817
 20
100.2836490404944
 10
96.94625590214046
 20
100.2649270999933
 10
96.9329815187949
 20
100.2449132487042
 10
96.92172036309381
 20
100.2237689754757
 10
96.9125154987301
 20
100.2016450032332
 10
96.90544228716641
 20
100.1787028208249
 10
96.90060838763506
 20
100.1551146830227
 10
96.89805686382897
 20
100.1310205468286
 10
96.89788460905726
 20
100.1065926670142
 10
96.90015621885928
 20
100.0819925324282
 10
96.90495782062095
 20
100.0573816319189
 10
96.91236477580483
 20
100.0329106884116
 10
96.91236477580483
 20
100.0329106884116
 10
96.92219406371603
 20
100.0092471891468
 10
96.93412270665755
 20
99.9871016850577
 10
96.94796768393442
 20
99.96658183537673
 10
96.96358903854465
 20
99.94774146972
 10
96.98082528163974
 20
99.93066671547341
 10
96.99952569029443
 20
99.91543293409956
 10
97.01951800973701
 20
99.90211548706105
 10
97.040640751119
 20
99.89078973582056
 10
97.06275395743836
 20
99.8815310418407
 10
97.0856853739234
 20
99.8744255325073
 10
97.10928427764884
 20
99.86954856928301
 10
97.13337841384296
 20
99.86697551363048
 10
97.15781705958054
 20
99.86677096108906
 10
97.1824494919363
 20
99.86903180496788
 10
97.20710345613851
 20
99.87382264080628
 10
97.23162822926193
 20
99.88121883006696
  0
HATCH
  5
7B
330
1F
100
AcDbEntity
  8
ISS138金台
  6
Continuous
 62
   250
420
  2367521
370
    13
100
AcDbHatch
 10
0.0
 20
0.0
 30
0.0
210
0.0
220
0.0
230
1.0
  2
SOLID
 70
     1
 71
     0
 91
        1
 92
        3
 72
     0
 73
     1
 93
       67
 10
97.69738360014243
 20
98.59449721717587
 10
97.72103633348402
 20
98.60432650508704
 10
97.7431818375731
 20
98.61625514802856
 10
97.7636801554076
 20
98.6301216571519
 10
97.78249898921786
 20
98.64576454360859
 10
97.79955221161799
 20
98.66302231855015
 10
97.81476446114539
 20
98.6817442590513
 10
97.82807114226065
 20
98.70175811034036
 10
97.83937536165467
 20
98.72290238356881
 10
97.84861252378809
 20
98.7450263558114
 10
97.85571803312146
 20
98.76796853821966
 10
97.86059499634575
 20
98.79155667602188
 10
97.86317881792152
 20
98.815650812216
 10
97.86339413638618
 20
98.84007869203035
 10
97.86116559027707
 20
98.8646788266164
 10
97.85641781813158
 20
98.88928972712569
 10
97.84907545848708
 20
98.91376067063297
 10
97.84907545848708
 20
98.91376067063297
 10
97.83924617057588
 20
98.93743493582102
 10
97.82730676171114
 20
98.95954814214039
 10
97.81342948666457
 20
98.98005722589814
 10
97.7977973661311
 20
98.99887605970838
 10
97.7805180593431
 20
99.01591851618528
 10
97.76179611884194
 20
99.03113076571267
 10
97.74176073570642
 20
99.04441591498147
 10
97.72058416470827
 20
99.05570936845228
 10
97.69841712877275
 20
99.06493576466245
 10
97.67543188267155
 20
99.07199821030291
 10
97.65177914932994
 20
99.07686440760395
 10
97.62762041759642
 20
99.0794051654868
 10
97.60311717631944
 20
99.07958818618175
 10
97.5784201484243
 20
99.07731657637973
 10
97.55370158868269
 20
99.07251497461806
 10
97.52911222001987
 20
99.06510801943418
 10
97.52911222001987
 20
99.06510801943418
 10
97.5055025503712
 20
99.05533256113914
 10
97.48343240774476
 20
99.04345774781379
 10
97.46297715360319
 20
99.02963430238339
 10
97.44420138348586
 20
99.01403447961962
 10
97.42718045885542
 20
98.9967874706013
 10
97.41201127302097
 20
98.97810859379307
 10
97.39874765559863
 20
98.95810550842725
 10
97.38746496805106
 20
98.9369612351988
 10
97.37826010368735
 20
98.91482649703298
 10
97.3711976580469
 20
98.8918843146247
 10
97.36636375851555
 20
98.86826387905279
 10
97.36381223470946
 20
98.84413744508896
 10
97.36363997993774
 20
98.81967726750494
 10
97.36591158973978
 20
98.79503406922595
 10
97.37071319150144
 20
98.7703693391005
 10
97.37812014668533
 20
98.74583380005384
 10
97.37812014668533
 20
98.74583380005384
 10
97.38794943459652
 20
98.72223489632839
 10
97.39987807753803
 20
98.70017551962519
 10
97.41374458666138
 20
98.67969873363714
 10
97.42939823904129
 20
98.66092296351982
 10
97.44664524805961
 20
98.64389127296616
 10
97.46536718856078
 20
98.62871132120846
 10
97.48538103984983
 20
98.6154369378629
 10
97.50652531307827
 20
98.60415425031533
 10
97.52864928532088
 20
98.59492785410515
 10
97.55159146772914
 20
98.58784387661822
 10
97.57519037145458
 20
98.58297767931718
 10
97.59927374172548
 20
98.5803938577414
 10
97.62370162153982
 20
98.58017853927676
 10
97.64830175612587
 20
98.58240708538587
 10
97.67291265663516
 20
98.58715485753136
 97
        0
 75
     1
 76
     1
 98
        0
  0
LWPOLYLINE
  5
7C
330
1F
100
AcDbEntity
  8
ISS138金台
  6
Continuous
 62
   250
420
  2367521
370
    13
100
AcDbPolyline
 90
       68
 70
     0
 43
0.0
 10
97.69738360014243
 20
98.59449721717587
 10
97.72103633348402
 20
98.60432650508704
 10
97.7431818375731
 20
98.61625514802856
 10
97.7636801554076
 20
98.6301216571519
 10
97.78249898921786
 20
98.64576454360859
 10
97.79955221161799
 20
98.66302231855015
 10
97.81476446114539
 20
98.6817442590513
 10
97.82807114226065
 20
98.70175811034036
 10
97.83937536165467
 20
98.72290238356881
 10
97.84861252378809
 20
98.7450263558114
 10
97.85571803312146
 20
98.76796853821966
 10
97.86059499634575
 20
98.79155667602188
 10
97.86317881792152
 20
98.815650812216
 10
97.86339413638618
 20
98.84007869203035
 10
97.86116559027707
 20
98.8646788266164
 10
97.85641781813158
 20
98.88928972712569
 10
97.84907545848708
 20
98.91376067063297
 10
97.84907545848708
 20
98.91376067063297
 10
97.83924617057588
 20
98.93743493582102
 10
97.82730676171114
 20
98.95954814214039
 10
97.81342948666457
 20
98.98005722589814
 10
97.7977973661311
 20
98.99887605970838
 10
97.7805180593431
 20
99.01591851618528
 10
97.76179611884194
 20
99.03113076571267
 10
97.74176073570642
 20
99.04441591498147
 10
97.72058416470827
 20
99.05570936845228
 10
97.69841712877275
 20
99.06493576466245
 10
97.67543188267155
 20
99.07199821030291
 10
97.65177914932994
 20
99.07686440760395
 10
97.62762041759642
 20
99.0794051654868
 10
97.60311717631944
 20
99.07958818618175
 10
97.5784201484243
 20
99.07731657637973
 10
97.55370158868269
 20
99.07251497461806
 10
97.52911222001987
 20
99.06510801943418
 10
97.52911222001987
 20
99.06510801943418
 10
97.5055025503712
 20
99.05533256113914
 10
97.48343240774476
 20
99.04345774781379
 10
97.46297715360319
 20
99.02963430238339
 10
97.44420138348586
 20
99.01403447961962
 10
97.42718045885542
 20
98.9967874706013
 10
97.41201127302097
 20
98.97810859379307
 10
97.39874765559863
 20
98.95810550842725
 10
97.38746496805106
 20
98.9369612351988
 10
97.37826010368735
 20
98.91482649703298
 10
97.3711976580469
 20
98.8918843146247
 10
97.36636375851555
 20
98.86826387905279
 10
97.36381223470946
 20
98.84413744508896
 10
97.36363997993774
 20
98.81967726750494
 10
97.36591158973978
 20
98.79503406922595
 10
97.37071319150144
 20
98.7703693391005
 10
97.37812014668533
 20
98.74583380005384
 10
97.37812014668533
 20
98.74583380005384
 10
97.38794943459652
 20
98.72223489632839
 10
97.39987807753803
 20
98.70017551962519
 10
97.41374458666138
 20
98.67969873363714
 10
97.42939823904129
 20
98.66092296351982
 10
97.44664524805961
 20
98.64389127296616
 10
97.46536718856078
 20
98.62871132120846
 10
97.48538103984983
 20
98.6154369378629
 10
97.50652531307827
 20
98.60415425031533
 10
97.52864928532088
 20
98.59492785410515
 10
97.55159146772914
 20
98.58784387661822
 10
97.57519037145458
 20
98.58297767931718
 10
97.59927374172548
 20
98.5803938577414
 10
97.62370162153982
 20
98.58017853927676
 10
97.64830175612587
 20
98.58240708538587
 10
97.67291265663516
 20
98.58715485753136
 10
97.69738360014243
 20
98.59449721717587
  0
TEXT
  5
7D
330
1F
100
AcDbEntity
  8
ISS138金台
  6
Continuous
 62
   250
420
  2367521
100
AcDbText
 10
117.8115409959476
 20
117.8973809747203
 30
0.0
 40
2.150533301035563
  1
35
 41
1.018997192382812
  7
MS Gothic
100
AcDbText
  0
HATCH
  5
7E
330
1F
100
AcDbEntity
  8
ISS138金台
  6
Continuous
 62
   250
420
  2367521
370
    13
100
AcDbHatch
 10
0.0
 20
0.0
 30
0.0
210
0.0
220
0.0
230
1.0
  2
SOLID
 70
     1
 71
     0
 91
        1
 92
        3
 72
     0
 73
     1
 93
       67
 10
137.0555318805701
 20
116.4998532070806
 10
137.0810794164006
 20
116.5011451178685
 10
137.1058841035281
 20
116.5049239569231
 10
137.1298382827202
 20
116.511082065012
 10
137.1528019969749
 20
116.5194794851333
 10
137.17466758706
 20
116.5299977921313
 10
137.19528433005
 20
116.5425077949274
 10
137.2145445667128
 20
116.5568910683659
 10
137.2323191059695
 20
116.5730076554448
 10
137.2484787567413
 20
116.5907391310086
 10
137.2628835620263
 20
116.6099778358249
 10
137.2754258625921
 20
116.6305730469685
 10
137.2859764673598
 20
116.6523955733606
 10
137.2943954193276
 20
116.6753485216921
 10
137.3005642933397
 20
116.6992811690377
 10
137.3043646642408
 20
116.7240858561652
 10
137.3056565750287
 20
116.7496226260725
 10
137.3056565750287
 20
116.7496226260725
 10
137.3043646642408
 20
116.7752132255959
 10
137.3005642933397
 20
116.8000717423395
 10
137.2943954193276
 20
116.8240582193014
 10
137.2859764673598
 20
116.8470434654025
 10
137.2754258625921
 20
116.8689090554876
 10
137.2628943279495
 20
116.8895257984776
 10
137.2484787567413
 20
116.9087752692172
 10
137.2323191059695
 20
116.9265390425507
 10
137.2145553326361
 20
116.9426663955528
 10
137.19528433005
 20
116.9570604349145
 10
137.1746568211367
 20
116.9695812036338
 10
137.1528019969749
 20
116.9800995106319
 10
137.1298382827202
 20
116.9885076966764
 10
137.1058841035281
 20
116.9946658047653
 10
137.0810686504774
 20
116.9984446438199
 10
137.0555318805701
 20
116.9997365546078
 10
137.0555318805701
 20
116.9997365546078
 10
137.0299951106628
 20
116.9984554097431
 10
137.0051796576121
 20
116.9946550388421
 10
136.9812362443433
 20
116.9885076966764
 10
136.9582617641653
 20
116.9800995106319
 10
136.9363961740803
 20
116.9695812036338
 10
136.9157901970135
 20
116.9570604349145
 10
136.8965084285042
 20
116.942677161476
 10
136.8787446551707
 20
116.9265390425507
 10
136.8625957703221
 20
116.9087752692172
 10
136.8481801991139
 20
116.8895365644009
 10
136.8356378985482
 20
116.8689090554876
 10
136.8250980597036
 20
116.8470434654025
 10
136.8166683418127
 20
116.8240582193014
 10
136.8104994678005
 20
116.8000717423395
 10
136.8066990968994
 20
116.7752239915192
 10
136.8054071861116
 20
116.7496226260725
 10
136.8054071861116
 20
116.7496226260725
 10
136.8066990968994
 20
116.7240858561652
 10
136.8104994678005
 20
116.6992811690377
 10
136.8166683418127
 20
116.6753485216921
 10
136.8250872937804
 20
116.6524063392838
 10
136.8356378985482
 20
116.6305730469685
 10
136.8481801991139
 20
116.6099670699017
 10
136.8625957703221
 20
116.5907498969318
 10
136.8787446551707
 20
116.5730076554448
 10
136.8965191944274
 20
116.5568803024427
 10
136.9157794310902
 20
116.5425077949274
 10
136.9363961740803
 20
116.5299977921313
 10
136.9582617641653
 20
116.5194794851333
 10
136.98122547842
 20
116.511082065012
 10
137.0051796576121
 20
116.5049239569231
 10
137.0299951106628
 20
116.5011451178685
 97
        0
 75
     1
 76
     1
 98
        0
  0
LWPOLYLINE
  5
7F
330
1F
100
AcDbEntity
  8
ISS138金台
  6
Continuous
 62
   250
420
  2367521
370
    13
100
AcDbPolyline
 90
       68
 70
     0
 43
0.0
 10
137.0555318805701
 20
116.4998532070806
 10
137.0810794164006
 20
116.5011451178685
 10
137.1058841035281
 20
116.5049239569231
 10
137.1298382827202
 20
116.511082065012
 10
137.1528019969749
 20
116.5194794851333
 10
137.17466758706
 20
116.5299977921313
 10
137.19528433005
 20
116.5425077949274
 10
137.2145445667128
 20
116.5568910683659
 10
137.2323191059695
 20
116.5730076554448
 10
137.2484787567413
 20
116.5907391310086
 10
137.2628835620263
 20
116.6099778358249
 10
137.2754258625921
 20
116.6305730469685
 10
137.2859764673598
 20
116.6523955733606
 10
137.2943954193276
 20
116.6753485216921
 10
137.3005642933397
 20
116.6992811690377
 10
137.3043646642408
 20
116.7240858561652
 10
137.3056565750287
 20
116.7496226260725
 10
137.3056565750287
 20
116.7496226260725
 10
137.3043646642408
 20
116.7752132255959
 10
137.3005642933397
 20
116.8000717423395
 10
137.2943954193276
 20
116.8240582193014
 10
137.2859764673598
 20
116.8470434654025
 10
137.2754258625921
 20
116.8689090554876
 10
137.2628943279495
 20
116.8895257984776
 10
137.2484787567413
 20
116.9087752692172
 10
137.2323191059695
 20
116.9265390425507
 10
137.2145553326361
 20
116.9426663955528
 10
137.19528433005
 20
116.9570604349145
 10
137.1746568211367
 20
116.9695812036338
 10
137.1528019969749
 20
116.9800995106319
 10
137.1298382827202
 20
116.9885076966764
 10
137.1058841035281
 20
116.9946658047653
 10
137.0810686504774
 20
116.9984446438199
 10
137.0555318805701
 20
116.9997365546078
 10
137.0555318805701
 20
116.9997365546078
 10
137.0299951106628
 20
116.9984554097431
 10
137.0051796576121
 20
116.9946550388421
 10
136.9812362443433
 20
116.9885076966764
 10
136.9582617641653
 20
116.9800995106319
 10
136.9363961740803
 20
116.9695812036338
 10
136.9157901970135
 20
116.9570604349145
 10
136.8965084285042
 20
116.942677161476
 10
136.8787446551707
 20
116.9265390425507
 10
136.8625957703221
 20
116.9087752692172
 10
136.8481801991139
 20
116.8895365644009
 10
136.8356378985482
 20
116.8689090554876
 10
136.8250980597036
 20
116.8470434654025
 10
136.8166683418127
 20
116.8240582193014
 10
136.8104994678005
 20
116.8000717423395
 10
136.8066990968994
 20
116.7752239915192
 10
136.8054071861116
 20
116.7496226260725
 10
136.8054071861116
 20
116.7496226260725
 10
136.8066990968994
 20
116.7240858561652
 10
136.8104994678005
 20
116.6992811690377
 10
136.8166683418127
 20
116.6753485216921
 10
136.8250872937804
 20
116.6524063392838
 10
136.8356378985482
 20
116.6305730469685
 10
136.8481801991139
 20
116.6099670699017
 10
136.8625957703221
 20
116.5907498969318
 10
136.8787446551707
 20
116.5730076554448
 10
136.8965191944274
 20
116.5568803024427
 10
136.9157794310902
 20
116.5425077949274
 10
136.9363961740803
 20
116.5299977921313
 10
136.9582617641653
 20
116.5194794851333
 10
136.98122547842
 20
116.511082065012
 10
137.0051796576121
 20
116.5049239569231
 10
137.0299951106628
 20
116.5011451178685
 10
137.0555318805701
 20
116.4998532070806
  0
HATCH
  5
80
330
1F
100
AcDbEntity
  8
ISS138金台
  6
Continuous
 62
   250
420
  2367521
370
    13
100
AcDbHatch
 10
0.0
 20
0.0
 30
0.0
210
0.0
220
0.0
230
1.0
  2
SOLID
 70
     1
 71
     0
 91
        1
 92
        3
 72
     0
 73
     1
 93
       67
 10
102.0203001171143
 20
116.4998532070806
 10
102.0458368870216
 20
116.5011451178685
 10
102.0706523400723
 20
116.5049239569231
 10
102.0945957533412
 20
116.511082065012
 10
102.1175702335192
 20
116.5194794851333
 10
102.139425057681
 20
116.5299977921313
 10
102.1600633325175
 20
116.5425077949274
 10
102.1793235691803
 20
116.5568910683659
 10
102.1970873425137
 20
116.5730076554448
 10
102.2132362273624
 20
116.5907391310086
 10
102.2276517985705
 20
116.6099778358249
 10
102.2401940991363
 20
116.6305730469685
 10
102.2507339379808
 20
116.6523955733606
 10
102.2591636558718
 20
116.6753485216921
 10
102.265332529884
 20
116.6992811690377
 10
102.269132900785
 20
116.7240858561652
 10
102.2704248115729
 20
116.7496226260725
 10
102.2704248115729
 20
116.7496226260725
 10
102.2691436667083
 20
116.7752132255959
 10
102.265332529884
 20
116.8000717423395
 10
102.2591528899486
 20
116.8240582193014
 10
102.2507447039041
 20
116.8470434654025
 10
102.2401940991363
 20
116.8689090554876
 10
102.2276517985705
 20
116.8895257984776
 10
102.2132362273624
 20
116.9087752692172
 10
102.1970873425137
 20
116.9265390425507
 10
102.179312803257
 20
116.9426663955528
 10
102.1600525665942
 20
116.9570604349145
 10
102.1394358236042
 20
116.9695812036338
 10
102.1175702335192
 20
116.9800995106319
 10
102.0946065192644
 20
116.9885076966764
 10
102.0706523400723
 20
116.9946658047653
 10
102.0458368870216
 20
116.9984446438199
 10
102.0203001171143
 20
116.9997365546078
 10
102.0203001171143
 20
116.9997365546078
 10
101.9947633472071
 20
116.9984554097431
 10
101.9699478941564
 20
116.9946550388421
 10
101.9459937149643
 20
116.9885076966764
 10
101.9230300007095
 20
116.9800995106319
 10
101.9011644106245
 20
116.9695812036338
 10
101.8805476676344
 20
116.9570604349145
 10
101.8612874309717
 20
116.942677161476
 10
101.843512891715
 20
116.9265390425507
 10
101.8273532409431
 20
116.9087752692172
 10
101.8129484356581
 20
116.8895365644009
 10
101.8004061350924
 20
116.8689090554876
 10
101.7898662962479
 20
116.8470434654025
 10
101.7814365783569
 20
116.8240582193014
 10
101.7752677043447
 20
116.8000717423395
 10
101.7714673334437
 20
116.7752239915192
 10
101.7701754226558
 20
116.7496226260725
 10
101.7701754226558
 20
116.7496226260725
 10
101.7714673334437
 20
116.7240858561652
 10
101.7752677043447
 20
116.6992811690377
 10
101.7814365783569
 20
116.6753485216921
 10
101.7898555303246
 20
116.6524063392838
 10
101.8004061350924
 20
116.6305730469685
 10
101.8129484356581
 20
116.6099670699017
 10
101.8273532409431
 20
116.5907498969318
 10
101.843512891715
 20
116.5730076554448
 10
101.8612874309717
 20
116.5568803024427
 10
101.8805476676344
 20
116.5425077949274
 10
101.9011751765477
 20
116.5299977921313
 10
101.9230300007095
 20
116.5194794851333
 10
101.9459937149643
 20
116.511082065012
 10
101.9699478941564
 20
116.5049239569231
 10
101.9947633472071
 20
116.5011451178685
 97
        0
 75
     1
 76
     1
 98
        0
  0
LWPOLYLINE
  5
81
330
1F
100
AcDbEntity
  8
ISS138金台
  6
Continuous
 62
   250
420
  2367521
370
    13
100
AcDbPolyline
 90
       68
 70
     0
 43
0.0
 10
102.0203001171143
 20
116.4998532070806
 10
102.0458368870216
 20
116.5011451178685
 10
102.0706523400723
 20
116.5049239569231
 10
102.0945957533412
 20
116.511082065012
 10
102.1175702335192
 20
116.5194794851333
 10
102.139425057681
 20
116.5299977921313
 10
102.1600633325175
 20
116.5425077949274
 10
102.1793235691803
 20
116.5568910683659
 10
102.1970873425137
 20
116.5730076554448
 10
102.2132362273624
 20
116.5907391310086
 10
102.2276517985705
 20
116.6099778358249
 10
102.2401940991363
 20
116.6305730469685
 10
102.2507339379808
 20
116.6523955733606
 10
102.2591636558718
 20
116.6753485216921
 10
102.265332529884
 20
116.6992811690377
 10
102.269132900785
 20
116.7240858561652
 10
102.2704248115729
 20
116.7496226260725
 10
102.2704248115729
 20
116.7496226260725
 10
102.2691436667083
 20
116.7752132255959
 10
102.265332529884
 20
116.8000717423395
 10
102.2591528899486
 20
116.8240582193014
 10
102.2507447039041
 20
116.8470434654025
 10
102.2401940991363
 20
116.8689090554876
 10
102.2276517985705
 20
116.8895257984776
 10
102.2132362273624
 20
116.9087752692172
 10
102.1970873425137
 20
116.9265390425507
 10
102.179312803257
 20
116.9426663955528
 10
102.1600525665942
 20
116.9570604349145
 10
102.1394358236042
 20
116.9695812036338
 10
102.1175702335192
 20
116.9800995106319
 10
102.0946065192644
 20
116.9885076966764
 10
102.0706523400723
 20
116.9946658047653
 10
102.0458368870216
 20
116.9984446438199
 10
102.0203001171143
 20
116.9997365546078
 10
102.0203001171143
 20
116.9997365546078
 10
101.9947633472071
 20
116.9984554097431
 10
101.9699478941564
 20
116.9946550388421
 10
101.9459937149643
 20
116.9885076966764
 10
101.9230300007095
 20
116.9800995106319
 10
101.9011644106245
 20
116.9695812036338
 10
101.8805476676344
 20
116.9570604349145
 10
101.8612874309717
 20
116.942677161476
 10
101.843512891715
 20
116.9265390425507
 10
101.8273532409431
 20
116.9087752692172
 10
101.8129484356581
 20
116.8895365644009
 10
101.8004061350924
 20
116.8689090554876
 10
101.7898662962479
 20
116.8470434654025
 10
101.7814365783569
 20
116.8240582193014
 10
101.7752677043447
 20
116.8000717423395
 10
101.7714673334437
 20
116.7752239915192
 10
101.7701754226558
 20
116.7496226260725
 10
101.7701754226558
 20
116.7496226260725
 10
101.7714673334437
 20
116.7240858561652
 10
101.7752677043447
 20
116.6992811690377
 10
101.7814365783569
 20
116.6753485216921
 10
101.7898555303246
 20
116.6524063392838
 10
101.8004061350924
 20
116.6305730469685
 10
101.8129484356581
 20
116.6099670699017
 10
101.8273532409431
 20
116.5907498969318
 10
101.843512891715
 20
116.5730076554448
 10
101.8612874309717
 20
116.5568803024427
 10
101.8805476676344
 20
116.5425077949274
 10
101.9011751765477
 20
116.5299977921313
 10
101.9230300007095
 20
116.5194794851333
 10
101.9459937149643
 20
116.511082065012
 10
101.9699478941564
 20
116.5049239569231
 10
101.9947633472071
 20
116.5011451178685
 10
102.0203001171143
 20
116.4998532070806
  0
LINE
  5
82
330
1F
100
AcDbEntity
  8
ISS138金台
  6
Continuous
 62
   250
420
  2367521
370
    13
100
AcDbLine
 10
138.0697679764489
 20
100.698406233023
 30
0.0
 11
143.0527540127231
 21
100.698406233023
 31
0.0
  0
LINE
  5
83
330
1F
100
AcDbEntity
  8
ISS138金台
  6
Continuous
 62
   250
420
  2367521
370
    13
100
AcDbLine
 10
138.0697679764489
 20
104.6892047841983
 30
0.0
 11
143.0527540127231
 21
104.6892047841983
 31
0.0
  0
LINE
  5
84
330
1F
100
AcDbEntity
  8
ISS138金台
  6
Continuous
 62
   250
420
  2367521
370
    13
100
AcDbLine
 10
142.5456467307069
 20
104.6892047841983
 30
0.0
 11
142.5456467307069
 21
100.6982339782513
 31
0.0
  0
LINE
  5
85
330
1F
100
AcDbEntity
  8
ISS138金台
  6
UserDefined01
 62
   250
420
  2367521
370
    13
100
AcDbLine
 10
137.0555318805701
 20
100.698406233023
 30
0.0
 11
127.0454625864618
 21
100.698406233023
 31
0.0
  0
TEXT
  5
86
330
1F
100
AcDbEntity
  8
ISS138金台
  6
Continuous
 62
   250
420
  2367521
100
AcDbText
 10
141.7728762541671
 20
101.9992742516472
 30
0.0
 40
2.150533301035563
  1
4
 50
90.00000250447816
 41
0.8460006713867185
  7
MS Gothic
100
AcDbText
  0
HATCH
  5
87
330
1F
100
AcDbEntity
  8
ISS138金台
  6
Continuous
 62
   250
420
  2367521
370
    13
100
AcDbHatch
 10
0.0
 20
0.0
 30
0.0
210
0.0
220
0.0
230
1.0
  2
SOLID
 70
     1
 71
     0
 91
        1
 92
        3
 72
     0
 73
     1
 93
       67
 10
142.5456467307069
 20
104.4391123875094
 10
142.5711835006142
 20
104.4404150642206
 10
142.5959989536649
 20
104.4441939032751
 10
142.6199423669338
 20
104.4503627772873
 10
142.6429168471117
 20
104.4588032611015
 10
142.6647716712735
 20
104.469343099946
 10
142.68540994611
 20
104.4818854005118
 10
142.7046701827728
 20
104.4962902057968
 10
142.7224339561063
 20
104.5124390906454
 10
142.7385828409549
 20
104.5302136299021
 10
142.7529984121631
 20
104.5494738665649
 10
142.7655407127289
 20
104.5701013754782
 10
142.7760805515734
 20
104.59195619964
 10
142.7845102694644
 20
104.6149306798179
 10
142.7906791434766
 20
104.63888485901
 10
142.7944795143776
 20
104.6637003120607
 10
142.7957714251655
 20
104.689237081968
 10
142.7957714251655
 20
104.689237081968
 10
142.7944795143776
 20
104.7147846177985
 10
142.7906791434766
 20
104.739589304926
 10
142.7844995035412
 20
104.7635434841181
 10
142.7760913174967
 20
104.7865071983728
 10
142.7655407127289
 20
104.8083727884578
 10
142.7529984121631
 20
104.8289895314479
 10
142.7385828409549
 20
104.8482390021875
 10
142.7224339561063
 20
104.8660135414442
 10
142.7046594168496
 20
104.882173192216
 10
142.6853991801868
 20
104.8965887634242
 10
142.6647824371968
 20
104.9091202980667
 10
142.6429168471117
 20
104.9196709028345
 10
142.619953132857
 20
104.9280898548022
 10
142.5959989536649
 20
104.9342587288144
 10
142.5711835006142
 20
104.9380590997155
 10
142.5456467307069
 20
104.9393510105033
 10
142.5456467307069
 20
104.9393510105033
 10
142.5201099607996
 20
104.9380590997155
 10
142.495294507749
 20
104.9342587288144
 10
142.4713403285568
 20
104.928079088879
 10
142.4483766143021
 20
104.9196709028345
 10
142.4265110242171
 20
104.90913106399
 10
142.405894281227
 20
104.896577997501
 10
142.3866340445642
 20
104.882173192216
 10
142.3688595053075
 20
104.8660135414442
 10
142.3526998545357
 20
104.8482497681107
 10
142.3382950492507
 20
104.8289895314479
 10
142.3257635146082
 20
104.8083620225346
 10
142.3152129098405
 20
104.7865071983728
 10
142.3067831919495
 20
104.7635434841181
 10
142.3006143179373
 20
104.739589304926
 10
142.2968139470362
 20
104.7147738518753
 10
142.2955220362484
 20
104.689237081968
 10
142.2955220362484
 20
104.689237081968
 10
142.2968247129595
 20
104.6636895461375
 10
142.3006035520141
 20
104.63888485901
 10
142.3067831919495
 20
104.6149199138947
 10
142.3152021439172
 20
104.5919669655632
 10
142.325752748685
 20
104.5701013754782
 10
142.338305815174
 20
104.5494846324881
 10
142.3526998545357
 20
104.5302136299021
 10
142.3688595053075
 20
104.5124390906454
 10
142.3866340445642
 20
104.4962902057968
 10
142.4058835153038
 20
104.4818854005118
 10
142.4265110242171
 20
104.469343099946
 10
142.4483766143021
 20
104.4587924951783
 10
142.4713403285568
 20
104.4503735432105
 10
142.495294507749
 20
104.4442046691984
 10
142.5201099607996
 20
104.4404042982973
 97
        0
 75
     1
 76
     1
 98
        0
  0
LWPOLYLINE
  5
88
330
1F
100
AcDbEntity
  8
ISS138金台
  6
Continuous
 62
   250
420
  2367521
370
    13
100
AcDbPolyline
 90
       68
 70
     0
 43
0.0
 10
142.5456467307069
 20
104.4391123875094
 10
142.5711835006142
 20
104.4404150642206
 10
142.5959989536649
 20
104.4441939032751
 10
142.6199423669338
 20
104.4503627772873
 10
142.6429168471117
 20
104.4588032611015
 10
142.6647716712735
 20
104.469343099946
 10
142.68540994611
 20
104.4818854005118
 10
142.7046701827728
 20
104.4962902057968
 10
142.7224339561063
 20
104.5124390906454
 10
142.7385828409549
 20
104.5302136299021
 10
142.7529984121631
 20
104.5494738665649
 10
142.7655407127289
 20
104.5701013754782
 10
142.7760805515734
 20
104.59195619964
 10
142.7845102694644
 20
104.6149306798179
 10
142.7906791434766
 20
104.63888485901
 10
142.7944795143776
 20
104.6637003120607
 10
142.7957714251655
 20
104.689237081968
 10
142.7957714251655
 20
104.689237081968
 10
142.7944795143776
 20
104.7147846177985
 10
142.7906791434766
 20
104.739589304926
 10
142.7844995035412
 20
104.7635434841181
 10
142.7760913174967
 20
104.7865071983728
 10
142.7655407127289
 20
104.8083727884578
 10
142.7529984121631
 20
104.8289895314479
 10
142.7385828409549
 20
104.8482390021875
 10
142.7224339561063
 20
104.8660135414442
 10
142.7046594168496
 20
104.882173192216
 10
142.6853991801868
 20
104.8965887634242
 10
142.6647824371968
 20
104.9091202980667
 10
142.6429168471117
 20
104.9196709028345
 10
142.619953132857
 20
104.9280898548022
 10
142.5959989536649
 20
104.9342587288144
 10
142.5711835006142
 20
104.9380590997155
 10
142.5456467307069
 20
104.9393510105033
 10
142.5456467307069
 20
104.9393510105033
 10
142.5201099607996
 20
104.9380590997155
 10
142.495294507749
 20
104.9342587288144
 10
142.4713403285568
 20
104.928079088879
 10
142.4483766143021
 20
104.9196709028345
 10
142.4265110242171
 20
104.90913106399
 10
142.405894281227
 20
104.896577997501
 10
142.3866340445642
 20
104.882173192216
 10
142.3688595053075
 20
104.8660135414442
 10
142.3526998545357
 20
104.8482497681107
 10
142.3382950492507
 20
104.8289895314479
 10
142.3257635146082
 20
104.8083620225346
 10
142.3152129098405
 20
104.7865071983728
 10
142.3067831919495
 20
104.7635434841181
 10
142.3006143179373
 20
104.739589304926
 10
142.2968139470362
 20
104.7147738518753
 10
142.2955220362484
 20
104.689237081968
 10
142.2955220362484
 20
104.689237081968
 10
142.2968247129595
 20
104.6636895461375
 10
142.3006035520141
 20
104.63888485901
 10
142.3067831919495
 20
104.6149199138947
 10
142.3152021439172
 20
104.5919669655632
 10
142.325752748685
 20
104.5701013754782
 10
142.338305815174
 20
104.5494846324881
 10
142.3526998545357
 20
104.5302136299021
 10
142.3688595053075
 20
104.5124390906454
 10
142.3866340445642
 20
104.4962902057968
 10
142.4058835153038
 20
104.4818854005118
 10
142.4265110242171
 20
104.469343099946
 10
142.4483766143021
 20
104.4587924951783
 10
142.4713403285568
 20
104.4503735432105
 10
142.495294507749
 20
104.4442046691984
 10
142.5201099607996
 20
104.4404042982973
 10
142.5456467307069
 20
104.4391123875094
  0
HATCH
  5
89
330
1F
100
AcDbEntity
  8
ISS138金台
  6
Continuous
 62
   250
420
  2367521
370
    13
100
AcDbHatch
 10
0.0
 20
0.0
 30
0.0
210
0.0
220
0.0
230
1.0
  2
SOLID
 70
     1
 71
     0
 91
        1
 92
        3
 72
     0
 73
     1
 93
       67
 10
142.5456467307069
 20
100.4483246022573
 10
142.5711835006142
 20
100.4496165130452
 10
142.5959989536649
 20
100.4534168839463
 10
142.6199423669338
 20
100.4595857579585
 10
142.6429168471117
 20
100.4680154758494
 10
142.6647716712735
 20
100.4785445487707
 10
142.68540994611
 20
100.4910868493365
 10
142.7046701827728
 20
100.5055131864679
 10
142.7224339561063
 20
100.5216513053933
 10
142.7385828409549
 20
100.53942584465
 10
142.7529984121631
 20
100.5586860813128
 10
142.7655407127289
 20
100.5793135902261
 10
142.7760805515734
 20
100.6011684143879
 10
142.7845102694644
 20
100.6241428945658
 10
142.7906791434766
 20
100.6480970737579
 10
142.7944795143776
 20
100.6729125268086
 10
142.7957714251655
 20
100.6984492967159
 10
142.7957714251655
 20
100.6984492967159
 10
142.7944795143776
 20
100.7239860666232
 10
142.7906791434766
 20
100.7488015196739
 10
142.7844995035412
 20
100.772755698866
 10
142.7760913174967
 20
100.7957194131207
 10
142.7655407127289
 20
100.8175742372825
 10
142.7529984121631
 20
100.8382017461958
 10
142.7385828409549
 20
100.8574619828586
 10
142.7224339561063
 20
100.8752257561921
 10
142.7046594168496
 20
100.8913854069639
 10
142.6853991801868
 20
100.9057902122489
 10
142.6647824371968
 20
100.9183432787379
 10
142.6429168471117
 20
100.9288831175824
 10
142.619953132857
 20
100.9373020695501
 10
142.5959989536649
 20
100.9434709435623
 10
142.5711835006142
 20
100.9472713144634
 10
142.5456467307069
 20
100.9485632252512
 10
142.5456467307069
 20
100.9485632252512
 10
142.5201099607996
 20
100.9472713144634
 10
142.495294507749
 20
100.9434709435623
 10
142.4713403285568
 20
100.9373020695501
 10
142.4483766143021
 20
100.9288831175824
 10
142.4265110242171
 20
100.9183325128146
 10
142.405894281227
 20
100.9058009781721
 10
142.3866340445642
 20
100.8913961728871
 10
142.3688595053075
 20
100.8752257561921
 10
142.3526998545357
 20
100.8574619828586
 10
142.3382950492507
 20
100.8382017461958
 10
142.3257635146082
 20
100.8175850032057
 10
142.3152129098405
 20
100.7957194131207
 10
142.3067831919495
 20
100.772755698866
 10
142.3006143179373
 20
100.7488015196739
 10
142.2968139470362
 20
100.7239860666232
 10
142.2955220362484
 20
100.6984492967159
 10
142.2955220362484
 20
100.6984492967159
 10
142.2968247129595
 20
100.6729125268086
 10
142.3006035520141
 20
100.6480863078347
 10
142.3067831919495
 20
100.6241428945658
 10
142.3152021439172
 20
100.6011791803111
 10
142.325752748685
 20
100.5793028243028
 10
142.338305815174
 20
100.5586860813128
 10
142.3526998545357
 20
100.53942584465
 10
142.3688595053075
 20
100.5216513053933
 10
142.3866340445642
 20
100.5055024205447
 10
142.4058835153038
 20
100.4910976152597
 10
142.4265110242171
 20
100.4785553146939
 10
142.4483766143021
 20
100.4680047099262
 10
142.4713403285568
 20
100.4595857579585
 10
142.495294507749
 20
100.4534168839463
 10
142.5201099607996
 20
100.4496165130452
 97
        0
 75
     1
 76
     1
 98
        0
  0
LWPOLYLINE
  5
8A
330
1F
100
AcDbEntity
  8
ISS138金台
  6
Continuous
 62
   250
420
  2367521
370
    13
100
AcDbPolyline
 90
       68
 70
     0
 43
0.0
 10
142.5456467307069
 20
100.4483246022573
 10
142.5711835006142
 20
100.4496165130452
 10
142.5959989536649
 20
100.4534168839463
 10
142.6199423669338
 20
100.4595857579585
 10
142.6429168471117
 20
100.4680154758494
 10
142.6647716712735
 20
100.4785445487707
 10
142.68540994611
 20
100.4910868493365
 10
142.7046701827728
 20
100.5055131864679
 10
142.7224339561063
 20
100.5216513053933
 10
142.7385828409549
 20
100.53942584465
 10
142.7529984121631
 20
100.5586860813128
 10
142.7655407127289
 20
100.5793135902261
 10
142.7760805515734
 20
100.6011684143879
 10
142.7845102694644
 20
100.6241428945658
 10
142.7906791434766
 20
100.6480970737579
 10
142.7944795143776
 20
100.6729125268086
 10
142.7957714251655
 20
100.6984492967159
 10
142.7957714251655
 20
100.6984492967159
 10
142.7944795143776
 20
100.7239860666232
 10
142.7906791434766
 20
100.7488015196739
 10
142.7844995035412
 20
100.772755698866
 10
142.7760913174967
 20
100.7957194131207
 10
142.7655407127289
 20
100.8175742372825
 10
142.7529984121631
 20
100.8382017461958
 10
142.7385828409549
 20
100.8574619828586
 10
142.7224339561063
 20
100.8752257561921
 10
142.7046594168496
 20
100.8913854069639
 10
142.6853991801868
 20
100.9057902122489
 10
142.6647824371968
 20
100.9183432787379
 10
142.6429168471117
 20
100.9288831175824
 10
142.619953132857
 20
100.9373020695501
 10
142.5959989536649
 20
100.9434709435623
 10
142.5711835006142
 20
100.9472713144634
 10
142.5456467307069
 20
100.9485632252512
 10
142.5456467307069
 20
100.9485632252512
 10
142.5201099607996
 20
100.9472713144634
 10
142.495294507749
 20
100.9434709435623
 10
142.4713403285568
 20
100.9373020695501
 10
142.4483766143021
 20
100.9288831175824
 10
142.4265110242171
 20
100.9183325128146
 10
142.405894281227
 20
100.9058009781721
 10
142.3866340445642
 20
100.8913961728871
 10
142.3688595053075
 20
100.8752257561921
 10
142.3526998545357
 20
100.8574619828586
 10
142.3382950492507
 20
100.8382017461958
 10
142.3257635146082
 20
100.8175850032057
 10
142.3152129098405
 20
100.7957194131207
 10
142.3067831919495
 20
100.772755698866
 10
142.3006143179373
 20
100.7488015196739
 10
142.2968139470362
 20
100.7239860666232
 10
142.2955220362484
 20
100.6984492967159
 10
142.2955220362484
 20
100.6984492967159
 10
142.2968247129595
 20
100.6729125268086
 10
142.3006035520141
 20
100.6480863078347
 10
142.3067831919495
 20
100.6241428945658
 10
142.3152021439172
 20
100.6011791803111
 10
142.325752748685
 20
100.5793028243028
 10
142.338305815174
 20
100.5586860813128
 10
142.3526998545357
 20
100.53942584465
 10
142.3688595053075
 20
100.5216513053933
 10
142.3866340445642
 20
100.5055024205447
 10
142.4058835153038
 20
100.4910976152597
 10
142.4265110242171
 20
100.4785553146939
 10
142.4483766143021
 20
100.4680047099262
 10
142.4713403285568
 20
100.4595857579585
 10
142.495294507749
 20
100.4534168839463
 10
142.5201099607996
 20
100.4496165130452
 10
142.5456467307069
 20
100.4483246022573
  0
LINE
  5
8B
330
1F
100
AcDbEntity
  8
ISS138金台
  6
UserDefined02
 62
   140
420
    44526
370
    13
100
AcDbLine
 10
124.7524070653445
 20
111.1935449642907
 30
0.0
 11
136.9232402158903
 21
111.1935449642907
 31
0.0
  0
TEXT
  5
8C
330
1F
100
AcDbEntity
  8
ISS138金台
  6
Continuous
 62
   140
420
    44526
100
AcDbText
 10
129.2680013104069
 20
111.9827088413275
 30
0.0
 40
1.881716638406118
  1
13
 41
1.208752223423549
  7
MS Gothic
100
AcDbText
  0
HATCH
  5
8D
330
1F
100
AcDbEntity
  8
ISS138金台
  6
Continuous
 62
   140
420
    44526
370
    13
100
AcDbHatch
 10
0.0
 20
0.0
 30
0.0
210
0.0
220
0.0
230
1.0
  2
SOLID
 70
     1
 71
     0
 91
        1
 92
        3
 72
     0
 73
     1
 93
        3
 10
123.8863100731436
 20
108.1064164773973
 10
125.6184502279292
 20
108.105705926464
 10
124.7530853185082
 20
106.6074662198258
 97
        0
 75
     1
 76
     1
 98
        0
  0
LWPOLYLINE
  5
8E
330
1F
100
AcDbEntity
  8
ISS138金台
  6
Continuous
 62
   140
420
    44526
370
    13
100
AcDbPolyline
 90
        4
 70
     0
 43
0.0
 10
123.8863100731436
 20
108.1064164773973
 10
125.6184502279292
 20
108.105705926464
 10
124.7530853185082
 20
106.6074662198258
 10
123.8863100731436
 20
108.1064164773973
  0
ENDSEC
  0
SECTION
  2
OBJECTS
  0
DICTIONARY
  5
C
330
0
100
AcDbDictionary
281
     1
  3
ACAD_DETAILVIEWSTYLE
350
96
  3
ACAD_GROUP
350
D
  3
ACAD_LAYOUT
350
1A
  3
ACAD_MATERIAL
350
43
  3
ACAD_MLEADERSTYLE
350
5B
  3
ACAD_MLINESTYLE
350
17
  3
ACAD_PLOTSETTINGS
350
19
  3
ACAD_PLOTSTYLENAME
350
E
  3
ACAD_SCALELIST
350
47
  3
ACAD_SECTIONVIEWSTYLE
350
97
  3
ACAD_TABLESTYLE
350
59
  3
ACAD_VISUALSTYLE
350
2A
  3
ACDB_RECOMPOSE_DATA
350
93
  3
AcDbVariableDictionary
350
8F
  0
SUN
  5
5D
330
29
100
AcDbSun
 90
        1
290
     0
 63
     7
421
 16777215
 40
1.0
291
     1
 91
  2455826
 92
 54000000
292
     0
 70
     2
 71
   256
280
     1
  0
DICTIONARY
  5
96
102
{ACAD_REACTORS
330
C
102
}
330
C
100
AcDbDictionary
281
     1
  0
DICTIONARY
  5
D
102
{ACAD_REACTORS
330
C
102
}
330
C
100
AcDbDictionary
281
     1
  0
DICTIONARY
  5
1A
102
{ACAD_REACTORS
330
C
102
}
330
C
100
AcDbDictionary
281
     1
  3
Layout1
350
1E
  3
Layout2
350
26
  3
Model
350
22
  0
DICTIONARY
  5
43
102
{ACAD_REACTORS
330
C
102
}
330
C
100
AcDbDictionary
281
     1
  3
ByBlock
350
45
  3
ByLayer
350
44
  3
Global
350
46
  0
DICTIONARY
  5
5B
102
{ACAD_REACTORS
330
C
102
}
330
C
100
AcDbDictionary
281
     1
  3
Standard
350
5C
  0
DICTIONARY
  5
17
102
{ACAD_REACTORS
330
C
102
}
330
C
100
AcDbDictionary
281
     1
  3
Standard
350
18
  0
DICTIONARY
  5
19
102
{ACAD_REACTORS
330
C
102
}
330
C
100
AcDbDictionary
281
     1
  0
ACDBDICTIONARYWDFLT
  5
E
102
{ACAD_REACTORS
330
C
102
}
330
C
100
AcDbDictionary
281
     1
  3
Normal
350
F
100
AcDbDictionaryWithDefault
340
F
  0
DICTIONARY
  5
47
102
{ACAD_REACTORS
330
C
102
}
330
C
100
AcDbDictionary
281
     1
  3
A0
350
48
  3
A1
350
49
  3
A2
350
4A
  3
A3
350
4B
  3
A4
350
4C
  3
A5
350
4D
  3
A6
350
4E
  3
A7
350
4F
  3
A8
350
50
  3
A9
350
51
  3
B0
350
52
  3
B1
350
53
  3
B2
350
54
  3
B3
350
55
  3
B4
350
56
  3
B5
350
57
  3
B6
350
58
  0
DICTIONARY
  5
97
102
{ACAD_REACTORS
330
C
102
}
330
C
100
AcDbDictionary
281
     1
  0
DICTIONARY
  5
59
102
{ACAD_REACTORS
330
C
102
}
330
C
100
AcDbDictionary
281
     1
  3
Standard
350
5A
  0
DICTIONARY
  5
2A
102
{ACAD_REACTORS
330
C
102
}
330
C
100
AcDbDictionary
281
     1
  3
2dWireframe
350
2F
  3
Basic
350
32
  3
Brighten
350
36
  3
ColorChange
350
3A
  3
Conceptual
350
34
  3
Dim
350
35
  3
EdgeColorOff
350
3D
  3
Facepattern
350
39
  3
Flat
350
2B
  3
FlatWithEdges
350
2C
  3
Gouraud
350
2D
  3
GouraudWithEdges
350
2E
  3
Hidden
350
31
  3
JitterOff
350
3B
  3
Linepattern
350
38
  3
OverhangOff
350
3C
  3
Realistic
350
33
  3
Shaded
350
42
  3
Shaded with edges
350
41
  3
Shades of Gray
350
3E
  3
Sketchy
350
3F
  3
Thicken
350
37
  3
Wireframe
350
30
  3
X-Ray
350
40
  0
XRECORD
  5
93
102
{ACAD_REACTORS
330
C
102
}
330
C
100
AcDbXrecord
280
     1
 90
        1
330
5A
  0
DICTIONARY
  5
8F
102
{ACAD_REACTORS
330
C
102
}
330
C
100
AcDbDictionary
281
     1
  3
CANNOSCALE
350
90
  3
CENTEREXE
350
98
  3
CENTERLTYPEFILE
350
99
  3
CMLEADERSTYLE
350
95
  3
CTABLESTYLE
350
94
  0
LAYOUT
  5
1E
102
{ACAD_REACTORS
330
1A
102
}
330
1A
100
AcDbPlotSettings
  1

  2
none_device
  4

  6

 40
0.0
 41
0.0
 42
0.0
 43
0.0
 44
0.0
 45
0.0
 46
0.0
 47
0.0
 48
0.0
 49
0.0
140
0.0
141
0.0
142
1.0
143
1.0
 70
   688
 72
     1
 73
     0
 74
     5
  7

 75
    16
 76
     0
 77
     5
 78
   300
147
1.0
148
0.0
149
0.0
100
AcDbLayout
  1
Layout1
 70
     1
 71
     1
 10
0.0
 20
0.0
 11
420.0
 21
297.0
 12
0.0
 22
0.0
 32
0.0
 14
1.000000000000000E+20
 24
1.000000000000000E+20
 34
1.000000000000000E+20
 15
-1.000000000000000E+20
 25
-1.000000000000000E+20
 35
-1.000000000000000E+20
146
0.0
 13
0.0
 23
0.0
 33
0.0
 16
1.0
 26
0.0
 36
0.0
 17
0.0
 27
1.0
 37
0.0
 76
     0
330
1B
  0
LAYOUT
  5
26
102
{ACAD_REACTORS
330
1A
102
}
330
1A
100
AcDbPlotSettings
  1

  2
none_device
  4

  6

 40
0.0
 41
0.0
 42
0.0
 43
0.0
 44
0.0
 45
0.0
 46
0.0
 47
0.0
 48
0.0
 49
0.0
140
0.0
141
0.0
142
1.0
143
1.0
 70
   688
 72
     1
 73
     0
 74
     5
  7

 75
    16
 76
     0
 77
     5
 78
   300
147
1.0
148
0.0
149
0.0
100
AcDbLayout
  1
Layout2
 70
     1
 71
     2
 10
0.0
 20
0.0
 11
0.0
 21
0.0
 12
0.0
 22
0.0
 32
0.0
 14
0.0
 24
0.0
 34
0.0
 15
0.0
 25
0.0
 35
0.0
146
0.0
 13
0.0
 23
0.0
 33
0.0
 16
1.0
 26
0.0
 36
0.0
 17
0.0
 27
1.0
 37
0.0
 76
     0
330
23
  0
LAYOUT
  5
22
102
{ACAD_REACTORS
330
1A
102
}
330
1A
100
AcDbPlotSettings
  1

  2
none_device
  4
Letter_(8.50_x_11.00_Inches)
  6

 40
6.35
 41
6.35
 42
6.35000508
 43
6.35000508
 44
215.9
 45
279.4
 46
0.0
 47
0.0
 48
0.0
 49
0.0
140
0.0
141
0.0
142
1.0
143
1.0
 70
  1712
 72
     1
 73
     0
 74
     0
  7

 75
     0
 76
     0
 77
     5
 78
   300
147
1.0
148
0.0
149
0.0
100
AcDbLayout
  1
Model
 70
     1
 71
     0
 10
0.0
 20
0.0
 11
302.9997823349792
 21
216.0016055409748
 12
0.0
 22
0.0
 32
0.0
 14
0.0
 24
0.0
 34
0.0
 15
302.9997823349792
 25
216.0016055409748
 35
0.0
146
0.0
 13
0.0
 23
0.0
 33
0.0
 16
1.0
 26
0.0
 36
0.0
 17
0.0
 27
1.0
 37
0.0
 76
     0
330
1F
331
29
  0
MATERIAL
  5
45
102
{ACAD_REACTORS
330
43
102
}
330
43
100
AcDbMaterial
  1
ByBlock
 72
     1
 94
      127
  0
MATERIAL
  5
44
102
{ACAD_REACTORS
330
43
102
}
330
43
100
AcDbMaterial
  1
ByLayer
 72
     1
 94
      127
  0
MATERIAL
  5
46
102
{ACAD_REACTORS
330
43
102
}
330
43
100
AcDbMaterial
  1
Global
 72
     1
 94
      127
  0
MLEADERSTYLE
  5
5C
102
{ACAD_REACTORS
330
5B
102
}
330
5B
100
AcDbMLeaderStyle
179
     2
170
     2
171
     1
172
     0
 90
        2
 40
0.0
 41
0.0
173
     1
 91
-1056964608
340
14
 92
       -2
290
     1
 42
2.0
291
     1
 43
8.0
  3
Standard
341
0
 44
4.0
300

342
11
174
     1
178
     6
175
     1
176
     0
 93
-1056964608
 45
4.0
292
     0
297
     0
 46
4.0
343
0
 94
-1056964608
 47
1.0
 49
1.0
140
1.0
293
     1
141
0.0
294
     1
177
     0
142
1.0
295
     0
296
     0
143
3.75
271
     0
272
     9
273
     9
298
     0
  0
MLINESTYLE
  5
18
102
{ACAD_REACTORS
330
17
102
}
330
17
100
AcDbMlineStyle
  2
Standard
 70
     0
  3

 62
   256
 51
90.0
 52
90.0
 71
     2
 49
0.5
 62
   256
  6
BYLAYER
 49
-0.5
 62
   256
  6
BYLAYER
  0
ACDBPLACEHOLDER
  5
F
102
{ACAD_REACTORS
330
E
102
}
330
E
  0
SCALE
  5
48
102
{ACAD_REACTORS
330
47
102
}
330
47
100
AcDbScale
 70
     0
300
1:1
140
1.0
141
1.0
290
     1
  0
SCALE
  5
49
102
{ACAD_REACTORS
330
47
102
}
330
47
100
AcDbScale
 70
     0
300
1:2
140
1.0
141
2.0
290
     0
  0
SCALE
  5
4A
102
{ACAD_REACTORS
330
47
102
}
330
47
100
AcDbScale
 70
     0
300
1:4
140
1.0
141
4.0
290
     0
  0
SCALE
  5
4B
102
{ACAD_REACTORS
330
47
102
}
330
47
100
AcDbScale
 70
     0
300
1:5
140
1.0
141
5.0
290
     0
  0
SCALE
  5
4C
102
{ACAD_REACTORS
330
47
102
}
330
47
100
AcDbScale
 70
     0
300
1:8
140
1.0
141
8.0
290
     0
  0
SCALE
  5
4D
102
{ACAD_REACTORS
330
47
102
}
330
47
100
AcDbScale
 70
     0
300
1:10
140
1.0
141
10.0
290
     0
  0
SCALE
  5
4E
102
{ACAD_REACTORS
330
47
102
}
330
47
100
AcDbScale
 70
     0
300
1:16
140
1.0
141
16.0
290
     0
  0
SCALE
  5
4F
102
{ACAD_REACTORS
330
47
102
}
330
47
100
AcDbScale
 70
     0
300
1:20
140
1.0
141
20.0
290
     0
  0
SCALE
  5
50
102
{ACAD_REACTORS
330
47
102
}
330
47
100
AcDbScale
 70
     0
300
1:30
140
1.0
141
30.0
290
     0
  0
SCALE
  5
51
102
{ACAD_REACTORS
330
47
102
}
330
47
100
AcDbScale
 70
     0
300
1:40
140
1.0
141
40.0
290
     0
  0
SCALE
  5
52
102
{ACAD_REACTORS
330
47
102
}
330
47
100
AcDbScale
 70
     0
300
1:50
140
1.0
141
50.0
290
     0
  0
SCALE
  5
53
102
{ACAD_REACTORS
330
47
102
}
330
47
100
AcDbScale
 70
     0
300
1:100
140
1.0
141
100.0
290
     0
  0
SCALE
  5
54
102
{ACAD_REACTORS
330
47
102
}
330
47
100
AcDbScale
 70
     0
300
2:1
140
2.0
141
1.0
290
     0
  0
SCALE
  5
55
102
{ACAD_REACTORS
330
47
102
}
330
47
100
AcDbScale
 70
     0
300
4:1
140
4.0
141
1.0
290
     0
  0
SCALE
  5
56
102
{ACAD_REACTORS
330
47
102
}
330
47
100
AcDbScale
 70
     0
300
8:1
140
8.0
141
1.0
290
     0
  0
SCALE
  5
57
102
{ACAD_REACTORS
330
47
102
}
330
47
100
AcDbScale
 70
     0
300
10:1
140
10.0
141
1.0
290
     0
  0
SCALE
  5
58
102
{ACAD_REACTORS
330
47
102
}
330
47
100
AcDbScale
 70
     0
300
100:1
140
100.0
141
1.0
290
     0
  0
TABLESTYLE
  5
5A
102
{ACAD_REACTORS
330
59
102
}
102
{ACAD_XDICTIONARY
360
91
102
}
330
59
100
AcDbTableStyle
  3
Standard
 70
     0
 71
     0
 40
0.06
 41
0.06
280
     0
281
     0
  7
Standard
140
4.5
170
     2
 62
     0
 63
   257
283
     0
 90
        4
 91
        0
  1

274
    -2
284
     1
 64
     0
275
    -2
285
     1
 65
     0
276
    -2
286
     1
 66
     0
277
    -2
287
     1
 67
     0
278
    -2
288
     1
 68
     0
279
    -2
289
     1
 69
     0
  7
Standard
140
6.0
170
     5
 62
     0
 63
   257
283
     0
 90
        4
 91
        0
  1

274
    -2
284
     1
 64
     0
275
    -2
285
     1
 65
     0
276
    -2
286
     1
 66
     0
277
    -2
287
     1
 67
     0
278
    -2
288
     1
 68
     0
279
    -2
289
     1
 69
     0
  7
Standard
140
4.5
170
     5
 62
     0
 63
   257
283
     0
 90
        4
 91
        0
  1

274
    -2
284
     1
 64
     0
275
    -2
285
     1
 65
     0
276
    -2
286
     1
 66
     0
277
    -2
287
     1
 67
     0
278
    -2
288
     1
 68
     0
279
    -2
289
     1
 69
     0
  0
VISUALSTYLE
  5
2F
102
{ACAD_REACTORS
330
2A
102
}
330
2A
100
AcDbVisualStyle
  2
2dWireframe
 70
     4
177
     3
291
     0
 70
    58
 90
        0
176
     1
 90
        2
176
     1
 90
        0
176
     1
 90
        0
176
     1
 40
0.6
176
     1
 40
30.0
176
     1
 62
     7
420
 16777215
176
     1
 90
        1
176
     1
 90
        4
176
     1
 62
     7
176
     1
 62
   257
176
     1
 90
        1
176
     1
 90
        1
176
     1
 40
1.0
176
     1
 90
        0
176
     1
 62
   257
176
     1
 40
1.0
176
     1
 90
        1
176
     1
 90
        6
176
     1
 90
        2
176
     1
 62
     7
176
     1
 90
        5
176
     1
 90
        0
176
     1
 90
        0
176
     1
290
     0
176
     1
 90
        1
176
     1
 40
0.0
176
     1
 90
        0
176
     1
290
     1
176
     1
290
     1
176
     1
290
     0
176
     1
290
     0
176
     1
290
     0
176
     1
290
     0
176
     1
290
     0
176
     1
290
     0
176
     1
290
     0
176
     1
 90
       50
176
     1
 40
0.0
176
     1
 40
1.0
176
     1
 90
        0
176
     1
 62
    18
420
        0
176
     1
 90
       50
176
     1
 90
        3
176
     1
 62
     5
420
      255
176
     1
290
     0
176
     1
 90
       50
176
     1
 90
       50
176
     1
 90
       50
176
     1
290
     0
176
     1
 90
       50
176
     1
 62
   256
176
     0
 40
1.0
176
     0
 90
        2
176
     1
  1
strokes_ogs.tif
176
     1
290
     0
176
     1
 40
1.0
176
     1
 40
1.0
176
     1
  0
VISUALSTYLE
  5
32
102
{ACAD_REACTORS
330
2A
102
}
330
2A
100
AcDbVisualStyle
  2
Basic
 70
     7
177
     3
291
     1
 70
    58
 90
        1
176
     1
 90
        0
176
     1
 90
        1
176
     1
 90
        0
176
     1
 40
0.6
176
     1
 40
30.0
176
     1
 62
     7
420
 16777215
176
     1
 90
        0
176
     1
 90
        4
176
     1
 62
     7
176
     1
 62
   257
176
     1
 90
        1
176
     1
 90
        1
176
     1
 40
1.0
176
     1
 90
        8
176
     1
 62
     7
176
     1
 40
1.0
176
     1
 90
        1
176
     1
 90
        6
176
     1
 90
        2
176
     1
 62
     7
176
     1
 90
        5
176
     1
 90
        0
176
     1
 90
        0
176
     1
290
     0
176
     1
 90
        1
176
     1
 40
0.0
176
     1
 90
        0
176
     1
290
     0
176
     1
290
     1
176
     1
290
     1
176
     1
290
     0
176
     1
290
     0
176
     1
290
     0
176
     1
290
     0
176
     1
290
     0
176
     1
290
     0
176
     1
 90
       50
176
     1
 40
0.0
176
     1
 40
1.0
176
     1
 90
        0
176
     1
 62
    18
420
        0
176
     1
 90
       50
176
     1
 90
        3
176
     1
 62
     5
420
      255
176
     1
290
     0
176
     1
 90
       50
176
     1
 90
       50
176
     1
 90
       50
176
     1
290
     0
176
     1
 90
       50
176
     1
 62
   256
176
     0
 40
1.0
176
     0
 90
        2
176
     1
  1
strokes_ogs.tif
176
     1
290
     0
176
     1
 40
1.0
176
     1
 40
1.0
176
     1
  0
VISUALSTYLE
  5
36
102
{ACAD_REACTORS
330
2A
102
}
330
2A
100
AcDbVisualStyle
  2
Brighten
 70
    12
177
     3
291
     1
 70
    58
 90
        2
176
     1
 90
        2
176
     1
 90
        0
176
     1
 90
        0
176
     1
 40
0.6
176
     1
 40
30.0
176
     1
 62
     7
420
 16777215
176
     1
 90
        1
176
     1
 90
        4
176
     1
 62
     7
176
     1
 62
   257
176
     1
 90
        1
176
     1
 90
        1
176
     1
 40
1.0
176
     1
 90
        8
176
     1
 62
     7
176
     1
 40
1.0
176
     1
 90
        1
176
     1
 90
        6
176
     1
 90
        2
176
     1
 62
     7
176
     1
 90
        5
176
     1
 90
        0
176
     1
 90
        0
176
     1
290
     0
176
     1
 90
        1
176
     1
 40
50.0
176
     1
 90
        0
176
     1
290
     0
176
     1
290
     1
176
     1
290
     1
176
     1
290
     0
176
     1
290
     0
176
     1
290
     0
176
     1
290
     0
176
     1
290
     0
176
     1
290
     0
176
     1
 90
       50
176
     1
 40
0.0
176
     1
 40
1.0
176
     1
 90
        0
176
     1
 62
    18
420
        0
176
     1
 90
       50
176
     1
 90
        3
176
     1
 62
     5
420
      255
176
     1
290
     0
176
     1
 90
       50
176
     1
 90
       50
176
     1
 90
       50
176
     1
290
     0
176
     1
 90
       50
176
     1
 62
   256
176
     0
 40
1.0
176
     0
 90
        2
176
     1
  1
strokes_ogs.tif
176
     1
290
     0
176
     1
 40
1.0
176
     1
 40
1.0
176
     1
  0
VISUALSTYLE
  5
3A
102
{ACAD_REACTORS
330
2A
102
}
330
2A
100
AcDbVisualStyle
  2
ColorChange
 70
    16
177
     3
291
     1
 70
    58
 90
        2
176
     1
 90
        2
176
     1
 90
        3
176
     1
 90
        0
176
     1
 40
0.6
176
     1
 40
30.0
176
     1
 62
     8
420
  8421504
176
     1
 90
        1
176
     1
 90
        4
176
     1
 62
     7
176
     1
 62
   257
176
     1
 90
        1
176
     1
 90
        1
176
     1
 40
1.0
176
     1
 90
        8
176
     1
 62
     8
420
  8421504
176
     1
 40
1.0
176
     1
 90
        1
176
     1
 90
        6
176
     1
 90
        2
176
     1
 62
     7
176
     1
 90
        5
176
     1
 90
        0
176
     1
 90
        0
176
     1
290
     0
176
     1
 90
        1
176
     1
 40
0.0
176
     1
 90
        0
176
     1
290
     0
176
     1
290
     1
176
     1
290
     1
176
     1
290
     0
176
     1
290
     0
176
     1
290
     0
176
     1
290
     0
176
     1
290
     0
176
     1
290
     0
176
     1
 90
       50
176
     1
 40
0.0
176
     1
 40
1.0
176
     1
 90
        0
176
     1
 62
    18
420
        0
176
     1
 90
       50
176
     1
 90
        3
176
     1
 62
     5
420
      255
176
     1
290
     0
176
     1
 90
       50
176
     1
 90
       50
176
     1
 90
       50
176
     1
290
     0
176
     1
 90
       50
176
     1
 62
   256
176
     0
 40
1.0
176
     0
 90
        2
176
     1
  1
strokes_ogs.tif
176
     1
290
     0
176
     1
 40
1.0
176
     1
 40
1.0
176
     1
  0
VISUALSTYLE
  5
34
102
{ACAD_REACTORS
330
2A
102
}
330
2A
100
AcDbVisualStyle
  2
Conceptual
 70
     9
177
     3
291
     0
 70
    58
 90
        3
176
     1
 90
        2
176
     1
 90
        0
176
     1
 90
        0
176
     1
 40
0.6
176
     1
 40
30.0
176
     1
 62
     7
420
 16777215
176
     1
 90
        2
176
     1
 90
        2
176
     1
 62
     7
176
     1
 62
   257
176
     1
 90
        1
176
     1
 90
        1
176
     1
 40
179.0
176
     1
 90
        8
176
     1
 62
     7
176
     1
 40
1.0
176
     1
 90
        1
176
     1
 90
        6
176
     1
 90
        2
176
     1
 62
     7
176
     1
 90
        3
176
     1
 90
        0
176
     1
 90
        0
176
     1
290
     0
176
     1
 90
        1
176
     1
 40
0.0
176
     1
 90
        0
176
     1
290
     0
176
     1
290
     1
176
     1
290
     1
176
     1
290
     0
176
     1
290
     0
176
     1
290
     0
176
     1
290
     0
176
     1
290
     0
176
     1
290
     0
176
     1
 90
       50
176
     1
 40
0.0
176
     1
 40
1.0
176
     1
 90
        0
176
     1
 62
    18
420
        0
176
     1
 90
       50
176
     1
 90
        3
176
     1
 62
     5
420
      255
176
     1
290
     0
176
     1
 90
       50
176
     1
 90
       50
176
     1
 90
       50
176
     1
290
     0
176
     1
 90
       50
176
     1
 62
   256
176
     0
 40
1.0
176
     0
 90
        2
176
     1
  1
strokes_ogs.tif
176
     1
290
     0
176
     1
 40
1.0
176
     1
 40
1.0
176
     1
  0
VISUALSTYLE
  5
35
102
{ACAD_REACTORS
330
2A
102
}
330
2A
100
AcDbVisualStyle
  2
Dim
 70
    11
177
     3
291
     1
 70
    58
 90
        2
176
     1
 90
        2
176
     1
 90
        0
176
     1
 90
        0
176
     1
 40
0.6
176
     1
 40
30.0
176
     1
 62
     7
420
 16777215
176
     1
 90
        1
176
     1
 90
        4
176
     1
 62
     7
176
     1
 62
   257
176
     1
 90
        1
176
     1
 90
        1
176
     1
 40
1.0
176
     1
 90
        8
176
     1
 62
     7
176
     1
 40
1.0
176
     1
 90
        1
176
     1
 90
        6
176
     1
 90
        2
176
     1
 62
     7
176
     1
 90
        5
176
     1
 90
        0
176
     1
 90
        0
176
     1
290
     0
176
     1
 90
        1
176
     1
 40
-50.0
176
     1
 90
        0
176
     1
290
     0
176
     1
290
     1
176
     1
290
     1
176
     1
290
     0
176
     1
290
     0
176
     1
290
     0
176
     1
290
     0
176
     1
290
     0
176
     1
290
     0
176
     1
 90
       50
176
     1
 40
0.0
176
     1
 40
1.0
176
     1
 90
        0
176
     1
 62
    18
420
        0
176
     1
 90
       50
176
     1
 90
        3
176
     1
 62
     5
420
      255
176
     1
290
     0
176
     1
 90
       50
176
     1
 90
       50
176
     1
 90
       50
176
     1
290
     0
176
     1
 90
       50
176
     1
 62
   256
176
     0
 40
1.0
176
     0
 90
        2
176
     1
  1
strokes_ogs.tif
176
     1
290
     0
176
     1
 40
1.0
176
     1
 40
1.0
176
     1
  0
VISUALSTYLE
  5
3D
102
{ACAD_REACTORS
330
2A
102
}
330
2A
100
AcDbVisualStyle
  2
EdgeColorOff
 70
    22
177
     3
291
     1
 70
    58
 90
        2
176
     0
 90
        2
176
     0
 90
        0
176
     0
 90
        0
176
     0
 40
0.6
176
     0
 40
30.0
176
     0
 62
     7
420
 16777215
176
     0
 90
        1
176
     0
 90
        4
176
     0
 62
     7
176
     0
 62
   257
176
     0
 90
        1
176
     0
 90
        1
176
     0
 40
1.0
176
     0
 90
        8
176
     2
 62
     7
176
     0
 40
1.0
176
     0
 90
        1
176
     0
 90
        6
176
     0
 90
        2
176
     0
 62
     7
176
     0
 90
        5
176
     0
 90
        0
176
     0
 90
        0
176
     0
290
     0
176
     0
 90
        1
176
     0
 40
0.0
176
     0
 90
        0
176
     0
290
     0
176
     0
290
     1
176
     0
290
     1
176
     0
290
     0
176
     0
290
     0
176
     0
290
     0
176
     0
290
     0
176
     0
290
     0
176
     0
290
     0
176
     0
 90
       50
176
     0
 40
0.0
176
     0
 40
1.0
176
     0
 90
        0
176
     0
 62
    18
420
        0
176
     0
 90
       50
176
     0
 90
        3
176
     0
 62
     5
420
      255
176
     0
290
     0
176
     0
 90
       50
176
     0
 90
       50
176
     0
 90
       50
176
     0
290
     0
176
     0
 90
       50
176
     0
 62
   256
176
     0
 40
1.0
176
     0
 90
        2
176
     0
  1
strokes_ogs.tif
176
     0
290
     0
176
     0
 40
1.0
176
     0
 40
1.0
176
     0
  0
VISUALSTYLE
  5
39
102
{ACAD_REACTORS
330
2A
102
}
330
2A
100
AcDbVisualStyle
  2
Facepattern
 70
    15
177
     3
291
     1
 70
    58
 90
        2
176
     1
 90
        2
176
     1
 90
        0
176
     1
 90
        0
176
     1
 40
0.6
176
     1
 40
30.0
176
     1
 62
     7
420
 16777215
176
     1
 90
        1
176
     1
 90
        4
176
     1
 62
     7
176
     1
 62
   257
176
     1
 90
        1
176
     1
 90
        1
176
     1
 40
1.0
176
     1
 90
        8
176
     1
 62
     7
176
     1
 40
1.0
176
     1
 90
        1
176
     1
 90
        6
176
     1
 90
        2
176
     1
 62
     7
176
     1
 90
        5
176
     1
 90
        0
176
     1
 90
        0
176
     1
290
     0
176
     1
 90
        1
176
     1
 40
0.0
176
     1
 90
        0
176
     1
290
     0
176
     1
290
     1
176
     1
290
     1
176
     1
290
     0
176
     1
290
     0
176
     1
290
     0
176
     1
290
     0
176
     1
290
     0
176
     1
290
     0
176
     1
 90
       50
176
     1
 40
0.0
176
     1
 40
1.0
176
     1
 90
        0
176
     1
 62
    18
420
        0
176
     1
 90
       50
176
     1
 90
        3
176
     1
 62
     5
420
      255
176
     1
290
     0
176
     1
 90
       50
176
     1
 90
       50
176
     1
 90
       50
176
     1
290
     0
176
     1
 90
       50
176
     1
 62
   256
176
     0
 40
1.0
176
     0
 90
        2
176
     1
  1
strokes_ogs.tif
176
     1
290
     0
176
     1
 40
1.0
176
     1
 40
1.0
176
     1
  0
VISUALSTYLE
  5
2B
102
{ACAD_REACTORS
330
2A
102
}
330
2A
100
AcDbVisualStyle
  2
Flat
 70
     0
177
     3
291
     1
 70
    58
 90
        2
176
     1
 90
        1
176
     1
 90
        1
176
     1
 90
        2
176
     1
 40
0.6
176
     1
 40
30.0
176
     1
 62
     7
420
 16777215
176
     1
 90
        0
176
     1
 90
        0
176
     1
 62
     7
176
     1
 62
   257
176
     1
 90
        1
176
     1
 90
        1
176
     1
 40
1.0
176
     1
 90
        8
176
     1
 62
     7
176
     1
 40
1.0
176
     1
 90
        1
176
     1
 90
        6
176
     1
 90
        2
176
     1
 62
     7
176
     1
 90
        5
176
     1
 90
        0
176
     1
 90
        0
176
     1
290
     0
176
     1
 90
       13
176
     1
 40
0.0
176
     1
 90
        0
176
     1
290
     0
176
     1
290
     1
176
     1
290
     1
176
     1
290
     0
176
     1
290
     0
176
     1
290
     0
176
     1
290
     0
176
     1
290
     0
176
     1
290
     0
176
     1
 90
       50
176
     1
 40
0.0
176
     1
 40
1.0
176
     1
 90
        0
176
     1
 62
    18
420
        0
176
     1
 90
       50
176
     1
 90
        3
176
     1
 62
     5
420
      255
176
     1
290
     0
176
     1
 90
       50
176
     1
 90
       50
176
     1
 90
       50
176
     1
290
     0
176
     1
 90
       50
176
     1
 62
   256
176
     0
 40
1.0
176
     0
 90
        2
176
     1
  1
strokes_ogs.tif
176
     1
290
     0
176
     1
 40
1.0
176
     1
 40
1.0
176
     1
  0
VISUALSTYLE
  5
2C
102
{ACAD_REACTORS
330
2A
102
}
330
2A
100
AcDbVisualStyle
  2
FlatWithEdges
 70
     1
177
     3
291
     1
 70
    58
 90
        2
176
     1
 90
        1
176
     1
 90
        1
176
     1
 90
        2
176
     1
 40
0.6
176
     1
 40
30.0
176
     1
 62
     7
420
 16777215
176
     1
 90
        1
176
     1
 90
        0
176
     1
 62
     7
176
     1
 62
   257
176
     1
 90
        1
176
     1
 90
        1
176
     1
 40
1.0
176
     1
 90
        0
176
     1
 62
   257
176
     1
 40
1.0
176
     1
 90
        1
176
     1
 90
        6
176
     1
 90
        2
176
     1
 62
     7
176
     1
 90
        5
176
     1
 90
        0
176
     1
 90
        0
176
     1
290
     0
176
     1
 90
       13
176
     1
 40
0.0
176
     1
 90
        0
176
     1
290
     0
176
     1
290
     1
176
     1
290
     1
176
     1
290
     0
176
     1
290
     0
176
     1
290
     0
176
     1
290
     0
176
     1
290
     0
176
     1
290
     0
176
     1
 90
       50
176
     1
 40
0.0
176
     1
 40
1.0
176
     1
 90
        0
176
     1
 62
    18
420
        0
176
     1
 90
       50
176
     1
 90
        3
176
     1
 62
     5
420
      255
176
     1
290
     0
176
     1
 90
       50
176
     1
 90
       50
176
     1
 90
       50
176
     1
290
     0
176
     1
 90
       50
176
     1
 62
   256
176
     0
 40
1.0
176
     0
 90
        2
176
     1
  1
strokes_ogs.tif
176
     1
290
     0
176
     1
 40
1.0
176
     1
 40
1.0
176
     1
  0
VISUALSTYLE
  5
2D
102
{ACAD_REACTORS
330
2A
102
}
330
2A
100
AcDbVisualStyle
  2
Gouraud
 70
     2
177
     3
291
     1
 70
    58
 90
        2
176
     1
 90
        2
176
     1
 90
        1
176
     1
 90
        2
176
     1
 40
0.6
176
     1
 40
30.0
176
     1
 62
     7
420
 16777215
176
     1
 90
        0
176
     1
 90
        0
176
     1
 62
     7
176
     1
 62
   257
176
     1
 90
        1
176
     1
 90
        1
176
     1
 40
1.0
176
     1
 90
        0
176
     1
 62
     7
176
     1
 40
1.0
176
     1
 90
        1
176
     1
 90
        6
176
     1
 90
        2
176
     1
 62
     7
176
     1
 90
        5
176
     1
 90
        0
176
     1
 90
        0
176
     1
290
     0
176
     1
 90
       13
176
     1
 40
0.0
176
     1
 90
        0
176
     1
290
     0
176
     1
290
     1
176
     1
290
     1
176
     1
290
     0
176
     1
290
     0
176
     1
290
     0
176
     1
290
     0
176
     1
290
     0
176
     1
290
     0
176
     1
 90
       50
176
     1
 40
0.0
176
     1
 40
1.0
176
     1
 90
        0
176
     1
 62
    18
420
        0
176
     1
 90
       50
176
     1
 90
        3
176
     1
 62
     5
420
      255
176
     1
290
     0
176
     1
 90
       50
176
     1
 90
       50
176
     1
 90
       50
176
     1
290
     0
176
     1
 90
       50
176
     1
 62
   256
176
     0
 40
1.0
176
     0
 90
        2
176
     1
  1
strokes_ogs.tif
176
     1
290
     0
176
     1
 40
1.0
176
     1
 40
1.0
176
     1
  0
VISUALSTYLE
  5
2E
102
{ACAD_REACTORS
330
2A
102
}
330
2A
100
AcDbVisualStyle
  2
GouraudWithEdges
 70
     3
177
     3
291
     1
 70
    58
 90
        2
176
     1
 90
        2
176
     1
 90
        1
176
     1
 90
        2
176
     1
 40
0.6
176
     1
 40
30.0
176
     1
 62
     7
420
 16777215
176
     1
 90
        1
176
     1
 90
        0
176
     1
 62
     7
176
     1
 62
   257
176
     1
 90
        1
176
     1
 90
        1
176
     1
 40
1.0
176
     1
 90
        0
176
     1
 62
   257
176
     1
 40
1.0
176
     1
 90
        1
176
     1
 90
        6
176
     1
 90
        2
176
     1
 62
     7
176
     1
 90
        5
176
     1
 90
        0
176
     1
 90
        0
176
     1
290
     0
176
     1
 90
       13
176
     1
 40
0.0
176
     1
 90
        0
176
     1
290
     0
176
     1
290
     1
176
     1
290
     1
176
     1
290
     0
176
     1
290
     0
176
     1
290
     0
176
     1
290
     0
176
     1
290
     0
176
     1
290
     0
176
     1
 90
       50
176
     1
 40
0.0
176
     1
 40
1.0
176
     1
 90
        0
176
     1
 62
    18
420
        0
176
     1
 90
       50
176
     1
 90
        3
176
     1
 62
     5
420
      255
176
     1
290
     0
176
     1
 90
       50
176
     1
 90
       50
176
     1
 90
       50
176
     1
290
     0
176
     1
 90
       50
176
     1
 62
   256
176
     0
 40
1.0
176
     0
 90
        2
176
     1
  1
strokes_ogs.tif
176
     1
290
     0
176
     1
 40
1.0
176
     1
 40
1.0
176
     1
  0
VISUALSTYLE
  5
31
102
{ACAD_REACTORS
330
2A
102
}
330
2A
100
AcDbVisualStyle
  2
Hidden
 70
     6
177
     3
291
     0
 70
    58
 90
        1
176
     1
 90
        2
176
     1
 90
        2
176
     1
 90
        0
176
     1
 40
0.6
176
     1
 40
30.0
176
     1
 62
     7
420
 16777215
176
     1
 90
        2
176
     1
 90
        2
176
     1
 62
     7
176
     1
 62
   257
176
     1
 90
        2
176
     1
 90
        1
176
     1
 40
40.0
176
     1
 90
        0
176
     1
 62
   257
176
     1
 40
1.0
176
     1
 90
        1
176
     1
 90
        6
176
     1
 90
        2
176
     1
 62
     7
176
     1
 90
        3
176
     1
 90
        0
176
     1
 90
        0
176
     1
290
     0
176
     1
 90
        1
176
     1
 40
0.0
176
     1
 90
        0
176
     1
290
     0
176
     1
290
     1
176
     1
290
     1
176
     1
290
     0
176
     1
290
     0
176
     1
290
     0
176
     1
290
     0
176
     1
290
     0
176
     1
290
     0
176
     1
 90
       50
176
     1
 40
0.0
176
     1
 40
1.0
176
     1
 90
        0
176
     1
 62
    18
420
        0
176
     1
 90
       50
176
     1
 90
        3
176
     1
 62
     5
420
      255
176
     1
290
     0
176
     1
 90
       50
176
     1
 90
       50
176
     1
 90
       50
176
     1
290
     0
176
     1
 90
       50
176
     1
 62
   256
176
     0
 40
1.0
176
     0
 90
        2
176
     1
  1
strokes_ogs.tif
176
     1
290
     0
176
     1
 40
1.0
176
     1
 40
1.0
176
     1
  0
VISUALSTYLE
  5
3B
102
{ACAD_REACTORS
330
2A
102
}
330
2A
100
AcDbVisualStyle
  2
JitterOff
 70
    20
177
     3
291
     1
 70
    58
 90
        2
176
     0
 90
        2
176
     0
 90
        0
176
     0
 90
        0
176
     0
 40
0.6
176
     0
 40
30.0
176
     0
 62
     7
420
 16777215
176
     0
 90
        1
176
     0
 90
        4
176
     0
 62
     7
176
     0
 62
   257
176
     0
 90
        1
176
     0
 90
        1
176
     0
 40
1.0
176
     0
 90
       10
176
     2
 62
     7
176
     0
 40
1.0
176
     0
 90
        1
176
     0
 90
        6
176
     0
 90
        2
176
     0
 62
     7
176
     0
 90
        5
176
     0
 90
        0
176
     0
 90
        0
176
     0
290
     0
176
     0
 90
        1
176
     0
 40
0.0
176
     0
 90
        0
176
     0
290
     0
176
     0
290
     1
176
     0
290
     1
176
     0
290
     0
176
     0
290
     0
176
     0
290
     0
176
     0
290
     0
176
     0
290
     0
176
     0
290
     0
176
     0
 90
       50
176
     0
 40
0.0
176
     0
 40
1.0
176
     0
 90
        0
176
     0
 62
    18
420
        0
176
     0
 90
       50
176
     0
 90
        3
176
     0
 62
     5
420
      255
176
     0
290
     0
176
     0
 90
       50
176
     0
 90
       50
176
     0
 90
       50
176
     0
290
     0
176
     0
 90
       50
176
     0
 62
   256
176
     0
 40
1.0
176
     0
 90
        2
176
     0
  1
strokes_ogs.tif
176
     0
290
     0
176
     0
 40
1.0
176
     0
 40
1.0
176
     0
  0
VISUALSTYLE
  5
38
102
{ACAD_REACTORS
330
2A
102
}
330
2A
100
AcDbVisualStyle
  2
Linepattern
 70
    14
177
     3
291
     1
 70
    58
 90
        2
176
     1
 90
        2
176
     1
 90
        0
176
     1
 90
        0
176
     1
 40
0.6
176
     1
 40
30.0
176
     1
 62
     7
420
 16777215
176
     1
 90
        1
176
     1
 90
        4
176
     1
 62
     7
176
     1
 62
   257
176
     1
 90
        7
176
     1
 90
        7
176
     1
 40
1.0
176
     1
 90
        8
176
     1
 62
     7
176
     1
 40
1.0
176
     1
 90
        1
176
     1
 90
        6
176
     1
 90
        2
176
     1
 62
     7
176
     1
 90
        5
176
     1
 90
        0
176
     1
 90
        0
176
     1
290
     0
176
     1
 90
        1
176
     1
 40
0.0
176
     1
 90
        0
176
     1
290
     0
176
     1
290
     1
176
     1
290
     1
176
     1
290
     0
176
     1
290
     0
176
     1
290
     0
176
     1
290
     0
176
     1
290
     0
176
     1
290
     0
176
     1
 90
       50
176
     1
 40
0.0
176
     1
 40
1.0
176
     1
 90
        0
176
     1
 62
    18
420
        0
176
     1
 90
       50
176
     1
 90
        3
176
     1
 62
     5
420
      255
176
     1
290
     0
176
     1
 90
       50
176
     1
 90
       50
176
     1
 90
       50
176
     1
290
     0
176
     1
 90
       50
176
     1
 62
   256
176
     0
 40
1.0
176
     0
 90
        2
176
     1
  1
strokes_ogs.tif
176
     1
290
     0
176
     1
 40
1.0
176
     1
 40
1.0
176
     1
  0
VISUALSTYLE
  5
3C
102
{ACAD_REACTORS
330
2A
102
}
330
2A
100
AcDbVisualStyle
  2
OverhangOff
 70
    21
177
     3
291
     1
 70
    58
 90
        2
176
     0
 90
        2
176
     0
 90
        0
176
     0
 90
        0
176
     0
 40
0.6
176
     0
 40
30.0
176
     0
 62
     7
420
 16777215
176
     0
 90
        1
176
     0
 90
        4
176
     0
 62
     7
176
     0
 62
   257
176
     0
 90
        1
176
     0
 90
        1
176
     0
 40
1.0
176
     0
 90
        9
176
     2
 62
     7
176
     0
 40
1.0
176
     0
 90
        1
176
     0
 90
        6
176
     0
 90
        2
176
     0
 62
     7
176
     0
 90
        5
176
     0
 90
        0
176
     0
 90
        0
176
     0
290
     0
176
     0
 90
        1
176
     0
 40
0.0
176
     0
 90
        0
176
     0
290
     0
176
     0
290
     1
176
     0
290
     1
176
     0
290
     0
176
     0
290
     0
176
     0
290
     0
176
     0
290
     0
176
     0
290
     0
176
     0
290
     0
176
     0
 90
       50
176
     0
 40
0.0
176
     0
 40
1.0
176
     0
 90
        0
176
     0
 62
    18
420
        0
176
     0
 90
       50
176
     0
 90
        3
176
     0
 62
     5
420
      255
176
     0
290
     0
176
     0
 90
       50
176
     0
 90
       50
176
     0
 90
       50
176
     0
290
     0
176
     0
 90
       50
176
     0
 62
   256
176
     0
 40
1.0
176
     0
 90
        2
176
     0
  1
strokes_ogs.tif
176
     0
290
     0
176
     0
 40
1.0
176
     0
 40
1.0
176
     0
  0
VISUALSTYLE
  5
33
102
{ACAD_REACTORS
330
2A
102
}
330
2A
100
AcDbVisualStyle
  2
Realistic
 70
     8
177
     3
291
     0
 70
    58
 90
        2
176
     1
 90
        3
176
     1
 90
        0
176
     1
 90
        2
176
     1
 40
0.6
176
     1
 40
30.0
176
     1
 62
     7
420
 16777215
176
     1
 90
        0
176
     1
 90
        0
176
     1
 62
     7
176
     1
 62
   257
176
     1
 90
        1
176
     1
 90
        1
176
     1
 40
1.0
176
     1
 90
        8
176
     1
 62
   257
176
     1
 40
1.0
176
     1
 90
        1
176
     1
 90
        6
176
     1
 90
        2
176
     1
 62
     7
176
     1
 90
        3
176
     1
 90
        0
176
     1
 90
        0
176
     1
290
     0
176
     1
 90
       13
176
     1
 40
0.0
176
     1
 90
        0
176
     1
290
     0
176
     1
290
     1
176
     1
290
     1
176
     1
290
     0
176
     1
290
     0
176
     1
290
     0
176
     1
290
     0
176
     1
290
     0
176
     1
290
     0
176
     1
 90
       50
176
     1
 40
0.0
176
     1
 40
1.0
176
     1
 90
        0
176
     1
 62
    18
420
        0
176
     1
 90
       50
176
     1
 90
        3
176
     1
 62
     5
420
      255
176
     1
290
     0
176
     1
 90
       50
176
     1
 90
       50
176
     1
 90
       50
176
     1
290
     0
176
     1
 90
       50
176
     1
 62
   256
176
     0
 40
1.0
176
     0
 90
        2
176
     1
  1
strokes_ogs.tif
176
     1
290
     0
176
     1
 40
1.0
176
     1
 40
1.0
176
     1
  0
VISUALSTYLE
  5
42
102
{ACAD_REACTORS
330
2A
102
}
330
2A
100
AcDbVisualStyle
  2
Shaded
 70
    27
177
     3
291
     0
 70
    58
 90
        2
176
     1
 90
        2
176
     1
 90
        1
176
     1
 90
        2
176
     1
 40
0.6
176
     1
 40
30.0
176
     1
 62
     7
420
 16777215
176
     1
 90
        0
176
     1
 90
        4
176
     1
 62
     7
176
     1
 62
   257
176
     1
 90
        1
176
     1
 90
        1
176
     1
 40
1.0
176
     1
 90
        8
176
     1
 62
   257
176
     1
 40
1.0
176
     1
 90
        1
176
     1
 90
        6
176
     1
 90
        2
176
     1
 62
     8
420
  7895160
176
     1
 90
        3
176
     1
 90
        0
176
     1
 90
        0
176
     1
290
     0
176
     1
 90
        5
176
     1
 40
0.0
176
     1
 90
        0
176
     1
290
     0
176
     1
290
     1
176
     1
290
     1
176
     1
290
     0
176
     1
290
     0
176
     1
290
     0
176
     1
290
     0
176
     1
290
     0
176
     1
290
     0
176
     1
 90
       50
176
     1
 40
0.0
176
     1
 40
1.0
176
     1
 90
        0
176
     1
 62
    18
420
        0
176
     1
 90
       50
176
     1
 90
        3
176
     1
 62
     5
420
      255
176
     1
290
     0
176
     1
 90
       50
176
     1
 90
       50
176
     1
 90
       50
176
     1
290
     0
176
     1
 90
       50
176
     1
 62
   256
176
     0
 40
1.0
176
     0
 90
        2
176
     1
  1
strokes_ogs.tif
176
     1
290
     0
176
     1
 40
1.0
176
     1
 40
1.0
176
     1
  0
VISUALSTYLE
  5
41
102
{ACAD_REACTORS
330
2A
102
}
330
2A
100
AcDbVisualStyle
  2
Shaded with edges
 70
    26
177
     3
291
     0
 70
    58
 90
        2
176
     1
 90
        2
176
     1
 90
        1
176
     1
 90
        2
176
     1
 40
0.6
176
     1
 40
30.0
176
     1
 62
     7
420
 16777215
176
     1
 90
        1
176
     1
 90
       10
176
     1
 62
     7
176
     1
 62
   257
176
     1
 90
        2
176
     1
 90
        1
176
     1
 40
1.0
176
     1
 90
        8
176
     1
 62
   257
176
     1
 40
1.0
176
     1
 90
        1
176
     1
 90
        6
176
     1
 90
        2
176
     1
 62
     7
176
     1
 90
        3
176
     1
 90
        0
176
     1
 90
        0
176
     1
290
     0
176
     1
 90
        5
176
     1
 40
0.0
176
     1
 90
        0
176
     1
290
     0
176
     1
290
     1
176
     1
290
     1
176
     1
290
     0
176
     1
290
     0
176
     1
290
     0
176
     1
290
     0
176
     1
290
     0
176
     1
290
     0
176
     1
 90
       50
176
     1
 40
0.0
176
     1
 40
1.0
176
     1
 90
        0
176
     1
 62
    18
420
        0
176
     1
 90
       50
176
     1
 90
        3
176
     1
 62
     5
420
      255
176
     1
290
     0
176
     1
 90
       50
176
     1
 90
       50
176
     1
 90
       50
176
     1
290
     0
176
     1
 90
       50
176
     1
 62
   256
176
     0
 40
1.0
176
     0
 90
        2
176
     1
  1
strokes_ogs.tif
176
     1
290
     0
176
     1
 40
1.0
176
     1
 40
1.0
176
     1
  0
VISUALSTYLE
  5
3E
102
{ACAD_REACTORS
330
2A
102
}
330
2A
100
AcDbVisualStyle
  2
Shades of Gray
 70
    23
177
     3
291
     0
 70
    58
 90
        2
176
     1
 90
        2
176
     1
 90
        3
176
     1
 90
        0
176
     1
 40
0.6
176
     1
 40
30.0
176
     1
 62
     7
420
 16777215
176
     1
 90
        2
176
     1
 90
        2
176
     1
 62
     7
176
     1
 62
     7
176
     1
 90
        1
176
     1
 90
        1
176
     1
 40
40.0
176
     1
 90
        8
176
     1
 62
     7
176
     1
 40
1.0
176
     1
 90
        1
176
     1
 90
        6
176
     1
 90
        2
176
     1
 62
     7
176
     1
 90
        3
176
     1
 90
        0
176
     1
 90
        0
176
     1
290
     0
176
     1
 90
        1
176
     1
 40
0.0
176
     1
 90
        0
176
     1
290
     0
176
     1
290
     1
176
     1
290
     1
176
     1
290
     0
176
     1
290
     0
176
     1
290
     0
176
     1
290
     0
176
     1
290
     0
176
     1
290
     0
176
     1
 90
       50
176
     1
 40
0.0
176
     1
 40
1.0
176
     1
 90
        0
176
     1
 62
    18
420
        0
176
     1
 90
       50
176
     1
 90
        3
176
     1
 62
     5
420
      255
176
     1
290
     0
176
     1
 90
       50
176
     1
 90
       50
176
     1
 90
       50
176
     1
290
     0
176
     1
 90
       50
176
     1
 62
   256
176
     0
 40
1.0
176
     0
 90
        2
176
     1
  1
strokes_ogs.tif
176
     1
290
     0
176
     1
 40
1.0
176
     1
 40
1.0
176
     1
  0
VISUALSTYLE
  5
3F
102
{ACAD_REACTORS
330
2A
102
}
330
2A
100
AcDbVisualStyle
  2
Sketchy
 70
    24
177
     3
291
     0
 70
    58
 90
        1
176
     1
 90
        2
176
     1
 90
        2
176
     1
 90
        0
176
     1
 40
0.6
176
     1
 40
30.0
176
     1
 62
     7
420
 16777215
176
     1
 90
        2
176
     1
 90
        2
176
     1
 62
     7
176
     1
 62
     7
176
     1
 90
        1
176
     1
 90
        1
176
     1
 40
40.0
176
     1
 90
       11
176
     1
 62
     7
176
     1
 40
1.0
176
     1
 90
        1
176
     1
 90
        6
176
     1
 90
        2
176
     1
 62
     7
176
     1
 90
        6
176
     1
 90
        0
176
     1
 90
        0
176
     1
290
     0
176
     1
 90
        1
176
     1
 40
0.0
176
     1
 90
        0
176
     1
290
     0
176
     1
290
     1
176
     1
290
     1
176
     1
290
     0
176
     1
290
     0
176
     1
290
     0
176
     1
290
     0
176
     1
290
     0
176
     1
290
     0
176
     1
 90
       50
176
     1
 40
0.0
176
     1
 40
1.0
176
     1
 90
        0
176
     1
 62
    18
420
        0
176
     1
 90
       50
176
     1
 90
        3
176
     1
 62
     5
420
      255
176
     1
290
     0
176
     1
 90
       50
176
     1
 90
       50
176
     1
 90
       50
176
     1
290
     0
176
     1
 90
       50
176
     1
 62
   256
176
     0
 40
1.0
176
     0
 90
        2
176
     1
  1
strokes_ogs.tif
176
     1
290
     0
176
     1
 40
1.0
176
     1
 40
1.0
176
     1
  0
VISUALSTYLE
  5
37
102
{ACAD_REACTORS
330
2A
102
}
330
2A
100
AcDbVisualStyle
  2
Thicken
 70
    13
177
     3
291
     1
 70
    58
 90
        2
176
     1
 90
        2
176
     1
 90
        0
176
     1
 90
        0
176
     1
 40
0.6
176
     1
 40
30.0
176
     1
 62
     7
420
 16777215
176
     1
 90
        1
176
     1
 90
        4
176
     1
 62
     7
176
     1
 62
   257
176
     1
 90
        1
176
     1
 90
        1
176
     1
 40
1.0
176
     1
 90
       12
176
     1
 62
     7
176
     1
 40
1.0
176
     1
 90
        1
176
     1
 90
        6
176
     1
 90
        2
176
     1
 62
     7
176
     1
 90
        5
176
     1
 90
        0
176
     1
 90
        0
176
     1
290
     0
176
     1
 90
        1
176
     1
 40
0.0
176
     1
 90
        0
176
     1
290
     0
176
     1
290
     1
176
     1
290
     1
176
     1
290
     0
176
     1
290
     0
176
     1
290
     0
176
     1
290
     0
176
     1
290
     0
176
     1
290
     0
176
     1
 90
       50
176
     1
 40
0.0
176
     1
 40
1.0
176
     1
 90
        0
176
     1
 62
    18
420
        0
176
     1
 90
       50
176
     1
 90
        3
176
     1
 62
     5
420
      255
176
     1
290
     0
176
     1
 90
       50
176
     1
 90
       50
176
     1
 90
       50
176
     1
290
     0
176
     1
 90
       50
176
     1
 62
   256
176
     0
 40
1.0
176
     0
 90
        2
176
     1
  1
strokes_ogs.tif
176
     1
290
     0
176
     1
 40
1.0
176
     1
 40
1.0
176
     1
  0
VISUALSTYLE
  5
30
102
{ACAD_REACTORS
330
2A
102
}
330
2A
100
AcDbVisualStyle
  2
Wireframe
 70
     5
177
     3
291
     0
 70
    58
 90
        0
176
     1
 90
        2
176
     1
 90
        0
176
     1
 90
        0
176
     1
 40
0.6
176
     1
 40
30.0
176
     1
 62
     7
420
 16777215
176
     1
 90
        1
176
     1
 90
        4
176
     1
 62
     7
176
     1
 62
   257
176
     1
 90
        1
176
     1
 90
        1
176
     1
 40
1.0
176
     1
 90
        0
176
     1
 62
   257
176
     1
 40
1.0
176
     1
 90
        1
176
     1
 90
        6
176
     1
 90
        2
176
     1
 62
     7
176
     1
 90
        3
176
     1
 90
        0
176
     1
 90
        0
176
     1
290
     0
176
     1
 90
        1
176
     1
 40
0.0
176
     1
 90
        0
176
     1
290
     0
176
     1
290
     1
176
     1
290
     1
176
     1
290
     0
176
     1
290
     0
176
     1
290
     0
176
     1
290
     0
176
     1
290
     0
176
     1
290
     0
176
     1
 90
       50
176
     1
 40
0.0
176
     1
 40
1.0
176
     1
 90
        0
176
     1
 62
    18
420
        0
176
     1
 90
       50
176
     1
 90
        3
176
     1
 62
     5
420
      255
176
     1
290
     0
176
     1
 90
       50
176
     1
 90
       50
176
     1
 90
       50
176
     1
290
     0
176
     1
 90
       50
176
     1
 62
   256
176
     0
 40
1.0
176
     0
 90
        2
176
     1
  1
strokes_ogs.tif
176
     1
290
     0
176
     1
 40
1.0
176
     1
 40
1.0
176
     1
  0
VISUALSTYLE
  5
40
102
{ACAD_REACTORS
330
2A
102
}
330
2A
100
AcDbVisualStyle
  2
X-Ray
 70
    25
177
     3
291
     0
 70
    58
 90
        2
176
     1
 90
        2
176
     1
 90
        1
176
     1
 90
        1
176
     1
 40
0.5
176
     1
 40
30.0
176
     1
 62
     7
420
 16777215
176
     1
 90
        1
176
     1
 90
        0
176
     1
 62
     7
176
     1
 62
   257
176
     1
 90
        1
176
     1
 90
        1
176
     1
 40
1.0
176
     1
 90
        8
176
     1
 62
     7
176
     1
 40
1.0
176
     1
 90
        1
176
     1
 90
        6
176
     1
 90
        2
176
     1
 62
     7
176
     1
 90
        3
176
     1
 90
        0
176
     1
 90
        0
176
     1
290
     0
176
     1
 90
       13
176
     1
 40
0.0
176
     1
 90
        0
176
     1
290
     0
176
     1
290
     1
176
     1
290
     1
176
     1
290
     0
176
     1
290
     0
176
     1
290
     0
176
     1
290
     0
176
     1
290
     0
176
     1
290
     0
176
     1
 90
       50
176
     1
 40
0.0
176
     1
 40
1.0
176
     1
 90
        0
176
     1
 62
    18
420
        0
176
     1
 90
       50
176
     1
 90
        3
176
     1
 62
     5
420
      255
176
     1
290
     0
176
     1
 90
       50
176
     1
 90
       50
176
     1
 90
       50
176
     1
290
     0
176
     1
 90
       50
176
     1
 62
   256
176
     0
 40
1.0
176
     0
 90
        2
176
     1
  1
strokes_ogs.tif
176
     1
290
     0
176
     1
 40
1.0
176
     1
 40
1.0
176
     1
  0
DICTIONARYVAR
  5
90
102
{ACAD_REACTORS
330
8F
102
}
330
8F
100
DictionaryVariables
280
     0
  1
1:1
  0
DICTIONARYVAR
  5
98
102
{ACAD_REACTORS
330
8F
102
}
330
8F
100
DictionaryVariables
280
     0
  1
3.500000
  0
DICTIONARYVAR
  5
99
102
{ACAD_REACTORS
330
8F
102
}
330
8F
100
DictionaryVariables
280
     0
  1
acadiso.lin
  0
DICTIONARYVAR
  5
95
102
{ACAD_REACTORS
330
8F
102
}
330
8F
100
DictionaryVariables
280
     0
  1
Standard
  0
DICTIONARYVAR
  5
94
102
{ACAD_REACTORS
330
8F
102
}
330
8F
100
DictionaryVariables
280
     0
  1
Standard
  0
DICTIONARY
  5
91
330
5A
100
AcDbDictionary
280
     1
281
     1
  3
ACAD_ROUNDTRIP_2008_TABLESTYLE_CELLSTYLEMAP
360
92
  0
CELLSTYLEMAP
  5
92
102
{ACAD_REACTORS
330
91
102
}
330
91
100
AcDbCellStyleMap
 90
        3
300
CELLSTYLE
  1
TABLEFORMAT_BEGIN
 90
        5
170
     1
 91
        0
 92
    32768
 62
   257
 93
        1
300
CONTENTFORMAT
  1
CONTENTFORMAT_BEGIN
 90
        0
 91
        0
 92
        4
 93
        0
300

 40
0.0
140
1.0
 94
        5
 62
     0
340
11
144
6.0
309
CONTENTFORMAT_END
171
     1
301
MARGIN
  1
CELLMARGIN_BEGIN
 40
1.5
 40
1.5
 40
1.5
 40
1.5
 40
1.5
 40
1.5
309
CELLMARGIN_END
 94
        6
 95
        1
302
GRIDFORMAT
  1
GRIDFORMAT_BEGIN
 90
        0
 91
        1
 62
     0
 92
       -2
340
14
 93
        0
 40
0.045
309
GRIDFORMAT_END
 95
        2
302
GRIDFORMAT
  1
GRIDFORMAT_BEGIN
 90
        0
 91
        1
 62
     0
 92
       -2
340
14
 93
        0
 40
0.045
309
GRIDFORMAT_END
 95
        4
302
GRIDFORMAT
  1
GRIDFORMAT_BEGIN
 90
        0
 91
        1
 62
     0
 92
       -2
340
14
 93
        0
 40
0.045
309
GRIDFORMAT_END
 95
        8
302
GRIDFORMAT
  1
GRIDFORMAT_BEGIN
 90
        0
 91
        1
 62
     0
 92
       -2
340
14
 93
        0
 40
0.045
309
GRIDFORMAT_END
 95
       16
302
GRIDFORMAT
  1
GRIDFORMAT_BEGIN
 90
        0
 91
        1
 62
     0
 92
       -2
340
14
 93
        0
 40
0.045
309
GRIDFORMAT_END
 95
       32
302
GRIDFORMAT
  1
GRIDFORMAT_BEGIN
 90
        0
 91
        1
 62
     0
 92
       -2
340
14
 93
        0
 40
0.045
309
GRIDFORMAT_END
309
TABLEFORMAT_END
  1
CELLSTYLE_BEGIN
 90
        1
 91
        1
300
_TITLE
309
CELLSTYLE_END
300
CELLSTYLE
  1
TABLEFORMAT_BEGIN
 90
        5
170
     1
 91
        0
 92
        0
 62
   257
 93
        1
300
CONTENTFORMAT
  1
CONTENTFORMAT_BEGIN
 90
        0
 91
        0
 92
        4
 93
        0
300

 40
0.0
140
1.0
 94
        5
 62
     0
340
11
144
4.5
309
CONTENTFORMAT_END
171
     1
301
MARGIN
  1
CELLMARGIN_BEGIN
 40
1.5
 40
1.5
 40
1.5
 40
1.5
 40
1.5
 40
1.5
309
CELLMARGIN_END
 94
        6
 95
        1
302
GRIDFORMAT
  1
GRIDFORMAT_BEGIN
 90
        0
 91
        1
 62
     0
 92
       -2
340
14
 93
        0
 40
0.045
309
GRIDFORMAT_END
 95
        2
302
GRIDFORMAT
  1
GRIDFORMAT_BEGIN
 90
        0
 91
        1
 62
     0
 92
       -2
340
14
 93
        0
 40
0.045
309
GRIDFORMAT_END
 95
        4
302
GRIDFORMAT
  1
GRIDFORMAT_BEGIN
 90
        0
 91
        1
 62
     0
 92
       -2
340
14
 93
        0
 40
0.045
309
GRIDFORMAT_END
 95
        8
302
GRIDFORMAT
  1
GRIDFORMAT_BEGIN
 90
        0
 91
        1
 62
     0
 92
       -2
340
14
 93
        0
 40
0.045
309
GRIDFORMAT_END
 95
       16
302
GRIDFORMAT
  1
GRIDFORMAT_BEGIN
 90
        0
 91
        1
 62
     0
 92
       -2
340
14
 93
        0
 40
0.045
309
GRIDFORMAT_END
 95
       32
302
GRIDFORMAT
  1
GRIDFORMAT_BEGIN
 90
        0
 91
        1
 62
     0
 92
       -2
340
14
 93
        0
 40
0.045
309
GRIDFORMAT_END
309
TABLEFORMAT_END
  1
CELLSTYLE_BEGIN
 90
        2
 91
        1
300
_HEADER
309
CELLSTYLE_END
300
CELLSTYLE
  1
TABLEFORMAT_BEGIN
 90
        5
170
     1
 91
        0
 92
        0
 62
   257
 93
        1
300
CONTENTFORMAT
  1
CONTENTFORMAT_BEGIN
 90
        0
 91
        0
 92
        4
 93
        0
300

 40
0.0
140
1.0
 94
        2
 62
     0
340
11
144
4.5
309
CONTENTFORMAT_END
171
     1
301
MARGIN
  1
CELLMARGIN_BEGIN
 40
1.5
 40
1.5
 40
1.5
 40
1.5
 40
1.5
 40
1.5
309
CELLMARGIN_END
 94
        6
 95
        1
302
GRIDFORMAT
  1
GRIDFORMAT_BEGIN
 90
        0
 91
        1
 62
     0
 92
       -2
340
14
 93
        0
 40
0.045
309
GRIDFORMAT_END
 95
        2
302
GRIDFORMAT
  1
GRIDFORMAT_BEGIN
 90
        0
 91
        1
 62
     0
 92
       -2
340
14
 93
        0
 40
0.045
309
GRIDFORMAT_END
 95
        4
302
GRIDFORMAT
  1
GRIDFORMAT_BEGIN
 90
        0
 91
        1
 62
     0
 92
       -2
340
14
 93
        0
 40
0.045
309
GRIDFORMAT_END
 95
        8
302
GRIDFORMAT
  1
GRIDFORMAT_BEGIN
 90
        0
 91
        1
 62
     0
 92
       -2
340
14
 93
        0
 40
0.045
309
GRIDFORMAT_END
 95
       16
302
GRIDFORMAT
  1
GRIDFORMAT_BEGIN
 90
        0
 91
        1
 62
     0
 92
       -2
340
14
 93
        0
 40
0.045
309
GRIDFORMAT_END
 95
       32
302
GRIDFORMAT
  1
GRIDFORMAT_BEGIN
 90
        0
 91
        1
 62
     0
 92
       -2
340
14
 93
        0
 40
0.045
309
GRIDFORMAT_END
309
TABLEFORMAT_END
  1
CELLSTYLE_BEGIN
 90
        3
 91
        2
300
_DATA
309
CELLSTYLE_END
  0
ENDSEC
  0
EOF
