  0
SECTION
  2
HEADER
  9
$ACADVER
  1
AC1027
  9
$ACADMAINTVER
 70
   105
  9
$DWGCODEPAGE
  3
ANSI_932
  9
$LASTSAVEDBY
  1
a.yasuda
  9
$REQUIREDVERSIONS
160
                 0
  9
$INSBASE
 10
0.0
 20
0.0
 30
0.0
  9
$EXTMIN
 10
0.0
 20
0.0
 30
0.0
  9
$EXTMAX
 10
302.9997823349792
 20
216.0016055409748
 30
0.0
  9
$LIMMIN
 10
0.0
 20
0.0
  9
$LIMMAX
 10
302.9997823349792
 20
216.0016055409748
  9
$ORTHOMODE
 70
     0
  9
$REGENMODE
 70
     1
  9
$FILLMODE
 70
     1
  9
$QTEXTMODE
 70
     0
  9
$MIRRTEXT
 70
     1
  9
$LTSCALE
 40
1.0
  9
$ATTMODE
 70
     1
  9
$TEXTSIZE
 40
2.5
  9
$TRACEWID
 40
1.0
  9
$TEXTSTYLE
  7
Standard
  9
$CLAYER
  8
0
  9
$CELTYPE
  6
ByLayer
  9
$CECOLOR
 62
   256
  9
$CELTSCALE
 40
1.0
  9
$DISPSILH
 70
     0
  9
$DIMSCALE
 40
1.0
  9
$DIMASZ
 40
2.5
  9
$DIMEXO
 40
0.625
  9
$DIMDLI
 40
3.75
  9
$DIMRND
 40
0.0
  9
$DIMDLE
 40
0.0
  9
$DIMEXE
 40
1.25
  9
$DIMTP
 40
0.0
  9
$DIMTM
 40
0.0
  9
$DIMTXT
 40
2.5
  9
$DIMCEN
 40
2.5
  9
$DIMTSZ
 40
0.0
  9
$DIMTOL
 70
     0
  9
$DIMLIM
 70
     0
  9
$DIMTIH
 70
     0
  9
$DIMTOH
 70
     0
  9
$DIMSE1
 70
     0
  9
$DIMSE2
 70
     0
  9
$DIMTAD
 70
     1
  9
$DIMZIN
 70
     8
  9
$DIMBLK
  1

  9
$DIMASO
 70
     1
  9
$DIMSHO
 70
     1
  9
$DIMPOST
  1

  9
$DIMAPOST
  1

  9
$DIMALT
 70
     0
  9
$DIMALTD
 70
     3
  9
$DIMALTF
 40
0.03937007874016
  9
$DIMLFAC
 40
1.0
  9
$DIMTOFL
 70
     1
  9
$DIMTVP
 40
0.0
  9
$DIMTIX
 70
     0
  9
$DIMSOXD
 70
     0
  9
$DIMSAH
 70
     0
  9
$DIMBLK1
  1

  9
$DIMBLK2
  1

  9
$DIMSTYLE
  2
ISO-25
  9
$DIMCLRD
 70
     0
  9
$DIMCLRE
 70
     0
  9
$DIMCLRT
 70
     0
  9
$DIMTFAC
 40
1.0
  9
$DIMGAP
 40
0.625
  9
$DIMJUST
 70
     0
  9
$DIMSD1
 70
     0
  9
$DIMSD2
 70
     0
  9
$DIMTOLJ
 70
     0
  9
$DIMTZIN
 70
     8
  9
$DIMALTZ
 70
     0
  9
$DIMALTTZ
 70
     0
  9
$DIMUPT
 70
     0
  9
$DIMDEC
 70
     2
  9
$DIMTDEC
 70
     2
  9
$DIMALTU
 70
     2
  9
$DIMALTTD
 70
     3
  9
$DIMTXSTY
  7
Standard
  9
$DIMAUNIT
 70
     0
  9
$DIMADEC
 70
     0
  9
$DIMALTRND
 40
0.0
  9
$DIMAZIN
 70
     0
  9
$DIMDSEP
 70
    44
  9
$DIMATFIT
 70
     3
  9
$DIMFRAC
 70
     0
  9
$DIMLDRBLK
  1

  9
$DIMLUNIT
 70
     2
  9
$DIMLWD
 70
    -2
  9
$DIMLWE
 70
    -2
  9
$DIMTMOVE
 70
     0
  9
$DIMFXL
 40
1.0
  9
$DIMFXLON
 70
     0
  9
$DIMJOGANG
 40
0.7853981633974483
  9
$DIMTFILL
 70
     0
  9
$DIMTFILLCLR
 70
     0
  9
$DIMARCSYM
 70
     0
  9
$DIMLTYPE
  6

  9
$DIMLTEX1
  6

  9
$DIMLTEX2
  6

  9
$DIMTXTDIRECTION
 70
     0
  9
$LUNITS
 70
     2
  9
$LUPREC
 70
     4
  9
$SKETCHINC
 40
1.0
  9
$FILLETRAD
 40
0.0
  9
$AUNITS
 70
     0
  9
$AUPREC
 70
     0
  9
$MENU
  1
.
  9
$ELEVATION
 40
0.0
  9
$PELEVATION
 40
0.0
  9
$THICKNESS
 40
0.0
  9
$LIMCHECK
 70
     0
  9
$CHAMFERA
 40
0.0
  9
$CHAMFERB
 40
0.0
  9
$CHAMFERC
 40
0.0
  9
$CHAMFERD
 40
0.0
  9
$SKPOLY
 70
     0
  9
$TDCREATE
 40
2459866.618884676
  9
$TDUCREATE
 40
2459866.243884676
  9
$TDUPDATE
 40
2459866.618884722
  9
$TDUUPDATE
 40
2459866.243884722
  9
$TDINDWG
 40
0.0000000116
  9
$TDUSRTIMER
 40
0.0000000116
  9
$USRTIMER
 70
     1
  9
$ANGBASE
 50
0.0
  9
$ANGDIR
 70
     0
  9
$PDMODE
 70
     0
  9
$PDSIZE
 40
0.0
  9
$PLINEWID
 40
0.0
  9
$SPLFRAME
 70
     0
  9
$SPLINETYPE
 70
     6
  9
$SPLINESEGS
 70
     8
  9
$HANDSEED
  5
90
  9
$SURFTAB1
 70
     6
  9
$SURFTAB2
 70
     6
  9
$SURFTYPE
 70
     6
  9
$SURFU
 70
     6
  9
$SURFV
 70
     6
  9
$UCSBASE
  2

  9
$UCSNAME
  2

  9
$UCSORG
 10
0.0
 20
0.0
 30
0.0
  9
$UCSXDIR
 10
1.0
 20
0.0
 30
0.0
  9
$UCSYDIR
 10
0.0
 20
1.0
 30
0.0
  9
$UCSORTHOREF
  2

  9
$UCSORTHOVIEW
 70
     0
  9
$UCSORGTOP
 10
0.0
 20
0.0
 30
0.0
  9
$UCSORGBOTTOM
 10
0.0
 20
0.0
 30
0.0
  9
$UCSORGLEFT
 10
0.0
 20
0.0
 30
0.0
  9
$UCSORGRIGHT
 10
0.0
 20
0.0
 30
0.0
  9
$UCSORGFRONT
 10
0.0
 20
0.0
 30
0.0
  9
$UCSORGBACK
 10
0.0
 20
0.0
 30
0.0
  9
$PUCSBASE
  2

  9
$PUCSNAME
  2

  9
$PUCSORG
 10
0.0
 20
0.0
 30
0.0
  9
$PUCSXDIR
 10
1.0
 20
0.0
 30
0.0
  9
$PUCSYDIR
 10
0.0
 20
1.0
 30
0.0
  9
$PUCSORTHOREF
  2

  9
$PUCSORTHOVIEW
 70
     0
  9
$PUCSORGTOP
 10
0.0
 20
0.0
 30
0.0
  9
$PUCSORGBOTTOM
 10
0.0
 20
0.0
 30
0.0
  9
$PUCSORGLEFT
 10
0.0
 20
0.0
 30
0.0
  9
$PUCSORGRIGHT
 10
0.0
 20
0.0
 30
0.0
  9
$PUCSORGFRONT
 10
0.0
 20
0.0
 30
0.0
  9
$PUCSORGBACK
 10
0.0
 20
0.0
 30
0.0
  9
$USERI1
 70
     0
  9
$USERI2
 70
     0
  9
$USERI3
 70
     0
  9
$USERI4
 70
     0
  9
$USERI5
 70
     0
  9
$USERR1
 40
0.0
  9
$USERR2
 40
0.0
  9
$USERR3
 40
0.0
  9
$USERR4
 40
0.0
  9
$USERR5
 40
0.0
  9
$WORLDVIEW
 70
     1
  9
$SHADEDGE
 70
     3
  9
$SHADEDIF
 70
    70
  9
$TILEMODE
 70
     1
  9
$MAXACTVP
 70
    64
  9
$PINSBASE
 10
0.0
 20
0.0
 30
0.0
  9
$PLIMCHECK
 70
     0
  9
$PEXTMIN
 10
1.000000000000000E+20
 20
1.000000000000000E+20
 30
1.000000000000000E+20
  9
$PEXTMAX
 10
-1.000000000000000E+20
 20
-1.000000000000000E+20
 30
-1.000000000000000E+20
  9
$PLIMMIN
 10
0.0
 20
0.0
  9
$PLIMMAX
 10
420.0
 20
297.0
  9
$UNITMODE
 70
     0
  9
$VISRETAIN
 70
     1
  9
$PLINEGEN
 70
     0
  9
$PSLTSCALE
 70
     1
  9
$TREEDEPTH
 70
  3020
  9
$CMLSTYLE
  2
Standard
  9
$CMLJUST
 70
     0
  9
$CMLSCALE
 40
20.0
  9
$PROXYGRAPHICS
 70
     1
  9
$MEASUREMENT
 70
     1
  9
$CELWEIGHT
370
    -1
  9
$ENDCAPS
280
     0
  9
$JOINSTYLE
280
     0
  9
$LWDISPLAY
290
     0
  9
$INSUNITS
 70
     4
  9
$HYPERLINKBASE
  1

  9
$STYLESHEET
  1

  9
$XEDIT
290
     1
  9
$CEPSNTYPE
380
     0
  9
$PSTYLEMODE
290
     1
  9
$FINGERPRINTGUID
  2
{9af8ecf0-b435-4ac3-8f58-26fef36de516}
  9
$VERSIONGUID
  2
{FAEB1C32-E019-11D5-929B-00C0DF256EC4}
  9
$EXTNAMES
290
     1
  9
$PSVPSCALE
 40
0.0
  9
$OLESTARTUP
290
     0
  9
$SORTENTS
280
   127
  9
$INDEXCTL
280
     0
  9
$HIDETEXT
280
     1
  9
$XCLIPFRAME
280
     2
  9
$HALOGAP
280
     0
  9
$OBSCOLOR
 70
   257
  9
$OBSLTYPE
280
     0
  9
$INTERSECTIONDISPLAY
280
     0
  9
$INTERSECTIONCOLOR
 70
   257
  9
$DIMASSOC
280
     2
  9
$PROJECTNAME
  1

  9
$CAMERADISPLAY
290
     0
  9
$LENSLENGTH
 40
50.0
  9
$CAMERAHEIGHT
 40
0.0
  9
$STEPSPERSEC
 40
2.0
  9
$STEPSIZE
 40
6.0
  9
$3DDWFPREC
 40
2.0
  9
$PSOLWIDTH
 40
5.0
  9
$PSOLHEIGHT
 40
80.0
  9
$LOFTANG1
 40
1.570796326794897
  9
$LOFTANG2
 40
1.570796326794897
  9
$LOFTMAG1
 40
0.0
  9
$LOFTMAG2
 40
0.0
  9
$LOFTPARAM
 70
     7
  9
$LOFTNORMALS
280
     1
  9
$LATITUDE
 40
37.795
  9
$LONGITUDE
 40
-122.394
  9
$NORTHDIRECTION
 40
0.0
  9
$TIMEZONE
 70
 -8000
  9
$LIGHTGLYPHDISPLAY
280
     1
  9
$TILEMODELIGHTSYNCH
280
     1
  9
$CMATERIAL
347
44
  9
$SOLIDHIST
280
     0
  9
$SHOWHIST
280
     1
  9
$DWFFRAME
280
     2
  9
$DGNFRAME
280
     2
  9
$REALWORLDSCALE
290
     1
  9
$INTERFERECOLOR
 62
   256
  9
$CSHADOW
280
     0
  9
$SHADOWPLANELOCATION
 40
0.0
  0
ENDSEC
  0
SECTION
  2
CLASSES
  0
CLASS
  1
ACDBDICTIONARYWDFLT
  2
AcDbDictionaryWithDefault
  3
ObjectDBX Classes
 90
        0
 91
        3
280
     0
281
     0
  0
CLASS
  1
VISUALSTYLE
  2
AcDbVisualStyle
  3
ObjectDBX Classes
 90
     4095
 91
        3
280
     0
281
     0
  0
CLASS
  1
MATERIAL
  2
AcDbMaterial
  3
ObjectDBX Classes
 90
     1153
 91
        3
280
     0
281
     0
  0
CLASS
  1
SCALE
  2
AcDbScale
  3
ObjectDBX Classes
 90
     1153
 91
        3
280
     0
281
     0
  0
CLASS
  1
TABLESTYLE
  2
AcDbTableStyle
  3
ObjectDBX Classes
 90
     4095
 91
        3
280
     0
281
     0
  0
CLASS
  1
MLEADERSTYLE
  2
AcDbMLeaderStyle
  3
ACDB_MLEADERSTYLE_CLASS
 90
     4095
 91
        3
280
     0
281
     0
  0
CLASS
  1
SUN
  2
AcDbSun
  3
SCENEOE
 90
     1153
 91
        3
280
     0
281
     0
  0
CLASS
  1
DICTIONARYVAR
  2
AcDbDictionaryVar
  3
ObjectDBX Classes
 90
        0
 91
        3
280
     0
281
     0
  0
CLASS
  1
CELLSTYLEMAP
  2
AcDbCellStyleMap
  3
ObjectDBX Classes
 90
     1152
 91
        3
280
     0
281
     0
  0
ENDSEC
  0
SECTION
  2
TABLES
  0
TABLE
  2
VPORT
  5
8
330
0
100
AcDbSymbolTable
 70
     1
  0
VPORT
  5
29
330
8
100
AcDbSymbolTableRecord
100
AcDbViewportTableRecord
  2
*Active
 70
     0
 10
0.0
 20
0.0
 11
1.0
 21
1.0
 12
151.4998911674896
 22
108.0008027704874
 13
0.0
 23
0.0
 14
10.0
 24
10.0
 15
10.0
 25
10.0
 16
0.0
 26
0.0
 36
1.0
 17
0.0
 27
0.0
 37
0.0
 40
237.6017660950723
 41
1.402766343222857
 42
50.0
 43
0.0
 44
0.0
 50
0.0
 51
0.0
 71
     0
 72
 10000
 73
     1
 74
     3
 75
     0
 76
     0
 77
     0
 78
     0
281
     0
 65
     1
110
0.0
120
0.0
130
0.0
111
1.0
121
0.0
131
0.0
112
0.0
122
1.0
132
0.0
 79
     0
146
0.0
348
2F
 60
     3
 61
     5
292
     1
282
     1
141
0.0
142
0.0
 63
   250
361
5D
  0
ENDTAB
  0
TABLE
  2
LTYPE
  5
5
330
0
100
AcDbSymbolTable
 70
     1
  0
LTYPE
  5
14
330
5
100
AcDbSymbolTableRecord
100
AcDbLinetypeTableRecord
  2
ByBlock
 70
     0
  3

 72
    65
 73
     0
 40
0.0
  0
LTYPE
  5
15
330
5
100
AcDbSymbolTableRecord
100
AcDbLinetypeTableRecord
  2
ByLayer
 70
     0
  3

 72
    65
 73
     0
 40
0.0
  0
LTYPE
  5
16
330
5
100
AcDbSymbolTableRecord
100
AcDbLinetypeTableRecord
  2
Continuous
 70
     0
  3
Solid line
 72
    65
 73
     0
 40
0.0
  0
ENDTAB
  0
TABLE
  2
LAYER
  5
2
330
0
100
AcDbSymbolTable
 70
     3
  0
LAYER
  5
10
330
2
100
AcDbSymbolTableRecord
100
AcDbLayerTableRecord
  2
0
 70
     0
 62
     7
  6
Continuous
370
    -3
390
F
347
46
348
0
  0
LAYER
  5
5F
330
2
100
AcDbSymbolTableRecord
100
AcDbLayerTableRecord
  2
外枠
 70
     0
 62
     7
  6
Continuous
370
    -3
390
F
347
46
348
0
  0
LAYER
  5
60
330
2
100
AcDbSymbolTableRecord
100
AcDbLayerTableRecord
  2
ISS138金台
 70
     0
 62
     7
  6
Continuous
370
    -3
390
F
347
46
348
0
  0
ENDTAB
  0
TABLE
  2
STYLE
  5
3
330
0
100
AcDbSymbolTable
 70
     2
  0
STYLE
  5
11
330
3
100
AcDbSymbolTableRecord
100
AcDbTextStyleTableRecord
  2
Standard
 70
     0
 40
0.0
 41
1.0
 50
0.0
 71
     0
 42
2.5
  3

  4

  0
STYLE
  5
5E
330
3
100
AcDbSymbolTableRecord
100
AcDbTextStyleTableRecord
  2
MS Gothic
 70
     0
 40
1.0
 41
1.0
 50
0.0
 71
     0
 42
2.5
  3
msgothic.ttc
  4

1001
ACAD
1000
MS Gothic
1071
    32817
  0
ENDTAB
  0
TABLE
  2
VIEW
  5
6
330
0
100
AcDbSymbolTable
 70
     0
  0
ENDTAB
  0
TABLE
  2
UCS
  5
7
330
0
100
AcDbSymbolTable
 70
     0
  0
ENDTAB
  0
TABLE
  2
APPID
  5
9
330
0
100
AcDbSymbolTable
 70
     1
  0
APPID
  5
12
330
9
100
AcDbSymbolTableRecord
100
AcDbRegAppTableRecord
  2
ACAD
 70
     0
  0
ENDTAB
  0
TABLE
  2
DIMSTYLE
  5
A
330
0
100
AcDbSymbolTable
 70
     1
100
AcDbDimStyleTable
  0
DIMSTYLE
105
27
330
A
100
AcDbSymbolTableRecord
100
AcDbDimStyleTableRecord
  2
ISO-25
 70
     0
 41
2.5
 42
0.625
 43
3.75
 44
1.25
 73
     0
 74
     0
 77
     1
 78
     8
140
2.5
141
2.5
143
0.03937007874016
147
0.625
171
     3
172
     1
178
     0
271
     2
272
     2
274
     3
278
    44
283
     0
284
     8
340
11
  0
ENDTAB
  0
TABLE
  2
BLOCK_RECORD
  5
1
330
0
100
AcDbSymbolTable
 70
     1
  0
BLOCK_RECORD
  5
1F
330
1
100
AcDbSymbolTableRecord
100
AcDbBlockTableRecord
  2
*Model_Space
340
22
 70
     0
280
     1
281
     0
  0
BLOCK_RECORD
  5
1B
330
1
100
AcDbSymbolTableRecord
100
AcDbBlockTableRecord
  2
*Paper_Space
340
1E
 70
     0
280
     1
281
     0
  0
BLOCK_RECORD
  5
23
330
1
100
AcDbSymbolTableRecord
100
AcDbBlockTableRecord
  2
*Paper_Space0
340
26
 70
     0
280
     1
281
     0
  0
ENDTAB
  0
ENDSEC
  0
SECTION
  2
BLOCKS
  0
BLOCK
  5
20
330
1F
100
AcDbEntity
  8
0
100
AcDbBlockBegin
  2
*Model_Space
 70
     0
 10
0.0
 20
0.0
 30
0.0
  3
*Model_Space
  1

  0
ENDBLK
  5
21
330
1F
100
AcDbEntity
  8
0
100
AcDbBlockEnd
  0
BLOCK
  5
1C
330
1B
100
AcDbEntity
 67
     1
  8
0
100
AcDbBlockBegin
  2
*Paper_Space
 70
     0
 10
0.0
 20
0.0
 30
0.0
  3
*Paper_Space
  1

  0
ENDBLK
  5
1D
330
1B
100
AcDbEntity
 67
     1
  8
0
100
AcDbBlockEnd
  0
BLOCK
  5
24
330
23
100
AcDbEntity
  8
0
100
AcDbBlockBegin
  2
*Paper_Space0
 70
     0
 10
0.0
 20
0.0
 30
0.0
  3
*Paper_Space0
  1

  0
ENDBLK
  5
25
330
23
100
AcDbEntity
  8
0
100
AcDbBlockEnd
  0
ENDSEC
  0
SECTION
  2
ENTITIES
  0
LWPOLYLINE
  5
61
330
1F
100
AcDbEntity
  8
外枠
  6
Continuous
 62
   250
420
  2367521
370
   100
100
AcDbPolyline
 90
        5
 70
     0
 43
0.0
 10
281.9999662644599
 20
13.29407825637392
 10
20.99981607051935
 20
13.29407825637392
 10
20.99981607051935
 20
193.0018900389566
 10
281.9999662644599
 20
193.0018900389566
 10
281.9999662644599
 20
13.29407825637392
  0
LINE
  5
62
330
1F
100
AcDbEntity
  8
外枠
  6
Continuous
 62
   250
420
  2367521
370
    25
100
AcDbLine
 10
223.3097080177524
 20
174.0786160074276
 30
0.0
 11
281.9999232007669
 21
174.0786160074276
 31
0.0
  0
LINE
  5
63
330
1F
100
AcDbEntity
  8
外枠
  6
Continuous
 62
   250
420
  2367521
370
    25
100
AcDbLine
 10
223.3097080177524
 20
50.37109023844297
 30
0.0
 11
281.9999232007669
 21
50.37109023844297
 31
0.0
  0
LINE
  5
64
330
1F
100
AcDbEntity
  8
外枠
  6
Continuous
 62
   250
420
  2367521
370
    25
100
AcDbLine
 10
223.3097080177524
 20
36.25997933925949
 30
0.0
 11
281.9999232007669
 21
36.25997933925949
 31
0.0
  0
LINE
  5
65
330
1F
100
AcDbEntity
  8
外枠
  6
Continuous
 62
   250
420
  2367521
370
    50
100
AcDbLine
 10
223.0158413772006
 20
193.3637327187979
 30
0.0
 11
223.0158413772006
 21
13.29396655992039
 31
0.0
  0
TEXT
  5
66
330
1F
100
AcDbEntity
  8
外枠
  6
Continuous
 62
   250
420
  2367521
100
AcDbText
 10
224.7190965599536
 20
186.6888051931772
 30
0.0
 40
2.688166626294454
  1
品名：
 41
0.974166170756022
  7
MS Gothic
100
AcDbText
  0
TEXT
  5
67
330
1F
100
AcDbEntity
  8
外枠
  6
Continuous
 62
   250
420
  2367521
100
AcDbText
 10
224.7190965599536
 20
168.1080059455944
 30
0.0
 40
2.688166626294454
  1
仕様：
 41
0.9978878657023111
  7
MS Gothic
100
AcDbText
  0
TEXT
  5
68
330
1F
100
AcDbEntity
  8
外枠
  6
Continuous
 62
   250
420
  2367521
100
AcDbText
 10
224.7190965599536
 20
44.16660664327048
 30
0.0
 40
2.688166626294454
  1
縮尺：
 41
0.9939999262491861
  7
MS Gothic
100
AcDbText
  0
TEXT
  5
69
330
1F
100
AcDbEntity
  8
外枠
  6
Continuous
 62
   250
420
  2367521
100
AcDbText
 10
250.2379519709696
 20
40.59738467878129
 30
0.0
 40
2.150533301035563
  1
1/1
 41
1.000003814697266
  7
MS Gothic
100
AcDbText
  0
TEXT
  5
6A
330
1F
100
AcDbEntity
  8
外枠
  6
Continuous
 62
   250
420
  2367521
100
AcDbText
 10
232.7757967427735
 20
181.9845273775436
 30
0.0
 40
2.688166626294454
  1
タイルロックインサート
 41
1.003178336403586
  7
MS Gothic
100
AcDbText
  0
TEXT
  5
6B
330
1F
100
AcDbEntity
  8
外枠
  6
Continuous
 62
   250
420
  2367521
100
AcDbText
 10
226.1633020978884
 20
24.25683874973963
 30
0.0
 40
2.553758294979732
  1
ヤスダインテリアサプライ株式会社
 41
1.0194908945184
  7
MS Gothic
100
AcDbText
  0
TEXT
  5
6C
330
1F
100
AcDbEntity
  8
外枠
  6
Continuous
 62
   250
420
  2367521
100
AcDbText
 10
227.7635273953072
 20
161.7763665048245
 30
0.0
 40
2.150533301035563
  1
材質
 41
1.028502464294433
  7
MS Gothic
100
AcDbText
  0
TEXT
  5
6D
330
1F
100
AcDbEntity
  8
外枠
  6
Continuous
 62
   250
420
  2367521
100
AcDbText
 10
232.7757967427735
 20
156.199681315683
 30
0.0
 40
2.016124969720841
  1
軟質塩ビ
 41
1.052407201131185
  7
MS Gothic
100
AcDbText
  0
TEXT
  5
6E
330
1F
100
AcDbEntity
  8
外枠
  6
Continuous
 62
   250
420
  2367521
100
AcDbText
 10
227.7635273953072
 20
135.3178613140838
 30
0.0
 40
2.150533301035563
  1
インサートカラー
 41
1.010754346847534
  7
MS Gothic
100
AcDbText
  0
TEXT
  5
6F
330
1F
100
AcDbEntity
  8
外枠
  6
Continuous
 62
   250
420
  2367521
100
AcDbText
 10
232.657974478918
 20
130.0717330318701
 30
0.0
 40
2.016124969720841
  1
IS-19  ライトベージュ
 41
0.9467488606770831
  7
MS Gothic
100
AcDbText
  0
TEXT
  5
70
330
1F
100
AcDbEntity
  8
外枠
  6
Continuous
 62
   250
420
  2367521
100
AcDbText
 10
232.657974478918
 20
124.7800664446763
 30
0.0
 40
2.016124969720841
  1
IS-14  ダークグレー
 41
0.9366206654331138
  7
MS Gothic
100
AcDbText
  0
TEXT
  5
71
330
1F
100
AcDbEntity
  8
外枠
  6
Continuous
 62
   250
420
  2367521
100
AcDbText
 10
232.657974478918
 20
119.4883998574825
 30
0.0
 40
2.016124969720841
  1
IS-7　ライトグリーン
 41
0.9930954996744787
  7
MS Gothic
100
AcDbText
  0
TEXT
  5
72
330
1F
100
AcDbEntity
  8
外枠
  6
Continuous
 62
   250
420
  2367521
100
AcDbText
 10
232.657974478918
 20
114.1967332702887
 30
0.0
 40
2.016124969720841
  1
IS-9     マスタードイエロー
 41
0.8884570463204088
  7
MS Gothic
100
AcDbText
  0
LINE
  5
73
330
1F
100
AcDbEntity
  8
ISS138金台
  6
Continuous
 62
   250
420
  2367521
370
    13
100
AcDbLine
 10
100.3849240803417
 20
110.0787336135747
 30
0.0
 11
105.3901309821675
 21
110.0787336135747
 31
0.0
  0
LINE
  5
74
330
1F
100
AcDbEntity
  8
ISS138金台
  6
Continuous
 62
   250
420
  2367521
370
    13
100
AcDbLine
 10
100.3849240803417
 20
102.0971365112241
 30
0.0
 11
105.3901309821675
 21
102.0971365112241
 31
0.0
  0
LINE
  5
75
330
1F
100
AcDbEntity
  8
ISS138金台
  6
Continuous
 62
   250
420
  2367521
370
    13
100
AcDbLine
 10
101.3991601762205
 20
110.0787336135747
 30
0.0
 11
101.3991601762205
 21
102.0971365112241
 31
0.0
  0
LINE
  5
76
330
1F
100
AcDbEntity
  8
ISS138金台
  6
Continuous
 62
   250
420
  2367521
370
    13
100
AcDbLine
 10
106.3600976017147
 20
111.0929697094535
 30
0.0
 11
106.3600976017147
 21
116.0981766112794
 31
0.0
  0
LINE
  5
77
330
1F
100
AcDbEntity
  8
ISS138金台
  6
Continuous
 62
   250
420
  2367521
370
    13
100
AcDbLine
 10
106.3600976017147
 20
115.1058168714088
 30
0.0
 11
136.3903054840395
 21
115.1058168714088
 31
0.0
  0
LINE
  5
78
330
1F
100
AcDbEntity
  8
ISS138金台
  6
Continuous
 62
   250
420
  2367521
370
    13
100
AcDbLine
 10
136.3903162499628
 20
116.0980043565077
 30
0.0
 11
136.3903162499628
 21
111.0927974546818
 31
0.0
  0
TEXT
  5
79
330
1F
100
AcDbEntity
  8
ISS138金台
  6
Continuous
 62
   250
420
  2367521
100
AcDbText
 10
119.9053838735724
 20
116.1431599113851
 30
0.0
 40
2.150533301035563
  1
30
 41
0.9490013122558593
  7
MS Gothic
100
AcDbText
  0
TEXT
  5
7A
330
1F
100
AcDbEntity
  8
ISS138金台
  6
Continuous
 62
   250
420
  2367521
100
AcDbText
 10
100.3397685254643
 20
105.562482629801
 30
0.0
 40
2.150533301035563
  1
8
 50
90.00000250447816
 41
0.8780059814453123
  7
MS Gothic
100
AcDbText
  0
HATCH
  5
7B
330
1F
100
AcDbEntity
  8
ISS138金台
  6
Continuous
 62
   250
420
  2367521
370
    13
100
AcDbHatch
 10
0.0
 20
0.0
 30
0.0
210
0.0
220
0.0
230
1.0
  2
SOLID
 70
     1
 71
     0
 91
        1
 92
        3
 72
     0
 73
     1
 93
       67
 10
106.4042055891979
 20
114.8558751976452
 10
106.4297423591051
 20
114.8571563425099
 10
106.4545362803094
 20
114.8609459474877
 10
106.478468927655
 20
114.8671040555766
 10
106.5014218759865
 20
114.8755014756979
 10
106.5232551683018
 20
114.886019782696
 10
106.5438503794455
 20
114.898529785492
 10
106.5630783183385
 20
114.9129130589305
 10
106.5808097939023
 20
114.9290296460094
 10
106.5969371469045
 20
114.9467718874964
 10
106.611320420343
 20
114.9659998263895
 10
106.623830423139
 20
114.9865950375331
 10
106.6343487301371
 20
115.0084283298485
 10
106.6427461502584
 20
115.0313705122567
 10
106.6489042583473
 20
115.0553031596024
 10
106.6526830974019
 20
115.0801078467298
 10
106.6539750081898
 20
115.1056446166371
 10
106.6539750081898
 20
115.1056446166371
 10
106.6526830974019
 20
115.1312352161606
 10
106.6489042583473
 20
115.1561044988274
 10
106.6427569161816
 20
115.180080209866
 10
106.6343487301371
 20
115.2030546900439
 10
106.6238196572158
 20
115.2249310460522
 10
106.6113096544197
 20
115.2455477890423
 10
106.5969371469045
 20
115.2648080257051
 10
106.5808097939023
 20
115.2825610331153
 10
106.5630783183385
 20
115.2986883861174
 10
106.5438503794455
 20
115.3130824254792
 10
106.5232551683018
 20
115.3256031941985
 10
106.5014218759865
 20
115.3361215011965
 10
106.478468927655
 20
115.344529687241
 10
106.4545362803094
 20
115.35068779533
 10
106.4297423591051
 20
115.3544666343846
 10
106.4042055891979
 20
115.3557585451724
 10
106.4042055891979
 20
115.3557585451724
 10
106.3786688192906
 20
115.3544666343846
 10
106.3538641321631
 20
115.3506770294068
 10
106.3299422507407
 20
115.3445189213178
 10
106.3069893024092
 20
115.3361215011965
 10
106.2851452441707
 20
115.3256031941985
 10
106.2645607989503
 20
115.3130824254792
 10
106.2453328600572
 20
115.2986991520407
 10
106.2275906185702
 20
115.2825610331153
 10
106.2114740314913
 20
115.2648080257051
 10
106.1970907580528
 20
115.2455477890423
 10
106.1845807552567
 20
115.2249310460522
 10
106.1740624482587
 20
115.2030654559672
 10
106.1656650281374
 20
115.180080209866
 10
106.1595069200484
 20
115.1560937329042
 10
106.1557280809939
 20
115.1312459820838
 10
106.154436170206
 20
115.1056446166371
 10
106.154436170206
 20
115.1056446166371
 10
106.1557280809939
 20
115.0801078467298
 10
106.1595069200484
 20
115.0553139255256
 10
106.1656757940606
 20
115.0313705122567
 10
106.1740732141819
 20
115.0084283298485
 10
106.1845807552567
 20
114.9865950375331
 10
106.1970907580528
 20
114.9659998263895
 10
106.2114740314913
 20
114.9467718874964
 10
106.2275906185702
 20
114.9290296460094
 10
106.2453328600572
 20
114.9129130589305
 10
106.2645607989503
 20
114.898529785492
 10
106.2851560100939
 20
114.886019782696
 10
106.3069893024092
 20
114.8755014756979
 10
106.3299314848175
 20
114.8671040555766
 10
106.3538748980864
 20
114.8609459474877
 10
106.3786688192906
 20
114.8571671084331
 97
        0
 75
     1
 76
     1
 98
        0
  0
LWPOLYLINE
  5
7C
330
1F
100
AcDbEntity
  8
ISS138金台
  6
Continuous
 62
   250
420
  2367521
370
    13
100
AcDbPolyline
 90
       68
 70
     0
 43
0.0
 10
106.4042055891979
 20
114.8558751976452
 10
106.4297423591051
 20
114.8571563425099
 10
106.4545362803094
 20
114.8609459474877
 10
106.478468927655
 20
114.8671040555766
 10
106.5014218759865
 20
114.8755014756979
 10
106.5232551683018
 20
114.886019782696
 10
106.5438503794455
 20
114.898529785492
 10
106.5630783183385
 20
114.9129130589305
 10
106.5808097939023
 20
114.9290296460094
 10
106.5969371469045
 20
114.9467718874964
 10
106.611320420343
 20
114.9659998263895
 10
106.623830423139
 20
114.9865950375331
 10
106.6343487301371
 20
115.0084283298485
 10
106.6427461502584
 20
115.0313705122567
 10
106.6489042583473
 20
115.0553031596024
 10
106.6526830974019
 20
115.0801078467298
 10
106.6539750081898
 20
115.1056446166371
 10
106.6539750081898
 20
115.1056446166371
 10
106.6526830974019
 20
115.1312352161606
 10
106.6489042583473
 20
115.1561044988274
 10
106.6427569161816
 20
115.180080209866
 10
106.6343487301371
 20
115.2030546900439
 10
106.6238196572158
 20
115.2249310460522
 10
106.6113096544197
 20
115.2455477890423
 10
106.5969371469045
 20
115.2648080257051
 10
106.5808097939023
 20
115.2825610331153
 10
106.5630783183385
 20
115.2986883861174
 10
106.5438503794455
 20
115.3130824254792
 10
106.5232551683018
 20
115.3256031941985
 10
106.5014218759865
 20
115.3361215011965
 10
106.478468927655
 20
115.344529687241
 10
106.4545362803094
 20
115.35068779533
 10
106.4297423591051
 20
115.3544666343846
 10
106.4042055891979
 20
115.3557585451724
 10
106.4042055891979
 20
115.3557585451724
 10
106.3786688192906
 20
115.3544666343846
 10
106.3538641321631
 20
115.3506770294068
 10
106.3299422507407
 20
115.3445189213178
 10
106.3069893024092
 20
115.3361215011965
 10
106.2851452441707
 20
115.3256031941985
 10
106.2645607989503
 20
115.3130824254792
 10
106.2453328600572
 20
115.2986991520407
 10
106.2275906185702
 20
115.2825610331153
 10
106.2114740314913
 20
115.2648080257051
 10
106.1970907580528
 20
115.2455477890423
 10
106.1845807552567
 20
115.2249310460522
 10
106.1740624482587
 20
115.2030654559672
 10
106.1656650281374
 20
115.180080209866
 10
106.1595069200484
 20
115.1560937329042
 10
106.1557280809939
 20
115.1312459820838
 10
106.154436170206
 20
115.1056446166371
 10
106.154436170206
 20
115.1056446166371
 10
106.1557280809939
 20
115.0801078467298
 10
106.1595069200484
 20
115.0553139255256
 10
106.1656757940606
 20
115.0313705122567
 10
106.1740732141819
 20
115.0084283298485
 10
106.1845807552567
 20
114.9865950375331
 10
106.1970907580528
 20
114.9659998263895
 10
106.2114740314913
 20
114.9467718874964
 10
106.2275906185702
 20
114.9290296460094
 10
106.2453328600572
 20
114.9129130589305
 10
106.2645607989503
 20
114.898529785492
 10
106.2851560100939
 20
114.886019782696
 10
106.3069893024092
 20
114.8755014756979
 10
106.3299314848175
 20
114.8671040555766
 10
106.3538748980864
 20
114.8609459474877
 10
106.3786688192906
 20
114.8571671084331
 10
106.4042055891979
 20
114.8558751976452
  0
HATCH
  5
7D
330
1F
100
AcDbEntity
  8
ISS138金台
  6
Continuous
 62
   250
420
  2367521
370
    13
100
AcDbHatch
 10
0.0
 20
0.0
 30
0.0
210
0.0
220
0.0
230
1.0
  2
SOLID
 70
     1
 71
     0
 91
        1
 92
        3
 72
     0
 73
     1
 93
       67
 10
101.4212087870005
 20
109.7846947182512
 10
101.4467455569078
 20
109.7859758631158
 10
101.471539478112
 20
109.7897654680936
 10
101.4954721254576
 20
109.7959235761825
 10
101.5184250737891
 20
109.8043209963038
 10
101.5402583661045
 20
109.8148393033019
 10
101.5608535772481
 20
109.827349306098
 10
101.5800815161411
 20
109.8417325795365
 10
101.5978237576281
 20
109.8578491666154
 10
101.6139403447071
 20
109.8755914081024
 10
101.6283236181456
 20
109.8948193469955
 10
101.6408228550184
 20
109.9154145581391
 10
101.6513519279397
 20
109.9372478504544
 10
101.659749348061
 20
109.9601900328627
 10
101.6659074561499
 20
109.9841226802083
 10
101.6696862952045
 20
110.0089273673358
 10
101.6709782059924
 20
110.034464137243
 10
101.6709782059924
 20
110.034464137243
 10
101.6696862952045
 20
110.0600547367665
 10
101.6659074561499
 20
110.0849240194333
 10
101.6597601139842
 20
110.1088997304719
 10
101.6513519279397
 20
110.1318742106499
 10
101.6408336209416
 20
110.1537505666581
 10
101.6283128522223
 20
110.1743673096482
 10
101.6139403447071
 20
110.193627546311
 10
101.5978237576281
 20
110.2113805537212
 10
101.5800815161411
 20
110.2275079067234
 10
101.5608535772481
 20
110.2419019460851
 10
101.5402583661045
 20
110.2544227148044
 10
101.5184250737891
 20
110.2649410218025
 10
101.4954721254576
 20
110.273349207847
 10
101.471539478112
 20
110.2795073159359
 10
101.4467455569078
 20
110.2832861549905
 10
101.4212087870005
 20
110.2845780657784
 10
101.4212087870005
 20
110.2845780657784
 10
101.3956720170932
 20
110.2832861549905
 10
101.3708673299657
 20
110.2794965500127
 10
101.3469454485433
 20
110.2733384419237
 10
101.3239925002118
 20
110.2649410218025
 10
101.3021592078965
 20
110.2544227148044
 10
101.2815639967529
 20
110.2419019460851
 10
101.2623360578598
 20
110.2275186726466
 10
101.244604582296
 20
110.2113805537212
 10
101.2284772292939
 20
110.193627546311
 10
101.2140939558554
 20
110.1743673096482
 10
101.2015839530593
 20
110.1537505666581
 10
101.1910656460613
 20
110.1318849765731
 10
101.18266822594
 20
110.1088997304719
 10
101.1765101178511
 20
110.0849132535101
 10
101.1727312787965
 20
110.0600655026897
 10
101.1714393680086
 20
110.034464137243
 10
101.1714393680086
 20
110.034464137243
 10
101.1727312787965
 20
110.0089273673358
 10
101.1765208837743
 20
109.9841334461315
 10
101.1826789918632
 20
109.9601900328627
 10
101.1910764119845
 20
109.9372478504544
 10
101.2015839530593
 20
109.9154145581391
 10
101.2140939558554
 20
109.8948193469955
 10
101.2284772292939
 20
109.8755914081024
 10
101.244604582296
 20
109.8578491666154
 10
101.2623360578598
 20
109.8417325795365
 10
101.2815639967529
 20
109.827349306098
 10
101.3021592078965
 20
109.8148393033019
 10
101.3239925002118
 20
109.8043209963038
 10
101.3469346826201
 20
109.7959235761825
 10
101.370878095889
 20
109.7897654680936
 10
101.3956720170932
 20
109.785986629039
 97
        0
 75
     1
 76
     1
 98
        0
  0
LWPOLYLINE
  5
7E
330
1F
100
AcDbEntity
  8
ISS138金台
  6
Continuous
 62
   250
420
  2367521
370
    13
100
AcDbPolyline
 90
       68
 70
     0
 43
0.0
 10
101.4212087870005
 20
109.7846947182512
 10
101.4467455569078
 20
109.7859758631158
 10
101.471539478112
 20
109.7897654680936
 10
101.4954721254576
 20
109.7959235761825
 10
101.5184250737891
 20
109.8043209963038
 10
101.5402583661045
 20
109.8148393033019
 10
101.5608535772481
 20
109.827349306098
 10
101.5800815161411
 20
109.8417325795365
 10
101.5978237576281
 20
109.8578491666154
 10
101.6139403447071
 20
109.8755914081024
 10
101.6283236181456
 20
109.8948193469955
 10
101.6408228550184
 20
109.9154145581391
 10
101.6513519279397
 20
109.9372478504544
 10
101.659749348061
 20
109.9601900328627
 10
101.6659074561499
 20
109.9841226802083
 10
101.6696862952045
 20
110.0089273673358
 10
101.6709782059924
 20
110.034464137243
 10
101.6709782059924
 20
110.034464137243
 10
101.6696862952045
 20
110.0600547367665
 10
101.6659074561499
 20
110.0849240194333
 10
101.6597601139842
 20
110.1088997304719
 10
101.6513519279397
 20
110.1318742106499
 10
101.6408336209416
 20
110.1537505666581
 10
101.6283128522223
 20
110.1743673096482
 10
101.6139403447071
 20
110.193627546311
 10
101.5978237576281
 20
110.2113805537212
 10
101.5800815161411
 20
110.2275079067234
 10
101.5608535772481
 20
110.2419019460851
 10
101.5402583661045
 20
110.2544227148044
 10
101.5184250737891
 20
110.2649410218025
 10
101.4954721254576
 20
110.273349207847
 10
101.471539478112
 20
110.2795073159359
 10
101.4467455569078
 20
110.2832861549905
 10
101.4212087870005
 20
110.2845780657784
 10
101.4212087870005
 20
110.2845780657784
 10
101.3956720170932
 20
110.2832861549905
 10
101.3708673299657
 20
110.2794965500127
 10
101.3469454485433
 20
110.2733384419237
 10
101.3239925002118
 20
110.2649410218025
 10
101.3021592078965
 20
110.2544227148044
 10
101.2815639967529
 20
110.2419019460851
 10
101.2623360578598
 20
110.2275186726466
 10
101.244604582296
 20
110.2113805537212
 10
101.2284772292939
 20
110.193627546311
 10
101.2140939558554
 20
110.1743673096482
 10
101.2015839530593
 20
110.1537505666581
 10
101.1910656460613
 20
110.1318849765731
 10
101.18266822594
 20
110.1088997304719
 10
101.1765101178511
 20
110.0849132535101
 10
101.1727312787965
 20
110.0600655026897
 10
101.1714393680086
 20
110.034464137243
 10
101.1714393680086
 20
110.034464137243
 10
101.1727312787965
 20
110.0089273673358
 10
101.1765208837743
 20
109.9841334461315
 10
101.1826789918632
 20
109.9601900328627
 10
101.1910764119845
 20
109.9372478504544
 10
101.2015839530593
 20
109.9154145581391
 10
101.2140939558554
 20
109.8948193469955
 10
101.2284772292939
 20
109.8755914081024
 10
101.244604582296
 20
109.8578491666154
 10
101.2623360578598
 20
109.8417325795365
 10
101.2815639967529
 20
109.827349306098
 10
101.3021592078965
 20
109.8148393033019
 10
101.3239925002118
 20
109.8043209963038
 10
101.3469346826201
 20
109.7959235761825
 10
101.370878095889
 20
109.7897654680936
 10
101.3956720170932
 20
109.785986629039
 10
101.4212087870005
 20
109.7846947182512
  0
HATCH
  5
7F
330
1F
100
AcDbEntity
  8
ISS138金台
  6
Continuous
 62
   250
420
  2367521
370
    13
100
AcDbHatch
 10
0.0
 20
0.0
 30
0.0
210
0.0
220
0.0
230
1.0
  2
SOLID
 70
     1
 71
     0
 91
        1
 92
        3
 72
     0
 73
     1
 93
       67
 10
101.4212087870005
 20
101.8470225826887
 10
101.4467455569078
 20
101.8483144934766
 10
101.471539478112
 20
101.8521040984544
 10
101.4954721254576
 20
101.8582729724666
 10
101.5184250737891
 20
101.8667134562808
 10
101.5402583661045
 20
101.8772532951253
 10
101.5608535772481
 20
101.8897848297678
 10
101.5800815161411
 20
101.9042004009761
 10
101.5978237576281
 20
101.9203600517479
 10
101.6139403447071
 20
101.9381238250814
 10
101.6283236181456
 20
101.9573840617442
 10
101.6408228550184
 20
101.9780115706574
 10
101.6513519279397
 20
101.9998663948193
 10
101.659749348061
 20
102.0228408749972
 10
101.6659074561499
 20
102.0467950541893
 10
101.6696862952045
 20
102.0715997413168
 10
101.6709782059924
 20
102.0971472771473
 10
101.6709782059924
 20
102.0971472771473
 10
101.6696862952045
 20
102.1226948129778
 10
101.6659074561499
 20
102.1474995001053
 10
101.6597601139842
 20
102.1714536792974
 10
101.6513519279397
 20
102.1944173935521
 10
101.6408336209416
 20
102.2162722177139
 10
101.6283128522223
 20
102.2368997266272
 10
101.6139403447071
 20
102.25615996329
 10
101.5978237576281
 20
102.2739237366234
 10
101.5800815161411
 20
102.2900833873953
 10
101.5608535772481
 20
102.3044881926803
 10
101.5402583661045
 20
102.317030493246
 10
101.5184250737891
 20
102.3275810980138
 10
101.4954721254576
 20
102.3360000499815
 10
101.471539478112
 20
102.3421689239937
 10
101.4467455569078
 20
102.3459692948947
 10
101.4212087870005
 20
102.3472612056826
 10
101.4212087870005
 20
102.3472612056826
 10
101.3956720170932
 20
102.3459585289715
 10
101.3708673299657
 20
102.3421796899169
 10
101.3469454485433
 20
102.3360000499815
 10
101.3239925002118
 20
102.3275810980138
 10
101.3021592078965
 20
102.317030493246
 10
101.2815639967529
 20
102.3044881926803
 10
101.2623360578598
 20
102.2900833873953
 10
101.244604582296
 20
102.2739237366234
 10
101.2284772292939
 20
102.25615996329
 10
101.2140939558554
 20
102.2368997266272
 10
101.2015839530593
 20
102.2162829836371
 10
101.1910656460613
 20
102.1944173935521
 10
101.18266822594
 20
102.1714429133742
 10
101.1765101178511
 20
102.1474995001053
 10
101.1727312787965
 20
102.1226840470546
 10
101.1714393680086
 20
102.0971472771473
 10
101.1714393680086
 20
102.0971472771473
 10
101.1727312787965
 20
102.07161050724
 10
101.1765208837743
 20
102.0467950541893
 10
101.1826789918632
 20
102.0228408749972
 10
101.1910764119845
 20
101.9998771607425
 10
101.2015839530593
 20
101.9780008047342
 10
101.2140939558554
 20
101.9573840617442
 10
101.2284772292939
 20
101.9381238250814
 10
101.244604582296
 20
101.9203600517479
 10
101.2623360578598
 20
101.9042004009761
 10
101.2815639967529
 20
101.8897955956911
 10
101.3021592078965
 20
101.8772532951253
 10
101.3239925002118
 20
101.8667026903576
 10
101.3469346826201
 20
101.8582837383898
 10
101.370878095889
 20
101.8521148643777
 10
101.3956720170932
 20
101.8483144934766
 97
        0
 75
     1
 76
     1
 98
        0
  0
LWPOLYLINE
  5
80
330
1F
100
AcDbEntity
  8
ISS138金台
  6
Continuous
 62
   250
420
  2367521
370
    13
100
AcDbPolyline
 90
       68
 70
     0
 43
0.0
 10
101.4212087870005
 20
101.8470225826887
 10
101.4467455569078
 20
101.8483144934766
 10
101.471539478112
 20
101.8521040984544
 10
101.4954721254576
 20
101.8582729724666
 10
101.5184250737891
 20
101.8667134562808
 10
101.5402583661045
 20
101.8772532951253
 10
101.5608535772481
 20
101.8897848297678
 10
101.5800815161411
 20
101.9042004009761
 10
101.5978237576281
 20
101.9203600517479
 10
101.6139403447071
 20
101.9381238250814
 10
101.6283236181456
 20
101.9573840617442
 10
101.6408228550184
 20
101.9780115706574
 10
101.6513519279397
 20
101.9998663948193
 10
101.659749348061
 20
102.0228408749972
 10
101.6659074561499
 20
102.0467950541893
 10
101.6696862952045
 20
102.0715997413168
 10
101.6709782059924
 20
102.0971472771473
 10
101.6709782059924
 20
102.0971472771473
 10
101.6696862952045
 20
102.1226948129778
 10
101.6659074561499
 20
102.1474995001053
 10
101.6597601139842
 20
102.1714536792974
 10
101.6513519279397
 20
102.1944173935521
 10
101.6408336209416
 20
102.2162722177139
 10
101.6283128522223
 20
102.2368997266272
 10
101.6139403447071
 20
102.25615996329
 10
101.5978237576281
 20
102.2739237366234
 10
101.5800815161411
 20
102.2900833873953
 10
101.5608535772481
 20
102.3044881926803
 10
101.5402583661045
 20
102.317030493246
 10
101.5184250737891
 20
102.3275810980138
 10
101.4954721254576
 20
102.3360000499815
 10
101.471539478112
 20
102.3421689239937
 10
101.4467455569078
 20
102.3459692948947
 10
101.4212087870005
 20
102.3472612056826
 10
101.4212087870005
 20
102.3472612056826
 10
101.3956720170932
 20
102.3459585289715
 10
101.3708673299657
 20
102.3421796899169
 10
101.3469454485433
 20
102.3360000499815
 10
101.3239925002118
 20
102.3275810980138
 10
101.3021592078965
 20
102.317030493246
 10
101.2815639967529
 20
102.3044881926803
 10
101.2623360578598
 20
102.2900833873953
 10
101.244604582296
 20
102.2739237366234
 10
101.2284772292939
 20
102.25615996329
 10
101.2140939558554
 20
102.2368997266272
 10
101.2015839530593
 20
102.2162829836371
 10
101.1910656460613
 20
102.1944173935521
 10
101.18266822594
 20
102.1714429133742
 10
101.1765101178511
 20
102.1474995001053
 10
101.1727312787965
 20
102.1226840470546
 10
101.1714393680086
 20
102.0971472771473
 10
101.1714393680086
 20
102.0971472771473
 10
101.1727312787965
 20
102.07161050724
 10
101.1765208837743
 20
102.0467950541893
 10
101.1826789918632
 20
102.0228408749972
 10
101.1910764119845
 20
101.9998771607425
 10
101.2015839530593
 20
101.9780008047342
 10
101.2140939558554
 20
101.9573840617442
 10
101.2284772292939
 20
101.9381238250814
 10
101.244604582296
 20
101.9203600517479
 10
101.2623360578598
 20
101.9042004009761
 10
101.2815639967529
 20
101.8897955956911
 10
101.3021592078965
 20
101.8772532951253
 10
101.3239925002118
 20
101.8667026903576
 10
101.3469346826201
 20
101.8582837383898
 10
101.370878095889
 20
101.8521148643777
 10
101.3956720170932
 20
101.8483144934766
 10
101.4212087870005
 20
101.8470225826887
  0
HATCH
  5
81
330
1F
100
AcDbEntity
  8
ISS138金台
  6
Continuous
 62
   250
420
  2367521
370
    13
100
AcDbHatch
 10
0.0
 20
0.0
 30
0.0
210
0.0
220
0.0
230
1.0
  2
SOLID
 70
     1
 71
     0
 91
        1
 92
        3
 72
     0
 73
     1
 93
       67
 10
136.3903162499628
 20
114.8558751976452
 10
136.4158637857933
 20
114.8571563425099
 10
136.4406684729208
 20
114.8609459474877
 10
136.4646226521129
 20
114.8671040555766
 10
136.4875971322908
 20
114.8755014756979
 10
136.5094519564526
 20
114.886019782696
 10
136.5300579335195
 20
114.898529785492
 10
136.5493397020287
 20
114.9129130589305
 10
136.5671034753622
 20
114.9290296460094
 10
136.5832523602108
 20
114.9467718874964
 10
136.597667931419
 20
114.9659998263895
 10
136.6102102319848
 20
114.9865950375331
 10
136.6207608367525
 20
115.0084283298485
 10
136.6291797887203
 20
115.0313705122567
 10
136.6353486627324
 20
115.0553031596024
 10
136.6391490336335
 20
115.0801078467298
 10
136.6404409444214
 20
115.1056446166371
 10
136.6404409444214
 20
115.1056446166371
 10
136.6391382677102
 20
115.1312352161606
 10
136.6353594286556
 20
115.1561044988274
 10
136.6291797887203
 20
115.180080209866
 10
136.6207608367525
 20
115.2030546900439
 10
136.6102102319848
 20
115.2249310460522
 10
136.597667931419
 20
115.2455477890423
 10
136.5832523602108
 20
115.2648080257051
 10
136.5671034753622
 20
115.2825610331153
 10
136.5493289361055
 20
115.2986883861174
 10
136.5300686994427
 20
115.3130824254792
 10
136.5094519564526
 20
115.3256031941985
 10
136.4875863663676
 20
115.3361215011965
 10
136.4646226521129
 20
115.344529687241
 10
136.4406684729208
 20
115.35068779533
 10
136.41585301987
 20
115.3544666343846
 10
136.3903162499628
 20
115.3557585451724
 10
136.3903162499628
 20
115.3557585451724
 10
136.3647687141323
 20
115.3544666343846
 10
136.3399640270048
 20
115.3506770294068
 10
136.3160098478127
 20
115.3445189213178
 10
136.2930568994812
 20
115.3361215011965
 10
136.271180543473
 20
115.3256031941985
 10
136.2505638004829
 20
115.3130824254792
 10
136.2313035638201
 20
115.2986991520407
 10
136.2135290245634
 20
115.2825610331153
 10
136.1973801397148
 20
115.2648080257051
 10
136.1829645685066
 20
115.2455477890423
 10
136.1704222679408
 20
115.2249310460522
 10
136.1598716631731
 20
115.2030654559672
 10
136.1514527112053
 20
115.180080209866
 10
136.1452838371931
 20
115.1560937329042
 10
136.1414834662921
 20
115.1312459820838
 10
136.1401915555042
 20
115.1056446166371
 10
136.1401915555042
 20
115.1056446166371
 10
136.1414942322153
 20
115.0801078467298
 10
136.1452838371931
 20
115.0553139255256
 10
136.1514634771285
 20
115.0313705122567
 10
136.1598824290963
 20
115.0084283298485
 10
136.1704222679408
 20
114.9865950375331
 10
136.1829538025833
 20
114.9659998263895
 10
136.1973693737916
 20
114.9467718874964
 10
136.2135290245634
 20
114.9290296460094
 10
136.2312927978969
 20
114.9129130589305
 10
136.2505638004829
 20
114.898529785492
 10
136.271180543473
 20
114.886019782696
 10
136.293046133558
 20
114.8755014756979
 10
136.3160098478127
 20
114.8671040555766
 10
136.3399640270048
 20
114.8609459474877
 10
136.3647794800555
 20
114.8571671084331
 97
        0
 75
     1
 76
     1
 98
        0
  0
LWPOLYLINE
  5
82
330
1F
100
AcDbEntity
  8
ISS138金台
  6
Continuous
 62
   250
420
  2367521
370
    13
100
AcDbPolyline
 90
       68
 70
     0
 43
0.0
 10
136.3903162499628
 20
114.8558751976452
 10
136.4158637857933
 20
114.8571563425099
 10
136.4406684729208
 20
114.8609459474877
 10
136.4646226521129
 20
114.8671040555766
 10
136.4875971322908
 20
114.8755014756979
 10
136.5094519564526
 20
114.886019782696
 10
136.5300579335195
 20
114.898529785492
 10
136.5493397020287
 20
114.9129130589305
 10
136.5671034753622
 20
114.9290296460094
 10
136.5832523602108
 20
114.9467718874964
 10
136.597667931419
 20
114.9659998263895
 10
136.6102102319848
 20
114.9865950375331
 10
136.6207608367525
 20
115.0084283298485
 10
136.6291797887203
 20
115.0313705122567
 10
136.6353486627324
 20
115.0553031596024
 10
136.6391490336335
 20
115.0801078467298
 10
136.6404409444214
 20
115.1056446166371
 10
136.6404409444214
 20
115.1056446166371
 10
136.6391382677102
 20
115.1312352161606
 10
136.6353594286556
 20
115.1561044988274
 10
136.6291797887203
 20
115.180080209866
 10
136.6207608367525
 20
115.2030546900439
 10
136.6102102319848
 20
115.2249310460522
 10
136.597667931419
 20
115.2455477890423
 10
136.5832523602108
 20
115.2648080257051
 10
136.5671034753622
 20
115.2825610331153
 10
136.5493289361055
 20
115.2986883861174
 10
136.5300686994427
 20
115.3130824254792
 10
136.5094519564526
 20
115.3256031941985
 10
136.4875863663676
 20
115.3361215011965
 10
136.4646226521129
 20
115.344529687241
 10
136.4406684729208
 20
115.35068779533
 10
136.41585301987
 20
115.3544666343846
 10
136.3903162499628
 20
115.3557585451724
 10
136.3903162499628
 20
115.3557585451724
 10
136.3647687141323
 20
115.3544666343846
 10
136.3399640270048
 20
115.3506770294068
 10
136.3160098478127
 20
115.3445189213178
 10
136.2930568994812
 20
115.3361215011965
 10
136.271180543473
 20
115.3256031941985
 10
136.2505638004829
 20
115.3130824254792
 10
136.2313035638201
 20
115.2986991520407
 10
136.2135290245634
 20
115.2825610331153
 10
136.1973801397148
 20
115.2648080257051
 10
136.1829645685066
 20
115.2455477890423
 10
136.1704222679408
 20
115.2249310460522
 10
136.1598716631731
 20
115.2030654559672
 10
136.1514527112053
 20
115.180080209866
 10
136.1452838371931
 20
115.1560937329042
 10
136.1414834662921
 20
115.1312459820838
 10
136.1401915555042
 20
115.1056446166371
 10
136.1401915555042
 20
115.1056446166371
 10
136.1414942322153
 20
115.0801078467298
 10
136.1452838371931
 20
115.0553139255256
 10
136.1514634771285
 20
115.0313705122567
 10
136.1598824290963
 20
115.0084283298485
 10
136.1704222679408
 20
114.9865950375331
 10
136.1829538025833
 20
114.9659998263895
 10
136.1973693737916
 20
114.9467718874964
 10
136.2135290245634
 20
114.9290296460094
 10
136.2312927978969
 20
114.9129130589305
 10
136.2505638004829
 20
114.898529785492
 10
136.271180543473
 20
114.886019782696
 10
136.293046133558
 20
114.8755014756979
 10
136.3160098478127
 20
114.8671040555766
 10
136.3399640270048
 20
114.8609459474877
 10
136.3647794800555
 20
114.8571671084331
 10
136.3903162499628
 20
114.8558751976452
  0
HATCH
  5
83
330
1F
100
AcDbEntity
  8
ISS138金台
  6
Continuous
 62
   254
420
 13816532
370
    25
100
AcDbHatch
 10
0.0
 20
0.0
 30
0.0
210
0.0
220
0.0
230
1.0
  2
SOLID
 70
     1
 71
     0
 91
        1
 92
        3
 72
     0
 73
     1
 93
      305
 10
124.1791431850652
 20
104.1683278863679
 10
123.7213007677605
 20
104.176951390877
 10
123.2908253273126
 20
104.2020036942389
 10
122.8885135420407
 20
104.2422359493584
 10
122.5150974947246
 20
104.2963993091406
 10
122.1713415659138
 20
104.3632341605674
 10
121.8579886043113
 20
104.4415131883903
 10
121.5758029904666
 20
104.5299983114374
 10
121.3255275730828
 20
104.6274191507675
 10
121.1079374986326
 20
104.732548391132
 10
120.923775615819
 20
104.8441371854359
 10
120.7737955392683
 20
104.9609259206611
 10
120.65876164953
 20
105.081687281559
 10
120.5794275612304
 20
105.2051616551115
 10
120.5365468889957
 20
105.3301109601469
 10
120.5308732474522
 20
105.4552863495701
 10
120.5631710171494
 20
105.5794389762862
 10
120.5631710171494
 20
105.5794389762862
 10
120.6265069435257
 20
105.7113000040368
 10
120.6922113730131
 20
105.8126719371931
 10
120.7597783072197
 20
105.8863108521028
 10
120.8287017477536
 20
105.9349943569598
 10
120.898486462146
 20
105.9614677621883
 10
120.9686049201587
 20
105.9685302078287
 10
121.0385726552461
 20
105.9589270043054
 10
121.1078621371699
 20
105.9354357598123
 10
121.1759888993846
 20
105.9008233166201
 10
121.2424146457286
 20
105.8578349851531
 10
121.3066656755796
 20
105.8092806713749
 10
121.3682359905458
 20
105.7578841538634
 10
121.4265872944654
 20
105.706444572659
 10
121.4812458867164
 20
105.6577072381858
 10
121.5316842370602
 20
105.614449758638
 10
121.5774071130282
 20
105.5794389762862
 10
121.5774071130282
 20
105.5794389762862
 10
121.6314305158085
 20
105.54454661909
 10
121.6862182991382
 20
105.5139929289564
 10
121.7420503770215
 20
105.4875195237279
 10
121.7991743656926
 20
105.4648141916308
 10
121.8578594132325
 20
105.4455970186609
 10
121.9183531358754
 20
105.4295773248911
 10
121.9809139157789
 20
105.416464430394
 10
122.0458109010239
 20
105.4059568893192
 10
122.1133024737679
 20
105.3977747876626
 10
122.183625484322
 20
105.3916274454969
 10
122.2570598466902
 20
105.3872241828948
 10
122.333853177107
 20
105.3842743199291
 10
122.4142746236531
 20
105.3824764107493
 10
122.4985718025629
 20
105.3815613072745
 10
122.5870030959939
 20
105.3812275636543
 10
122.6798376520269
 20
105.3811737340382
 10
122.6798376520269
 20
106.2408972996855
 10
122.6544193072752
 20
106.4429306150648
 10
122.581264858911
 20
106.6276953895795
 10
122.4650897813101
 20
106.7957514512374
 10
122.3105772510785
 20
106.9477016917396
 10
122.1224212107457
 20
107.0841167050175
 10
121.9053048369177
 20
107.2056101486952
 10
121.6639220721239
 20
107.3127526167041
 10
121.4029668588935
 20
107.4061254688988
 10
121.1271116079095
 20
107.4863100651338
 10
120.8410933253941
 20
107.5539092971101
 10
120.5495521242604
 20
107.6095045246823
 10
120.2572142448076
 20
107.6536771077048
 10
119.9687520977184
 20
107.6870084060324
 10
119.6888703914455
 20
107.7100905454427
 10
119.4222523025949
 20
107.7235156517135
 10
119.1735810077727
 20
107.7278543187761
 10
119.1735810077727
 20
107.7278543187761
 10
118.7135531080518
 20
107.7191877505741
 10
118.2795249129372
 20
107.6990016445133
 10
117.8694185992451
 20
107.6674251916726
 10
117.4811563437915
 20
107.6246306468238
 10
117.1126387915461
 20
107.5707041373526
 10
116.7617773534019
 20
107.5058286839542
 10
116.4265049720982
 20
107.4301550095536
 10
116.1047222926047
 20
107.3438123052296
 10
115.7943514917376
 20
107.2469512939076
 10
115.4932932144665
 20
107.1397011666664
 10
115.1994696376075
 20
107.0222341782776
 10
114.9107921720537
 20
106.8946687538967
 10
114.6251829946211
 20
106.7571556164492
 10
114.3405427502795
 20
106.6098454888601
 10
114.0547936158449
 20
106.4528783281316
 10
113.7658470022103
 20
106.2864048571889
 10
113.7658470022103
 20
106.2864048571889
 10
113.6363437116476
 20
106.2107634805579
 10
113.4833814743615
 20
106.1221384005087
 10
113.3107068316369
 20
106.0225643765322
 10
113.1221416862213
 20
105.9140546362727
 10
112.9215079408621
 20
105.7986439392213
 10
112.7125521368443
 20
105.6783885767153
 10
112.4991177087617
 20
105.5553017763992
 10
112.2849727297459
 20
105.4314075318406
 10
112.0739498684674
 20
105.3087513684538
 10
111.8698064321345
 20
105.1893680457296
 10
111.6763643234946
 20
105.0752815572357
 10
111.4974131475254
 20
104.9685374283864
 10
111.3367640410514
 20
104.871148886826
 10
111.1981958431271
 20
104.7851614579688
 10
111.0855304564999
 20
104.7126099013056
 10
111.0025467202245
 20
104.6555182104041
 10
111.0025467202245
 20
104.6555182104041
 10
110.7739861700005
 20
104.4904766072513
 10
110.5382447489804
 20
104.3231956920661
 10
110.2968727501098
 20
104.1547412912486
 10
110.05150659372
 20
103.9861146356594
 10
109.8037073386796
 20
103.8184030835449
 10
109.5550683416271
 20
103.6526293976122
 10
109.3071614273544
 20
103.489837872415
 10
109.0616014843464
 20
103.3310512706602
 10
108.8199711033182
 20
103.1773354187478
 10
108.5838313431385
 20
103.0297346112315
 10
108.3548186241387
 20
102.8892823767415
 10
108.134472473341
 20
102.7570122439081
 10
107.9244077792302
 20
102.6339792732081
 10
107.7262071325216
 20
102.5212169932719
 10
107.5414638898534
 20
102.4197804645761
 10
107.3717498760177
 20
102.3307032157512
 10
107.3717498760177
 20
102.3307032157512
 10
107.1573572807675
 20
102.2391928682757
 10
106.9545918826083
 20
102.18681665175
 10
106.7648424856371
 20
102.1701079388933
 10
106.5895194257973
 20
102.1855785705783
 10
106.4300222731092
 20
102.2297188558312
 10
106.2877613635161
 20
102.2990729332944
 10
106.1641255011152
 20
102.3901311119941
 10
106.0605250218497
 20
102.4994267646495
 10
105.9783594957399
 20
102.6234609662101
 10
105.9190284928061
 20
102.7587455575485
 10
105.8839423489917
 20
102.901813911384
 10
105.8744898683936
 20
103.0491563367428
 10
105.8920921528786
 20
103.1972954404207
 10
105.9381272406204
 20
103.3427430632906
 10
106.0140162334857
 20
103.4820218121483
 10
106.1211587014946
 20
103.6116435278665
 10
106.1211587014946
 20
103.6116435278665
 10
106.4945101532713
 20
103.9508777689197
 10
106.9695457499781
 20
104.3252412174803
 10
107.5338200843584
 20
104.7285865313825
 10
108.1749308128484
 20
105.1547233047677
 10
108.8804432941146
 20
105.5975041954702
 10
109.6379013549773
 20
106.0507818613244
 10
110.434881120026
 20
106.5083766623947
 10
111.2589694797741
 20
106.9641304905923
 10
112.0977102610414
 20
107.4118960037514
 10
112.938690354341
 20
107.8454827960134
 10
113.7694751183396
 20
108.2587650570592
 10
114.5776191457804
 20
108.6455523810299
 10
115.3506985612532
 20
108.99969742576
 10
116.0762894893479
 20
109.3150420831605
 10
116.741957288731
 20
109.585406713296
 10
117.3352565521458
 20
109.804654739924
 10
117.3352565521458
 20
109.804654739924
 10
117.4598075180216
 20
109.8466418405304
 10
117.590548889756
 20
109.8882090701308
 10
117.7276744539672
 20
109.9291088124907
 10
117.871313401734
 20
109.9691042172991
 10
118.0216595196746
 20
110.0079907320145
 10
118.1788742966374
 20
110.0455207404027
 10
118.3431299873943
 20
110.081478923999
 10
118.5145880807937
 20
110.1156391984154
 10
118.6934315975304
 20
110.1477431814944
 10
118.8798004946067
 20
110.1776078525412
 10
119.0738993245638
 20
110.2049748293979
 10
119.2758680444038
 20
110.2296180276769
 10
119.4858896748216
 20
110.2513113629902
 10
119.704136470589
 20
110.26982875095
 10
119.9307591546312
 20
110.2849441071683
 10
120.1659407476432
 20
110.2964313472573
 10
120.1659407476432
 20
110.2964313472573
 10
121.0893662810567
 20
110.3319158302313
 10
122.0216091055974
 20
110.3630293483729
 10
122.9590626369827
 20
110.3868974001792
 10
123.8981095250064
 20
110.4006239523005
 10
124.8351862490785
 20
110.4013237373106
 10
125.7666646930698
 20
110.3861330196297
 10
126.6889921023135
 20
110.3521557659082
 10
127.5985295947572
 20
110.2965174746431
 10
128.4917136498108
 20
110.2163328784081
 10
129.3649376831915
 20
110.1087059438537
 10
130.2146166424629
 20
109.9707729354001
 10
131.0371439433422
 20
109.7996378196977
 10
131.8289237674697
 20
109.5924260952436
 10
132.5863818283324
 20
109.3462632605345
 10
133.305900775724
 20
109.0582532822211
 10
133.9838955572082
 20
108.725510892877
 10
133.9838955572082
 20
108.725510892877
 10
134.1591432555853
 20
108.6301786426541
 10
134.3375238376231
 20
108.5318749976189
 10
134.517207096372
 20
108.4304922985393
 10
134.6963089952664
 20
108.3259444180294
 10
134.8729239658941
 20
108.2181667605497
 10
135.0452218013056
 20
108.1070731987145
 10
135.2113292308584
 20
107.9925668392146
 10
135.3693406861405
 20
107.8745615546642
 10
135.517415194279
 20
107.7529927495238
 10
135.6536687187084
 20
107.6277527645612
 10
135.7762279887862
 20
107.4987770042369
 10
135.8832412657163
 20
107.3659685752419
 10
135.9728029810867
 20
107.2292521161136
 10
136.0430721620247
 20
107.0885307335427
 10
136.0921540060412
 20
106.9437290660668
 10
136.1181967743404
 20
106.7947609863
 10
136.1181967743404
 20
106.7947609863
 10
136.1257652183728
 20
106.6012435161974
 10
136.1119633047888
 20
106.4278152588465
 10
136.0780398806835
 20
106.273582642619
 10
136.0251576657659
 20
106.1376197981169
 10
135.9545547412078
 20
106.0190439196352
 10
135.8674261244879
 20
105.9169506696223
 10
135.7649991308547
 20
105.8304249446034
 10
135.6484795437104
 20
105.7585731729503
 10
135.5190731464568
 20
105.700469485265
 10
135.3779964884193
 20
105.6552418417656
 10
135.2264661189232
 20
105.6219859049007
 10
135.0656878213704
 20
105.599765039349
 10
134.896867379163
 20
105.5877072053287
 10
134.7212321075494
 20
105.5849080652883
 10
134.5399662580854
 20
105.5904417498298
 10
134.3543079119425
 20
105.6034254532481
 10
134.3543079119425
 20
105.6034254532481
 10
134.0861502960696
 20
105.6434208580564
 10
133.8157749000109
 20
105.7142068033095
 10
133.5421051314431
 20
105.8118214292578
 10
133.2640428661964
 20
105.9323459398446
 10
132.9804684482547
 20
106.0718077093972
 10
132.6903052852948
 20
106.2262771759358
 10
132.392455253147
 20
106.3918032456341
 10
132.0858202276415
 20
106.5644348246658
 10
131.7693020846087
 20
106.7402423510511
 10
131.4417919339556
 20
106.9152424331939
 10
131.1022024174356
 20
107.0855270409609
 10
130.7494461768026
 20
107.2471343146026
 10
130.3824143219633
 20
107.3961131602927
 10
130.0000087287481
 20
107.5285232501281
 10
129.6011420389106
 20
107.6404242562057
 10
129.1847053623577
 20
107.7278543187761
 10
129.1847053623577
 20
107.7278543187761
 10
128.9360340675355
 20
107.7235156517135
 10
128.6694159786849
 20
107.7100905454427
 10
128.389534272412
 20
107.6870084060324
 10
128.1010721253228
 20
107.6536771077048
 10
127.80873424587
 20
107.6095045246823
 10
127.5172038106596
 20
107.5539092971101
 10
127.2311747622209
 20
107.4863100651338
 10
126.9553302771601
 20
107.4061147029756
 10
126.6943750639297
 20
107.3127526167041
 10
126.4529815332127
 20
107.2056101486952
 10
126.2358651593847
 20
107.0841274709407
 10
126.0477091190518
 20
106.9476909258164
 10
125.8931965888203
 20
106.7957514512374
 10
125.7770215112194
 20
106.6276846236562
 10
125.7038778287784
 20
106.4429306150648
 10
125.6784487181034
 20
106.2408972996855
 10
125.6784487181034
 20
105.3811737340382
 10
125.7712832741365
 20
105.3812275636543
 10
125.8597145675675
 20
105.3815613072745
 10
125.9440225124005
 20
105.3824871766725
 10
126.0244331930234
 20
105.3842743199291
 10
126.1012265234401
 20
105.3872241828948
 10
126.1746716517316
 20
105.3916274454969
 10
126.2449946622857
 20
105.3977747876626
 10
126.3124754691065
 20
105.4059568893192
 10
126.3773724543514
 20
105.416464430394
 10
126.439933234255
 20
105.4295773248911
 10
126.5004269568979
 20
105.4455970186609
 10
126.5591120044377
 20
105.4648141916308
 10
126.6162359931089
 20
105.4875195237279
 10
126.6720680709922
 20
105.5139929289564
 10
126.7268666202451
 20
105.5445358531667
 10
126.7808792571021
 20
105.5794389762862
 10
126.7808792571021
 20
105.5794389762862
 10
126.826408346452
 20
105.614449758638
 10
126.8762222732484
 20
105.6577072381858
 10
126.9299226983316
 20
105.7064338067357
 10
126.9870789847725
 20
105.7578841538634
 10
127.0472927934113
 20
105.8092699054517
 10
127.1101657850886
 20
105.8578349851531
 10
127.1752780887982
 20
105.9008125506969
 10
127.2422313653806
 20
105.9354357598123
 10
127.3106057438296
 20
105.9589270043054
 10
127.3800136509089
 20
105.9685302078287
 10
127.4500244496893
 20
105.9614785281115
 10
127.5202613328575
 20
105.9349943569598
 10
127.5902936634844
 20
105.8863108521028
 10
127.6597123364869
 20
105.8126719371931
 10
127.7281190127057
 20
105.7113000040368
 10
127.7951153529809
 20
105.5794389762862
 10
127.7951153529809
 20
105.5794389762862
 10
127.8299646464843
 20
105.4563844737398
 10
127.8261858074297
 20
105.3320380604055
 10
127.7846185778293
 20
105.2076593493014
 10
127.7060704019257
 20
105.0845187193691
 10
127.5913702558076
 20
104.9638973154732
 10
127.4413363496408
 20
104.8470762824784
 10
127.2568084254373
 20
104.7353367652492
 10
127.0385831615163
 20
104.6299383768039
 10
126.7875110658133
 20
104.5321622620071
 10
126.5043995825706
 20
104.4432895657236
 10
126.1900776878772
 20
104.3645906668947
 10
125.8453743578219
 20
104.2973359444618
 10
125.4710970366472
 20
104.2428065432897
 10
125.0680854663652
 20
104.2022836082429
 10
124.6371578571416
 20
104.1770267523397
 97
        0
 75
     1
 76
     1
 98
        0
  0
LWPOLYLINE
  5
84
330
1F
100
AcDbEntity
  8
ISS138金台
  6
Continuous
 62
   250
420
  2367521
370
    25
100
AcDbPolyline
 90
      306
 70
     0
 43
0.0
 10
124.1791431850652
 20
104.1683278863679
 10
123.7213007677605
 20
104.176951390877
 10
123.2908253273126
 20
104.2020036942389
 10
122.8885135420407
 20
104.2422359493584
 10
122.5150974947246
 20
104.2963993091406
 10
122.1713415659138
 20
104.3632341605674
 10
121.8579886043113
 20
104.4415131883903
 10
121.5758029904666
 20
104.5299983114374
 10
121.3255275730828
 20
104.6274191507675
 10
121.1079374986326
 20
104.732548391132
 10
120.923775615819
 20
104.8441371854359
 10
120.7737955392683
 20
104.9609259206611
 10
120.65876164953
 20
105.081687281559
 10
120.5794275612304
 20
105.2051616551115
 10
120.5365468889957
 20
105.3301109601469
 10
120.5308732474522
 20
105.4552863495701
 10
120.5631710171494
 20
105.5794389762862
 10
120.5631710171494
 20
105.5794389762862
 10
120.6265069435257
 20
105.7113000040368
 10
120.6922113730131
 20
105.8126719371931
 10
120.7597783072197
 20
105.8863108521028
 10
120.8287017477536
 20
105.9349943569598
 10
120.898486462146
 20
105.9614677621883
 10
120.9686049201587
 20
105.9685302078287
 10
121.0385726552461
 20
105.9589270043054
 10
121.1078621371699
 20
105.9354357598123
 10
121.1759888993846
 20
105.9008233166201
 10
121.2424146457286
 20
105.8578349851531
 10
121.3066656755796
 20
105.8092806713749
 10
121.3682359905458
 20
105.7578841538634
 10
121.4265872944654
 20
105.706444572659
 10
121.4812458867164
 20
105.6577072381858
 10
121.5316842370602
 20
105.614449758638
 10
121.5774071130282
 20
105.5794389762862
 10
121.5774071130282
 20
105.5794389762862
 10
121.6314305158085
 20
105.54454661909
 10
121.6862182991382
 20
105.5139929289564
 10
121.7420503770215
 20
105.4875195237279
 10
121.7991743656926
 20
105.4648141916308
 10
121.8578594132325
 20
105.4455970186609
 10
121.9183531358754
 20
105.4295773248911
 10
121.9809139157789
 20
105.416464430394
 10
122.0458109010239
 20
105.4059568893192
 10
122.1133024737679
 20
105.3977747876626
 10
122.183625484322
 20
105.3916274454969
 10
122.2570598466902
 20
105.3872241828948
 10
122.333853177107
 20
105.3842743199291
 10
122.4142746236531
 20
105.3824764107493
 10
122.4985718025629
 20
105.3815613072745
 10
122.5870030959939
 20
105.3812275636543
 10
122.6798376520269
 20
105.3811737340382
 10
122.6798376520269
 20
106.2408972996855
 10
122.6544193072752
 20
106.4429306150648
 10
122.581264858911
 20
106.6276953895795
 10
122.4650897813101
 20
106.7957514512374
 10
122.3105772510785
 20
106.9477016917396
 10
122.1224212107457
 20
107.0841167050175
 10
121.9053048369177
 20
107.2056101486952
 10
121.6639220721239
 20
107.3127526167041
 10
121.4029668588935
 20
107.4061254688988
 10
121.1271116079095
 20
107.4863100651338
 10
120.8410933253941
 20
107.5539092971101
 10
120.5495521242604
 20
107.6095045246823
 10
120.2572142448076
 20
107.6536771077048
 10
119.9687520977184
 20
107.6870084060324
 10
119.6888703914455
 20
107.7100905454427
 10
119.4222523025949
 20
107.7235156517135
 10
119.1735810077727
 20
107.7278543187761
 10
119.1735810077727
 20
107.7278543187761
 10
118.7135531080518
 20
107.7191877505741
 10
118.2795249129372
 20
107.6990016445133
 10
117.8694185992451
 20
107.6674251916726
 10
117.4811563437915
 20
107.6246306468238
 10
117.1126387915461
 20
107.5707041373526
 10
116.7617773534019
 20
107.5058286839542
 10
116.4265049720982
 20
107.4301550095536
 10
116.1047222926047
 20
107.3438123052296
 10
115.7943514917376
 20
107.2469512939076
 10
115.4932932144665
 20
107.1397011666664
 10
115.1994696376075
 20
107.0222341782776
 10
114.9107921720537
 20
106.8946687538967
 10
114.6251829946211
 20
106.7571556164492
 10
114.3405427502795
 20
106.6098454888601
 10
114.0547936158449
 20
106.4528783281316
 10
113.7658470022103
 20
106.2864048571889
 10
113.7658470022103
 20
106.2864048571889
 10
113.6363437116476
 20
106.2107634805579
 10
113.4833814743615
 20
106.1221384005087
 10
113.3107068316369
 20
106.0225643765322
 10
113.1221416862213
 20
105.9140546362727
 10
112.9215079408621
 20
105.7986439392213
 10
112.7125521368443
 20
105.6783885767153
 10
112.4991177087617
 20
105.5553017763992
 10
112.2849727297459
 20
105.4314075318406
 10
112.0739498684674
 20
105.3087513684538
 10
111.8698064321345
 20
105.1893680457296
 10
111.6763643234946
 20
105.0752815572357
 10
111.4974131475254
 20
104.9685374283864
 10
111.3367640410514
 20
104.871148886826
 10
111.1981958431271
 20
104.7851614579688
 10
111.0855304564999
 20
104.7126099013056
 10
111.0025467202245
 20
104.6555182104041
 10
111.0025467202245
 20
104.6555182104041
 10
110.7739861700005
 20
104.4904766072513
 10
110.5382447489804
 20
104.3231956920661
 10
110.2968727501098
 20
104.1547412912486
 10
110.05150659372
 20
103.9861146356594
 10
109.8037073386796
 20
103.8184030835449
 10
109.5550683416271
 20
103.6526293976122
 10
109.3071614273544
 20
103.489837872415
 10
109.0616014843464
 20
103.3310512706602
 10
108.8199711033182
 20
103.1773354187478
 10
108.5838313431385
 20
103.0297346112315
 10
108.3548186241387
 20
102.8892823767415
 10
108.134472473341
 20
102.7570122439081
 10
107.9244077792302
 20
102.6339792732081
 10
107.7262071325216
 20
102.5212169932719
 10
107.5414638898534
 20
102.4197804645761
 10
107.3717498760177
 20
102.3307032157512
 10
107.3717498760177
 20
102.3307032157512
 10
107.1573572807675
 20
102.2391928682757
 10
106.9545918826083
 20
102.18681665175
 10
106.7648424856371
 20
102.1701079388933
 10
106.5895194257973
 20
102.1855785705783
 10
106.4300222731092
 20
102.2297188558312
 10
106.2877613635161
 20
102.2990729332944
 10
106.1641255011152
 20
102.3901311119941
 10
106.0605250218497
 20
102.4994267646495
 10
105.9783594957399
 20
102.6234609662101
 10
105.9190284928061
 20
102.7587455575485
 10
105.8839423489917
 20
102.901813911384
 10
105.8744898683936
 20
103.0491563367428
 10
105.8920921528786
 20
103.1972954404207
 10
105.9381272406204
 20
103.3427430632906
 10
106.0140162334857
 20
103.4820218121483
 10
106.1211587014946
 20
103.6116435278665
 10
106.1211587014946
 20
103.6116435278665
 10
106.4945101532713
 20
103.9508777689197
 10
106.9695457499781
 20
104.3252412174803
 10
107.5338200843584
 20
104.7285865313825
 10
108.1749308128484
 20
105.1547233047677
 10
108.8804432941146
 20
105.5975041954702
 10
109.6379013549773
 20
106.0507818613244
 10
110.434881120026
 20
106.5083766623947
 10
111.2589694797741
 20
106.9641304905923
 10
112.0977102610414
 20
107.4118960037514
 10
112.938690354341
 20
107.8454827960134
 10
113.7694751183396
 20
108.2587650570592
 10
114.5776191457804
 20
108.6455523810299
 10
115.3506985612532
 20
108.99969742576
 10
116.0762894893479
 20
109.3150420831605
 10
116.741957288731
 20
109.585406713296
 10
117.3352565521458
 20
109.804654739924
 10
117.3352565521458
 20
109.804654739924
 10
117.4598075180216
 20
109.8466418405304
 10
117.590548889756
 20
109.8882090701308
 10
117.7276744539672
 20
109.9291088124907
 10
117.871313401734
 20
109.9691042172991
 10
118.0216595196746
 20
110.0079907320145
 10
118.1788742966374
 20
110.0455207404027
 10
118.3431299873943
 20
110.081478923999
 10
118.5145880807937
 20
110.1156391984154
 10
118.6934315975304
 20
110.1477431814944
 10
118.8798004946067
 20
110.1776078525412
 10
119.0738993245638
 20
110.2049748293979
 10
119.2758680444038
 20
110.2296180276769
 10
119.4858896748216
 20
110.2513113629902
 10
119.704136470589
 20
110.26982875095
 10
119.9307591546312
 20
110.2849441071683
 10
120.1659407476432
 20
110.2964313472573
 10
120.1659407476432
 20
110.2964313472573
 10
121.0893662810567
 20
110.3319158302313
 10
122.0216091055974
 20
110.3630293483729
 10
122.9590626369827
 20
110.3868974001792
 10
123.8981095250064
 20
110.4006239523005
 10
124.8351862490785
 20
110.4013237373106
 10
125.7666646930698
 20
110.3861330196297
 10
126.6889921023135
 20
110.3521557659082
 10
127.5985295947572
 20
110.2965174746431
 10
128.4917136498108
 20
110.2163328784081
 10
129.3649376831915
 20
110.1087059438537
 10
130.2146166424629
 20
109.9707729354001
 10
131.0371439433422
 20
109.7996378196977
 10
131.8289237674697
 20
109.5924260952436
 10
132.5863818283324
 20
109.3462632605345
 10
133.305900775724
 20
109.0582532822211
 10
133.9838955572082
 20
108.725510892877
 10
133.9838955572082
 20
108.725510892877
 10
134.1591432555853
 20
108.6301786426541
 10
134.3375238376231
 20
108.5318749976189
 10
134.517207096372
 20
108.4304922985393
 10
134.6963089952664
 20
108.3259444180294
 10
134.8729239658941
 20
108.2181667605497
 10
135.0452218013056
 20
108.1070731987145
 10
135.2113292308584
 20
107.9925668392146
 10
135.3693406861405
 20
107.8745615546642
 10
135.517415194279
 20
107.7529927495238
 10
135.6536687187084
 20
107.6277527645612
 10
135.7762279887862
 20
107.4987770042369
 10
135.8832412657163
 20
107.3659685752419
 10
135.9728029810867
 20
107.2292521161136
 10
136.0430721620247
 20
107.0885307335427
 10
136.0921540060412
 20
106.9437290660668
 10
136.1181967743404
 20
106.7947609863
 10
136.1181967743404
 20
106.7947609863
 10
136.1257652183728
 20
106.6012435161974
 10
136.1119633047888
 20
106.4278152588465
 10
136.0780398806835
 20
106.273582642619
 10
136.0251576657659
 20
106.1376197981169
 10
135.9545547412078
 20
106.0190439196352
 10
135.8674261244879
 20
105.9169506696223
 10
135.7649991308547
 20
105.8304249446034
 10
135.6484795437104
 20
105.7585731729503
 10
135.5190731464568
 20
105.700469485265
 10
135.3779964884193
 20
105.6552418417656
 10
135.2264661189232
 20
105.6219859049007
 10
135.0656878213704
 20
105.599765039349
 10
134.896867379163
 20
105.5877072053287
 10
134.7212321075494
 20
105.5849080652883
 10
134.5399662580854
 20
105.5904417498298
 10
134.3543079119425
 20
105.6034254532481
 10
134.3543079119425
 20
105.6034254532481
 10
134.0861502960696
 20
105.6434208580564
 10
133.8157749000109
 20
105.7142068033095
 10
133.5421051314431
 20
105.8118214292578
 10
133.2640428661964
 20
105.9323459398446
 10
132.9804684482547
 20
106.0718077093972
 10
132.6903052852948
 20
106.2262771759358
 10
132.392455253147
 20
106.3918032456341
 10
132.0858202276415
 20
106.5644348246658
 10
131.7693020846087
 20
106.7402423510511
 10
131.4417919339556
 20
106.9152424331939
 10
131.1022024174356
 20
107.0855270409609
 10
130.7494461768026
 20
107.2471343146026
 10
130.3824143219633
 20
107.3961131602927
 10
130.0000087287481
 20
107.5285232501281
 10
129.6011420389106
 20
107.6404242562057
 10
129.1847053623577
 20
107.7278543187761
 10
129.1847053623577
 20
107.7278543187761
 10
128.9360340675355
 20
107.7235156517135
 10
128.6694159786849
 20
107.7100905454427
 10
128.389534272412
 20
107.6870084060324
 10
128.1010721253228
 20
107.6536771077048
 10
127.80873424587
 20
107.6095045246823
 10
127.5172038106596
 20
107.5539092971101
 10
127.2311747622209
 20
107.4863100651338
 10
126.9553302771601
 20
107.4061147029756
 10
126.6943750639297
 20
107.3127526167041
 10
126.4529815332127
 20
107.2056101486952
 10
126.2358651593847
 20
107.0841274709407
 10
126.0477091190518
 20
106.9476909258164
 10
125.8931965888203
 20
106.7957514512374
 10
125.7770215112194
 20
106.6276846236562
 10
125.7038778287784
 20
106.4429306150648
 10
125.6784487181034
 20
106.2408972996855
 10
125.6784487181034
 20
105.3811737340382
 10
125.7712832741365
 20
105.3812275636543
 10
125.8597145675675
 20
105.3815613072745
 10
125.9440225124005
 20
105.3824871766725
 10
126.0244331930234
 20
105.3842743199291
 10
126.1012265234401
 20
105.3872241828948
 10
126.1746716517316
 20
105.3916274454969
 10
126.2449946622857
 20
105.3977747876626
 10
126.3124754691065
 20
105.4059568893192
 10
126.3773724543514
 20
105.416464430394
 10
126.439933234255
 20
105.4295773248911
 10
126.5004269568979
 20
105.4455970186609
 10
126.5591120044377
 20
105.4648141916308
 10
126.6162359931089
 20
105.4875195237279
 10
126.6720680709922
 20
105.5139929289564
 10
126.7268666202451
 20
105.5445358531667
 10
126.7808792571021
 20
105.5794389762862
 10
126.7808792571021
 20
105.5794389762862
 10
126.826408346452
 20
105.614449758638
 10
126.8762222732484
 20
105.6577072381858
 10
126.9299226983316
 20
105.7064338067357
 10
126.9870789847725
 20
105.7578841538634
 10
127.0472927934113
 20
105.8092699054517
 10
127.1101657850886
 20
105.8578349851531
 10
127.1752780887982
 20
105.9008125506969
 10
127.2422313653806
 20
105.9354357598123
 10
127.3106057438296
 20
105.9589270043054
 10
127.3800136509089
 20
105.9685302078287
 10
127.4500244496893
 20
105.9614785281115
 10
127.5202613328575
 20
105.9349943569598
 10
127.5902936634844
 20
105.8863108521028
 10
127.6597123364869
 20
105.8126719371931
 10
127.7281190127057
 20
105.7113000040368
 10
127.7951153529809
 20
105.5794389762862
 10
127.7951153529809
 20
105.5794389762862
 10
127.8299646464843
 20
105.4563844737398
 10
127.8261858074297
 20
105.3320380604055
 10
127.7846185778293
 20
105.2076593493014
 10
127.7060704019257
 20
105.0845187193691
 10
127.5913702558076
 20
104.9638973154732
 10
127.4413363496408
 20
104.8470762824784
 10
127.2568084254373
 20
104.7353367652492
 10
127.0385831615163
 20
104.6299383768039
 10
126.7875110658133
 20
104.5321622620071
 10
126.5043995825706
 20
104.4432895657236
 10
126.1900776878772
 20
104.3645906668947
 10
125.8453743578219
 20
104.2973359444618
 10
125.4710970366472
 20
104.2428065432897
 10
125.0680854663652
 20
104.2022836082429
 10
124.6371578571416
 20
104.1770267523397
 10
124.1791431850652
 20
104.1683278863679
  0
ENDSEC
  0
SECTION
  2
OBJECTS
  0
DICTIONARY
  5
C
330
0
100
AcDbDictionary
281
     1
  3
ACAD_DETAILVIEWSTYLE
350
8C
  3
ACAD_GROUP
350
D
  3
ACAD_LAYOUT
350
1A
  3
ACAD_MATERIAL
350
43
  3
ACAD_MLEADERSTYLE
350
5B
  3
ACAD_MLINESTYLE
350
17
  3
ACAD_PLOTSETTINGS
350
19
  3
ACAD_PLOTSTYLENAME
350
E
  3
ACAD_SCALELIST
350
47
  3
ACAD_SECTIONVIEWSTYLE
350
8D
  3
ACAD_TABLESTYLE
350
59
  3
ACAD_VISUALSTYLE
350
2A
  3
ACDB_RECOMPOSE_DATA
350
89
  3
AcDbVariableDictionary
350
85
  0
SUN
  5
5D
330
29
100
AcDbSun
 90
        1
290
     0
 63
     7
421
 16777215
 40
1.0
291
     1
 91
  2455826
 92
 54000000
292
     0
 70
     2
 71
   256
280
     1
  0
DICTIONARY
  5
8C
102
{ACAD_REACTORS
330
C
102
}
330
C
100
AcDbDictionary
281
     1
  0
DICTIONARY
  5
D
102
{ACAD_REACTORS
330
C
102
}
330
C
100
AcDbDictionary
281
     1
  0
DICTIONARY
  5
1A
102
{ACAD_REACTORS
330
C
102
}
330
C
100
AcDbDictionary
281
     1
  3
Layout1
350
1E
  3
Layout2
350
26
  3
Model
350
22
  0
DICTIONARY
  5
43
102
{ACAD_REACTORS
330
C
102
}
330
C
100
AcDbDictionary
281
     1
  3
ByBlock
350
45
  3
ByLayer
350
44
  3
Global
350
46
  0
DICTIONARY
  5
5B
102
{ACAD_REACTORS
330
C
102
}
330
C
100
AcDbDictionary
281
     1
  3
Standard
350
5C
  0
DICTIONARY
  5
17
102
{ACAD_REACTORS
330
C
102
}
330
C
100
AcDbDictionary
281
     1
  3
Standard
350
18
  0
DICTIONARY
  5
19
102
{ACAD_REACTORS
330
C
102
}
330
C
100
AcDbDictionary
281
     1
  0
ACDBDICTIONARYWDFLT
  5
E
102
{ACAD_REACTORS
330
C
102
}
330
C
100
AcDbDictionary
281
     1
  3
Normal
350
F
100
AcDbDictionaryWithDefault
340
F
  0
DICTIONARY
  5
47
102
{ACAD_REACTORS
330
C
102
}
330
C
100
AcDbDictionary
281
     1
  3
A0
350
48
  3
A1
350
49
  3
A2
350
4A
  3
A3
350
4B
  3
A4
350
4C
  3
A5
350
4D
  3
A6
350
4E
  3
A7
350
4F
  3
A8
350
50
  3
A9
350
51
  3
B0
350
52
  3
B1
350
53
  3
B2
350
54
  3
B3
350
55
  3
B4
350
56
  3
B5
350
57
  3
B6
350
58
  0
DICTIONARY
  5
8D
102
{ACAD_REACTORS
330
C
102
}
330
C
100
AcDbDictionary
281
     1
  0
DICTIONARY
  5
59
102
{ACAD_REACTORS
330
C
102
}
330
C
100
AcDbDictionary
281
     1
  3
Standard
350
5A
  0
DICTIONARY
  5
2A
102
{ACAD_REACTORS
330
C
102
}
330
C
100
AcDbDictionary
281
     1
  3
2dWireframe
350
2F
  3
Basic
350
32
  3
Brighten
350
36
  3
ColorChange
350
3A
  3
Conceptual
350
34
  3
Dim
350
35
  3
EdgeColorOff
350
3D
  3
Facepattern
350
39
  3
Flat
350
2B
  3
FlatWithEdges
350
2C
  3
Gouraud
350
2D
  3
GouraudWithEdges
350
2E
  3
Hidden
350
31
  3
JitterOff
350
3B
  3
Linepattern
350
38
  3
OverhangOff
350
3C
  3
Realistic
350
33
  3
Shaded
350
42
  3
Shaded with edges
350
41
  3
Shades of Gray
350
3E
  3
Sketchy
350
3F
  3
Thicken
350
37
  3
Wireframe
350
30
  3
X-Ray
350
40
  0
XRECORD
  5
89
102
{ACAD_REACTORS
330
C
102
}
330
C
100
AcDbXrecord
280
     1
 90
        1
330
5A
  0
DICTIONARY
  5
85
102
{ACAD_REACTORS
330
C
102
}
330
C
100
AcDbDictionary
281
     1
  3
CANNOSCALE
350
86
  3
CENTEREXE
350
8E
  3
CENTERLTYPEFILE
350
8F
  3
CMLEADERSTYLE
350
8B
  3
CTABLESTYLE
350
8A
  0
LAYOUT
  5
1E
102
{ACAD_REACTORS
330
1A
102
}
330
1A
100
AcDbPlotSettings
  1

  2
none_device
  4

  6

 40
0.0
 41
0.0
 42
0.0
 43
0.0
 44
0.0
 45
0.0
 46
0.0
 47
0.0
 48
0.0
 49
0.0
140
0.0
141
0.0
142
1.0
143
1.0
 70
   688
 72
     1
 73
     0
 74
     5
  7

 75
    16
 76
     0
 77
     5
 78
   300
147
1.0
148
0.0
149
0.0
100
AcDbLayout
  1
Layout1
 70
     1
 71
     1
 10
0.0
 20
0.0
 11
420.0
 21
297.0
 12
0.0
 22
0.0
 32
0.0
 14
1.000000000000000E+20
 24
1.000000000000000E+20
 34
1.000000000000000E+20
 15
-1.000000000000000E+20
 25
-1.000000000000000E+20
 35
-1.000000000000000E+20
146
0.0
 13
0.0
 23
0.0
 33
0.0
 16
1.0
 26
0.0
 36
0.0
 17
0.0
 27
1.0
 37
0.0
 76
     0
330
1B
  0
LAYOUT
  5
26
102
{ACAD_REACTORS
330
1A
102
}
330
1A
100
AcDbPlotSettings
  1

  2
none_device
  4

  6

 40
0.0
 41
0.0
 42
0.0
 43
0.0
 44
0.0
 45
0.0
 46
0.0
 47
0.0
 48
0.0
 49
0.0
140
0.0
141
0.0
142
1.0
143
1.0
 70
   688
 72
     1
 73
     0
 74
     5
  7

 75
    16
 76
     0
 77
     5
 78
   300
147
1.0
148
0.0
149
0.0
100
AcDbLayout
  1
Layout2
 70
     1
 71
     2
 10
0.0
 20
0.0
 11
0.0
 21
0.0
 12
0.0
 22
0.0
 32
0.0
 14
0.0
 24
0.0
 34
0.0
 15
0.0
 25
0.0
 35
0.0
146
0.0
 13
0.0
 23
0.0
 33
0.0
 16
1.0
 26
0.0
 36
0.0
 17
0.0
 27
1.0
 37
0.0
 76
     0
330
23
  0
LAYOUT
  5
22
102
{ACAD_REACTORS
330
1A
102
}
330
1A
100
AcDbPlotSettings
  1

  2
none_device
  4
Letter_(8.50_x_11.00_Inches)
  6

 40
6.35
 41
6.35
 42
6.35000508
 43
6.35000508
 44
215.9
 45
279.4
 46
0.0
 47
0.0
 48
0.0
 49
0.0
140
0.0
141
0.0
142
1.0
143
1.0
 70
  1712
 72
     1
 73
     0
 74
     0
  7

 75
     0
 76
     0
 77
     5
 78
   300
147
1.0
148
0.0
149
0.0
100
AcDbLayout
  1
Model
 70
     1
 71
     0
 10
0.0
 20
0.0
 11
302.9997823349792
 21
216.0016055409748
 12
0.0
 22
0.0
 32
0.0
 14
0.0
 24
0.0
 34
0.0
 15
302.9997823349792
 25
216.0016055409748
 35
0.0
146
0.0
 13
0.0
 23
0.0
 33
0.0
 16
1.0
 26
0.0
 36
0.0
 17
0.0
 27
1.0
 37
0.0
 76
     0
330
1F
331
29
  0
MATERIAL
  5
45
102
{ACAD_REACTORS
330
43
102
}
330
43
100
AcDbMaterial
  1
ByBlock
 72
     1
 94
      127
  0
MATERIAL
  5
44
102
{ACAD_REACTORS
330
43
102
}
330
43
100
AcDbMaterial
  1
ByLayer
 72
     1
 94
      127
  0
MATERIAL
  5
46
102
{ACAD_REACTORS
330
43
102
}
330
43
100
AcDbMaterial
  1
Global
 72
     1
 94
      127
  0
MLEADERSTYLE
  5
5C
102
{ACAD_REACTORS
330
5B
102
}
330
5B
100
AcDbMLeaderStyle
179
     2
170
     2
171
     1
172
     0
 90
        2
 40
0.0
 41
0.0
173
     1
 91
-1056964608
340
14
 92
       -2
290
     1
 42
2.0
291
     1
 43
8.0
  3
Standard
341
0
 44
4.0
300

342
11
174
     1
178
     6
175
     1
176
     0
 93
-1056964608
 45
4.0
292
     0
297
     0
 46
4.0
343
0
 94
-1056964608
 47
1.0
 49
1.0
140
1.0
293
     1
141
0.0
294
     1
177
     0
142
1.0
295
     0
296
     0
143
3.75
271
     0
272
     9
273
     9
298
     0
  0
MLINESTYLE
  5
18
102
{ACAD_REACTORS
330
17
102
}
330
17
100
AcDbMlineStyle
  2
Standard
 70
     0
  3

 62
   256
 51
90.0
 52
90.0
 71
     2
 49
0.5
 62
   256
  6
BYLAYER
 49
-0.5
 62
   256
  6
BYLAYER
  0
ACDBPLACEHOLDER
  5
F
102
{ACAD_REACTORS
330
E
102
}
330
E
  0
SCALE
  5
48
102
{ACAD_REACTORS
330
47
102
}
330
47
100
AcDbScale
 70
     0
300
1:1
140
1.0
141
1.0
290
     1
  0
SCALE
  5
49
102
{ACAD_REACTORS
330
47
102
}
330
47
100
AcDbScale
 70
     0
300
1:2
140
1.0
141
2.0
290
     0
  0
SCALE
  5
4A
102
{ACAD_REACTORS
330
47
102
}
330
47
100
AcDbScale
 70
     0
300
1:4
140
1.0
141
4.0
290
     0
  0
SCALE
  5
4B
102
{ACAD_REACTORS
330
47
102
}
330
47
100
AcDbScale
 70
     0
300
1:5
140
1.0
141
5.0
290
     0
  0
SCALE
  5
4C
102
{ACAD_REACTORS
330
47
102
}
330
47
100
AcDbScale
 70
     0
300
1:8
140
1.0
141
8.0
290
     0
  0
SCALE
  5
4D
102
{ACAD_REACTORS
330
47
102
}
330
47
100
AcDbScale
 70
     0
300
1:10
140
1.0
141
10.0
290
     0
  0
SCALE
  5
4E
102
{ACAD_REACTORS
330
47
102
}
330
47
100
AcDbScale
 70
     0
300
1:16
140
1.0
141
16.0
290
     0
  0
SCALE
  5
4F
102
{ACAD_REACTORS
330
47
102
}
330
47
100
AcDbScale
 70
     0
300
1:20
140
1.0
141
20.0
290
     0
  0
SCALE
  5
50
102
{ACAD_REACTORS
330
47
102
}
330
47
100
AcDbScale
 70
     0
300
1:30
140
1.0
141
30.0
290
     0
  0
SCALE
  5
51
102
{ACAD_REACTORS
330
47
102
}
330
47
100
AcDbScale
 70
     0
300
1:40
140
1.0
141
40.0
290
     0
  0
SCALE
  5
52
102
{ACAD_REACTORS
330
47
102
}
330
47
100
AcDbScale
 70
     0
300
1:50
140
1.0
141
50.0
290
     0
  0
SCALE
  5
53
102
{ACAD_REACTORS
330
47
102
}
330
47
100
AcDbScale
 70
     0
300
1:100
140
1.0
141
100.0
290
     0
  0
SCALE
  5
54
102
{ACAD_REACTORS
330
47
102
}
330
47
100
AcDbScale
 70
     0
300
2:1
140
2.0
141
1.0
290
     0
  0
SCALE
  5
55
102
{ACAD_REACTORS
330
47
102
}
330
47
100
AcDbScale
 70
     0
300
4:1
140
4.0
141
1.0
290
     0
  0
SCALE
  5
56
102
{ACAD_REACTORS
330
47
102
}
330
47
100
AcDbScale
 70
     0
300
8:1
140
8.0
141
1.0
290
     0
  0
SCALE
  5
57
102
{ACAD_REACTORS
330
47
102
}
330
47
100
AcDbScale
 70
     0
300
10:1
140
10.0
141
1.0
290
     0
  0
SCALE
  5
58
102
{ACAD_REACTORS
330
47
102
}
330
47
100
AcDbScale
 70
     0
300
100:1
140
100.0
141
1.0
290
     0
  0
TABLESTYLE
  5
5A
102
{ACAD_REACTORS
330
59
102
}
102
{ACAD_XDICTIONARY
360
87
102
}
330
59
100
AcDbTableStyle
  3
Standard
 70
     0
 71
     0
 40
0.06
 41
0.06
280
     0
281
     0
  7
Standard
140
4.5
170
     2
 62
     0
 63
   257
283
     0
 90
        4
 91
        0
  1

274
    -2
284
     1
 64
     0
275
    -2
285
     1
 65
     0
276
    -2
286
     1
 66
     0
277
    -2
287
     1
 67
     0
278
    -2
288
     1
 68
     0
279
    -2
289
     1
 69
     0
  7
Standard
140
6.0
170
     5
 62
     0
 63
   257
283
     0
 90
        4
 91
        0
  1

274
    -2
284
     1
 64
     0
275
    -2
285
     1
 65
     0
276
    -2
286
     1
 66
     0
277
    -2
287
     1
 67
     0
278
    -2
288
     1
 68
     0
279
    -2
289
     1
 69
     0
  7
Standard
140
4.5
170
     5
 62
     0
 63
   257
283
     0
 90
        4
 91
        0
  1

274
    -2
284
     1
 64
     0
275
    -2
285
     1
 65
     0
276
    -2
286
     1
 66
     0
277
    -2
287
     1
 67
     0
278
    -2
288
     1
 68
     0
279
    -2
289
     1
 69
     0
  0
VISUALSTYLE
  5
2F
102
{ACAD_REACTORS
330
2A
102
}
330
2A
100
AcDbVisualStyle
  2
2dWireframe
 70
     4
177
     3
291
     0
 70
    58
 90
        0
176
     1
 90
        2
176
     1
 90
        0
176
     1
 90
        0
176
     1
 40
0.6
176
     1
 40
30.0
176
     1
 62
     7
420
 16777215
176
     1
 90
        1
176
     1
 90
        4
176
     1
 62
     7
176
     1
 62
   257
176
     1
 90
        1
176
     1
 90
        1
176
     1
 40
1.0
176
     1
 90
        0
176
     1
 62
   257
176
     1
 40
1.0
176
     1
 90
        1
176
     1
 90
        6
176
     1
 90
        2
176
     1
 62
     7
176
     1
 90
        5
176
     1
 90
        0
176
     1
 90
        0
176
     1
290
     0
176
     1
 90
        1
176
     1
 40
0.0
176
     1
 90
        0
176
     1
290
     1
176
     1
290
     1
176
     1
290
     0
176
     1
290
     0
176
     1
290
     0
176
     1
290
     0
176
     1
290
     0
176
     1
290
     0
176
     1
290
     0
176
     1
 90
       50
176
     1
 40
0.0
176
     1
 40
1.0
176
     1
 90
        0
176
     1
 62
    18
420
        0
176
     1
 90
       50
176
     1
 90
        3
176
     1
 62
     5
420
      255
176
     1
290
     0
176
     1
 90
       50
176
     1
 90
       50
176
     1
 90
       50
176
     1
290
     0
176
     1
 90
       50
176
     1
 62
   256
176
     0
 40
1.0
176
     0
 90
        2
176
     1
  1
strokes_ogs.tif
176
     1
290
     0
176
     1
 40
1.0
176
     1
 40
1.0
176
     1
  0
VISUALSTYLE
  5
32
102
{ACAD_REACTORS
330
2A
102
}
330
2A
100
AcDbVisualStyle
  2
Basic
 70
     7
177
     3
291
     1
 70
    58
 90
        1
176
     1
 90
        0
176
     1
 90
        1
176
     1
 90
        0
176
     1
 40
0.6
176
     1
 40
30.0
176
     1
 62
     7
420
 16777215
176
     1
 90
        0
176
     1
 90
        4
176
     1
 62
     7
176
     1
 62
   257
176
     1
 90
        1
176
     1
 90
        1
176
     1
 40
1.0
176
     1
 90
        8
176
     1
 62
     7
176
     1
 40
1.0
176
     1
 90
        1
176
     1
 90
        6
176
     1
 90
        2
176
     1
 62
     7
176
     1
 90
        5
176
     1
 90
        0
176
     1
 90
        0
176
     1
290
     0
176
     1
 90
        1
176
     1
 40
0.0
176
     1
 90
        0
176
     1
290
     0
176
     1
290
     1
176
     1
290
     1
176
     1
290
     0
176
     1
290
     0
176
     1
290
     0
176
     1
290
     0
176
     1
290
     0
176
     1
290
     0
176
     1
 90
       50
176
     1
 40
0.0
176
     1
 40
1.0
176
     1
 90
        0
176
     1
 62
    18
420
        0
176
     1
 90
       50
176
     1
 90
        3
176
     1
 62
     5
420
      255
176
     1
290
     0
176
     1
 90
       50
176
     1
 90
       50
176
     1
 90
       50
176
     1
290
     0
176
     1
 90
       50
176
     1
 62
   256
176
     0
 40
1.0
176
     0
 90
        2
176
     1
  1
strokes_ogs.tif
176
     1
290
     0
176
     1
 40
1.0
176
     1
 40
1.0
176
     1
  0
VISUALSTYLE
  5
36
102
{ACAD_REACTORS
330
2A
102
}
330
2A
100
AcDbVisualStyle
  2
Brighten
 70
    12
177
     3
291
     1
 70
    58
 90
        2
176
     1
 90
        2
176
     1
 90
        0
176
     1
 90
        0
176
     1
 40
0.6
176
     1
 40
30.0
176
     1
 62
     7
420
 16777215
176
     1
 90
        1
176
     1
 90
        4
176
     1
 62
     7
176
     1
 62
   257
176
     1
 90
        1
176
     1
 90
        1
176
     1
 40
1.0
176
     1
 90
        8
176
     1
 62
     7
176
     1
 40
1.0
176
     1
 90
        1
176
     1
 90
        6
176
     1
 90
        2
176
     1
 62
     7
176
     1
 90
        5
176
     1
 90
        0
176
     1
 90
        0
176
     1
290
     0
176
     1
 90
        1
176
     1
 40
50.0
176
     1
 90
        0
176
     1
290
     0
176
     1
290
     1
176
     1
290
     1
176
     1
290
     0
176
     1
290
     0
176
     1
290
     0
176
     1
290
     0
176
     1
290
     0
176
     1
290
     0
176
     1
 90
       50
176
     1
 40
0.0
176
     1
 40
1.0
176
     1
 90
        0
176
     1
 62
    18
420
        0
176
     1
 90
       50
176
     1
 90
        3
176
     1
 62
     5
420
      255
176
     1
290
     0
176
     1
 90
       50
176
     1
 90
       50
176
     1
 90
       50
176
     1
290
     0
176
     1
 90
       50
176
     1
 62
   256
176
     0
 40
1.0
176
     0
 90
        2
176
     1
  1
strokes_ogs.tif
176
     1
290
     0
176
     1
 40
1.0
176
     1
 40
1.0
176
     1
  0
VISUALSTYLE
  5
3A
102
{ACAD_REACTORS
330
2A
102
}
330
2A
100
AcDbVisualStyle
  2
ColorChange
 70
    16
177
     3
291
     1
 70
    58
 90
        2
176
     1
 90
        2
176
     1
 90
        3
176
     1
 90
        0
176
     1
 40
0.6
176
     1
 40
30.0
176
     1
 62
     8
420
  8421504
176
     1
 90
        1
176
     1
 90
        4
176
     1
 62
     7
176
     1
 62
   257
176
     1
 90
        1
176
     1
 90
        1
176
     1
 40
1.0
176
     1
 90
        8
176
     1
 62
     8
420
  8421504
176
     1
 40
1.0
176
     1
 90
        1
176
     1
 90
        6
176
     1
 90
        2
176
     1
 62
     7
176
     1
 90
        5
176
     1
 90
        0
176
     1
 90
        0
176
     1
290
     0
176
     1
 90
        1
176
     1
 40
0.0
176
     1
 90
        0
176
     1
290
     0
176
     1
290
     1
176
     1
290
     1
176
     1
290
     0
176
     1
290
     0
176
     1
290
     0
176
     1
290
     0
176
     1
290
     0
176
     1
290
     0
176
     1
 90
       50
176
     1
 40
0.0
176
     1
 40
1.0
176
     1
 90
        0
176
     1
 62
    18
420
        0
176
     1
 90
       50
176
     1
 90
        3
176
     1
 62
     5
420
      255
176
     1
290
     0
176
     1
 90
       50
176
     1
 90
       50
176
     1
 90
       50
176
     1
290
     0
176
     1
 90
       50
176
     1
 62
   256
176
     0
 40
1.0
176
     0
 90
        2
176
     1
  1
strokes_ogs.tif
176
     1
290
     0
176
     1
 40
1.0
176
     1
 40
1.0
176
     1
  0
VISUALSTYLE
  5
34
102
{ACAD_REACTORS
330
2A
102
}
330
2A
100
AcDbVisualStyle
  2
Conceptual
 70
     9
177
     3
291
     0
 70
    58
 90
        3
176
     1
 90
        2
176
     1
 90
        0
176
     1
 90
        0
176
     1
 40
0.6
176
     1
 40
30.0
176
     1
 62
     7
420
 16777215
176
     1
 90
        2
176
     1
 90
        2
176
     1
 62
     7
176
     1
 62
   257
176
     1
 90
        1
176
     1
 90
        1
176
     1
 40
179.0
176
     1
 90
        8
176
     1
 62
     7
176
     1
 40
1.0
176
     1
 90
        1
176
     1
 90
        6
176
     1
 90
        2
176
     1
 62
     7
176
     1
 90
        3
176
     1
 90
        0
176
     1
 90
        0
176
     1
290
     0
176
     1
 90
        1
176
     1
 40
0.0
176
     1
 90
        0
176
     1
290
     0
176
     1
290
     1
176
     1
290
     1
176
     1
290
     0
176
     1
290
     0
176
     1
290
     0
176
     1
290
     0
176
     1
290
     0
176
     1
290
     0
176
     1
 90
       50
176
     1
 40
0.0
176
     1
 40
1.0
176
     1
 90
        0
176
     1
 62
    18
420
        0
176
     1
 90
       50
176
     1
 90
        3
176
     1
 62
     5
420
      255
176
     1
290
     0
176
     1
 90
       50
176
     1
 90
       50
176
     1
 90
       50
176
     1
290
     0
176
     1
 90
       50
176
     1
 62
   256
176
     0
 40
1.0
176
     0
 90
        2
176
     1
  1
strokes_ogs.tif
176
     1
290
     0
176
     1
 40
1.0
176
     1
 40
1.0
176
     1
  0
VISUALSTYLE
  5
35
102
{ACAD_REACTORS
330
2A
102
}
330
2A
100
AcDbVisualStyle
  2
Dim
 70
    11
177
     3
291
     1
 70
    58
 90
        2
176
     1
 90
        2
176
     1
 90
        0
176
     1
 90
        0
176
     1
 40
0.6
176
     1
 40
30.0
176
     1
 62
     7
420
 16777215
176
     1
 90
        1
176
     1
 90
        4
176
     1
 62
     7
176
     1
 62
   257
176
     1
 90
        1
176
     1
 90
        1
176
     1
 40
1.0
176
     1
 90
        8
176
     1
 62
     7
176
     1
 40
1.0
176
     1
 90
        1
176
     1
 90
        6
176
     1
 90
        2
176
     1
 62
     7
176
     1
 90
        5
176
     1
 90
        0
176
     1
 90
        0
176
     1
290
     0
176
     1
 90
        1
176
     1
 40
-50.0
176
     1
 90
        0
176
     1
290
     0
176
     1
290
     1
176
     1
290
     1
176
     1
290
     0
176
     1
290
     0
176
     1
290
     0
176
     1
290
     0
176
     1
290
     0
176
     1
290
     0
176
     1
 90
       50
176
     1
 40
0.0
176
     1
 40
1.0
176
     1
 90
        0
176
     1
 62
    18
420
        0
176
     1
 90
       50
176
     1
 90
        3
176
     1
 62
     5
420
      255
176
     1
290
     0
176
     1
 90
       50
176
     1
 90
       50
176
     1
 90
       50
176
     1
290
     0
176
     1
 90
       50
176
     1
 62
   256
176
     0
 40
1.0
176
     0
 90
        2
176
     1
  1
strokes_ogs.tif
176
     1
290
     0
176
     1
 40
1.0
176
     1
 40
1.0
176
     1
  0
VISUALSTYLE
  5
3D
102
{ACAD_REACTORS
330
2A
102
}
330
2A
100
AcDbVisualStyle
  2
EdgeColorOff
 70
    22
177
     3
291
     1
 70
    58
 90
        2
176
     0
 90
        2
176
     0
 90
        0
176
     0
 90
        0
176
     0
 40
0.6
176
     0
 40
30.0
176
     0
 62
     7
420
 16777215
176
     0
 90
        1
176
     0
 90
        4
176
     0
 62
     7
176
     0
 62
   257
176
     0
 90
        1
176
     0
 90
        1
176
     0
 40
1.0
176
     0
 90
        8
176
     2
 62
     7
176
     0
 40
1.0
176
     0
 90
        1
176
     0
 90
        6
176
     0
 90
        2
176
     0
 62
     7
176
     0
 90
        5
176
     0
 90
        0
176
     0
 90
        0
176
     0
290
     0
176
     0
 90
        1
176
     0
 40
0.0
176
     0
 90
        0
176
     0
290
     0
176
     0
290
     1
176
     0
290
     1
176
     0
290
     0
176
     0
290
     0
176
     0
290
     0
176
     0
290
     0
176
     0
290
     0
176
     0
290
     0
176
     0
 90
       50
176
     0
 40
0.0
176
     0
 40
1.0
176
     0
 90
        0
176
     0
 62
    18
420
        0
176
     0
 90
       50
176
     0
 90
        3
176
     0
 62
     5
420
      255
176
     0
290
     0
176
     0
 90
       50
176
     0
 90
       50
176
     0
 90
       50
176
     0
290
     0
176
     0
 90
       50
176
     0
 62
   256
176
     0
 40
1.0
176
     0
 90
        2
176
     0
  1
strokes_ogs.tif
176
     0
290
     0
176
     0
 40
1.0
176
     0
 40
1.0
176
     0
  0
VISUALSTYLE
  5
39
102
{ACAD_REACTORS
330
2A
102
}
330
2A
100
AcDbVisualStyle
  2
Facepattern
 70
    15
177
     3
291
     1
 70
    58
 90
        2
176
     1
 90
        2
176
     1
 90
        0
176
     1
 90
        0
176
     1
 40
0.6
176
     1
 40
30.0
176
     1
 62
     7
420
 16777215
176
     1
 90
        1
176
     1
 90
        4
176
     1
 62
     7
176
     1
 62
   257
176
     1
 90
        1
176
     1
 90
        1
176
     1
 40
1.0
176
     1
 90
        8
176
     1
 62
     7
176
     1
 40
1.0
176
     1
 90
        1
176
     1
 90
        6
176
     1
 90
        2
176
     1
 62
     7
176
     1
 90
        5
176
     1
 90
        0
176
     1
 90
        0
176
     1
290
     0
176
     1
 90
        1
176
     1
 40
0.0
176
     1
 90
        0
176
     1
290
     0
176
     1
290
     1
176
     1
290
     1
176
     1
290
     0
176
     1
290
     0
176
     1
290
     0
176
     1
290
     0
176
     1
290
     0
176
     1
290
     0
176
     1
 90
       50
176
     1
 40
0.0
176
     1
 40
1.0
176
     1
 90
        0
176
     1
 62
    18
420
        0
176
     1
 90
       50
176
     1
 90
        3
176
     1
 62
     5
420
      255
176
     1
290
     0
176
     1
 90
       50
176
     1
 90
       50
176
     1
 90
       50
176
     1
290
     0
176
     1
 90
       50
176
     1
 62
   256
176
     0
 40
1.0
176
     0
 90
        2
176
     1
  1
strokes_ogs.tif
176
     1
290
     0
176
     1
 40
1.0
176
     1
 40
1.0
176
     1
  0
VISUALSTYLE
  5
2B
102
{ACAD_REACTORS
330
2A
102
}
330
2A
100
AcDbVisualStyle
  2
Flat
 70
     0
177
     3
291
     1
 70
    58
 90
        2
176
     1
 90
        1
176
     1
 90
        1
176
     1
 90
        2
176
     1
 40
0.6
176
     1
 40
30.0
176
     1
 62
     7
420
 16777215
176
     1
 90
        0
176
     1
 90
        0
176
     1
 62
     7
176
     1
 62
   257
176
     1
 90
        1
176
     1
 90
        1
176
     1
 40
1.0
176
     1
 90
        8
176
     1
 62
     7
176
     1
 40
1.0
176
     1
 90
        1
176
     1
 90
        6
176
     1
 90
        2
176
     1
 62
     7
176
     1
 90
        5
176
     1
 90
        0
176
     1
 90
        0
176
     1
290
     0
176
     1
 90
       13
176
     1
 40
0.0
176
     1
 90
        0
176
     1
290
     0
176
     1
290
     1
176
     1
290
     1
176
     1
290
     0
176
     1
290
     0
176
     1
290
     0
176
     1
290
     0
176
     1
290
     0
176
     1
290
     0
176
     1
 90
       50
176
     1
 40
0.0
176
     1
 40
1.0
176
     1
 90
        0
176
     1
 62
    18
420
        0
176
     1
 90
       50
176
     1
 90
        3
176
     1
 62
     5
420
      255
176
     1
290
     0
176
     1
 90
       50
176
     1
 90
       50
176
     1
 90
       50
176
     1
290
     0
176
     1
 90
       50
176
     1
 62
   256
176
     0
 40
1.0
176
     0
 90
        2
176
     1
  1
strokes_ogs.tif
176
     1
290
     0
176
     1
 40
1.0
176
     1
 40
1.0
176
     1
  0
VISUALSTYLE
  5
2C
102
{ACAD_REACTORS
330
2A
102
}
330
2A
100
AcDbVisualStyle
  2
FlatWithEdges
 70
     1
177
     3
291
     1
 70
    58
 90
        2
176
     1
 90
        1
176
     1
 90
        1
176
     1
 90
        2
176
     1
 40
0.6
176
     1
 40
30.0
176
     1
 62
     7
420
 16777215
176
     1
 90
        1
176
     1
 90
        0
176
     1
 62
     7
176
     1
 62
   257
176
     1
 90
        1
176
     1
 90
        1
176
     1
 40
1.0
176
     1
 90
        0
176
     1
 62
   257
176
     1
 40
1.0
176
     1
 90
        1
176
     1
 90
        6
176
     1
 90
        2
176
     1
 62
     7
176
     1
 90
        5
176
     1
 90
        0
176
     1
 90
        0
176
     1
290
     0
176
     1
 90
       13
176
     1
 40
0.0
176
     1
 90
        0
176
     1
290
     0
176
     1
290
     1
176
     1
290
     1
176
     1
290
     0
176
     1
290
     0
176
     1
290
     0
176
     1
290
     0
176
     1
290
     0
176
     1
290
     0
176
     1
 90
       50
176
     1
 40
0.0
176
     1
 40
1.0
176
     1
 90
        0
176
     1
 62
    18
420
        0
176
     1
 90
       50
176
     1
 90
        3
176
     1
 62
     5
420
      255
176
     1
290
     0
176
     1
 90
       50
176
     1
 90
       50
176
     1
 90
       50
176
     1
290
     0
176
     1
 90
       50
176
     1
 62
   256
176
     0
 40
1.0
176
     0
 90
        2
176
     1
  1
strokes_ogs.tif
176
     1
290
     0
176
     1
 40
1.0
176
     1
 40
1.0
176
     1
  0
VISUALSTYLE
  5
2D
102
{ACAD_REACTORS
330
2A
102
}
330
2A
100
AcDbVisualStyle
  2
Gouraud
 70
     2
177
     3
291
     1
 70
    58
 90
        2
176
     1
 90
        2
176
     1
 90
        1
176
     1
 90
        2
176
     1
 40
0.6
176
     1
 40
30.0
176
     1
 62
     7
420
 16777215
176
     1
 90
        0
176
     1
 90
        0
176
     1
 62
     7
176
     1
 62
   257
176
     1
 90
        1
176
     1
 90
        1
176
     1
 40
1.0
176
     1
 90
        0
176
     1
 62
     7
176
     1
 40
1.0
176
     1
 90
        1
176
     1
 90
        6
176
     1
 90
        2
176
     1
 62
     7
176
     1
 90
        5
176
     1
 90
        0
176
     1
 90
        0
176
     1
290
     0
176
     1
 90
       13
176
     1
 40
0.0
176
     1
 90
        0
176
     1
290
     0
176
     1
290
     1
176
     1
290
     1
176
     1
290
     0
176
     1
290
     0
176
     1
290
     0
176
     1
290
     0
176
     1
290
     0
176
     1
290
     0
176
     1
 90
       50
176
     1
 40
0.0
176
     1
 40
1.0
176
     1
 90
        0
176
     1
 62
    18
420
        0
176
     1
 90
       50
176
     1
 90
        3
176
     1
 62
     5
420
      255
176
     1
290
     0
176
     1
 90
       50
176
     1
 90
       50
176
     1
 90
       50
176
     1
290
     0
176
     1
 90
       50
176
     1
 62
   256
176
     0
 40
1.0
176
     0
 90
        2
176
     1
  1
strokes_ogs.tif
176
     1
290
     0
176
     1
 40
1.0
176
     1
 40
1.0
176
     1
  0
VISUALSTYLE
  5
2E
102
{ACAD_REACTORS
330
2A
102
}
330
2A
100
AcDbVisualStyle
  2
GouraudWithEdges
 70
     3
177
     3
291
     1
 70
    58
 90
        2
176
     1
 90
        2
176
     1
 90
        1
176
     1
 90
        2
176
     1
 40
0.6
176
     1
 40
30.0
176
     1
 62
     7
420
 16777215
176
     1
 90
        1
176
     1
 90
        0
176
     1
 62
     7
176
     1
 62
   257
176
     1
 90
        1
176
     1
 90
        1
176
     1
 40
1.0
176
     1
 90
        0
176
     1
 62
   257
176
     1
 40
1.0
176
     1
 90
        1
176
     1
 90
        6
176
     1
 90
        2
176
     1
 62
     7
176
     1
 90
        5
176
     1
 90
        0
176
     1
 90
        0
176
     1
290
     0
176
     1
 90
       13
176
     1
 40
0.0
176
     1
 90
        0
176
     1
290
     0
176
     1
290
     1
176
     1
290
     1
176
     1
290
     0
176
     1
290
     0
176
     1
290
     0
176
     1
290
     0
176
     1
290
     0
176
     1
290
     0
176
     1
 90
       50
176
     1
 40
0.0
176
     1
 40
1.0
176
     1
 90
        0
176
     1
 62
    18
420
        0
176
     1
 90
       50
176
     1
 90
        3
176
     1
 62
     5
420
      255
176
     1
290
     0
176
     1
 90
       50
176
     1
 90
       50
176
     1
 90
       50
176
     1
290
     0
176
     1
 90
       50
176
     1
 62
   256
176
     0
 40
1.0
176
     0
 90
        2
176
     1
  1
strokes_ogs.tif
176
     1
290
     0
176
     1
 40
1.0
176
     1
 40
1.0
176
     1
  0
VISUALSTYLE
  5
31
102
{ACAD_REACTORS
330
2A
102
}
330
2A
100
AcDbVisualStyle
  2
Hidden
 70
     6
177
     3
291
     0
 70
    58
 90
        1
176
     1
 90
        2
176
     1
 90
        2
176
     1
 90
        0
176
     1
 40
0.6
176
     1
 40
30.0
176
     1
 62
     7
420
 16777215
176
     1
 90
        2
176
     1
 90
        2
176
     1
 62
     7
176
     1
 62
   257
176
     1
 90
        2
176
     1
 90
        1
176
     1
 40
40.0
176
     1
 90
        0
176
     1
 62
   257
176
     1
 40
1.0
176
     1
 90
        1
176
     1
 90
        6
176
     1
 90
        2
176
     1
 62
     7
176
     1
 90
        3
176
     1
 90
        0
176
     1
 90
        0
176
     1
290
     0
176
     1
 90
        1
176
     1
 40
0.0
176
     1
 90
        0
176
     1
290
     0
176
     1
290
     1
176
     1
290
     1
176
     1
290
     0
176
     1
290
     0
176
     1
290
     0
176
     1
290
     0
176
     1
290
     0
176
     1
290
     0
176
     1
 90
       50
176
     1
 40
0.0
176
     1
 40
1.0
176
     1
 90
        0
176
     1
 62
    18
420
        0
176
     1
 90
       50
176
     1
 90
        3
176
     1
 62
     5
420
      255
176
     1
290
     0
176
     1
 90
       50
176
     1
 90
       50
176
     1
 90
       50
176
     1
290
     0
176
     1
 90
       50
176
     1
 62
   256
176
     0
 40
1.0
176
     0
 90
        2
176
     1
  1
strokes_ogs.tif
176
     1
290
     0
176
     1
 40
1.0
176
     1
 40
1.0
176
     1
  0
VISUALSTYLE
  5
3B
102
{ACAD_REACTORS
330
2A
102
}
330
2A
100
AcDbVisualStyle
  2
JitterOff
 70
    20
177
     3
291
     1
 70
    58
 90
        2
176
     0
 90
        2
176
     0
 90
        0
176
     0
 90
        0
176
     0
 40
0.6
176
     0
 40
30.0
176
     0
 62
     7
420
 16777215
176
     0
 90
        1
176
     0
 90
        4
176
     0
 62
     7
176
     0
 62
   257
176
     0
 90
        1
176
     0
 90
        1
176
     0
 40
1.0
176
     0
 90
       10
176
     2
 62
     7
176
     0
 40
1.0
176
     0
 90
        1
176
     0
 90
        6
176
     0
 90
        2
176
     0
 62
     7
176
     0
 90
        5
176
     0
 90
        0
176
     0
 90
        0
176
     0
290
     0
176
     0
 90
        1
176
     0
 40
0.0
176
     0
 90
        0
176
     0
290
     0
176
     0
290
     1
176
     0
290
     1
176
     0
290
     0
176
     0
290
     0
176
     0
290
     0
176
     0
290
     0
176
     0
290
     0
176
     0
290
     0
176
     0
 90
       50
176
     0
 40
0.0
176
     0
 40
1.0
176
     0
 90
        0
176
     0
 62
    18
420
        0
176
     0
 90
       50
176
     0
 90
        3
176
     0
 62
     5
420
      255
176
     0
290
     0
176
     0
 90
       50
176
     0
 90
       50
176
     0
 90
       50
176
     0
290
     0
176
     0
 90
       50
176
     0
 62
   256
176
     0
 40
1.0
176
     0
 90
        2
176
     0
  1
strokes_ogs.tif
176
     0
290
     0
176
     0
 40
1.0
176
     0
 40
1.0
176
     0
  0
VISUALSTYLE
  5
38
102
{ACAD_REACTORS
330
2A
102
}
330
2A
100
AcDbVisualStyle
  2
Linepattern
 70
    14
177
     3
291
     1
 70
    58
 90
        2
176
     1
 90
        2
176
     1
 90
        0
176
     1
 90
        0
176
     1
 40
0.6
176
     1
 40
30.0
176
     1
 62
     7
420
 16777215
176
     1
 90
        1
176
     1
 90
        4
176
     1
 62
     7
176
     1
 62
   257
176
     1
 90
        7
176
     1
 90
        7
176
     1
 40
1.0
176
     1
 90
        8
176
     1
 62
     7
176
     1
 40
1.0
176
     1
 90
        1
176
     1
 90
        6
176
     1
 90
        2
176
     1
 62
     7
176
     1
 90
        5
176
     1
 90
        0
176
     1
 90
        0
176
     1
290
     0
176
     1
 90
        1
176
     1
 40
0.0
176
     1
 90
        0
176
     1
290
     0
176
     1
290
     1
176
     1
290
     1
176
     1
290
     0
176
     1
290
     0
176
     1
290
     0
176
     1
290
     0
176
     1
290
     0
176
     1
290
     0
176
     1
 90
       50
176
     1
 40
0.0
176
     1
 40
1.0
176
     1
 90
        0
176
     1
 62
    18
420
        0
176
     1
 90
       50
176
     1
 90
        3
176
     1
 62
     5
420
      255
176
     1
290
     0
176
     1
 90
       50
176
     1
 90
       50
176
     1
 90
       50
176
     1
290
     0
176
     1
 90
       50
176
     1
 62
   256
176
     0
 40
1.0
176
     0
 90
        2
176
     1
  1
strokes_ogs.tif
176
     1
290
     0
176
     1
 40
1.0
176
     1
 40
1.0
176
     1
  0
VISUALSTYLE
  5
3C
102
{ACAD_REACTORS
330
2A
102
}
330
2A
100
AcDbVisualStyle
  2
OverhangOff
 70
    21
177
     3
291
     1
 70
    58
 90
        2
176
     0
 90
        2
176
     0
 90
        0
176
     0
 90
        0
176
     0
 40
0.6
176
     0
 40
30.0
176
     0
 62
     7
420
 16777215
176
     0
 90
        1
176
     0
 90
        4
176
     0
 62
     7
176
     0
 62
   257
176
     0
 90
        1
176
     0
 90
        1
176
     0
 40
1.0
176
     0
 90
        9
176
     2
 62
     7
176
     0
 40
1.0
176
     0
 90
        1
176
     0
 90
        6
176
     0
 90
        2
176
     0
 62
     7
176
     0
 90
        5
176
     0
 90
        0
176
     0
 90
        0
176
     0
290
     0
176
     0
 90
        1
176
     0
 40
0.0
176
     0
 90
        0
176
     0
290
     0
176
     0
290
     1
176
     0
290
     1
176
     0
290
     0
176
     0
290
     0
176
     0
290
     0
176
     0
290
     0
176
     0
290
     0
176
     0
290
     0
176
     0
 90
       50
176
     0
 40
0.0
176
     0
 40
1.0
176
     0
 90
        0
176
     0
 62
    18
420
        0
176
     0
 90
       50
176
     0
 90
        3
176
     0
 62
     5
420
      255
176
     0
290
     0
176
     0
 90
       50
176
     0
 90
       50
176
     0
 90
       50
176
     0
290
     0
176
     0
 90
       50
176
     0
 62
   256
176
     0
 40
1.0
176
     0
 90
        2
176
     0
  1
strokes_ogs.tif
176
     0
290
     0
176
     0
 40
1.0
176
     0
 40
1.0
176
     0
  0
VISUALSTYLE
  5
33
102
{ACAD_REACTORS
330
2A
102
}
330
2A
100
AcDbVisualStyle
  2
Realistic
 70
     8
177
     3
291
     0
 70
    58
 90
        2
176
     1
 90
        3
176
     1
 90
        0
176
     1
 90
        2
176
     1
 40
0.6
176
     1
 40
30.0
176
     1
 62
     7
420
 16777215
176
     1
 90
        0
176
     1
 90
        0
176
     1
 62
     7
176
     1
 62
   257
176
     1
 90
        1
176
     1
 90
        1
176
     1
 40
1.0
176
     1
 90
        8
176
     1
 62
   257
176
     1
 40
1.0
176
     1
 90
        1
176
     1
 90
        6
176
     1
 90
        2
176
     1
 62
     7
176
     1
 90
        3
176
     1
 90
        0
176
     1
 90
        0
176
     1
290
     0
176
     1
 90
       13
176
     1
 40
0.0
176
     1
 90
        0
176
     1
290
     0
176
     1
290
     1
176
     1
290
     1
176
     1
290
     0
176
     1
290
     0
176
     1
290
     0
176
     1
290
     0
176
     1
290
     0
176
     1
290
     0
176
     1
 90
       50
176
     1
 40
0.0
176
     1
 40
1.0
176
     1
 90
        0
176
     1
 62
    18
420
        0
176
     1
 90
       50
176
     1
 90
        3
176
     1
 62
     5
420
      255
176
     1
290
     0
176
     1
 90
       50
176
     1
 90
       50
176
     1
 90
       50
176
     1
290
     0
176
     1
 90
       50
176
     1
 62
   256
176
     0
 40
1.0
176
     0
 90
        2
176
     1
  1
strokes_ogs.tif
176
     1
290
     0
176
     1
 40
1.0
176
     1
 40
1.0
176
     1
  0
VISUALSTYLE
  5
42
102
{ACAD_REACTORS
330
2A
102
}
330
2A
100
AcDbVisualStyle
  2
Shaded
 70
    27
177
     3
291
     0
 70
    58
 90
        2
176
     1
 90
        2
176
     1
 90
        1
176
     1
 90
        2
176
     1
 40
0.6
176
     1
 40
30.0
176
     1
 62
     7
420
 16777215
176
     1
 90
        0
176
     1
 90
        4
176
     1
 62
     7
176
     1
 62
   257
176
     1
 90
        1
176
     1
 90
        1
176
     1
 40
1.0
176
     1
 90
        8
176
     1
 62
   257
176
     1
 40
1.0
176
     1
 90
        1
176
     1
 90
        6
176
     1
 90
        2
176
     1
 62
     8
420
  7895160
176
     1
 90
        3
176
     1
 90
        0
176
     1
 90
        0
176
     1
290
     0
176
     1
 90
        5
176
     1
 40
0.0
176
     1
 90
        0
176
     1
290
     0
176
     1
290
     1
176
     1
290
     1
176
     1
290
     0
176
     1
290
     0
176
     1
290
     0
176
     1
290
     0
176
     1
290
     0
176
     1
290
     0
176
     1
 90
       50
176
     1
 40
0.0
176
     1
 40
1.0
176
     1
 90
        0
176
     1
 62
    18
420
        0
176
     1
 90
       50
176
     1
 90
        3
176
     1
 62
     5
420
      255
176
     1
290
     0
176
     1
 90
       50
176
     1
 90
       50
176
     1
 90
       50
176
     1
290
     0
176
     1
 90
       50
176
     1
 62
   256
176
     0
 40
1.0
176
     0
 90
        2
176
     1
  1
strokes_ogs.tif
176
     1
290
     0
176
     1
 40
1.0
176
     1
 40
1.0
176
     1
  0
VISUALSTYLE
  5
41
102
{ACAD_REACTORS
330
2A
102
}
330
2A
100
AcDbVisualStyle
  2
Shaded with edges
 70
    26
177
     3
291
     0
 70
    58
 90
        2
176
     1
 90
        2
176
     1
 90
        1
176
     1
 90
        2
176
     1
 40
0.6
176
     1
 40
30.0
176
     1
 62
     7
420
 16777215
176
     1
 90
        1
176
     1
 90
       10
176
     1
 62
     7
176
     1
 62
   257
176
     1
 90
        2
176
     1
 90
        1
176
     1
 40
1.0
176
     1
 90
        8
176
     1
 62
   257
176
     1
 40
1.0
176
     1
 90
        1
176
     1
 90
        6
176
     1
 90
        2
176
     1
 62
     7
176
     1
 90
        3
176
     1
 90
        0
176
     1
 90
        0
176
     1
290
     0
176
     1
 90
        5
176
     1
 40
0.0
176
     1
 90
        0
176
     1
290
     0
176
     1
290
     1
176
     1
290
     1
176
     1
290
     0
176
     1
290
     0
176
     1
290
     0
176
     1
290
     0
176
     1
290
     0
176
     1
290
     0
176
     1
 90
       50
176
     1
 40
0.0
176
     1
 40
1.0
176
     1
 90
        0
176
     1
 62
    18
420
        0
176
     1
 90
       50
176
     1
 90
        3
176
     1
 62
     5
420
      255
176
     1
290
     0
176
     1
 90
       50
176
     1
 90
       50
176
     1
 90
       50
176
     1
290
     0
176
     1
 90
       50
176
     1
 62
   256
176
     0
 40
1.0
176
     0
 90
        2
176
     1
  1
strokes_ogs.tif
176
     1
290
     0
176
     1
 40
1.0
176
     1
 40
1.0
176
     1
  0
VISUALSTYLE
  5
3E
102
{ACAD_REACTORS
330
2A
102
}
330
2A
100
AcDbVisualStyle
  2
Shades of Gray
 70
    23
177
     3
291
     0
 70
    58
 90
        2
176
     1
 90
        2
176
     1
 90
        3
176
     1
 90
        0
176
     1
 40
0.6
176
     1
 40
30.0
176
     1
 62
     7
420
 16777215
176
     1
 90
        2
176
     1
 90
        2
176
     1
 62
     7
176
     1
 62
     7
176
     1
 90
        1
176
     1
 90
        1
176
     1
 40
40.0
176
     1
 90
        8
176
     1
 62
     7
176
     1
 40
1.0
176
     1
 90
        1
176
     1
 90
        6
176
     1
 90
        2
176
     1
 62
     7
176
     1
 90
        3
176
     1
 90
        0
176
     1
 90
        0
176
     1
290
     0
176
     1
 90
        1
176
     1
 40
0.0
176
     1
 90
        0
176
     1
290
     0
176
     1
290
     1
176
     1
290
     1
176
     1
290
     0
176
     1
290
     0
176
     1
290
     0
176
     1
290
     0
176
     1
290
     0
176
     1
290
     0
176
     1
 90
       50
176
     1
 40
0.0
176
     1
 40
1.0
176
     1
 90
        0
176
     1
 62
    18
420
        0
176
     1
 90
       50
176
     1
 90
        3
176
     1
 62
     5
420
      255
176
     1
290
     0
176
     1
 90
       50
176
     1
 90
       50
176
     1
 90
       50
176
     1
290
     0
176
     1
 90
       50
176
     1
 62
   256
176
     0
 40
1.0
176
     0
 90
        2
176
     1
  1
strokes_ogs.tif
176
     1
290
     0
176
     1
 40
1.0
176
     1
 40
1.0
176
     1
  0
VISUALSTYLE
  5
3F
102
{ACAD_REACTORS
330
2A
102
}
330
2A
100
AcDbVisualStyle
  2
Sketchy
 70
    24
177
     3
291
     0
 70
    58
 90
        1
176
     1
 90
        2
176
     1
 90
        2
176
     1
 90
        0
176
     1
 40
0.6
176
     1
 40
30.0
176
     1
 62
     7
420
 16777215
176
     1
 90
        2
176
     1
 90
        2
176
     1
 62
     7
176
     1
 62
     7
176
     1
 90
        1
176
     1
 90
        1
176
     1
 40
40.0
176
     1
 90
       11
176
     1
 62
     7
176
     1
 40
1.0
176
     1
 90
        1
176
     1
 90
        6
176
     1
 90
        2
176
     1
 62
     7
176
     1
 90
        6
176
     1
 90
        0
176
     1
 90
        0
176
     1
290
     0
176
     1
 90
        1
176
     1
 40
0.0
176
     1
 90
        0
176
     1
290
     0
176
     1
290
     1
176
     1
290
     1
176
     1
290
     0
176
     1
290
     0
176
     1
290
     0
176
     1
290
     0
176
     1
290
     0
176
     1
290
     0
176
     1
 90
       50
176
     1
 40
0.0
176
     1
 40
1.0
176
     1
 90
        0
176
     1
 62
    18
420
        0
176
     1
 90
       50
176
     1
 90
        3
176
     1
 62
     5
420
      255
176
     1
290
     0
176
     1
 90
       50
176
     1
 90
       50
176
     1
 90
       50
176
     1
290
     0
176
     1
 90
       50
176
     1
 62
   256
176
     0
 40
1.0
176
     0
 90
        2
176
     1
  1
strokes_ogs.tif
176
     1
290
     0
176
     1
 40
1.0
176
     1
 40
1.0
176
     1
  0
VISUALSTYLE
  5
37
102
{ACAD_REACTORS
330
2A
102
}
330
2A
100
AcDbVisualStyle
  2
Thicken
 70
    13
177
     3
291
     1
 70
    58
 90
        2
176
     1
 90
        2
176
     1
 90
        0
176
     1
 90
        0
176
     1
 40
0.6
176
     1
 40
30.0
176
     1
 62
     7
420
 16777215
176
     1
 90
        1
176
     1
 90
        4
176
     1
 62
     7
176
     1
 62
   257
176
     1
 90
        1
176
     1
 90
        1
176
     1
 40
1.0
176
     1
 90
       12
176
     1
 62
     7
176
     1
 40
1.0
176
     1
 90
        1
176
     1
 90
        6
176
     1
 90
        2
176
     1
 62
     7
176
     1
 90
        5
176
     1
 90
        0
176
     1
 90
        0
176
     1
290
     0
176
     1
 90
        1
176
     1
 40
0.0
176
     1
 90
        0
176
     1
290
     0
176
     1
290
     1
176
     1
290
     1
176
     1
290
     0
176
     1
290
     0
176
     1
290
     0
176
     1
290
     0
176
     1
290
     0
176
     1
290
     0
176
     1
 90
       50
176
     1
 40
0.0
176
     1
 40
1.0
176
     1
 90
        0
176
     1
 62
    18
420
        0
176
     1
 90
       50
176
     1
 90
        3
176
     1
 62
     5
420
      255
176
     1
290
     0
176
     1
 90
       50
176
     1
 90
       50
176
     1
 90
       50
176
     1
290
     0
176
     1
 90
       50
176
     1
 62
   256
176
     0
 40
1.0
176
     0
 90
        2
176
     1
  1
strokes_ogs.tif
176
     1
290
     0
176
     1
 40
1.0
176
     1
 40
1.0
176
     1
  0
VISUALSTYLE
  5
30
102
{ACAD_REACTORS
330
2A
102
}
330
2A
100
AcDbVisualStyle
  2
Wireframe
 70
     5
177
     3
291
     0
 70
    58
 90
        0
176
     1
 90
        2
176
     1
 90
        0
176
     1
 90
        0
176
     1
 40
0.6
176
     1
 40
30.0
176
     1
 62
     7
420
 16777215
176
     1
 90
        1
176
     1
 90
        4
176
     1
 62
     7
176
     1
 62
   257
176
     1
 90
        1
176
     1
 90
        1
176
     1
 40
1.0
176
     1
 90
        0
176
     1
 62
   257
176
     1
 40
1.0
176
     1
 90
        1
176
     1
 90
        6
176
     1
 90
        2
176
     1
 62
     7
176
     1
 90
        3
176
     1
 90
        0
176
     1
 90
        0
176
     1
290
     0
176
     1
 90
        1
176
     1
 40
0.0
176
     1
 90
        0
176
     1
290
     0
176
     1
290
     1
176
     1
290
     1
176
     1
290
     0
176
     1
290
     0
176
     1
290
     0
176
     1
290
     0
176
     1
290
     0
176
     1
290
     0
176
     1
 90
       50
176
     1
 40
0.0
176
     1
 40
1.0
176
     1
 90
        0
176
     1
 62
    18
420
        0
176
     1
 90
       50
176
     1
 90
        3
176
     1
 62
     5
420
      255
176
     1
290
     0
176
     1
 90
       50
176
     1
 90
       50
176
     1
 90
       50
176
     1
290
     0
176
     1
 90
       50
176
     1
 62
   256
176
     0
 40
1.0
176
     0
 90
        2
176
     1
  1
strokes_ogs.tif
176
     1
290
     0
176
     1
 40
1.0
176
     1
 40
1.0
176
     1
  0
VISUALSTYLE
  5
40
102
{ACAD_REACTORS
330
2A
102
}
330
2A
100
AcDbVisualStyle
  2
X-Ray
 70
    25
177
     3
291
     0
 70
    58
 90
        2
176
     1
 90
        2
176
     1
 90
        1
176
     1
 90
        1
176
     1
 40
0.5
176
     1
 40
30.0
176
     1
 62
     7
420
 16777215
176
     1
 90
        1
176
     1
 90
        0
176
     1
 62
     7
176
     1
 62
   257
176
     1
 90
        1
176
     1
 90
        1
176
     1
 40
1.0
176
     1
 90
        8
176
     1
 62
     7
176
     1
 40
1.0
176
     1
 90
        1
176
     1
 90
        6
176
     1
 90
        2
176
     1
 62
     7
176
     1
 90
        3
176
     1
 90
        0
176
     1
 90
        0
176
     1
290
     0
176
     1
 90
       13
176
     1
 40
0.0
176
     1
 90
        0
176
     1
290
     0
176
     1
290
     1
176
     1
290
     1
176
     1
290
     0
176
     1
290
     0
176
     1
290
     0
176
     1
290
     0
176
     1
290
     0
176
     1
290
     0
176
     1
 90
       50
176
     1
 40
0.0
176
     1
 40
1.0
176
     1
 90
        0
176
     1
 62
    18
420
        0
176
     1
 90
       50
176
     1
 90
        3
176
     1
 62
     5
420
      255
176
     1
290
     0
176
     1
 90
       50
176
     1
 90
       50
176
     1
 90
       50
176
     1
290
     0
176
     1
 90
       50
176
     1
 62
   256
176
     0
 40
1.0
176
     0
 90
        2
176
     1
  1
strokes_ogs.tif
176
     1
290
     0
176
     1
 40
1.0
176
     1
 40
1.0
176
     1
  0
DICTIONARYVAR
  5
86
102
{ACAD_REACTORS
330
85
102
}
330
85
100
DictionaryVariables
280
     0
  1
1:1
  0
DICTIONARYVAR
  5
8E
102
{ACAD_REACTORS
330
85
102
}
330
85
100
DictionaryVariables
280
     0
  1
3.500000
  0
DICTIONARYVAR
  5
8F
102
{ACAD_REACTORS
330
85
102
}
330
85
100
DictionaryVariables
280
     0
  1
acadiso.lin
  0
DICTIONARYVAR
  5
8B
102
{ACAD_REACTORS
330
85
102
}
330
85
100
DictionaryVariables
280
     0
  1
Standard
  0
DICTIONARYVAR
  5
8A
102
{ACAD_REACTORS
330
85
102
}
330
85
100
DictionaryVariables
280
     0
  1
Standard
  0
DICTIONARY
  5
87
330
5A
100
AcDbDictionary
280
     1
281
     1
  3
ACAD_ROUNDTRIP_2008_TABLESTYLE_CELLSTYLEMAP
360
88
  0
CELLSTYLEMAP
  5
88
102
{ACAD_REACTORS
330
87
102
}
330
87
100
AcDbCellStyleMap
 90
        3
300
CELLSTYLE
  1
TABLEFORMAT_BEGIN
 90
        5
170
     1
 91
        0
 92
    32768
 62
   257
 93
        1
300
CONTENTFORMAT
  1
CONTENTFORMAT_BEGIN
 90
        0
 91
        0
 92
        4
 93
        0
300

 40
0.0
140
1.0
 94
        5
 62
     0
340
11
144
6.0
309
CONTENTFORMAT_END
171
     1
301
MARGIN
  1
CELLMARGIN_BEGIN
 40
1.5
 40
1.5
 40
1.5
 40
1.5
 40
1.5
 40
1.5
309
CELLMARGIN_END
 94
        6
 95
        1
302
GRIDFORMAT
  1
GRIDFORMAT_BEGIN
 90
        0
 91
        1
 62
     0
 92
       -2
340
14
 93
        0
 40
0.045
309
GRIDFORMAT_END
 95
        2
302
GRIDFORMAT
  1
GRIDFORMAT_BEGIN
 90
        0
 91
        1
 62
     0
 92
       -2
340
14
 93
        0
 40
0.045
309
GRIDFORMAT_END
 95
        4
302
GRIDFORMAT
  1
GRIDFORMAT_BEGIN
 90
        0
 91
        1
 62
     0
 92
       -2
340
14
 93
        0
 40
0.045
309
GRIDFORMAT_END
 95
        8
302
GRIDFORMAT
  1
GRIDFORMAT_BEGIN
 90
        0
 91
        1
 62
     0
 92
       -2
340
14
 93
        0
 40
0.045
309
GRIDFORMAT_END
 95
       16
302
GRIDFORMAT
  1
GRIDFORMAT_BEGIN
 90
        0
 91
        1
 62
     0
 92
       -2
340
14
 93
        0
 40
0.045
309
GRIDFORMAT_END
 95
       32
302
GRIDFORMAT
  1
GRIDFORMAT_BEGIN
 90
        0
 91
        1
 62
     0
 92
       -2
340
14
 93
        0
 40
0.045
309
GRIDFORMAT_END
309
TABLEFORMAT_END
  1
CELLSTYLE_BEGIN
 90
        1
 91
        1
300
_TITLE
309
CELLSTYLE_END
300
CELLSTYLE
  1
TABLEFORMAT_BEGIN
 90
        5
170
     1
 91
        0
 92
        0
 62
   257
 93
        1
300
CONTENTFORMAT
  1
CONTENTFORMAT_BEGIN
 90
        0
 91
        0
 92
        4
 93
        0
300

 40
0.0
140
1.0
 94
        5
 62
     0
340
11
144
4.5
309
CONTENTFORMAT_END
171
     1
301
MARGIN
  1
CELLMARGIN_BEGIN
 40
1.5
 40
1.5
 40
1.5
 40
1.5
 40
1.5
 40
1.5
309
CELLMARGIN_END
 94
        6
 95
        1
302
GRIDFORMAT
  1
GRIDFORMAT_BEGIN
 90
        0
 91
        1
 62
     0
 92
       -2
340
14
 93
        0
 40
0.045
309
GRIDFORMAT_END
 95
        2
302
GRIDFORMAT
  1
GRIDFORMAT_BEGIN
 90
        0
 91
        1
 62
     0
 92
       -2
340
14
 93
        0
 40
0.045
309
GRIDFORMAT_END
 95
        4
302
GRIDFORMAT
  1
GRIDFORMAT_BEGIN
 90
        0
 91
        1
 62
     0
 92
       -2
340
14
 93
        0
 40
0.045
309
GRIDFORMAT_END
 95
        8
302
GRIDFORMAT
  1
GRIDFORMAT_BEGIN
 90
        0
 91
        1
 62
     0
 92
       -2
340
14
 93
        0
 40
0.045
309
GRIDFORMAT_END
 95
       16
302
GRIDFORMAT
  1
GRIDFORMAT_BEGIN
 90
        0
 91
        1
 62
     0
 92
       -2
340
14
 93
        0
 40
0.045
309
GRIDFORMAT_END
 95
       32
302
GRIDFORMAT
  1
GRIDFORMAT_BEGIN
 90
        0
 91
        1
 62
     0
 92
       -2
340
14
 93
        0
 40
0.045
309
GRIDFORMAT_END
309
TABLEFORMAT_END
  1
CELLSTYLE_BEGIN
 90
        2
 91
        1
300
_HEADER
309
CELLSTYLE_END
300
CELLSTYLE
  1
TABLEFORMAT_BEGIN
 90
        5
170
     1
 91
        0
 92
        0
 62
   257
 93
        1
300
CONTENTFORMAT
  1
CONTENTFORMAT_BEGIN
 90
        0
 91
        0
 92
        4
 93
        0
300

 40
0.0
140
1.0
 94
        2
 62
     0
340
11
144
4.5
309
CONTENTFORMAT_END
171
     1
301
MARGIN
  1
CELLMARGIN_BEGIN
 40
1.5
 40
1.5
 40
1.5
 40
1.5
 40
1.5
 40
1.5
309
CELLMARGIN_END
 94
        6
 95
        1
302
GRIDFORMAT
  1
GRIDFORMAT_BEGIN
 90
        0
 91
        1
 62
     0
 92
       -2
340
14
 93
        0
 40
0.045
309
GRIDFORMAT_END
 95
        2
302
GRIDFORMAT
  1
GRIDFORMAT_BEGIN
 90
        0
 91
        1
 62
     0
 92
       -2
340
14
 93
        0
 40
0.045
309
GRIDFORMAT_END
 95
        4
302
GRIDFORMAT
  1
GRIDFORMAT_BEGIN
 90
        0
 91
        1
 62
     0
 92
       -2
340
14
 93
        0
 40
0.045
309
GRIDFORMAT_END
 95
        8
302
GRIDFORMAT
  1
GRIDFORMAT_BEGIN
 90
        0
 91
        1
 62
     0
 92
       -2
340
14
 93
        0
 40
0.045
309
GRIDFORMAT_END
 95
       16
302
GRIDFORMAT
  1
GRIDFORMAT_BEGIN
 90
        0
 91
        1
 62
     0
 92
       -2
340
14
 93
        0
 40
0.045
309
GRIDFORMAT_END
 95
       32
302
GRIDFORMAT
  1
GRIDFORMAT_BEGIN
 90
        0
 91
        1
 62
     0
 92
       -2
340
14
 93
        0
 40
0.045
309
GRIDFORMAT_END
309
TABLEFORMAT_END
  1
CELLSTYLE_BEGIN
 90
        3
 91
        2
300
_DATA
309
CELLSTYLE_END
  0
ENDSEC
  0
EOF
