  0
SECTION
  2
HEADER
  9
$ACADVER
  1
AC1027
  9
$ACADMAINTVER
 70
   105
  9
$DWGCODEPAGE
  3
ANSI_932
  9
$LASTSAVEDBY
  1
a.yasuda
  9
$REQUIREDVERSIONS
160
                 0
  9
$INSBASE
 10
0.0
 20
0.0
 30
0.0
  9
$EXTMIN
 10
0.0
 20
0.0
 30
0.0
  9
$EXTMAX
 10
302.9997823349792
 20
216.0016055409748
 30
0.0
  9
$LIMMIN
 10
0.0
 20
0.0
  9
$LIMMAX
 10
302.9997823349792
 20
216.0016055409748
  9
$ORTHOMODE
 70
     0
  9
$REGENMODE
 70
     1
  9
$FILLMODE
 70
     1
  9
$QTEXTMODE
 70
     0
  9
$MIRRTEXT
 70
     1
  9
$LTSCALE
 40
1.0
  9
$ATTMODE
 70
     1
  9
$TEXTSIZE
 40
2.5
  9
$TRACEWID
 40
1.0
  9
$TEXTSTYLE
  7
Standard
  9
$CLAYER
  8
0
  9
$CELTYPE
  6
ByLayer
  9
$CECOLOR
 62
   256
  9
$CELTSCALE
 40
1.0
  9
$DISPSILH
 70
     0
  9
$DIMSCALE
 40
1.0
  9
$DIMASZ
 40
2.5
  9
$DIMEXO
 40
0.625
  9
$DIMDLI
 40
3.75
  9
$DIMRND
 40
0.0
  9
$DIMDLE
 40
0.0
  9
$DIMEXE
 40
1.25
  9
$DIMTP
 40
0.0
  9
$DIMTM
 40
0.0
  9
$DIMTXT
 40
2.5
  9
$DIMCEN
 40
2.5
  9
$DIMTSZ
 40
0.0
  9
$DIMTOL
 70
     0
  9
$DIMLIM
 70
     0
  9
$DIMTIH
 70
     0
  9
$DIMTOH
 70
     0
  9
$DIMSE1
 70
     0
  9
$DIMSE2
 70
     0
  9
$DIMTAD
 70
     1
  9
$DIMZIN
 70
     8
  9
$DIMBLK
  1

  9
$DIMASO
 70
     1
  9
$DIMSHO
 70
     1
  9
$DIMPOST
  1

  9
$DIMAPOST
  1

  9
$DIMALT
 70
     0
  9
$DIMALTD
 70
     3
  9
$DIMALTF
 40
0.03937007874016
  9
$DIMLFAC
 40
1.0
  9
$DIMTOFL
 70
     1
  9
$DIMTVP
 40
0.0
  9
$DIMTIX
 70
     0
  9
$DIMSOXD
 70
     0
  9
$DIMSAH
 70
     0
  9
$DIMBLK1
  1

  9
$DIMBLK2
  1

  9
$DIMSTYLE
  2
ISO-25
  9
$DIMCLRD
 70
     0
  9
$DIMCLRE
 70
     0
  9
$DIMCLRT
 70
     0
  9
$DIMTFAC
 40
1.0
  9
$DIMGAP
 40
0.625
  9
$DIMJUST
 70
     0
  9
$DIMSD1
 70
     0
  9
$DIMSD2
 70
     0
  9
$DIMTOLJ
 70
     0
  9
$DIMTZIN
 70
     8
  9
$DIMALTZ
 70
     0
  9
$DIMALTTZ
 70
     0
  9
$DIMUPT
 70
     0
  9
$DIMDEC
 70
     2
  9
$DIMTDEC
 70
     2
  9
$DIMALTU
 70
     2
  9
$DIMALTTD
 70
     3
  9
$DIMTXSTY
  7
Standard
  9
$DIMAUNIT
 70
     0
  9
$DIMADEC
 70
     0
  9
$DIMALTRND
 40
0.0
  9
$DIMAZIN
 70
     0
  9
$DIMDSEP
 70
    44
  9
$DIMATFIT
 70
     3
  9
$DIMFRAC
 70
     0
  9
$DIMLDRBLK
  1

  9
$DIMLUNIT
 70
     2
  9
$DIMLWD
 70
    -2
  9
$DIMLWE
 70
    -2
  9
$DIMTMOVE
 70
     0
  9
$DIMFXL
 40
1.0
  9
$DIMFXLON
 70
     0
  9
$DIMJOGANG
 40
0.7853981633974483
  9
$DIMTFILL
 70
     0
  9
$DIMTFILLCLR
 70
     0
  9
$DIMARCSYM
 70
     0
  9
$DIMLTYPE
  6

  9
$DIMLTEX1
  6

  9
$DIMLTEX2
  6

  9
$DIMTXTDIRECTION
 70
     0
  9
$LUNITS
 70
     2
  9
$LUPREC
 70
     4
  9
$SKETCHINC
 40
1.0
  9
$FILLETRAD
 40
0.0
  9
$AUNITS
 70
     0
  9
$AUPREC
 70
     0
  9
$MENU
  1
.
  9
$ELEVATION
 40
0.0
  9
$PELEVATION
 40
0.0
  9
$THICKNESS
 40
0.0
  9
$LIMCHECK
 70
     0
  9
$CHAMFERA
 40
0.0
  9
$CHAMFERB
 40
0.0
  9
$CHAMFERC
 40
0.0
  9
$CHAMFERD
 40
0.0
  9
$SKPOLY
 70
     0
  9
$TDCREATE
 40
2459866.620514167
  9
$TDUCREATE
 40
2459866.245514167
  9
$TDUPDATE
 40
2459866.620514201
  9
$TDUUPDATE
 40
2459866.245514201
  9
$TDINDWG
 40
0.0000000116
  9
$TDUSRTIMER
 40
0.0000000116
  9
$USRTIMER
 70
     1
  9
$ANGBASE
 50
0.0
  9
$ANGDIR
 70
     0
  9
$PDMODE
 70
     0
  9
$PDSIZE
 40
0.0
  9
$PLINEWID
 40
0.0
  9
$SPLFRAME
 70
     0
  9
$SPLINETYPE
 70
     6
  9
$SPLINESEGS
 70
     8
  9
$HANDSEED
  5
9A
  9
$SURFTAB1
 70
     6
  9
$SURFTAB2
 70
     6
  9
$SURFTYPE
 70
     6
  9
$SURFU
 70
     6
  9
$SURFV
 70
     6
  9
$UCSBASE
  2

  9
$UCSNAME
  2

  9
$UCSORG
 10
0.0
 20
0.0
 30
0.0
  9
$UCSXDIR
 10
1.0
 20
0.0
 30
0.0
  9
$UCSYDIR
 10
0.0
 20
1.0
 30
0.0
  9
$UCSORTHOREF
  2

  9
$UCSORTHOVIEW
 70
     0
  9
$UCSORGTOP
 10
0.0
 20
0.0
 30
0.0
  9
$UCSORGBOTTOM
 10
0.0
 20
0.0
 30
0.0
  9
$UCSORGLEFT
 10
0.0
 20
0.0
 30
0.0
  9
$UCSORGRIGHT
 10
0.0
 20
0.0
 30
0.0
  9
$UCSORGFRONT
 10
0.0
 20
0.0
 30
0.0
  9
$UCSORGBACK
 10
0.0
 20
0.0
 30
0.0
  9
$PUCSBASE
  2

  9
$PUCSNAME
  2

  9
$PUCSORG
 10
0.0
 20
0.0
 30
0.0
  9
$PUCSXDIR
 10
1.0
 20
0.0
 30
0.0
  9
$PUCSYDIR
 10
0.0
 20
1.0
 30
0.0
  9
$PUCSORTHOREF
  2

  9
$PUCSORTHOVIEW
 70
     0
  9
$PUCSORGTOP
 10
0.0
 20
0.0
 30
0.0
  9
$PUCSORGBOTTOM
 10
0.0
 20
0.0
 30
0.0
  9
$PUCSORGLEFT
 10
0.0
 20
0.0
 30
0.0
  9
$PUCSORGRIGHT
 10
0.0
 20
0.0
 30
0.0
  9
$PUCSORGFRONT
 10
0.0
 20
0.0
 30
0.0
  9
$PUCSORGBACK
 10
0.0
 20
0.0
 30
0.0
  9
$USERI1
 70
     0
  9
$USERI2
 70
     0
  9
$USERI3
 70
     0
  9
$USERI4
 70
     0
  9
$USERI5
 70
     0
  9
$USERR1
 40
0.0
  9
$USERR2
 40
0.0
  9
$USERR3
 40
0.0
  9
$USERR4
 40
0.0
  9
$USERR5
 40
0.0
  9
$WORLDVIEW
 70
     1
  9
$SHADEDGE
 70
     3
  9
$SHADEDIF
 70
    70
  9
$TILEMODE
 70
     1
  9
$MAXACTVP
 70
    64
  9
$PINSBASE
 10
0.0
 20
0.0
 30
0.0
  9
$PLIMCHECK
 70
     0
  9
$PEXTMIN
 10
1.000000000000000E+20
 20
1.000000000000000E+20
 30
1.000000000000000E+20
  9
$PEXTMAX
 10
-1.000000000000000E+20
 20
-1.000000000000000E+20
 30
-1.000000000000000E+20
  9
$PLIMMIN
 10
0.0
 20
0.0
  9
$PLIMMAX
 10
420.0
 20
297.0
  9
$UNITMODE
 70
     0
  9
$VISRETAIN
 70
     1
  9
$PLINEGEN
 70
     0
  9
$PSLTSCALE
 70
     1
  9
$TREEDEPTH
 70
  3020
  9
$CMLSTYLE
  2
Standard
  9
$CMLJUST
 70
     0
  9
$CMLSCALE
 40
20.0
  9
$PROXYGRAPHICS
 70
     1
  9
$MEASUREMENT
 70
     1
  9
$CELWEIGHT
370
    -1
  9
$ENDCAPS
280
     0
  9
$JOINSTYLE
280
     0
  9
$LWDISPLAY
290
     0
  9
$INSUNITS
 70
     4
  9
$HYPERLINKBASE
  1

  9
$STYLESHEET
  1

  9
$XEDIT
290
     1
  9
$CEPSNTYPE
380
     0
  9
$PSTYLEMODE
290
     1
  9
$FINGERPRINTGUID
  2
{3d8ba5d0-fba3-4c73-8a48-0aee869fe91c}
  9
$VERSIONGUID
  2
{FAEB1C32-E019-11D5-929B-00C0DF256EC4}
  9
$EXTNAMES
290
     1
  9
$PSVPSCALE
 40
0.0
  9
$OLESTARTUP
290
     0
  9
$SORTENTS
280
   127
  9
$INDEXCTL
280
     0
  9
$HIDETEXT
280
     1
  9
$XCLIPFRAME
280
     2
  9
$HALOGAP
280
     0
  9
$OBSCOLOR
 70
   257
  9
$OBSLTYPE
280
     0
  9
$INTERSECTIONDISPLAY
280
     0
  9
$INTERSECTIONCOLOR
 70
   257
  9
$DIMASSOC
280
     2
  9
$PROJECTNAME
  1

  9
$CAMERADISPLAY
290
     0
  9
$LENSLENGTH
 40
50.0
  9
$CAMERAHEIGHT
 40
0.0
  9
$STEPSPERSEC
 40
2.0
  9
$STEPSIZE
 40
6.0
  9
$3DDWFPREC
 40
2.0
  9
$PSOLWIDTH
 40
5.0
  9
$PSOLHEIGHT
 40
80.0
  9
$LOFTANG1
 40
1.570796326794897
  9
$LOFTANG2
 40
1.570796326794897
  9
$LOFTMAG1
 40
0.0
  9
$LOFTMAG2
 40
0.0
  9
$LOFTPARAM
 70
     7
  9
$LOFTNORMALS
280
     1
  9
$LATITUDE
 40
37.795
  9
$LONGITUDE
 40
-122.394
  9
$NORTHDIRECTION
 40
0.0
  9
$TIMEZONE
 70
 -8000
  9
$LIGHTGLYPHDISPLAY
280
     1
  9
$TILEMODELIGHTSYNCH
280
     1
  9
$CMATERIAL
347
44
  9
$SOLIDHIST
280
     0
  9
$SHOWHIST
280
     1
  9
$DWFFRAME
280
     2
  9
$DGNFRAME
280
     2
  9
$REALWORLDSCALE
290
     1
  9
$INTERFERECOLOR
 62
   256
  9
$CSHADOW
280
     0
  9
$SHADOWPLANELOCATION
 40
0.0
  0
ENDSEC
  0
SECTION
  2
CLASSES
  0
CLASS
  1
ACDBDICTIONARYWDFLT
  2
AcDbDictionaryWithDefault
  3
ObjectDBX Classes
 90
        0
 91
        3
280
     0
281
     0
  0
CLASS
  1
VISUALSTYLE
  2
AcDbVisualStyle
  3
ObjectDBX Classes
 90
     4095
 91
        3
280
     0
281
     0
  0
CLASS
  1
MATERIAL
  2
AcDbMaterial
  3
ObjectDBX Classes
 90
     1153
 91
        3
280
     0
281
     0
  0
CLASS
  1
SCALE
  2
AcDbScale
  3
ObjectDBX Classes
 90
     1153
 91
        3
280
     0
281
     0
  0
CLASS
  1
TABLESTYLE
  2
AcDbTableStyle
  3
ObjectDBX Classes
 90
     4095
 91
        3
280
     0
281
     0
  0
CLASS
  1
MLEADERSTYLE
  2
AcDbMLeaderStyle
  3
ACDB_MLEADERSTYLE_CLASS
 90
     4095
 91
        3
280
     0
281
     0
  0
CLASS
  1
SUN
  2
AcDbSun
  3
SCENEOE
 90
     1153
 91
        3
280
     0
281
     0
  0
CLASS
  1
DICTIONARYVAR
  2
AcDbDictionaryVar
  3
ObjectDBX Classes
 90
        0
 91
        3
280
     0
281
     0
  0
CLASS
  1
CELLSTYLEMAP
  2
AcDbCellStyleMap
  3
ObjectDBX Classes
 90
     1152
 91
        3
280
     0
281
     0
  0
ENDSEC
  0
SECTION
  2
TABLES
  0
TABLE
  2
VPORT
  5
8
330
0
100
AcDbSymbolTable
 70
     1
  0
VPORT
  5
29
330
8
100
AcDbSymbolTableRecord
100
AcDbViewportTableRecord
  2
*Active
 70
     0
 10
0.0
 20
0.0
 11
1.0
 21
1.0
 12
151.4998911674896
 22
108.0008027704874
 13
0.0
 23
0.0
 14
10.0
 24
10.0
 15
10.0
 25
10.0
 16
0.0
 26
0.0
 36
1.0
 17
0.0
 27
0.0
 37
0.0
 40
237.6017660950723
 41
1.402766343222857
 42
50.0
 43
0.0
 44
0.0
 50
0.0
 51
0.0
 71
     0
 72
 10000
 73
     1
 74
     3
 75
     0
 76
     0
 77
     0
 78
     0
281
     0
 65
     1
110
0.0
120
0.0
130
0.0
111
1.0
121
0.0
131
0.0
112
0.0
122
1.0
132
0.0
 79
     0
146
0.0
348
2F
 60
     3
 61
     5
292
     1
282
     1
141
0.0
142
0.0
 63
   250
361
5D
  0
ENDTAB
  0
TABLE
  2
LTYPE
  5
5
330
0
100
AcDbSymbolTable
 70
     2
  0
LTYPE
  5
14
330
5
100
AcDbSymbolTableRecord
100
AcDbLinetypeTableRecord
  2
ByBlock
 70
     0
  3

 72
    65
 73
     0
 40
0.0
  0
LTYPE
  5
15
330
5
100
AcDbSymbolTableRecord
100
AcDbLinetypeTableRecord
  2
ByLayer
 70
     0
  3

 72
    65
 73
     0
 40
0.0
  0
LTYPE
  5
16
330
5
100
AcDbSymbolTableRecord
100
AcDbLinetypeTableRecord
  2
Continuous
 70
     0
  3
Solid line
 72
    65
 73
     0
 40
0.0
  0
LTYPE
  5
5F
330
5
100
AcDbSymbolTableRecord
100
AcDbLinetypeTableRecord
  2
UserDefined01
 70
     0
  3
----------------                
 72
    65
 73
     2
 40
0.7055555449591743
 49
0.3527777724795871
 74
     0
 49
-0.3527777724795871
 74
     0
  0
ENDTAB
  0
TABLE
  2
LAYER
  5
2
330
0
100
AcDbSymbolTable
 70
     3
  0
LAYER
  5
10
330
2
100
AcDbSymbolTableRecord
100
AcDbLayerTableRecord
  2
0
 70
     0
 62
     7
  6
Continuous
370
    -3
390
F
347
46
348
0
  0
LAYER
  5
60
330
2
100
AcDbSymbolTableRecord
100
AcDbLayerTableRecord
  2
外枠
 70
     0
 62
     7
  6
Continuous
370
    -3
390
F
347
46
348
0
  0
LAYER
  5
61
330
2
100
AcDbSymbolTableRecord
100
AcDbLayerTableRecord
  2
ISS138金台
 70
     0
 62
     7
  6
Continuous
370
    -3
390
F
347
46
348
0
  0
ENDTAB
  0
TABLE
  2
STYLE
  5
3
330
0
100
AcDbSymbolTable
 70
     2
  0
STYLE
  5
11
330
3
100
AcDbSymbolTableRecord
100
AcDbTextStyleTableRecord
  2
Standard
 70
     0
 40
0.0
 41
1.0
 50
0.0
 71
     0
 42
2.5
  3

  4

  0
STYLE
  5
5E
330
3
100
AcDbSymbolTableRecord
100
AcDbTextStyleTableRecord
  2
MS Gothic
 70
     0
 40
1.0
 41
1.0
 50
0.0
 71
     0
 42
2.5
  3
msgothic.ttc
  4

1001
ACAD
1000
MS Gothic
1071
    32817
  0
ENDTAB
  0
TABLE
  2
VIEW
  5
6
330
0
100
AcDbSymbolTable
 70
     0
  0
ENDTAB
  0
TABLE
  2
UCS
  5
7
330
0
100
AcDbSymbolTable
 70
     0
  0
ENDTAB
  0
TABLE
  2
APPID
  5
9
330
0
100
AcDbSymbolTable
 70
     1
  0
APPID
  5
12
330
9
100
AcDbSymbolTableRecord
100
AcDbRegAppTableRecord
  2
ACAD
 70
     0
  0
ENDTAB
  0
TABLE
  2
DIMSTYLE
  5
A
330
0
100
AcDbSymbolTable
 70
     1
100
AcDbDimStyleTable
  0
DIMSTYLE
105
27
330
A
100
AcDbSymbolTableRecord
100
AcDbDimStyleTableRecord
  2
ISO-25
 70
     0
 41
2.5
 42
0.625
 43
3.75
 44
1.25
 73
     0
 74
     0
 77
     1
 78
     8
140
2.5
141
2.5
143
0.03937007874016
147
0.625
171
     3
172
     1
178
     0
271
     2
272
     2
274
     3
278
    44
283
     0
284
     8
340
11
  0
ENDTAB
  0
TABLE
  2
BLOCK_RECORD
  5
1
330
0
100
AcDbSymbolTable
 70
     1
  0
BLOCK_RECORD
  5
1F
330
1
100
AcDbSymbolTableRecord
100
AcDbBlockTableRecord
  2
*Model_Space
340
22
 70
     0
280
     1
281
     0
  0
BLOCK_RECORD
  5
1B
330
1
100
AcDbSymbolTableRecord
100
AcDbBlockTableRecord
  2
*Paper_Space
340
1E
 70
     0
280
     1
281
     0
  0
BLOCK_RECORD
  5
23
330
1
100
AcDbSymbolTableRecord
100
AcDbBlockTableRecord
  2
*Paper_Space0
340
26
 70
     0
280
     1
281
     0
  0
ENDTAB
  0
ENDSEC
  0
SECTION
  2
BLOCKS
  0
BLOCK
  5
20
330
1F
100
AcDbEntity
  8
0
100
AcDbBlockBegin
  2
*Model_Space
 70
     0
 10
0.0
 20
0.0
 30
0.0
  3
*Model_Space
  1

  0
ENDBLK
  5
21
330
1F
100
AcDbEntity
  8
0
100
AcDbBlockEnd
  0
BLOCK
  5
1C
330
1B
100
AcDbEntity
 67
     1
  8
0
100
AcDbBlockBegin
  2
*Paper_Space
 70
     0
 10
0.0
 20
0.0
 30
0.0
  3
*Paper_Space
  1

  0
ENDBLK
  5
1D
330
1B
100
AcDbEntity
 67
     1
  8
0
100
AcDbBlockEnd
  0
BLOCK
  5
24
330
23
100
AcDbEntity
  8
0
100
AcDbBlockBegin
  2
*Paper_Space0
 70
     0
 10
0.0
 20
0.0
 30
0.0
  3
*Paper_Space0
  1

  0
ENDBLK
  5
25
330
23
100
AcDbEntity
  8
0
100
AcDbBlockEnd
  0
ENDSEC
  0
SECTION
  2
ENTITIES
  0
LWPOLYLINE
  5
62
330
1F
100
AcDbEntity
  8
外枠
  6
Continuous
 62
   250
420
  2367521
370
   100
100
AcDbPolyline
 90
        5
 70
     0
 43
0.0
 10
281.9999662644599
 20
13.29407825637392
 10
20.99981607051935
 20
13.29407825637392
 10
20.99981607051935
 20
193.0018900389566
 10
281.9999662644599
 20
193.0018900389566
 10
281.9999662644599
 20
13.29407825637392
  0
LINE
  5
63
330
1F
100
AcDbEntity
  8
外枠
  6
Continuous
 62
   250
420
  2367521
370
    25
100
AcDbLine
 10
223.3097080177524
 20
174.0786160074276
 30
0.0
 11
281.9999232007669
 21
174.0786160074276
 31
0.0
  0
LINE
  5
64
330
1F
100
AcDbEntity
  8
外枠
  6
Continuous
 62
   250
420
  2367521
370
    25
100
AcDbLine
 10
223.3097080177524
 20
50.37109023844297
 30
0.0
 11
281.9999232007669
 21
50.37109023844297
 31
0.0
  0
LINE
  5
65
330
1F
100
AcDbEntity
  8
外枠
  6
Continuous
 62
   250
420
  2367521
370
    25
100
AcDbLine
 10
223.3097080177524
 20
36.25997933925949
 30
0.0
 11
281.9999232007669
 21
36.25997933925949
 31
0.0
  0
LINE
  5
66
330
1F
100
AcDbEntity
  8
外枠
  6
Continuous
 62
   250
420
  2367521
370
    50
100
AcDbLine
 10
223.0158413772006
 20
193.3637327187979
 30
0.0
 11
223.0158413772006
 21
13.29396655992039
 31
0.0
  0
TEXT
  5
67
330
1F
100
AcDbEntity
  8
外枠
  6
Continuous
 62
   250
420
  2367521
100
AcDbText
 10
224.7190965599536
 20
186.6888051931772
 30
0.0
 40
2.688166626294454
  1
品名：
 41
0.974166170756022
  7
MS Gothic
100
AcDbText
  0
TEXT
  5
68
330
1F
100
AcDbEntity
  8
外枠
  6
Continuous
 62
   250
420
  2367521
100
AcDbText
 10
224.7190965599536
 20
168.1080059455944
 30
0.0
 40
2.688166626294454
  1
仕様：
 41
0.9978878657023111
  7
MS Gothic
100
AcDbText
  0
TEXT
  5
69
330
1F
100
AcDbEntity
  8
外枠
  6
Continuous
 62
   250
420
  2367521
100
AcDbText
 10
224.7190965599536
 20
44.16660664327048
 30
0.0
 40
2.688166626294454
  1
縮尺：
 41
0.9939999262491861
  7
MS Gothic
100
AcDbText
  0
TEXT
  5
6A
330
1F
100
AcDbEntity
  8
外枠
  6
Continuous
 62
   250
420
  2367521
100
AcDbText
 10
250.2379519709696
 20
40.59738467878129
 30
0.0
 40
2.150533301035563
  1
1/1
 41
1.000003814697266
  7
MS Gothic
100
AcDbText
  0
TEXT
  5
6B
330
1F
100
AcDbEntity
  8
外枠
  6
Continuous
 62
   250
420
  2367521
100
AcDbText
 10
232.7757967427735
 20
181.9845273775436
 30
0.0
 40
2.688166626294454
  1
スロープバー　XA-1 (U)
 41
0.9901037736372513
  7
MS Gothic
100
AcDbText
  0
TEXT
  5
6C
330
1F
100
AcDbEntity
  8
外枠
  6
Continuous
 62
   250
420
  2367521
100
AcDbText
 10
226.1633020978884
 20
24.25683874973963
 30
0.0
 40
2.553758294979732
  1
ヤスダインテリアサプライ株式会社
 41
1.0194908945184
  7
MS Gothic
100
AcDbText
  0
TEXT
  5
6D
330
1F
100
AcDbEntity
  8
外枠
  6
Continuous
 62
   250
420
  2367521
100
AcDbText
 10
227.7635273953072
 20
161.7763665048245
 30
0.0
 40
2.150533301035563
  1
材質
 41
1.028502464294433
  7
MS Gothic
100
AcDbText
  0
TEXT
  5
6E
330
1F
100
AcDbEntity
  8
外枠
  6
Continuous
 62
   250
420
  2367521
100
AcDbText
 10
232.7757967427735
 20
156.199681315683
 30
0.0
 40
2.016124969720841
  1
アルミ押出形材（A6063S-T5）/
 41
1.030580357142857
  7
MS Gothic
100
AcDbText
  0
TEXT
  5
6F
330
1F
100
AcDbEntity
  8
外枠
  6
Continuous
 62
   250
420
  2367521
100
AcDbText
 10
232.7757967427735
 20
151.9663480459279
 30
0.0
 40
2.016124969720841
  1
アンバー仕上（アルマイト）
 41
1.001955316005609
  7
MS Gothic
100
AcDbText
  0
LINE
  5
70
330
1F
100
AcDbEntity
  8
ISS138金台
  6
Continuous
 62
   250
420
  2367521
370
    13
100
AcDbLine
 10
118.4134637638716
 20
112.3245805613179
 30
0.0
 11
118.4134637638716
 21
107.3193736594921
 31
0.0
  0
LINE
  5
71
330
1F
100
AcDbEntity
  8
ISS138金台
  6
Continuous
 62
   250
420
  2367521
370
    13
100
AcDbLine
 10
128.4896788903199
 20
112.3245805613179
 30
0.0
 11
128.4896788903199
 21
107.3193736594921
 31
0.0
  0
LINE
  5
72
330
1F
100
AcDbEntity
  8
ISS138金台
  6
Continuous
 62
   250
420
  2367521
370
    13
100
AcDbLine
 10
118.4134637638716
 20
111.8395111241585
 30
0.0
 11
128.4898511450916
 21
111.8395111241585
 31
0.0
  0
LINE
  5
73
330
1F
100
AcDbEntity
  8
ISS138金台
  6
Continuous
 62
   250
420
  2367521
370
    13
100
AcDbLine
 10
129.4157097771555
 20
106.3934934955816
 30
0.0
 11
134.4209166789814
 21
106.3934934955816
 31
0.0
  0
LINE
  5
74
330
1F
100
AcDbEntity
  8
ISS138金台
  6
Continuous
 62
   250
420
  2367521
370
    13
100
AcDbLine
 10
129.4157097771555
 20
103.2626122966718
 30
0.0
 11
134.4209166789814
 21
103.2626122966718
 31
0.0
  0
LINE
  5
75
330
1F
100
AcDbEntity
  8
ISS138金台
  6
Continuous
 62
   250
420
  2367521
370
    13
100
AcDbLine
 10
133.9136263762703
 20
106.3934934955816
 30
0.0
 11
133.9136263762703
 21
103.2625907648253
 31
0.0
  0
LINE
  5
76
330
1F
100
AcDbEntity
  8
ISS138金台
  6
Continuous
 62
   250
420
  2367521
370
    13
100
AcDbLine
 10
114.3565193803564
 20
102.3365491120664
 30
0.0
 11
114.3565193803564
 21
92.34835617396635
 31
0.0
  0
LINE
  5
77
330
1F
100
AcDbEntity
  8
ISS138金台
  6
Continuous
 62
   250
420
  2367521
370
    13
100
AcDbLine
 10
128.4896788903199
 20
102.3365491120664
 30
0.0
 11
128.4896788903199
 21
92.34835617396635
 31
0.0
  0
LINE
  5
78
330
1F
100
AcDbEntity
  8
ISS138金台
  6
Continuous
 62
   250
420
  2367521
370
    13
100
AcDbLine
 10
114.3565193803564
 20
92.85566800852393
 30
0.0
 11
128.4898511450916
 21
92.85566800852393
 31
0.0
  0
HATCH
  5
79
330
1F
100
AcDbEntity
  8
ISS138金台
  6
Continuous
 62
   250
420
  2367521
370
    13
100
AcDbHatch
 10
0.0
 20
0.0
 30
0.0
210
0.0
220
0.0
230
1.0
  2
SOLID
 70
     1
 71
     0
 91
        1
 92
        3
 72
     0
 73
     1
 93
       67
 10
114.3565193803564
 20
92.60553254814214
 10
114.3820669161869
 20
92.60682445893002
 10
114.4068716033144
 20
92.61062482983107
 10
114.4308257825065
 20
92.61679370384323
 10
114.4537894967612
 20
92.62521265581098
 10
114.475644320923
 20
92.63576326057874
 10
114.4962718298363
 20
92.6483055611445
 10
114.5155320664991
 20
92.66271036642947
 10
114.5333066057558
 20
92.67885925127808
 10
114.5494554906044
 20
92.69663379053478
 10
114.5638710618126
 20
92.71589402719756
 10
114.5764133623783
 20
92.73652153611087
 10
114.5869639671461
 20
92.75837636027265
 10
114.5953829191138
 20
92.78135084045061
 10
114.601551793126
 20
92.80530501964273
 10
114.6053521640271
 20
92.83012047269344
 10
114.6066440748149
 20
92.8556572426007
 10
114.6066440748149
 20
92.8556572426007
 10
114.6053413981038
 20
92.88119401250798
 10
114.601551793126
 20
92.90600946555868
 10
114.5953829191138
 20
92.92996364475079
 10
114.5869639671461
 20
92.95292735900551
 10
114.5764133623783
 20
92.97478218316732
 10
114.5638710618126
 20
92.99540969208061
 10
114.5494662565276
 20
93.01466992874339
 10
114.5333066057558
 20
93.03243370207687
 10
114.5155320664991
 20
93.04859335284871
 10
114.4962718298363
 20
93.0630089240569
 10
114.4756550868462
 20
93.07554045869944
 10
114.4537894967612
 20
93.0860910634672
 10
114.4308150165832
 20
93.09451001543493
 10
114.4068716033144
 20
93.1006788894471
 10
114.3820561502637
 20
93.10447926034814
 10
114.3565193803564
 20
93.10577117113604
 10
114.3565193803564
 20
93.10577117113604
 10
114.3309826104491
 20
93.10447926034814
 10
114.3061671573984
 20
93.10068965537033
 10
114.2822129782063
 20
93.09451001543493
 10
114.2592492639516
 20
93.0860910634672
 10
114.2373836738665
 20
93.07554045869944
 10
114.2167669308765
 20
93.06299815813367
 10
114.1975066942137
 20
93.04859335284871
 10
114.179732154957
 20
93.03243370207687
 10
114.1635725041851
 20
93.01466992874339
 10
114.1491676989002
 20
92.99540969208061
 10
114.1366253983344
 20
92.97478218316732
 10
114.1260747935667
 20
92.95292735900551
 10
114.1176558415989
 20
92.92996364475079
 10
114.1114869675867
 20
92.90600946555868
 10
114.1076865966857
 20
92.88119401250798
 10
114.1063946858978
 20
92.8556572426007
 10
114.1063946858978
 20
92.8556572426007
 10
114.1076758307625
 20
92.8301097067702
 10
114.1114869675867
 20
92.80530501964273
 10
114.1176666075222
 20
92.78135084045061
 10
114.1260855594899
 20
92.75837636027265
 10
114.1366253983344
 20
92.73652153611087
 10
114.1491676989002
 20
92.71589402719756
 10
114.1635832701084
 20
92.69663379053478
 10
114.179732154957
 20
92.67885925127808
 10
114.1974959282905
 20
92.66271036642947
 10
114.2167669308765
 20
92.6483055611445
 10
114.2373836738665
 20
92.63576326057874
 10
114.2592492639516
 20
92.62521265581098
 10
114.2822129782063
 20
92.61679370384323
 10
114.3061671573984
 20
92.61062482983107
 10
114.3309826104491
 20
92.60682445893002
 97
        0
 75
     1
 76
     1
 98
        0
  0
LWPOLYLINE
  5
7A
330
1F
100
AcDbEntity
  8
ISS138金台
  6
Continuous
 62
   250
420
  2367521
370
    13
100
AcDbPolyline
 90
       68
 70
     0
 43
0.0
 10
114.3565193803564
 20
92.60553254814214
 10
114.3820669161869
 20
92.60682445893002
 10
114.4068716033144
 20
92.61062482983107
 10
114.4308257825065
 20
92.61679370384323
 10
114.4537894967612
 20
92.62521265581098
 10
114.475644320923
 20
92.63576326057874
 10
114.4962718298363
 20
92.6483055611445
 10
114.5155320664991
 20
92.66271036642947
 10
114.5333066057558
 20
92.67885925127808
 10
114.5494554906044
 20
92.69663379053478
 10
114.5638710618126
 20
92.71589402719756
 10
114.5764133623783
 20
92.73652153611087
 10
114.5869639671461
 20
92.75837636027265
 10
114.5953829191138
 20
92.78135084045061
 10
114.601551793126
 20
92.80530501964273
 10
114.6053521640271
 20
92.83012047269344
 10
114.6066440748149
 20
92.8556572426007
 10
114.6066440748149
 20
92.8556572426007
 10
114.6053413981038
 20
92.88119401250798
 10
114.601551793126
 20
92.90600946555868
 10
114.5953829191138
 20
92.92996364475079
 10
114.5869639671461
 20
92.95292735900551
 10
114.5764133623783
 20
92.97478218316732
 10
114.5638710618126
 20
92.99540969208061
 10
114.5494662565276
 20
93.01466992874339
 10
114.5333066057558
 20
93.03243370207687
 10
114.5155320664991
 20
93.04859335284871
 10
114.4962718298363
 20
93.0630089240569
 10
114.4756550868462
 20
93.07554045869944
 10
114.4537894967612
 20
93.0860910634672
 10
114.4308150165832
 20
93.09451001543493
 10
114.4068716033144
 20
93.1006788894471
 10
114.3820561502637
 20
93.10447926034814
 10
114.3565193803564
 20
93.10577117113604
 10
114.3565193803564
 20
93.10577117113604
 10
114.3309826104491
 20
93.10447926034814
 10
114.3061671573984
 20
93.10068965537033
 10
114.2822129782063
 20
93.09451001543493
 10
114.2592492639516
 20
93.0860910634672
 10
114.2373836738665
 20
93.07554045869944
 10
114.2167669308765
 20
93.06299815813367
 10
114.1975066942137
 20
93.04859335284871
 10
114.179732154957
 20
93.03243370207687
 10
114.1635725041851
 20
93.01466992874339
 10
114.1491676989002
 20
92.99540969208061
 10
114.1366253983344
 20
92.97478218316732
 10
114.1260747935667
 20
92.95292735900551
 10
114.1176558415989
 20
92.92996364475079
 10
114.1114869675867
 20
92.90600946555868
 10
114.1076865966857
 20
92.88119401250798
 10
114.1063946858978
 20
92.8556572426007
 10
114.1063946858978
 20
92.8556572426007
 10
114.1076758307625
 20
92.8301097067702
 10
114.1114869675867
 20
92.80530501964273
 10
114.1176666075222
 20
92.78135084045061
 10
114.1260855594899
 20
92.75837636027265
 10
114.1366253983344
 20
92.73652153611087
 10
114.1491676989002
 20
92.71589402719756
 10
114.1635832701084
 20
92.69663379053478
 10
114.179732154957
 20
92.67885925127808
 10
114.1974959282905
 20
92.66271036642947
 10
114.2167669308765
 20
92.6483055611445
 10
114.2373836738665
 20
92.63576326057874
 10
114.2592492639516
 20
92.62521265581098
 10
114.2822129782063
 20
92.61679370384323
 10
114.3061671573984
 20
92.61062482983107
 10
114.3309826104491
 20
92.60682445893002
 10
114.3565193803564
 20
92.60553254814214
  0
HATCH
  5
7B
330
1F
100
AcDbEntity
  8
ISS138金台
  6
Continuous
 62
   250
420
  2367521
370
    13
100
AcDbHatch
 10
0.0
 20
0.0
 30
0.0
210
0.0
220
0.0
230
1.0
  2
SOLID
 70
     1
 71
     0
 91
        1
 92
        3
 72
     0
 73
     1
 93
       67
 10
128.4896788903199
 20
92.60553254814214
 10
128.5152048943039
 20
92.60682445893002
 10
128.5400311132778
 20
92.61062482983107
 10
128.5639745265467
 20
92.61679370384323
 10
128.5869490067246
 20
92.62521265581098
 10
128.6088145968097
 20
92.63576326057874
 10
128.6294313397997
 20
92.6483055611445
 10
128.6487023423858
 20
92.66271036642947
 10
128.6664661157192
 20
92.67885925127808
 10
128.6826257664911
 20
92.69663379053478
 10
128.6970305717761
 20
92.71589402719756
 10
128.7095728723418
 20
92.73652153611087
 10
128.7201234771096
 20
92.75837636027265
 10
128.7285424290773
 20
92.78135084045061
 10
128.7347113030895
 20
92.80530501964273
 10
128.7385116739905
 20
92.83012047269344
 10
128.7398035847784
 20
92.8556572426007
 10
128.7398035847784
 20
92.8556572426007
 10
128.7385116739905
 20
92.88119401250798
 10
128.7347113030895
 20
92.90600946555868
 10
128.7285316631541
 20
92.92996364475079
 10
128.7201234771096
 20
92.95292735900551
 10
128.7095728723418
 20
92.97478218316732
 10
128.6970305717761
 20
92.99540969208061
 10
128.6826150005679
 20
93.01466992874339
 10
128.6664661157192
 20
93.03243370207687
 10
128.6486915764625
 20
93.04859335284871
 10
128.629442105723
 20
93.0630089240569
 10
128.6088145968097
 20
93.07554045869944
 10
128.5869490067246
 20
93.0860910634672
 10
128.5639745265467
 20
93.09451001543493
 10
128.5400311132778
 20
93.1006788894471
 10
128.5152156602271
 20
93.10447926034814
 10
128.4896788903199
 20
93.10577117113604
 10
128.4896788903199
 20
93.10577117113604
 10
128.4641313544893
 20
93.10447926034814
 10
128.4393266673619
 20
93.10068965537033
 10
128.4153724881697
 20
93.09451001543493
 10
128.392408773915
 20
93.0860910634672
 10
128.37054318383
 20
93.07554045869944
 10
128.3499264408399
 20
93.06299815813367
 10
128.3306662041771
 20
93.04859335284871
 10
128.3128916649204
 20
93.03243370207687
 10
128.2967320141486
 20
93.01466992874339
 10
128.2823272088636
 20
92.99540969208061
 10
128.2697849082979
 20
92.97478218316732
 10
128.2592343035301
 20
92.95292735900551
 10
128.2508153515624
 20
92.92996364475079
 10
128.2446464775502
 20
92.90600946555868
 10
128.2408461066491
 20
92.88119401250798
 10
128.2395541958613
 20
92.8556572426007
 10
128.2395541958613
 20
92.8556572426007
 10
128.2408461066491
 20
92.8301097067702
 10
128.2446464775502
 20
92.80530501964273
 10
128.2508153515624
 20
92.78135084045061
 10
128.2592450694534
 20
92.75837636027265
 10
128.2697849082979
 20
92.73652153611087
 10
128.2823272088636
 20
92.71589402719756
 10
128.2967320141486
 20
92.69663379053478
 10
128.3128916649204
 20
92.67885925127808
 10
128.3306662041771
 20
92.66271036642947
 10
128.3499264408399
 20
92.6483055611445
 10
128.37054318383
 20
92.63576326057874
 10
128.392408773915
 20
92.62521265581098
 10
128.4153724881697
 20
92.61679370384323
 10
128.4393266673619
 20
92.61062482983107
 10
128.4641421204126
 20
92.60682445893002
 97
        0
 75
     1
 76
     1
 98
        0
  0
LWPOLYLINE
  5
7C
330
1F
100
AcDbEntity
  8
ISS138金台
  6
Continuous
 62
   250
420
  2367521
370
    13
100
AcDbPolyline
 90
       68
 70
     0
 43
0.0
 10
128.4896788903199
 20
92.60553254814214
 10
128.5152048943039
 20
92.60682445893002
 10
128.5400311132778
 20
92.61062482983107
 10
128.5639745265467
 20
92.61679370384323
 10
128.5869490067246
 20
92.62521265581098
 10
128.6088145968097
 20
92.63576326057874
 10
128.6294313397997
 20
92.6483055611445
 10
128.6487023423858
 20
92.66271036642947
 10
128.6664661157192
 20
92.67885925127808
 10
128.6826257664911
 20
92.69663379053478
 10
128.6970305717761
 20
92.71589402719756
 10
128.7095728723418
 20
92.73652153611087
 10
128.7201234771096
 20
92.75837636027265
 10
128.7285424290773
 20
92.78135084045061
 10
128.7347113030895
 20
92.80530501964273
 10
128.7385116739905
 20
92.83012047269344
 10
128.7398035847784
 20
92.8556572426007
 10
128.7398035847784
 20
92.8556572426007
 10
128.7385116739905
 20
92.88119401250798
 10
128.7347113030895
 20
92.90600946555868
 10
128.7285316631541
 20
92.92996364475079
 10
128.7201234771096
 20
92.95292735900551
 10
128.7095728723418
 20
92.97478218316732
 10
128.6970305717761
 20
92.99540969208061
 10
128.6826150005679
 20
93.01466992874339
 10
128.6664661157192
 20
93.03243370207687
 10
128.6486915764625
 20
93.04859335284871
 10
128.629442105723
 20
93.0630089240569
 10
128.6088145968097
 20
93.07554045869944
 10
128.5869490067246
 20
93.0860910634672
 10
128.5639745265467
 20
93.09451001543493
 10
128.5400311132778
 20
93.1006788894471
 10
128.5152156602271
 20
93.10447926034814
 10
128.4896788903199
 20
93.10577117113604
 10
128.4896788903199
 20
93.10577117113604
 10
128.4641313544893
 20
93.10447926034814
 10
128.4393266673619
 20
93.10068965537033
 10
128.4153724881697
 20
93.09451001543493
 10
128.392408773915
 20
93.0860910634672
 10
128.37054318383
 20
93.07554045869944
 10
128.3499264408399
 20
93.06299815813367
 10
128.3306662041771
 20
93.04859335284871
 10
128.3128916649204
 20
93.03243370207687
 10
128.2967320141486
 20
93.01466992874339
 10
128.2823272088636
 20
92.99540969208061
 10
128.2697849082979
 20
92.97478218316732
 10
128.2592343035301
 20
92.95292735900551
 10
128.2508153515624
 20
92.92996364475079
 10
128.2446464775502
 20
92.90600946555868
 10
128.2408461066491
 20
92.88119401250798
 10
128.2395541958613
 20
92.8556572426007
 10
128.2395541958613
 20
92.8556572426007
 10
128.2408461066491
 20
92.8301097067702
 10
128.2446464775502
 20
92.80530501964273
 10
128.2508153515624
 20
92.78135084045061
 10
128.2592450694534
 20
92.75837636027265
 10
128.2697849082979
 20
92.73652153611087
 10
128.2823272088636
 20
92.71589402719756
 10
128.2967320141486
 20
92.69663379053478
 10
128.3128916649204
 20
92.67885925127808
 10
128.3306662041771
 20
92.66271036642947
 10
128.3499264408399
 20
92.6483055611445
 10
128.37054318383
 20
92.63576326057874
 10
128.392408773915
 20
92.62521265581098
 10
128.4153724881697
 20
92.61679370384323
 10
128.4393266673619
 20
92.61062482983107
 10
128.4641421204126
 20
92.60682445893002
 10
128.4896788903199
 20
92.60553254814214
  0
HATCH
  5
7D
330
1F
100
AcDbEntity
  8
ISS138金台
  6
Continuous
 62
   250
420
  2367521
370
    13
100
AcDbHatch
 10
0.0
 20
0.0
 30
0.0
210
0.0
220
0.0
230
1.0
  2
SOLID
 70
     1
 71
     0
 91
        1
 92
        3
 72
     0
 73
     1
 93
       67
 10
133.9136263762703
 20
106.143734842513
 10
133.9391631461775
 20
106.1450267533009
 10
133.9639785992283
 20
106.1487948264322
 10
133.9879220124971
 20
106.1549314026747
 10
134.0108964926751
 20
106.1633180568727
 10
134.0327620827601
 20
106.1738148320243
 10
134.0533788257501
 20
106.1863033029739
 10
134.0726498283362
 20
106.2006542786427
 10
134.0904136016696
 20
106.2167600997984
 10
134.1065732524415
 20
106.2344808094389
 10
134.1209888236497
 20
106.253708748332
 10
134.1335203582922
 20
106.2742931935524
 10
134.1440601971368
 20
106.2961372517909
 10
134.1524899150277
 20
106.3191009660457
 10
134.1586587890399
 20
106.343065911161
 10
134.1624591599409
 20
106.3679136619814
 10
134.1637510707288
 20
106.3935042615049
 10
134.1637510707288
 20
106.3935042615049
 10
134.1624591599409
 20
106.4190948610283
 10
134.1586587890399
 20
106.4439426118487
 10
134.1524791491045
 20
106.4679075569641
 10
134.14407096306
 20
106.4908605052955
 10
134.1335203582922
 20
106.5127045635341
 10
134.1209780577265
 20
106.5332997746777
 10
134.1065732524415
 20
106.5525169476475
 10
134.0904136016696
 20
106.5702484232113
 10
134.0726390624129
 20
106.5863434784438
 10
134.0533788257501
 20
106.6006944541126
 10
134.0327620827601
 20
106.6131936909854
 10
134.0108964926751
 20
106.623690466137
 10
133.9879220124971
 20
106.6320663544118
 10
133.9639785992283
 20
106.6382029306543
 10
133.9391631461775
 20
106.6419817697089
 10
133.9136263762703
 20
106.6432629145735
 10
133.9136263762703
 20
106.6432629145735
 10
133.888089606363
 20
106.6419817697089
 10
133.8632741533123
 20
106.6382136965775
 10
133.8393199741202
 20
106.6320663544118
 10
133.8163562598654
 20
106.6236797002138
 10
133.7944906697804
 20
106.6131936909854
 10
133.7738739267904
 20
106.6007052200358
 10
133.7546136901276
 20
106.5863434784438
 10
133.7368391508709
 20
106.5702376572881
 10
133.7206902660222
 20
106.5525169476475
 10
133.7062746948141
 20
106.5332997746777
 10
133.6937323942483
 20
106.5127045635341
 10
133.6831817894806
 20
106.4908712712188
 10
133.6747628375128
 20
106.4679075569641
 10
133.6685939635006
 20
106.4439426118487
 10
133.6647935925996
 20
106.4190948610283
 10
133.6635016818117
 20
106.3935042615049
 10
133.6635016818117
 20
106.3935042615049
 10
133.6647935925996
 20
106.3679136619814
 10
133.6685939635006
 20
106.343065911161
 10
133.6747628375128
 20
106.3191117319689
 10
133.6831817894806
 20
106.2961372517909
 10
133.6937323942483
 20
106.2742931935524
 10
133.7062746948141
 20
106.2536979824088
 10
133.7206902660222
 20
106.2344808094389
 10
133.7368391508709
 20
106.2167600997984
 10
133.7546136901276
 20
106.2006542786427
 10
133.7738631608671
 20
106.1863033029739
 10
133.7944906697804
 20
106.1738040661011
 10
133.8163562598654
 20
106.1633072909495
 10
133.8393199741202
 20
106.1549314026747
 10
133.8632741533123
 20
106.1487948264322
 10
133.888089606363
 20
106.1450159873776
 97
        0
 75
     1
 76
     1
 98
        0
  0
LWPOLYLINE
  5
7E
330
1F
100
AcDbEntity
  8
ISS138金台
  6
Continuous
 62
   250
420
  2367521
370
    13
100
AcDbPolyline
 90
       68
 70
     0
 43
0.0
 10
133.9136263762703
 20
106.143734842513
 10
133.9391631461775
 20
106.1450267533009
 10
133.9639785992283
 20
106.1487948264322
 10
133.9879220124971
 20
106.1549314026747
 10
134.0108964926751
 20
106.1633180568727
 10
134.0327620827601
 20
106.1738148320243
 10
134.0533788257501
 20
106.1863033029739
 10
134.0726498283362
 20
106.2006542786427
 10
134.0904136016696
 20
106.2167600997984
 10
134.1065732524415
 20
106.2344808094389
 10
134.1209888236497
 20
106.253708748332
 10
134.1335203582922
 20
106.2742931935524
 10
134.1440601971368
 20
106.2961372517909
 10
134.1524899150277
 20
106.3191009660457
 10
134.1586587890399
 20
106.343065911161
 10
134.1624591599409
 20
106.3679136619814
 10
134.1637510707288
 20
106.3935042615049
 10
134.1637510707288
 20
106.3935042615049
 10
134.1624591599409
 20
106.4190948610283
 10
134.1586587890399
 20
106.4439426118487
 10
134.1524791491045
 20
106.4679075569641
 10
134.14407096306
 20
106.4908605052955
 10
134.1335203582922
 20
106.5127045635341
 10
134.1209780577265
 20
106.5332997746777
 10
134.1065732524415
 20
106.5525169476475
 10
134.0904136016696
 20
106.5702484232113
 10
134.0726390624129
 20
106.5863434784438
 10
134.0533788257501
 20
106.6006944541126
 10
134.0327620827601
 20
106.6131936909854
 10
134.0108964926751
 20
106.623690466137
 10
133.9879220124971
 20
106.6320663544118
 10
133.9639785992283
 20
106.6382029306543
 10
133.9391631461775
 20
106.6419817697089
 10
133.9136263762703
 20
106.6432629145735
 10
133.9136263762703
 20
106.6432629145735
 10
133.888089606363
 20
106.6419817697089
 10
133.8632741533123
 20
106.6382136965775
 10
133.8393199741202
 20
106.6320663544118
 10
133.8163562598654
 20
106.6236797002138
 10
133.7944906697804
 20
106.6131936909854
 10
133.7738739267904
 20
106.6007052200358
 10
133.7546136901276
 20
106.5863434784438
 10
133.7368391508709
 20
106.5702376572881
 10
133.7206902660222
 20
106.5525169476475
 10
133.7062746948141
 20
106.5332997746777
 10
133.6937323942483
 20
106.5127045635341
 10
133.6831817894806
 20
106.4908712712188
 10
133.6747628375128
 20
106.4679075569641
 10
133.6685939635006
 20
106.4439426118487
 10
133.6647935925996
 20
106.4190948610283
 10
133.6635016818117
 20
106.3935042615049
 10
133.6635016818117
 20
106.3935042615049
 10
133.6647935925996
 20
106.3679136619814
 10
133.6685939635006
 20
106.343065911161
 10
133.6747628375128
 20
106.3191117319689
 10
133.6831817894806
 20
106.2961372517909
 10
133.6937323942483
 20
106.2742931935524
 10
133.7062746948141
 20
106.2536979824088
 10
133.7206902660222
 20
106.2344808094389
 10
133.7368391508709
 20
106.2167600997984
 10
133.7546136901276
 20
106.2006542786427
 10
133.7738631608671
 20
106.1863033029739
 10
133.7944906697804
 20
106.1738040661011
 10
133.8163562598654
 20
106.1633072909495
 10
133.8393199741202
 20
106.1549314026747
 10
133.8632741533123
 20
106.1487948264322
 10
133.888089606363
 20
106.1450159873776
 10
133.9136263762703
 20
106.143734842513
  0
HATCH
  5
7F
330
1F
100
AcDbEntity
  8
ISS138金台
  6
Continuous
 62
   250
420
  2367521
370
    13
100
AcDbHatch
 10
0.0
 20
0.0
 30
0.0
210
0.0
220
0.0
230
1.0
  2
SOLID
 70
     1
 71
     0
 91
        1
 92
        3
 72
     0
 73
     1
 93
       67
 10
133.9136263762703
 20
103.0128321117566
 10
133.9391631461775
 20
103.0141240225445
 10
133.9639785992283
 20
103.0178920956759
 10
133.9879220124971
 20
103.0240286719183
 10
134.0108964926751
 20
103.0324153261164
 10
134.0327620827601
 20
103.042912101268
 10
134.0533788257501
 20
103.0554005722176
 10
134.0726498283362
 20
103.0697515478864
 10
134.0904136016696
 20
103.0858573690421
 10
134.1065732524415
 20
103.1035780786826
 10
134.1209888236497
 20
103.1228060175757
 10
134.1335203582922
 20
103.143390462796
 10
134.1440601971368
 20
103.1652345210346
 10
134.1524899150277
 20
103.1881982352893
 10
134.1586587890399
 20
103.2121631804047
 10
134.1624591599409
 20
103.2370109312251
 10
134.1637510707288
 20
103.2626015307485
 10
134.1637510707288
 20
103.2626015307485
 10
134.1624591599409
 20
103.288192130272
 10
134.1586587890399
 20
103.3130398810924
 10
134.1524791491045
 20
103.3370048262077
 10
134.14407096306
 20
103.3599577745392
 10
134.1335203582922
 20
103.3818018327778
 10
134.1209780577265
 20
103.4023970439214
 10
134.1065732524415
 20
103.4216142168912
 10
134.0904136016696
 20
103.439345692455
 10
134.0726390624129
 20
103.4554407476874
 10
134.0533788257501
 20
103.4697917233562
 10
134.0327620827601
 20
103.4822909602291
 10
134.0108964926751
 20
103.4927877353807
 10
133.9879220124971
 20
103.5011636236555
 10
133.9639785992283
 20
103.507300199898
 10
133.9391631461775
 20
103.5110790389525
 10
133.9136263762703
 20
103.5123601838172
 10
133.9136263762703
 20
103.5123601838172
 10
133.888089606363
 20
103.5110790389525
 10
133.8632741533123
 20
103.5073109658212
 10
133.8393199741202
 20
103.5011636236555
 10
133.8163562598654
 20
103.4927769694574
 10
133.7944906697804
 20
103.4822909602291
 10
133.7738739267904
 20
103.4698024892795
 10
133.7546136901276
 20
103.4554407476874
 10
133.7368391508709
 20
103.4393349265317
 10
133.7206902660222
 20
103.4216142168912
 10
133.7062746948141
 20
103.4023970439214
 10
133.6937323942483
 20
103.3818018327778
 10
133.6831817894806
 20
103.3599685404624
 10
133.6747628375128
 20
103.3370048262077
 10
133.6685939635006
 20
103.3130398810924
 10
133.6647935925996
 20
103.288192130272
 10
133.6635016818117
 20
103.2626015307485
 10
133.6635016818117
 20
103.2626015307485
 10
133.6647935925996
 20
103.2370109312251
 10
133.6685939635006
 20
103.2121631804047
 10
133.6747628375128
 20
103.1882090012126
 10
133.6831817894806
 20
103.1652345210346
 10
133.6937323942483
 20
103.143390462796
 10
133.7062746948141
 20
103.1227952516525
 10
133.7206902660222
 20
103.1035780786826
 10
133.7368391508709
 20
103.0858573690421
 10
133.7546136901276
 20
103.0697515478864
 10
133.7738631608671
 20
103.0554005722176
 10
133.7944906697804
 20
103.0429013353448
 10
133.8163562598654
 20
103.0324045601931
 10
133.8393199741202
 20
103.0240286719183
 10
133.8632741533123
 20
103.0178920956759
 10
133.888089606363
 20
103.0141132566213
 97
        0
 75
     1
 76
     1
 98
        0
  0
LWPOLYLINE
  5
80
330
1F
100
AcDbEntity
  8
ISS138金台
  6
Continuous
 62
   250
420
  2367521
370
    13
100
AcDbPolyline
 90
       68
 70
     0
 43
0.0
 10
133.9136263762703
 20
103.0128321117566
 10
133.9391631461775
 20
103.0141240225445
 10
133.9639785992283
 20
103.0178920956759
 10
133.9879220124971
 20
103.0240286719183
 10
134.0108964926751
 20
103.0324153261164
 10
134.0327620827601
 20
103.042912101268
 10
134.0533788257501
 20
103.0554005722176
 10
134.0726498283362
 20
103.0697515478864
 10
134.0904136016696
 20
103.0858573690421
 10
134.1065732524415
 20
103.1035780786826
 10
134.1209888236497
 20
103.1228060175757
 10
134.1335203582922
 20
103.143390462796
 10
134.1440601971368
 20
103.1652345210346
 10
134.1524899150277
 20
103.1881982352893
 10
134.1586587890399
 20
103.2121631804047
 10
134.1624591599409
 20
103.2370109312251
 10
134.1637510707288
 20
103.2626015307485
 10
134.1637510707288
 20
103.2626015307485
 10
134.1624591599409
 20
103.288192130272
 10
134.1586587890399
 20
103.3130398810924
 10
134.1524791491045
 20
103.3370048262077
 10
134.14407096306
 20
103.3599577745392
 10
134.1335203582922
 20
103.3818018327778
 10
134.1209780577265
 20
103.4023970439214
 10
134.1065732524415
 20
103.4216142168912
 10
134.0904136016696
 20
103.439345692455
 10
134.0726390624129
 20
103.4554407476874
 10
134.0533788257501
 20
103.4697917233562
 10
134.0327620827601
 20
103.4822909602291
 10
134.0108964926751
 20
103.4927877353807
 10
133.9879220124971
 20
103.5011636236555
 10
133.9639785992283
 20
103.507300199898
 10
133.9391631461775
 20
103.5110790389525
 10
133.9136263762703
 20
103.5123601838172
 10
133.9136263762703
 20
103.5123601838172
 10
133.888089606363
 20
103.5110790389525
 10
133.8632741533123
 20
103.5073109658212
 10
133.8393199741202
 20
103.5011636236555
 10
133.8163562598654
 20
103.4927769694574
 10
133.7944906697804
 20
103.4822909602291
 10
133.7738739267904
 20
103.4698024892795
 10
133.7546136901276
 20
103.4554407476874
 10
133.7368391508709
 20
103.4393349265317
 10
133.7206902660222
 20
103.4216142168912
 10
133.7062746948141
 20
103.4023970439214
 10
133.6937323942483
 20
103.3818018327778
 10
133.6831817894806
 20
103.3599685404624
 10
133.6747628375128
 20
103.3370048262077
 10
133.6685939635006
 20
103.3130398810924
 10
133.6647935925996
 20
103.288192130272
 10
133.6635016818117
 20
103.2626015307485
 10
133.6635016818117
 20
103.2626015307485
 10
133.6647935925996
 20
103.2370109312251
 10
133.6685939635006
 20
103.2121631804047
 10
133.6747628375128
 20
103.1882090012126
 10
133.6831817894806
 20
103.1652345210346
 10
133.6937323942483
 20
103.143390462796
 10
133.7062746948141
 20
103.1227952516525
 10
133.7206902660222
 20
103.1035780786826
 10
133.7368391508709
 20
103.0858573690421
 10
133.7546136901276
 20
103.0697515478864
 10
133.7738631608671
 20
103.0554005722176
 10
133.7944906697804
 20
103.0429013353448
 10
133.8163562598654
 20
103.0324045601931
 10
133.8393199741202
 20
103.0240286719183
 10
133.8632741533123
 20
103.0178920956759
 10
133.888089606363
 20
103.0141132566213
 10
133.9136263762703
 20
103.0128321117566
  0
HATCH
  5
81
330
1F
100
AcDbEntity
  8
ISS138金台
  6
Continuous
 62
   250
420
  2367521
370
    13
100
AcDbHatch
 10
0.0
 20
0.0
 30
0.0
210
0.0
220
0.0
230
1.0
  2
SOLID
 70
     1
 71
     0
 91
        1
 92
        3
 72
     0
 73
     1
 93
       67
 10
118.4134637638716
 20
111.5895694503949
 10
118.4390112997021
 20
111.5908505952595
 10
118.4638159868296
 20
111.5946509661606
 10
118.4877701660217
 20
111.600787542403
 10
118.5107338802764
 20
111.6092064943708
 10
118.5325994703615
 20
111.6197140354456
 10
118.5532162133515
 20
111.6322240382417
 10
118.5724764500143
 20
111.6465965457569
 10
118.590250989271
 20
111.6627238987591
 10
118.6063998741196
 20
111.6804553743229
 10
118.6208154453278
 20
111.6996940791392
 10
118.6333577458936
 20
111.7202892902828
 10
118.6439083506614
 20
111.7421225825981
 10
118.6523273026291
 20
111.7650647650064
 10
118.6584961766413
 20
111.788997412352
 10
118.6622965475423
 20
111.8138020994795
 10
118.6635884583302
 20
111.8393388693868
 10
118.6635884583302
 20
111.8393388693868
 10
118.6622857816191
 20
111.8649294689102
 10
118.6584961766413
 20
111.8897879856538
 10
118.6523273026291
 20
111.9137744626156
 10
118.6439083506614
 20
111.9367597087168
 10
118.6333577458936
 20
111.9586252988019
 10
118.6208154453278
 20
111.9792420417919
 10
118.6064106400429
 20
111.9985022784547
 10
118.590250989271
 20
112.0162552858649
 10
118.5724764500143
 20
112.0323934047903
 10
118.5532162133515
 20
112.0467766782288
 10
118.5325994703615
 20
112.0592974469481
 10
118.5107338802764
 20
112.0698157539462
 10
118.4877594000985
 20
112.0782239399907
 10
118.4638159868296
 20
112.0843820480796
 10
118.4390005337789
 20
112.0881608871342
 10
118.4134637638716
 20
112.0894527979221
 10
118.4134637638716
 20
112.0894527979221
 10
118.3879269939644
 20
112.0881608871342
 10
118.3631115409137
 20
112.0843820480796
 10
118.3391573617215
 20
112.0782239399907
 10
118.3161936474668
 20
112.0698157539462
 10
118.2943280573818
 20
112.0592974469481
 10
118.2737113143917
 20
112.0467766782288
 10
118.2544510777289
 20
112.0323826388671
 10
118.2366765384722
 20
112.0162552858649
 10
118.2205168877004
 20
111.9985022784547
 10
118.2061120824154
 20
111.9792528077152
 10
118.1935697818497
 20
111.9586252988019
 10
118.1830191770819
 20
111.9367597087168
 10
118.1746002251142
 20
111.9137744626156
 10
118.168431351102
 20
111.8897879856538
 10
118.164630980201
 20
111.8649402348334
 10
118.1633390694131
 20
111.8393388693868
 10
118.1633390694131
 20
111.8393388693868
 10
118.1646202142777
 20
111.8138020994795
 10
118.168431351102
 20
111.788997412352
 10
118.1746109910374
 20
111.7650647650064
 10
118.1830299430051
 20
111.7421118166749
 10
118.1935697818497
 20
111.7202892902828
 10
118.2061120824154
 20
111.6996940791392
 10
118.2205276536236
 20
111.6804661402461
 10
118.2366765384722
 20
111.6627238987591
 10
118.2544403118057
 20
111.6466073116802
 10
118.2737113143917
 20
111.6322240382417
 10
118.2943280573818
 20
111.6197140354456
 10
118.3161936474668
 20
111.6091957284476
 10
118.3391573617215
 20
111.6007983083263
 10
118.3631115409137
 20
111.5946402002373
 10
118.3879269939644
 20
111.5908613611828
 97
        0
 75
     1
 76
     1
 98
        0
  0
LWPOLYLINE
  5
82
330
1F
100
AcDbEntity
  8
ISS138金台
  6
Continuous
 62
   250
420
  2367521
370
    13
100
AcDbPolyline
 90
       68
 70
     0
 43
0.0
 10
118.4134637638716
 20
111.5895694503949
 10
118.4390112997021
 20
111.5908505952595
 10
118.4638159868296
 20
111.5946509661606
 10
118.4877701660217
 20
111.600787542403
 10
118.5107338802764
 20
111.6092064943708
 10
118.5325994703615
 20
111.6197140354456
 10
118.5532162133515
 20
111.6322240382417
 10
118.5724764500143
 20
111.6465965457569
 10
118.590250989271
 20
111.6627238987591
 10
118.6063998741196
 20
111.6804553743229
 10
118.6208154453278
 20
111.6996940791392
 10
118.6333577458936
 20
111.7202892902828
 10
118.6439083506614
 20
111.7421225825981
 10
118.6523273026291
 20
111.7650647650064
 10
118.6584961766413
 20
111.788997412352
 10
118.6622965475423
 20
111.8138020994795
 10
118.6635884583302
 20
111.8393388693868
 10
118.6635884583302
 20
111.8393388693868
 10
118.6622857816191
 20
111.8649294689102
 10
118.6584961766413
 20
111.8897879856538
 10
118.6523273026291
 20
111.9137744626156
 10
118.6439083506614
 20
111.9367597087168
 10
118.6333577458936
 20
111.9586252988019
 10
118.6208154453278
 20
111.9792420417919
 10
118.6064106400429
 20
111.9985022784547
 10
118.590250989271
 20
112.0162552858649
 10
118.5724764500143
 20
112.0323934047903
 10
118.5532162133515
 20
112.0467766782288
 10
118.5325994703615
 20
112.0592974469481
 10
118.5107338802764
 20
112.0698157539462
 10
118.4877594000985
 20
112.0782239399907
 10
118.4638159868296
 20
112.0843820480796
 10
118.4390005337789
 20
112.0881608871342
 10
118.4134637638716
 20
112.0894527979221
 10
118.4134637638716
 20
112.0894527979221
 10
118.3879269939644
 20
112.0881608871342
 10
118.3631115409137
 20
112.0843820480796
 10
118.3391573617215
 20
112.0782239399907
 10
118.3161936474668
 20
112.0698157539462
 10
118.2943280573818
 20
112.0592974469481
 10
118.2737113143917
 20
112.0467766782288
 10
118.2544510777289
 20
112.0323826388671
 10
118.2366765384722
 20
112.0162552858649
 10
118.2205168877004
 20
111.9985022784547
 10
118.2061120824154
 20
111.9792528077152
 10
118.1935697818497
 20
111.9586252988019
 10
118.1830191770819
 20
111.9367597087168
 10
118.1746002251142
 20
111.9137744626156
 10
118.168431351102
 20
111.8897879856538
 10
118.164630980201
 20
111.8649402348334
 10
118.1633390694131
 20
111.8393388693868
 10
118.1633390694131
 20
111.8393388693868
 10
118.1646202142777
 20
111.8138020994795
 10
118.168431351102
 20
111.788997412352
 10
118.1746109910374
 20
111.7650647650064
 10
118.1830299430051
 20
111.7421118166749
 10
118.1935697818497
 20
111.7202892902828
 10
118.2061120824154
 20
111.6996940791392
 10
118.2205276536236
 20
111.6804661402461
 10
118.2366765384722
 20
111.6627238987591
 10
118.2544403118057
 20
111.6466073116802
 10
118.2737113143917
 20
111.6322240382417
 10
118.2943280573818
 20
111.6197140354456
 10
118.3161936474668
 20
111.6091957284476
 10
118.3391573617215
 20
111.6007983083263
 10
118.3631115409137
 20
111.5946402002373
 10
118.3879269939644
 20
111.5908613611828
 10
118.4134637638716
 20
111.5895694503949
  0
HATCH
  5
83
330
1F
100
AcDbEntity
  8
ISS138金台
  6
Continuous
 62
   250
420
  2367521
370
    13
100
AcDbHatch
 10
0.0
 20
0.0
 30
0.0
210
0.0
220
0.0
230
1.0
  2
SOLID
 70
     1
 71
     0
 91
        1
 92
        3
 72
     0
 73
     1
 93
       67
 10
128.4896788903199
 20
111.5895694503949
 10
128.5152048943039
 20
111.5908505952595
 10
128.5400311132778
 20
111.5946509661606
 10
128.5639745265467
 20
111.600787542403
 10
128.5869490067246
 20
111.6092064943708
 10
128.6088145968097
 20
111.6197140354456
 10
128.6294313397997
 20
111.6322240382417
 10
128.6487023423858
 20
111.6465965457569
 10
128.6664661157192
 20
111.6627238987591
 10
128.6826257664911
 20
111.6804553743229
 10
128.6970305717761
 20
111.6996940791392
 10
128.7095728723418
 20
111.7202892902828
 10
128.7201234771096
 20
111.7421225825981
 10
128.7285424290773
 20
111.7650647650064
 10
128.7347113030895
 20
111.788997412352
 10
128.7385116739905
 20
111.8138020994795
 10
128.7398035847784
 20
111.8393388693868
 10
128.7398035847784
 20
111.8393388693868
 10
128.7385116739905
 20
111.8649294689102
 10
128.7347113030895
 20
111.8897879856538
 10
128.7285316631541
 20
111.9137744626156
 10
128.7201234771096
 20
111.9367597087168
 10
128.7095728723418
 20
111.9586252988019
 10
128.6970305717761
 20
111.9792420417919
 10
128.6826150005679
 20
111.9985022784547
 10
128.6664661157192
 20
112.0162552858649
 10
128.6486915764625
 20
112.0323934047903
 10
128.629442105723
 20
112.0467766782288
 10
128.6088145968097
 20
112.0592974469481
 10
128.5869490067246
 20
112.0698157539462
 10
128.5639745265467
 20
112.0782239399907
 10
128.5400311132778
 20
112.0843820480796
 10
128.5152156602271
 20
112.0881608871342
 10
128.4896788903199
 20
112.0894527979221
 10
128.4896788903199
 20
112.0894527979221
 10
128.4641313544893
 20
112.0881608871342
 10
128.4393266673619
 20
112.0843820480796
 10
128.4153724881697
 20
112.0782239399907
 10
128.392408773915
 20
112.0698157539462
 10
128.37054318383
 20
112.0592974469481
 10
128.3499264408399
 20
112.0467766782288
 10
128.3306662041771
 20
112.0323826388671
 10
128.3128916649204
 20
112.0162552858649
 10
128.2967320141486
 20
111.9985022784547
 10
128.2823272088636
 20
111.9792528077152
 10
128.2697849082979
 20
111.9586252988019
 10
128.2592343035301
 20
111.9367597087168
 10
128.2508153515624
 20
111.9137744626156
 10
128.2446464775502
 20
111.8897879856538
 10
128.2408461066491
 20
111.8649402348334
 10
128.2395541958613
 20
111.8393388693868
 10
128.2395541958613
 20
111.8393388693868
 10
128.2408461066491
 20
111.8138020994795
 10
128.2446464775502
 20
111.788997412352
 10
128.2508153515624
 20
111.7650647650064
 10
128.2592450694534
 20
111.7421118166749
 10
128.2697849082979
 20
111.7202892902828
 10
128.2823272088636
 20
111.6996940791392
 10
128.2967320141486
 20
111.6804661402461
 10
128.3128916649204
 20
111.6627238987591
 10
128.3306662041771
 20
111.6466073116802
 10
128.3499264408399
 20
111.6322240382417
 10
128.37054318383
 20
111.6197140354456
 10
128.392408773915
 20
111.6091957284476
 10
128.4153724881697
 20
111.6007983083263
 10
128.4393266673619
 20
111.5946402002373
 10
128.4641421204126
 20
111.5908613611828
 97
        0
 75
     1
 76
     1
 98
        0
  0
LWPOLYLINE
  5
84
330
1F
100
AcDbEntity
  8
ISS138金台
  6
Continuous
 62
   250
420
  2367521
370
    13
100
AcDbPolyline
 90
       68
 70
     0
 43
0.0
 10
128.4896788903199
 20
111.5895694503949
 10
128.5152048943039
 20
111.5908505952595
 10
128.5400311132778
 20
111.5946509661606
 10
128.5639745265467
 20
111.600787542403
 10
128.5869490067246
 20
111.6092064943708
 10
128.6088145968097
 20
111.6197140354456
 10
128.6294313397997
 20
111.6322240382417
 10
128.6487023423858
 20
111.6465965457569
 10
128.6664661157192
 20
111.6627238987591
 10
128.6826257664911
 20
111.6804553743229
 10
128.6970305717761
 20
111.6996940791392
 10
128.7095728723418
 20
111.7202892902828
 10
128.7201234771096
 20
111.7421225825981
 10
128.7285424290773
 20
111.7650647650064
 10
128.7347113030895
 20
111.788997412352
 10
128.7385116739905
 20
111.8138020994795
 10
128.7398035847784
 20
111.8393388693868
 10
128.7398035847784
 20
111.8393388693868
 10
128.7385116739905
 20
111.8649294689102
 10
128.7347113030895
 20
111.8897879856538
 10
128.7285316631541
 20
111.9137744626156
 10
128.7201234771096
 20
111.9367597087168
 10
128.7095728723418
 20
111.9586252988019
 10
128.6970305717761
 20
111.9792420417919
 10
128.6826150005679
 20
111.9985022784547
 10
128.6664661157192
 20
112.0162552858649
 10
128.6486915764625
 20
112.0323934047903
 10
128.629442105723
 20
112.0467766782288
 10
128.6088145968097
 20
112.0592974469481
 10
128.5869490067246
 20
112.0698157539462
 10
128.5639745265467
 20
112.0782239399907
 10
128.5400311132778
 20
112.0843820480796
 10
128.5152156602271
 20
112.0881608871342
 10
128.4896788903199
 20
112.0894527979221
 10
128.4896788903199
 20
112.0894527979221
 10
128.4641313544893
 20
112.0881608871342
 10
128.4393266673619
 20
112.0843820480796
 10
128.4153724881697
 20
112.0782239399907
 10
128.392408773915
 20
112.0698157539462
 10
128.37054318383
 20
112.0592974469481
 10
128.3499264408399
 20
112.0467766782288
 10
128.3306662041771
 20
112.0323826388671
 10
128.3128916649204
 20
112.0162552858649
 10
128.2967320141486
 20
111.9985022784547
 10
128.2823272088636
 20
111.9792528077152
 10
128.2697849082979
 20
111.9586252988019
 10
128.2592343035301
 20
111.9367597087168
 10
128.2508153515624
 20
111.9137744626156
 10
128.2446464775502
 20
111.8897879856538
 10
128.2408461066491
 20
111.8649402348334
 10
128.2395541958613
 20
111.8393388693868
 10
128.2395541958613
 20
111.8393388693868
 10
128.2408461066491
 20
111.8138020994795
 10
128.2446464775502
 20
111.788997412352
 10
128.2508153515624
 20
111.7650647650064
 10
128.2592450694534
 20
111.7421118166749
 10
128.2697849082979
 20
111.7202892902828
 10
128.2823272088636
 20
111.6996940791392
 10
128.2967320141486
 20
111.6804661402461
 10
128.3128916649204
 20
111.6627238987591
 10
128.3306662041771
 20
111.6466073116802
 10
128.3499264408399
 20
111.6322240382417
 10
128.37054318383
 20
111.6197140354456
 10
128.392408773915
 20
111.6091957284476
 10
128.4153724881697
 20
111.6007983083263
 10
128.4393266673619
 20
111.5946402002373
 10
128.4641421204126
 20
111.5908613611828
 10
128.4896788903199
 20
111.5895694503949
  0
TEXT
  5
85
330
1F
100
AcDbEntity
  8
ISS138金台
  6
Continuous
 62
   250
420
  2367521
100
AcDbText
 10
121.500269273068
 20
112.3697361161953
 30
0.0
 40
2.150533301035563
  1
10
 41
0.9978761672973631
  7
MS Gothic
100
AcDbText
  0
TEXT
  5
86
330
1F
100
AcDbEntity
  8
ISS138金台
  6
Continuous
 62
   250
420
  2367521
100
AcDbText
 10
133.2511097195536
 20
104.0563515014334
 30
0.0
 40
2.150533301035563
  1
3
 50
90.00000250447816
 41
0.8120040893554685
  7
MS Gothic
100
AcDbText
  0
TEXT
  5
87
330
1F
100
AcDbEntity
  8
ISS138金台
  6
Continuous
 62
   250
420
  2367521
100
AcDbText
 10
120.2214498478295
 20
93.62842771914048
 30
0.0
 40
2.150533301035563
  1
14
 41
1.012501716613769
  7
MS Gothic
100
AcDbText
  0
LINE
  5
88
330
1F
100
AcDbEntity
  8
ISS138金台
  6
UserDefined01
 62
   140
420
    44526
370
    13
100
AcDbLine
 10
123.4184876450025
 20
98.33094741644649
 30
0.0
 11
128.4236945468284
 21
98.33094741644649
 31
0.0
  0
TEXT
  5
89
330
1F
100
AcDbEntity
  8
ISS138金台
  6
Continuous
 62
   140
420
    44526
100
AcDbText
 10
125.1959631025198
 20
99.1201005275601
 30
0.0
 40
1.881716638406118
  1
5
 41
1.010001046316964
  7
MS Gothic
100
AcDbText
  0
HATCH
  5
8A
330
1F
100
AcDbEntity
  8
ISS138金台
  6
Continuous
 62
   140
420
    44526
370
    13
100
AcDbHatch
 10
0.0
 20
0.0
 30
0.0
210
0.0
220
0.0
230
1.0
  2
SOLID
 70
     1
 71
     0
 91
        1
 92
        3
 72
     0
 73
     1
 93
        3
 10
122.5523906528017
 20
108.8846527700985
 10
124.2845308075872
 20
108.8839422191652
 10
123.4191658981662
 20
107.3857025125269
 97
        0
 75
     1
 76
     1
 98
        0
  0
LWPOLYLINE
  5
8B
330
1F
100
AcDbEntity
  8
ISS138金台
  6
Continuous
 62
   140
420
    44526
370
    13
100
AcDbPolyline
 90
        4
 70
     0
 43
0.0
 10
122.5523906528017
 20
108.8846527700985
 10
124.2845308075872
 20
108.8839422191652
 10
123.4191658981662
 20
107.3857025125269
 10
122.5523906528017
 20
108.8846527700985
  0
HATCH
  5
8C
330
1F
100
AcDbEntity
  8
ISS138金台
  6
Continuous
 62
     7
420
 16777215
370
    13
100
AcDbHatch
 10
0.0
 20
0.0
 30
0.0
210
0.0
220
0.0
230
1.0
  2
SOLID
 70
     1
 71
     0
 91
        1
 92
        3
 72
     0
 73
     1
 93
        7
 10
114.4557165970198
 20
103.3287473630884
 10
118.4466874029668
 20
106.3273584291649
 10
128.4567566970751
 20
106.3273584291649
 10
128.4567566970751
 20
103.3287473630884
 10
123.7584647347588
 20
103.3287473630884
 10
123.4571911390231
 20
103.52912272629
 10
123.1605038265843
 20
103.3287473630884
 97
        0
 75
     1
 76
     1
 98
        0
  0
LWPOLYLINE
  5
8D
330
1F
100
AcDbEntity
  8
ISS138金台
  6
Continuous
 62
     7
420
 16777215
370
    13
100
AcDbPolyline
 90
        8
 70
     0
 43
0.0
 10
114.4557165970198
 20
103.3287473630884
 10
118.4466874029668
 20
106.3273584291649
 10
128.4567566970751
 20
106.3273584291649
 10
128.4567566970751
 20
103.3287473630884
 10
123.7584647347588
 20
103.3287473630884
 10
123.4571911390231
 20
103.52912272629
 10
123.1605038265843
 20
103.3287473630884
 10
114.4557165970198
 20
103.3287473630884
  0
LWPOLYLINE
  5
8E
330
1F
100
AcDbEntity
  8
ISS138金台
  6
Continuous
 62
   250
420
  2367521
370
    25
100
AcDbPolyline
 90
        8
 70
     0
 43
0.0
 10
114.4557165970198
 20
103.3287473630884
 10
118.4466874029668
 20
106.3273584291649
 10
128.4567566970751
 20
106.3273584291649
 10
128.4567566970751
 20
103.3287473630884
 10
123.7584647347588
 20
103.3287473630884
 10
123.4571911390231
 20
103.52912272629
 10
123.1605038265843
 20
103.3287473630884
 10
114.4557165970198
 20
103.3287473630884
  0
ENDSEC
  0
SECTION
  2
OBJECTS
  0
DICTIONARY
  5
C
330
0
100
AcDbDictionary
281
     1
  3
ACAD_DETAILVIEWSTYLE
350
96
  3
ACAD_GROUP
350
D
  3
ACAD_LAYOUT
350
1A
  3
ACAD_MATERIAL
350
43
  3
ACAD_MLEADERSTYLE
350
5B
  3
ACAD_MLINESTYLE
350
17
  3
ACAD_PLOTSETTINGS
350
19
  3
ACAD_PLOTSTYLENAME
350
E
  3
ACAD_SCALELIST
350
47
  3
ACAD_SECTIONVIEWSTYLE
350
97
  3
ACAD_TABLESTYLE
350
59
  3
ACAD_VISUALSTYLE
350
2A
  3
ACDB_RECOMPOSE_DATA
350
93
  3
AcDbVariableDictionary
350
8F
  0
SUN
  5
5D
330
29
100
AcDbSun
 90
        1
290
     0
 63
     7
421
 16777215
 40
1.0
291
     1
 91
  2455826
 92
 54000000
292
     0
 70
     2
 71
   256
280
     1
  0
DICTIONARY
  5
96
102
{ACAD_REACTORS
330
C
102
}
330
C
100
AcDbDictionary
281
     1
  0
DICTIONARY
  5
D
102
{ACAD_REACTORS
330
C
102
}
330
C
100
AcDbDictionary
281
     1
  0
DICTIONARY
  5
1A
102
{ACAD_REACTORS
330
C
102
}
330
C
100
AcDbDictionary
281
     1
  3
Layout1
350
1E
  3
Layout2
350
26
  3
Model
350
22
  0
DICTIONARY
  5
43
102
{ACAD_REACTORS
330
C
102
}
330
C
100
AcDbDictionary
281
     1
  3
ByBlock
350
45
  3
ByLayer
350
44
  3
Global
350
46
  0
DICTIONARY
  5
5B
102
{ACAD_REACTORS
330
C
102
}
330
C
100
AcDbDictionary
281
     1
  3
Standard
350
5C
  0
DICTIONARY
  5
17
102
{ACAD_REACTORS
330
C
102
}
330
C
100
AcDbDictionary
281
     1
  3
Standard
350
18
  0
DICTIONARY
  5
19
102
{ACAD_REACTORS
330
C
102
}
330
C
100
AcDbDictionary
281
     1
  0
ACDBDICTIONARYWDFLT
  5
E
102
{ACAD_REACTORS
330
C
102
}
330
C
100
AcDbDictionary
281
     1
  3
Normal
350
F
100
AcDbDictionaryWithDefault
340
F
  0
DICTIONARY
  5
47
102
{ACAD_REACTORS
330
C
102
}
330
C
100
AcDbDictionary
281
     1
  3
A0
350
48
  3
A1
350
49
  3
A2
350
4A
  3
A3
350
4B
  3
A4
350
4C
  3
A5
350
4D
  3
A6
350
4E
  3
A7
350
4F
  3
A8
350
50
  3
A9
350
51
  3
B0
350
52
  3
B1
350
53
  3
B2
350
54
  3
B3
350
55
  3
B4
350
56
  3
B5
350
57
  3
B6
350
58
  0
DICTIONARY
  5
97
102
{ACAD_REACTORS
330
C
102
}
330
C
100
AcDbDictionary
281
     1
  0
DICTIONARY
  5
59
102
{ACAD_REACTORS
330
C
102
}
330
C
100
AcDbDictionary
281
     1
  3
Standard
350
5A
  0
DICTIONARY
  5
2A
102
{ACAD_REACTORS
330
C
102
}
330
C
100
AcDbDictionary
281
     1
  3
2dWireframe
350
2F
  3
Basic
350
32
  3
Brighten
350
36
  3
ColorChange
350
3A
  3
Conceptual
350
34
  3
Dim
350
35
  3
EdgeColorOff
350
3D
  3
Facepattern
350
39
  3
Flat
350
2B
  3
FlatWithEdges
350
2C
  3
Gouraud
350
2D
  3
GouraudWithEdges
350
2E
  3
Hidden
350
31
  3
JitterOff
350
3B
  3
Linepattern
350
38
  3
OverhangOff
350
3C
  3
Realistic
350
33
  3
Shaded
350
42
  3
Shaded with edges
350
41
  3
Shades of Gray
350
3E
  3
Sketchy
350
3F
  3
Thicken
350
37
  3
Wireframe
350
30
  3
X-Ray
350
40
  0
XRECORD
  5
93
102
{ACAD_REACTORS
330
C
102
}
330
C
100
AcDbXrecord
280
     1
 90
        1
330
5A
  0
DICTIONARY
  5
8F
102
{ACAD_REACTORS
330
C
102
}
330
C
100
AcDbDictionary
281
     1
  3
CANNOSCALE
350
90
  3
CENTEREXE
350
98
  3
CENTERLTYPEFILE
350
99
  3
CMLEADERSTYLE
350
95
  3
CTABLESTYLE
350
94
  0
LAYOUT
  5
1E
102
{ACAD_REACTORS
330
1A
102
}
330
1A
100
AcDbPlotSettings
  1

  2
none_device
  4

  6

 40
0.0
 41
0.0
 42
0.0
 43
0.0
 44
0.0
 45
0.0
 46
0.0
 47
0.0
 48
0.0
 49
0.0
140
0.0
141
0.0
142
1.0
143
1.0
 70
   688
 72
     1
 73
     0
 74
     5
  7

 75
    16
 76
     0
 77
     5
 78
   300
147
1.0
148
0.0
149
0.0
100
AcDbLayout
  1
Layout1
 70
     1
 71
     1
 10
0.0
 20
0.0
 11
420.0
 21
297.0
 12
0.0
 22
0.0
 32
0.0
 14
1.000000000000000E+20
 24
1.000000000000000E+20
 34
1.000000000000000E+20
 15
-1.000000000000000E+20
 25
-1.000000000000000E+20
 35
-1.000000000000000E+20
146
0.0
 13
0.0
 23
0.0
 33
0.0
 16
1.0
 26
0.0
 36
0.0
 17
0.0
 27
1.0
 37
0.0
 76
     0
330
1B
  0
LAYOUT
  5
26
102
{ACAD_REACTORS
330
1A
102
}
330
1A
100
AcDbPlotSettings
  1

  2
none_device
  4

  6

 40
0.0
 41
0.0
 42
0.0
 43
0.0
 44
0.0
 45
0.0
 46
0.0
 47
0.0
 48
0.0
 49
0.0
140
0.0
141
0.0
142
1.0
143
1.0
 70
   688
 72
     1
 73
     0
 74
     5
  7

 75
    16
 76
     0
 77
     5
 78
   300
147
1.0
148
0.0
149
0.0
100
AcDbLayout
  1
Layout2
 70
     1
 71
     2
 10
0.0
 20
0.0
 11
0.0
 21
0.0
 12
0.0
 22
0.0
 32
0.0
 14
0.0
 24
0.0
 34
0.0
 15
0.0
 25
0.0
 35
0.0
146
0.0
 13
0.0
 23
0.0
 33
0.0
 16
1.0
 26
0.0
 36
0.0
 17
0.0
 27
1.0
 37
0.0
 76
     0
330
23
  0
LAYOUT
  5
22
102
{ACAD_REACTORS
330
1A
102
}
330
1A
100
AcDbPlotSettings
  1

  2
none_device
  4
Letter_(8.50_x_11.00_Inches)
  6

 40
6.35
 41
6.35
 42
6.35000508
 43
6.35000508
 44
215.9
 45
279.4
 46
0.0
 47
0.0
 48
0.0
 49
0.0
140
0.0
141
0.0
142
1.0
143
1.0
 70
  1712
 72
     1
 73
     0
 74
     0
  7

 75
     0
 76
     0
 77
     5
 78
   300
147
1.0
148
0.0
149
0.0
100
AcDbLayout
  1
Model
 70
     1
 71
     0
 10
0.0
 20
0.0
 11
302.9997823349792
 21
216.0016055409748
 12
0.0
 22
0.0
 32
0.0
 14
0.0
 24
0.0
 34
0.0
 15
302.9997823349792
 25
216.0016055409748
 35
0.0
146
0.0
 13
0.0
 23
0.0
 33
0.0
 16
1.0
 26
0.0
 36
0.0
 17
0.0
 27
1.0
 37
0.0
 76
     0
330
1F
331
29
  0
MATERIAL
  5
45
102
{ACAD_REACTORS
330
43
102
}
330
43
100
AcDbMaterial
  1
ByBlock
 72
     1
 94
      127
  0
MATERIAL
  5
44
102
{ACAD_REACTORS
330
43
102
}
330
43
100
AcDbMaterial
  1
ByLayer
 72
     1
 94
      127
  0
MATERIAL
  5
46
102
{ACAD_REACTORS
330
43
102
}
330
43
100
AcDbMaterial
  1
Global
 72
     1
 94
      127
  0
MLEADERSTYLE
  5
5C
102
{ACAD_REACTORS
330
5B
102
}
330
5B
100
AcDbMLeaderStyle
179
     2
170
     2
171
     1
172
     0
 90
        2
 40
0.0
 41
0.0
173
     1
 91
-1056964608
340
14
 92
       -2
290
     1
 42
2.0
291
     1
 43
8.0
  3
Standard
341
0
 44
4.0
300

342
11
174
     1
178
     6
175
     1
176
     0
 93
-1056964608
 45
4.0
292
     0
297
     0
 46
4.0
343
0
 94
-1056964608
 47
1.0
 49
1.0
140
1.0
293
     1
141
0.0
294
     1
177
     0
142
1.0
295
     0
296
     0
143
3.75
271
     0
272
     9
273
     9
298
     0
  0
MLINESTYLE
  5
18
102
{ACAD_REACTORS
330
17
102
}
330
17
100
AcDbMlineStyle
  2
Standard
 70
     0
  3

 62
   256
 51
90.0
 52
90.0
 71
     2
 49
0.5
 62
   256
  6
BYLAYER
 49
-0.5
 62
   256
  6
BYLAYER
  0
ACDBPLACEHOLDER
  5
F
102
{ACAD_REACTORS
330
E
102
}
330
E
  0
SCALE
  5
48
102
{ACAD_REACTORS
330
47
102
}
330
47
100
AcDbScale
 70
     0
300
1:1
140
1.0
141
1.0
290
     1
  0
SCALE
  5
49
102
{ACAD_REACTORS
330
47
102
}
330
47
100
AcDbScale
 70
     0
300
1:2
140
1.0
141
2.0
290
     0
  0
SCALE
  5
4A
102
{ACAD_REACTORS
330
47
102
}
330
47
100
AcDbScale
 70
     0
300
1:4
140
1.0
141
4.0
290
     0
  0
SCALE
  5
4B
102
{ACAD_REACTORS
330
47
102
}
330
47
100
AcDbScale
 70
     0
300
1:5
140
1.0
141
5.0
290
     0
  0
SCALE
  5
4C
102
{ACAD_REACTORS
330
47
102
}
330
47
100
AcDbScale
 70
     0
300
1:8
140
1.0
141
8.0
290
     0
  0
SCALE
  5
4D
102
{ACAD_REACTORS
330
47
102
}
330
47
100
AcDbScale
 70
     0
300
1:10
140
1.0
141
10.0
290
     0
  0
SCALE
  5
4E
102
{ACAD_REACTORS
330
47
102
}
330
47
100
AcDbScale
 70
     0
300
1:16
140
1.0
141
16.0
290
     0
  0
SCALE
  5
4F
102
{ACAD_REACTORS
330
47
102
}
330
47
100
AcDbScale
 70
     0
300
1:20
140
1.0
141
20.0
290
     0
  0
SCALE
  5
50
102
{ACAD_REACTORS
330
47
102
}
330
47
100
AcDbScale
 70
     0
300
1:30
140
1.0
141
30.0
290
     0
  0
SCALE
  5
51
102
{ACAD_REACTORS
330
47
102
}
330
47
100
AcDbScale
 70
     0
300
1:40
140
1.0
141
40.0
290
     0
  0
SCALE
  5
52
102
{ACAD_REACTORS
330
47
102
}
330
47
100
AcDbScale
 70
     0
300
1:50
140
1.0
141
50.0
290
     0
  0
SCALE
  5
53
102
{ACAD_REACTORS
330
47
102
}
330
47
100
AcDbScale
 70
     0
300
1:100
140
1.0
141
100.0
290
     0
  0
SCALE
  5
54
102
{ACAD_REACTORS
330
47
102
}
330
47
100
AcDbScale
 70
     0
300
2:1
140
2.0
141
1.0
290
     0
  0
SCALE
  5
55
102
{ACAD_REACTORS
330
47
102
}
330
47
100
AcDbScale
 70
     0
300
4:1
140
4.0
141
1.0
290
     0
  0
SCALE
  5
56
102
{ACAD_REACTORS
330
47
102
}
330
47
100
AcDbScale
 70
     0
300
8:1
140
8.0
141
1.0
290
     0
  0
SCALE
  5
57
102
{ACAD_REACTORS
330
47
102
}
330
47
100
AcDbScale
 70
     0
300
10:1
140
10.0
141
1.0
290
     0
  0
SCALE
  5
58
102
{ACAD_REACTORS
330
47
102
}
330
47
100
AcDbScale
 70
     0
300
100:1
140
100.0
141
1.0
290
     0
  0
TABLESTYLE
  5
5A
102
{ACAD_REACTORS
330
59
102
}
102
{ACAD_XDICTIONARY
360
91
102
}
330
59
100
AcDbTableStyle
  3
Standard
 70
     0
 71
     0
 40
0.06
 41
0.06
280
     0
281
     0
  7
Standard
140
4.5
170
     2
 62
     0
 63
   257
283
     0
 90
        4
 91
        0
  1

274
    -2
284
     1
 64
     0
275
    -2
285
     1
 65
     0
276
    -2
286
     1
 66
     0
277
    -2
287
     1
 67
     0
278
    -2
288
     1
 68
     0
279
    -2
289
     1
 69
     0
  7
Standard
140
6.0
170
     5
 62
     0
 63
   257
283
     0
 90
        4
 91
        0
  1

274
    -2
284
     1
 64
     0
275
    -2
285
     1
 65
     0
276
    -2
286
     1
 66
     0
277
    -2
287
     1
 67
     0
278
    -2
288
     1
 68
     0
279
    -2
289
     1
 69
     0
  7
Standard
140
4.5
170
     5
 62
     0
 63
   257
283
     0
 90
        4
 91
        0
  1

274
    -2
284
     1
 64
     0
275
    -2
285
     1
 65
     0
276
    -2
286
     1
 66
     0
277
    -2
287
     1
 67
     0
278
    -2
288
     1
 68
     0
279
    -2
289
     1
 69
     0
  0
VISUALSTYLE
  5
2F
102
{ACAD_REACTORS
330
2A
102
}
330
2A
100
AcDbVisualStyle
  2
2dWireframe
 70
     4
177
     3
291
     0
 70
    58
 90
        0
176
     1
 90
        2
176
     1
 90
        0
176
     1
 90
        0
176
     1
 40
0.6
176
     1
 40
30.0
176
     1
 62
     7
420
 16777215
176
     1
 90
        1
176
     1
 90
        4
176
     1
 62
     7
176
     1
 62
   257
176
     1
 90
        1
176
     1
 90
        1
176
     1
 40
1.0
176
     1
 90
        0
176
     1
 62
   257
176
     1
 40
1.0
176
     1
 90
        1
176
     1
 90
        6
176
     1
 90
        2
176
     1
 62
     7
176
     1
 90
        5
176
     1
 90
        0
176
     1
 90
        0
176
     1
290
     0
176
     1
 90
        1
176
     1
 40
0.0
176
     1
 90
        0
176
     1
290
     1
176
     1
290
     1
176
     1
290
     0
176
     1
290
     0
176
     1
290
     0
176
     1
290
     0
176
     1
290
     0
176
     1
290
     0
176
     1
290
     0
176
     1
 90
       50
176
     1
 40
0.0
176
     1
 40
1.0
176
     1
 90
        0
176
     1
 62
    18
420
        0
176
     1
 90
       50
176
     1
 90
        3
176
     1
 62
     5
420
      255
176
     1
290
     0
176
     1
 90
       50
176
     1
 90
       50
176
     1
 90
       50
176
     1
290
     0
176
     1
 90
       50
176
     1
 62
   256
176
     0
 40
1.0
176
     0
 90
        2
176
     1
  1
strokes_ogs.tif
176
     1
290
     0
176
     1
 40
1.0
176
     1
 40
1.0
176
     1
  0
VISUALSTYLE
  5
32
102
{ACAD_REACTORS
330
2A
102
}
330
2A
100
AcDbVisualStyle
  2
Basic
 70
     7
177
     3
291
     1
 70
    58
 90
        1
176
     1
 90
        0
176
     1
 90
        1
176
     1
 90
        0
176
     1
 40
0.6
176
     1
 40
30.0
176
     1
 62
     7
420
 16777215
176
     1
 90
        0
176
     1
 90
        4
176
     1
 62
     7
176
     1
 62
   257
176
     1
 90
        1
176
     1
 90
        1
176
     1
 40
1.0
176
     1
 90
        8
176
     1
 62
     7
176
     1
 40
1.0
176
     1
 90
        1
176
     1
 90
        6
176
     1
 90
        2
176
     1
 62
     7
176
     1
 90
        5
176
     1
 90
        0
176
     1
 90
        0
176
     1
290
     0
176
     1
 90
        1
176
     1
 40
0.0
176
     1
 90
        0
176
     1
290
     0
176
     1
290
     1
176
     1
290
     1
176
     1
290
     0
176
     1
290
     0
176
     1
290
     0
176
     1
290
     0
176
     1
290
     0
176
     1
290
     0
176
     1
 90
       50
176
     1
 40
0.0
176
     1
 40
1.0
176
     1
 90
        0
176
     1
 62
    18
420
        0
176
     1
 90
       50
176
     1
 90
        3
176
     1
 62
     5
420
      255
176
     1
290
     0
176
     1
 90
       50
176
     1
 90
       50
176
     1
 90
       50
176
     1
290
     0
176
     1
 90
       50
176
     1
 62
   256
176
     0
 40
1.0
176
     0
 90
        2
176
     1
  1
strokes_ogs.tif
176
     1
290
     0
176
     1
 40
1.0
176
     1
 40
1.0
176
     1
  0
VISUALSTYLE
  5
36
102
{ACAD_REACTORS
330
2A
102
}
330
2A
100
AcDbVisualStyle
  2
Brighten
 70
    12
177
     3
291
     1
 70
    58
 90
        2
176
     1
 90
        2
176
     1
 90
        0
176
     1
 90
        0
176
     1
 40
0.6
176
     1
 40
30.0
176
     1
 62
     7
420
 16777215
176
     1
 90
        1
176
     1
 90
        4
176
     1
 62
     7
176
     1
 62
   257
176
     1
 90
        1
176
     1
 90
        1
176
     1
 40
1.0
176
     1
 90
        8
176
     1
 62
     7
176
     1
 40
1.0
176
     1
 90
        1
176
     1
 90
        6
176
     1
 90
        2
176
     1
 62
     7
176
     1
 90
        5
176
     1
 90
        0
176
     1
 90
        0
176
     1
290
     0
176
     1
 90
        1
176
     1
 40
50.0
176
     1
 90
        0
176
     1
290
     0
176
     1
290
     1
176
     1
290
     1
176
     1
290
     0
176
     1
290
     0
176
     1
290
     0
176
     1
290
     0
176
     1
290
     0
176
     1
290
     0
176
     1
 90
       50
176
     1
 40
0.0
176
     1
 40
1.0
176
     1
 90
        0
176
     1
 62
    18
420
        0
176
     1
 90
       50
176
     1
 90
        3
176
     1
 62
     5
420
      255
176
     1
290
     0
176
     1
 90
       50
176
     1
 90
       50
176
     1
 90
       50
176
     1
290
     0
176
     1
 90
       50
176
     1
 62
   256
176
     0
 40
1.0
176
     0
 90
        2
176
     1
  1
strokes_ogs.tif
176
     1
290
     0
176
     1
 40
1.0
176
     1
 40
1.0
176
     1
  0
VISUALSTYLE
  5
3A
102
{ACAD_REACTORS
330
2A
102
}
330
2A
100
AcDbVisualStyle
  2
ColorChange
 70
    16
177
     3
291
     1
 70
    58
 90
        2
176
     1
 90
        2
176
     1
 90
        3
176
     1
 90
        0
176
     1
 40
0.6
176
     1
 40
30.0
176
     1
 62
     8
420
  8421504
176
     1
 90
        1
176
     1
 90
        4
176
     1
 62
     7
176
     1
 62
   257
176
     1
 90
        1
176
     1
 90
        1
176
     1
 40
1.0
176
     1
 90
        8
176
     1
 62
     8
420
  8421504
176
     1
 40
1.0
176
     1
 90
        1
176
     1
 90
        6
176
     1
 90
        2
176
     1
 62
     7
176
     1
 90
        5
176
     1
 90
        0
176
     1
 90
        0
176
     1
290
     0
176
     1
 90
        1
176
     1
 40
0.0
176
     1
 90
        0
176
     1
290
     0
176
     1
290
     1
176
     1
290
     1
176
     1
290
     0
176
     1
290
     0
176
     1
290
     0
176
     1
290
     0
176
     1
290
     0
176
     1
290
     0
176
     1
 90
       50
176
     1
 40
0.0
176
     1
 40
1.0
176
     1
 90
        0
176
     1
 62
    18
420
        0
176
     1
 90
       50
176
     1
 90
        3
176
     1
 62
     5
420
      255
176
     1
290
     0
176
     1
 90
       50
176
     1
 90
       50
176
     1
 90
       50
176
     1
290
     0
176
     1
 90
       50
176
     1
 62
   256
176
     0
 40
1.0
176
     0
 90
        2
176
     1
  1
strokes_ogs.tif
176
     1
290
     0
176
     1
 40
1.0
176
     1
 40
1.0
176
     1
  0
VISUALSTYLE
  5
34
102
{ACAD_REACTORS
330
2A
102
}
330
2A
100
AcDbVisualStyle
  2
Conceptual
 70
     9
177
     3
291
     0
 70
    58
 90
        3
176
     1
 90
        2
176
     1
 90
        0
176
     1
 90
        0
176
     1
 40
0.6
176
     1
 40
30.0
176
     1
 62
     7
420
 16777215
176
     1
 90
        2
176
     1
 90
        2
176
     1
 62
     7
176
     1
 62
   257
176
     1
 90
        1
176
     1
 90
        1
176
     1
 40
179.0
176
     1
 90
        8
176
     1
 62
     7
176
     1
 40
1.0
176
     1
 90
        1
176
     1
 90
        6
176
     1
 90
        2
176
     1
 62
     7
176
     1
 90
        3
176
     1
 90
        0
176
     1
 90
        0
176
     1
290
     0
176
     1
 90
        1
176
     1
 40
0.0
176
     1
 90
        0
176
     1
290
     0
176
     1
290
     1
176
     1
290
     1
176
     1
290
     0
176
     1
290
     0
176
     1
290
     0
176
     1
290
     0
176
     1
290
     0
176
     1
290
     0
176
     1
 90
       50
176
     1
 40
0.0
176
     1
 40
1.0
176
     1
 90
        0
176
     1
 62
    18
420
        0
176
     1
 90
       50
176
     1
 90
        3
176
     1
 62
     5
420
      255
176
     1
290
     0
176
     1
 90
       50
176
     1
 90
       50
176
     1
 90
       50
176
     1
290
     0
176
     1
 90
       50
176
     1
 62
   256
176
     0
 40
1.0
176
     0
 90
        2
176
     1
  1
strokes_ogs.tif
176
     1
290
     0
176
     1
 40
1.0
176
     1
 40
1.0
176
     1
  0
VISUALSTYLE
  5
35
102
{ACAD_REACTORS
330
2A
102
}
330
2A
100
AcDbVisualStyle
  2
Dim
 70
    11
177
     3
291
     1
 70
    58
 90
        2
176
     1
 90
        2
176
     1
 90
        0
176
     1
 90
        0
176
     1
 40
0.6
176
     1
 40
30.0
176
     1
 62
     7
420
 16777215
176
     1
 90
        1
176
     1
 90
        4
176
     1
 62
     7
176
     1
 62
   257
176
     1
 90
        1
176
     1
 90
        1
176
     1
 40
1.0
176
     1
 90
        8
176
     1
 62
     7
176
     1
 40
1.0
176
     1
 90
        1
176
     1
 90
        6
176
     1
 90
        2
176
     1
 62
     7
176
     1
 90
        5
176
     1
 90
        0
176
     1
 90
        0
176
     1
290
     0
176
     1
 90
        1
176
     1
 40
-50.0
176
     1
 90
        0
176
     1
290
     0
176
     1
290
     1
176
     1
290
     1
176
     1
290
     0
176
     1
290
     0
176
     1
290
     0
176
     1
290
     0
176
     1
290
     0
176
     1
290
     0
176
     1
 90
       50
176
     1
 40
0.0
176
     1
 40
1.0
176
     1
 90
        0
176
     1
 62
    18
420
        0
176
     1
 90
       50
176
     1
 90
        3
176
     1
 62
     5
420
      255
176
     1
290
     0
176
     1
 90
       50
176
     1
 90
       50
176
     1
 90
       50
176
     1
290
     0
176
     1
 90
       50
176
     1
 62
   256
176
     0
 40
1.0
176
     0
 90
        2
176
     1
  1
strokes_ogs.tif
176
     1
290
     0
176
     1
 40
1.0
176
     1
 40
1.0
176
     1
  0
VISUALSTYLE
  5
3D
102
{ACAD_REACTORS
330
2A
102
}
330
2A
100
AcDbVisualStyle
  2
EdgeColorOff
 70
    22
177
     3
291
     1
 70
    58
 90
        2
176
     0
 90
        2
176
     0
 90
        0
176
     0
 90
        0
176
     0
 40
0.6
176
     0
 40
30.0
176
     0
 62
     7
420
 16777215
176
     0
 90
        1
176
     0
 90
        4
176
     0
 62
     7
176
     0
 62
   257
176
     0
 90
        1
176
     0
 90
        1
176
     0
 40
1.0
176
     0
 90
        8
176
     2
 62
     7
176
     0
 40
1.0
176
     0
 90
        1
176
     0
 90
        6
176
     0
 90
        2
176
     0
 62
     7
176
     0
 90
        5
176
     0
 90
        0
176
     0
 90
        0
176
     0
290
     0
176
     0
 90
        1
176
     0
 40
0.0
176
     0
 90
        0
176
     0
290
     0
176
     0
290
     1
176
     0
290
     1
176
     0
290
     0
176
     0
290
     0
176
     0
290
     0
176
     0
290
     0
176
     0
290
     0
176
     0
290
     0
176
     0
 90
       50
176
     0
 40
0.0
176
     0
 40
1.0
176
     0
 90
        0
176
     0
 62
    18
420
        0
176
     0
 90
       50
176
     0
 90
        3
176
     0
 62
     5
420
      255
176
     0
290
     0
176
     0
 90
       50
176
     0
 90
       50
176
     0
 90
       50
176
     0
290
     0
176
     0
 90
       50
176
     0
 62
   256
176
     0
 40
1.0
176
     0
 90
        2
176
     0
  1
strokes_ogs.tif
176
     0
290
     0
176
     0
 40
1.0
176
     0
 40
1.0
176
     0
  0
VISUALSTYLE
  5
39
102
{ACAD_REACTORS
330
2A
102
}
330
2A
100
AcDbVisualStyle
  2
Facepattern
 70
    15
177
     3
291
     1
 70
    58
 90
        2
176
     1
 90
        2
176
     1
 90
        0
176
     1
 90
        0
176
     1
 40
0.6
176
     1
 40
30.0
176
     1
 62
     7
420
 16777215
176
     1
 90
        1
176
     1
 90
        4
176
     1
 62
     7
176
     1
 62
   257
176
     1
 90
        1
176
     1
 90
        1
176
     1
 40
1.0
176
     1
 90
        8
176
     1
 62
     7
176
     1
 40
1.0
176
     1
 90
        1
176
     1
 90
        6
176
     1
 90
        2
176
     1
 62
     7
176
     1
 90
        5
176
     1
 90
        0
176
     1
 90
        0
176
     1
290
     0
176
     1
 90
        1
176
     1
 40
0.0
176
     1
 90
        0
176
     1
290
     0
176
     1
290
     1
176
     1
290
     1
176
     1
290
     0
176
     1
290
     0
176
     1
290
     0
176
     1
290
     0
176
     1
290
     0
176
     1
290
     0
176
     1
 90
       50
176
     1
 40
0.0
176
     1
 40
1.0
176
     1
 90
        0
176
     1
 62
    18
420
        0
176
     1
 90
       50
176
     1
 90
        3
176
     1
 62
     5
420
      255
176
     1
290
     0
176
     1
 90
       50
176
     1
 90
       50
176
     1
 90
       50
176
     1
290
     0
176
     1
 90
       50
176
     1
 62
   256
176
     0
 40
1.0
176
     0
 90
        2
176
     1
  1
strokes_ogs.tif
176
     1
290
     0
176
     1
 40
1.0
176
     1
 40
1.0
176
     1
  0
VISUALSTYLE
  5
2B
102
{ACAD_REACTORS
330
2A
102
}
330
2A
100
AcDbVisualStyle
  2
Flat
 70
     0
177
     3
291
     1
 70
    58
 90
        2
176
     1
 90
        1
176
     1
 90
        1
176
     1
 90
        2
176
     1
 40
0.6
176
     1
 40
30.0
176
     1
 62
     7
420
 16777215
176
     1
 90
        0
176
     1
 90
        0
176
     1
 62
     7
176
     1
 62
   257
176
     1
 90
        1
176
     1
 90
        1
176
     1
 40
1.0
176
     1
 90
        8
176
     1
 62
     7
176
     1
 40
1.0
176
     1
 90
        1
176
     1
 90
        6
176
     1
 90
        2
176
     1
 62
     7
176
     1
 90
        5
176
     1
 90
        0
176
     1
 90
        0
176
     1
290
     0
176
     1
 90
       13
176
     1
 40
0.0
176
     1
 90
        0
176
     1
290
     0
176
     1
290
     1
176
     1
290
     1
176
     1
290
     0
176
     1
290
     0
176
     1
290
     0
176
     1
290
     0
176
     1
290
     0
176
     1
290
     0
176
     1
 90
       50
176
     1
 40
0.0
176
     1
 40
1.0
176
     1
 90
        0
176
     1
 62
    18
420
        0
176
     1
 90
       50
176
     1
 90
        3
176
     1
 62
     5
420
      255
176
     1
290
     0
176
     1
 90
       50
176
     1
 90
       50
176
     1
 90
       50
176
     1
290
     0
176
     1
 90
       50
176
     1
 62
   256
176
     0
 40
1.0
176
     0
 90
        2
176
     1
  1
strokes_ogs.tif
176
     1
290
     0
176
     1
 40
1.0
176
     1
 40
1.0
176
     1
  0
VISUALSTYLE
  5
2C
102
{ACAD_REACTORS
330
2A
102
}
330
2A
100
AcDbVisualStyle
  2
FlatWithEdges
 70
     1
177
     3
291
     1
 70
    58
 90
        2
176
     1
 90
        1
176
     1
 90
        1
176
     1
 90
        2
176
     1
 40
0.6
176
     1
 40
30.0
176
     1
 62
     7
420
 16777215
176
     1
 90
        1
176
     1
 90
        0
176
     1
 62
     7
176
     1
 62
   257
176
     1
 90
        1
176
     1
 90
        1
176
     1
 40
1.0
176
     1
 90
        0
176
     1
 62
   257
176
     1
 40
1.0
176
     1
 90
        1
176
     1
 90
        6
176
     1
 90
        2
176
     1
 62
     7
176
     1
 90
        5
176
     1
 90
        0
176
     1
 90
        0
176
     1
290
     0
176
     1
 90
       13
176
     1
 40
0.0
176
     1
 90
        0
176
     1
290
     0
176
     1
290
     1
176
     1
290
     1
176
     1
290
     0
176
     1
290
     0
176
     1
290
     0
176
     1
290
     0
176
     1
290
     0
176
     1
290
     0
176
     1
 90
       50
176
     1
 40
0.0
176
     1
 40
1.0
176
     1
 90
        0
176
     1
 62
    18
420
        0
176
     1
 90
       50
176
     1
 90
        3
176
     1
 62
     5
420
      255
176
     1
290
     0
176
     1
 90
       50
176
     1
 90
       50
176
     1
 90
       50
176
     1
290
     0
176
     1
 90
       50
176
     1
 62
   256
176
     0
 40
1.0
176
     0
 90
        2
176
     1
  1
strokes_ogs.tif
176
     1
290
     0
176
     1
 40
1.0
176
     1
 40
1.0
176
     1
  0
VISUALSTYLE
  5
2D
102
{ACAD_REACTORS
330
2A
102
}
330
2A
100
AcDbVisualStyle
  2
Gouraud
 70
     2
177
     3
291
     1
 70
    58
 90
        2
176
     1
 90
        2
176
     1
 90
        1
176
     1
 90
        2
176
     1
 40
0.6
176
     1
 40
30.0
176
     1
 62
     7
420
 16777215
176
     1
 90
        0
176
     1
 90
        0
176
     1
 62
     7
176
     1
 62
   257
176
     1
 90
        1
176
     1
 90
        1
176
     1
 40
1.0
176
     1
 90
        0
176
     1
 62
     7
176
     1
 40
1.0
176
     1
 90
        1
176
     1
 90
        6
176
     1
 90
        2
176
     1
 62
     7
176
     1
 90
        5
176
     1
 90
        0
176
     1
 90
        0
176
     1
290
     0
176
     1
 90
       13
176
     1
 40
0.0
176
     1
 90
        0
176
     1
290
     0
176
     1
290
     1
176
     1
290
     1
176
     1
290
     0
176
     1
290
     0
176
     1
290
     0
176
     1
290
     0
176
     1
290
     0
176
     1
290
     0
176
     1
 90
       50
176
     1
 40
0.0
176
     1
 40
1.0
176
     1
 90
        0
176
     1
 62
    18
420
        0
176
     1
 90
       50
176
     1
 90
        3
176
     1
 62
     5
420
      255
176
     1
290
     0
176
     1
 90
       50
176
     1
 90
       50
176
     1
 90
       50
176
     1
290
     0
176
     1
 90
       50
176
     1
 62
   256
176
     0
 40
1.0
176
     0
 90
        2
176
     1
  1
strokes_ogs.tif
176
     1
290
     0
176
     1
 40
1.0
176
     1
 40
1.0
176
     1
  0
VISUALSTYLE
  5
2E
102
{ACAD_REACTORS
330
2A
102
}
330
2A
100
AcDbVisualStyle
  2
GouraudWithEdges
 70
     3
177
     3
291
     1
 70
    58
 90
        2
176
     1
 90
        2
176
     1
 90
        1
176
     1
 90
        2
176
     1
 40
0.6
176
     1
 40
30.0
176
     1
 62
     7
420
 16777215
176
     1
 90
        1
176
     1
 90
        0
176
     1
 62
     7
176
     1
 62
   257
176
     1
 90
        1
176
     1
 90
        1
176
     1
 40
1.0
176
     1
 90
        0
176
     1
 62
   257
176
     1
 40
1.0
176
     1
 90
        1
176
     1
 90
        6
176
     1
 90
        2
176
     1
 62
     7
176
     1
 90
        5
176
     1
 90
        0
176
     1
 90
        0
176
     1
290
     0
176
     1
 90
       13
176
     1
 40
0.0
176
     1
 90
        0
176
     1
290
     0
176
     1
290
     1
176
     1
290
     1
176
     1
290
     0
176
     1
290
     0
176
     1
290
     0
176
     1
290
     0
176
     1
290
     0
176
     1
290
     0
176
     1
 90
       50
176
     1
 40
0.0
176
     1
 40
1.0
176
     1
 90
        0
176
     1
 62
    18
420
        0
176
     1
 90
       50
176
     1
 90
        3
176
     1
 62
     5
420
      255
176
     1
290
     0
176
     1
 90
       50
176
     1
 90
       50
176
     1
 90
       50
176
     1
290
     0
176
     1
 90
       50
176
     1
 62
   256
176
     0
 40
1.0
176
     0
 90
        2
176
     1
  1
strokes_ogs.tif
176
     1
290
     0
176
     1
 40
1.0
176
     1
 40
1.0
176
     1
  0
VISUALSTYLE
  5
31
102
{ACAD_REACTORS
330
2A
102
}
330
2A
100
AcDbVisualStyle
  2
Hidden
 70
     6
177
     3
291
     0
 70
    58
 90
        1
176
     1
 90
        2
176
     1
 90
        2
176
     1
 90
        0
176
     1
 40
0.6
176
     1
 40
30.0
176
     1
 62
     7
420
 16777215
176
     1
 90
        2
176
     1
 90
        2
176
     1
 62
     7
176
     1
 62
   257
176
     1
 90
        2
176
     1
 90
        1
176
     1
 40
40.0
176
     1
 90
        0
176
     1
 62
   257
176
     1
 40
1.0
176
     1
 90
        1
176
     1
 90
        6
176
     1
 90
        2
176
     1
 62
     7
176
     1
 90
        3
176
     1
 90
        0
176
     1
 90
        0
176
     1
290
     0
176
     1
 90
        1
176
     1
 40
0.0
176
     1
 90
        0
176
     1
290
     0
176
     1
290
     1
176
     1
290
     1
176
     1
290
     0
176
     1
290
     0
176
     1
290
     0
176
     1
290
     0
176
     1
290
     0
176
     1
290
     0
176
     1
 90
       50
176
     1
 40
0.0
176
     1
 40
1.0
176
     1
 90
        0
176
     1
 62
    18
420
        0
176
     1
 90
       50
176
     1
 90
        3
176
     1
 62
     5
420
      255
176
     1
290
     0
176
     1
 90
       50
176
     1
 90
       50
176
     1
 90
       50
176
     1
290
     0
176
     1
 90
       50
176
     1
 62
   256
176
     0
 40
1.0
176
     0
 90
        2
176
     1
  1
strokes_ogs.tif
176
     1
290
     0
176
     1
 40
1.0
176
     1
 40
1.0
176
     1
  0
VISUALSTYLE
  5
3B
102
{ACAD_REACTORS
330
2A
102
}
330
2A
100
AcDbVisualStyle
  2
JitterOff
 70
    20
177
     3
291
     1
 70
    58
 90
        2
176
     0
 90
        2
176
     0
 90
        0
176
     0
 90
        0
176
     0
 40
0.6
176
     0
 40
30.0
176
     0
 62
     7
420
 16777215
176
     0
 90
        1
176
     0
 90
        4
176
     0
 62
     7
176
     0
 62
   257
176
     0
 90
        1
176
     0
 90
        1
176
     0
 40
1.0
176
     0
 90
       10
176
     2
 62
     7
176
     0
 40
1.0
176
     0
 90
        1
176
     0
 90
        6
176
     0
 90
        2
176
     0
 62
     7
176
     0
 90
        5
176
     0
 90
        0
176
     0
 90
        0
176
     0
290
     0
176
     0
 90
        1
176
     0
 40
0.0
176
     0
 90
        0
176
     0
290
     0
176
     0
290
     1
176
     0
290
     1
176
     0
290
     0
176
     0
290
     0
176
     0
290
     0
176
     0
290
     0
176
     0
290
     0
176
     0
290
     0
176
     0
 90
       50
176
     0
 40
0.0
176
     0
 40
1.0
176
     0
 90
        0
176
     0
 62
    18
420
        0
176
     0
 90
       50
176
     0
 90
        3
176
     0
 62
     5
420
      255
176
     0
290
     0
176
     0
 90
       50
176
     0
 90
       50
176
     0
 90
       50
176
     0
290
     0
176
     0
 90
       50
176
     0
 62
   256
176
     0
 40
1.0
176
     0
 90
        2
176
     0
  1
strokes_ogs.tif
176
     0
290
     0
176
     0
 40
1.0
176
     0
 40
1.0
176
     0
  0
VISUALSTYLE
  5
38
102
{ACAD_REACTORS
330
2A
102
}
330
2A
100
AcDbVisualStyle
  2
Linepattern
 70
    14
177
     3
291
     1
 70
    58
 90
        2
176
     1
 90
        2
176
     1
 90
        0
176
     1
 90
        0
176
     1
 40
0.6
176
     1
 40
30.0
176
     1
 62
     7
420
 16777215
176
     1
 90
        1
176
     1
 90
        4
176
     1
 62
     7
176
     1
 62
   257
176
     1
 90
        7
176
     1
 90
        7
176
     1
 40
1.0
176
     1
 90
        8
176
     1
 62
     7
176
     1
 40
1.0
176
     1
 90
        1
176
     1
 90
        6
176
     1
 90
        2
176
     1
 62
     7
176
     1
 90
        5
176
     1
 90
        0
176
     1
 90
        0
176
     1
290
     0
176
     1
 90
        1
176
     1
 40
0.0
176
     1
 90
        0
176
     1
290
     0
176
     1
290
     1
176
     1
290
     1
176
     1
290
     0
176
     1
290
     0
176
     1
290
     0
176
     1
290
     0
176
     1
290
     0
176
     1
290
     0
176
     1
 90
       50
176
     1
 40
0.0
176
     1
 40
1.0
176
     1
 90
        0
176
     1
 62
    18
420
        0
176
     1
 90
       50
176
     1
 90
        3
176
     1
 62
     5
420
      255
176
     1
290
     0
176
     1
 90
       50
176
     1
 90
       50
176
     1
 90
       50
176
     1
290
     0
176
     1
 90
       50
176
     1
 62
   256
176
     0
 40
1.0
176
     0
 90
        2
176
     1
  1
strokes_ogs.tif
176
     1
290
     0
176
     1
 40
1.0
176
     1
 40
1.0
176
     1
  0
VISUALSTYLE
  5
3C
102
{ACAD_REACTORS
330
2A
102
}
330
2A
100
AcDbVisualStyle
  2
OverhangOff
 70
    21
177
     3
291
     1
 70
    58
 90
        2
176
     0
 90
        2
176
     0
 90
        0
176
     0
 90
        0
176
     0
 40
0.6
176
     0
 40
30.0
176
     0
 62
     7
420
 16777215
176
     0
 90
        1
176
     0
 90
        4
176
     0
 62
     7
176
     0
 62
   257
176
     0
 90
        1
176
     0
 90
        1
176
     0
 40
1.0
176
     0
 90
        9
176
     2
 62
     7
176
     0
 40
1.0
176
     0
 90
        1
176
     0
 90
        6
176
     0
 90
        2
176
     0
 62
     7
176
     0
 90
        5
176
     0
 90
        0
176
     0
 90
        0
176
     0
290
     0
176
     0
 90
        1
176
     0
 40
0.0
176
     0
 90
        0
176
     0
290
     0
176
     0
290
     1
176
     0
290
     1
176
     0
290
     0
176
     0
290
     0
176
     0
290
     0
176
     0
290
     0
176
     0
290
     0
176
     0
290
     0
176
     0
 90
       50
176
     0
 40
0.0
176
     0
 40
1.0
176
     0
 90
        0
176
     0
 62
    18
420
        0
176
     0
 90
       50
176
     0
 90
        3
176
     0
 62
     5
420
      255
176
     0
290
     0
176
     0
 90
       50
176
     0
 90
       50
176
     0
 90
       50
176
     0
290
     0
176
     0
 90
       50
176
     0
 62
   256
176
     0
 40
1.0
176
     0
 90
        2
176
     0
  1
strokes_ogs.tif
176
     0
290
     0
176
     0
 40
1.0
176
     0
 40
1.0
176
     0
  0
VISUALSTYLE
  5
33
102
{ACAD_REACTORS
330
2A
102
}
330
2A
100
AcDbVisualStyle
  2
Realistic
 70
     8
177
     3
291
     0
 70
    58
 90
        2
176
     1
 90
        3
176
     1
 90
        0
176
     1
 90
        2
176
     1
 40
0.6
176
     1
 40
30.0
176
     1
 62
     7
420
 16777215
176
     1
 90
        0
176
     1
 90
        0
176
     1
 62
     7
176
     1
 62
   257
176
     1
 90
        1
176
     1
 90
        1
176
     1
 40
1.0
176
     1
 90
        8
176
     1
 62
   257
176
     1
 40
1.0
176
     1
 90
        1
176
     1
 90
        6
176
     1
 90
        2
176
     1
 62
     7
176
     1
 90
        3
176
     1
 90
        0
176
     1
 90
        0
176
     1
290
     0
176
     1
 90
       13
176
     1
 40
0.0
176
     1
 90
        0
176
     1
290
     0
176
     1
290
     1
176
     1
290
     1
176
     1
290
     0
176
     1
290
     0
176
     1
290
     0
176
     1
290
     0
176
     1
290
     0
176
     1
290
     0
176
     1
 90
       50
176
     1
 40
0.0
176
     1
 40
1.0
176
     1
 90
        0
176
     1
 62
    18
420
        0
176
     1
 90
       50
176
     1
 90
        3
176
     1
 62
     5
420
      255
176
     1
290
     0
176
     1
 90
       50
176
     1
 90
       50
176
     1
 90
       50
176
     1
290
     0
176
     1
 90
       50
176
     1
 62
   256
176
     0
 40
1.0
176
     0
 90
        2
176
     1
  1
strokes_ogs.tif
176
     1
290
     0
176
     1
 40
1.0
176
     1
 40
1.0
176
     1
  0
VISUALSTYLE
  5
42
102
{ACAD_REACTORS
330
2A
102
}
330
2A
100
AcDbVisualStyle
  2
Shaded
 70
    27
177
     3
291
     0
 70
    58
 90
        2
176
     1
 90
        2
176
     1
 90
        1
176
     1
 90
        2
176
     1
 40
0.6
176
     1
 40
30.0
176
     1
 62
     7
420
 16777215
176
     1
 90
        0
176
     1
 90
        4
176
     1
 62
     7
176
     1
 62
   257
176
     1
 90
        1
176
     1
 90
        1
176
     1
 40
1.0
176
     1
 90
        8
176
     1
 62
   257
176
     1
 40
1.0
176
     1
 90
        1
176
     1
 90
        6
176
     1
 90
        2
176
     1
 62
     8
420
  7895160
176
     1
 90
        3
176
     1
 90
        0
176
     1
 90
        0
176
     1
290
     0
176
     1
 90
        5
176
     1
 40
0.0
176
     1
 90
        0
176
     1
290
     0
176
     1
290
     1
176
     1
290
     1
176
     1
290
     0
176
     1
290
     0
176
     1
290
     0
176
     1
290
     0
176
     1
290
     0
176
     1
290
     0
176
     1
 90
       50
176
     1
 40
0.0
176
     1
 40
1.0
176
     1
 90
        0
176
     1
 62
    18
420
        0
176
     1
 90
       50
176
     1
 90
        3
176
     1
 62
     5
420
      255
176
     1
290
     0
176
     1
 90
       50
176
     1
 90
       50
176
     1
 90
       50
176
     1
290
     0
176
     1
 90
       50
176
     1
 62
   256
176
     0
 40
1.0
176
     0
 90
        2
176
     1
  1
strokes_ogs.tif
176
     1
290
     0
176
     1
 40
1.0
176
     1
 40
1.0
176
     1
  0
VISUALSTYLE
  5
41
102
{ACAD_REACTORS
330
2A
102
}
330
2A
100
AcDbVisualStyle
  2
Shaded with edges
 70
    26
177
     3
291
     0
 70
    58
 90
        2
176
     1
 90
        2
176
     1
 90
        1
176
     1
 90
        2
176
     1
 40
0.6
176
     1
 40
30.0
176
     1
 62
     7
420
 16777215
176
     1
 90
        1
176
     1
 90
       10
176
     1
 62
     7
176
     1
 62
   257
176
     1
 90
        2
176
     1
 90
        1
176
     1
 40
1.0
176
     1
 90
        8
176
     1
 62
   257
176
     1
 40
1.0
176
     1
 90
        1
176
     1
 90
        6
176
     1
 90
        2
176
     1
 62
     7
176
     1
 90
        3
176
     1
 90
        0
176
     1
 90
        0
176
     1
290
     0
176
     1
 90
        5
176
     1
 40
0.0
176
     1
 90
        0
176
     1
290
     0
176
     1
290
     1
176
     1
290
     1
176
     1
290
     0
176
     1
290
     0
176
     1
290
     0
176
     1
290
     0
176
     1
290
     0
176
     1
290
     0
176
     1
 90
       50
176
     1
 40
0.0
176
     1
 40
1.0
176
     1
 90
        0
176
     1
 62
    18
420
        0
176
     1
 90
       50
176
     1
 90
        3
176
     1
 62
     5
420
      255
176
     1
290
     0
176
     1
 90
       50
176
     1
 90
       50
176
     1
 90
       50
176
     1
290
     0
176
     1
 90
       50
176
     1
 62
   256
176
     0
 40
1.0
176
     0
 90
        2
176
     1
  1
strokes_ogs.tif
176
     1
290
     0
176
     1
 40
1.0
176
     1
 40
1.0
176
     1
  0
VISUALSTYLE
  5
3E
102
{ACAD_REACTORS
330
2A
102
}
330
2A
100
AcDbVisualStyle
  2
Shades of Gray
 70
    23
177
     3
291
     0
 70
    58
 90
        2
176
     1
 90
        2
176
     1
 90
        3
176
     1
 90
        0
176
     1
 40
0.6
176
     1
 40
30.0
176
     1
 62
     7
420
 16777215
176
     1
 90
        2
176
     1
 90
        2
176
     1
 62
     7
176
     1
 62
     7
176
     1
 90
        1
176
     1
 90
        1
176
     1
 40
40.0
176
     1
 90
        8
176
     1
 62
     7
176
     1
 40
1.0
176
     1
 90
        1
176
     1
 90
        6
176
     1
 90
        2
176
     1
 62
     7
176
     1
 90
        3
176
     1
 90
        0
176
     1
 90
        0
176
     1
290
     0
176
     1
 90
        1
176
     1
 40
0.0
176
     1
 90
        0
176
     1
290
     0
176
     1
290
     1
176
     1
290
     1
176
     1
290
     0
176
     1
290
     0
176
     1
290
     0
176
     1
290
     0
176
     1
290
     0
176
     1
290
     0
176
     1
 90
       50
176
     1
 40
0.0
176
     1
 40
1.0
176
     1
 90
        0
176
     1
 62
    18
420
        0
176
     1
 90
       50
176
     1
 90
        3
176
     1
 62
     5
420
      255
176
     1
290
     0
176
     1
 90
       50
176
     1
 90
       50
176
     1
 90
       50
176
     1
290
     0
176
     1
 90
       50
176
     1
 62
   256
176
     0
 40
1.0
176
     0
 90
        2
176
     1
  1
strokes_ogs.tif
176
     1
290
     0
176
     1
 40
1.0
176
     1
 40
1.0
176
     1
  0
VISUALSTYLE
  5
3F
102
{ACAD_REACTORS
330
2A
102
}
330
2A
100
AcDbVisualStyle
  2
Sketchy
 70
    24
177
     3
291
     0
 70
    58
 90
        1
176
     1
 90
        2
176
     1
 90
        2
176
     1
 90
        0
176
     1
 40
0.6
176
     1
 40
30.0
176
     1
 62
     7
420
 16777215
176
     1
 90
        2
176
     1
 90
        2
176
     1
 62
     7
176
     1
 62
     7
176
     1
 90
        1
176
     1
 90
        1
176
     1
 40
40.0
176
     1
 90
       11
176
     1
 62
     7
176
     1
 40
1.0
176
     1
 90
        1
176
     1
 90
        6
176
     1
 90
        2
176
     1
 62
     7
176
     1
 90
        6
176
     1
 90
        0
176
     1
 90
        0
176
     1
290
     0
176
     1
 90
        1
176
     1
 40
0.0
176
     1
 90
        0
176
     1
290
     0
176
     1
290
     1
176
     1
290
     1
176
     1
290
     0
176
     1
290
     0
176
     1
290
     0
176
     1
290
     0
176
     1
290
     0
176
     1
290
     0
176
     1
 90
       50
176
     1
 40
0.0
176
     1
 40
1.0
176
     1
 90
        0
176
     1
 62
    18
420
        0
176
     1
 90
       50
176
     1
 90
        3
176
     1
 62
     5
420
      255
176
     1
290
     0
176
     1
 90
       50
176
     1
 90
       50
176
     1
 90
       50
176
     1
290
     0
176
     1
 90
       50
176
     1
 62
   256
176
     0
 40
1.0
176
     0
 90
        2
176
     1
  1
strokes_ogs.tif
176
     1
290
     0
176
     1
 40
1.0
176
     1
 40
1.0
176
     1
  0
VISUALSTYLE
  5
37
102
{ACAD_REACTORS
330
2A
102
}
330
2A
100
AcDbVisualStyle
  2
Thicken
 70
    13
177
     3
291
     1
 70
    58
 90
        2
176
     1
 90
        2
176
     1
 90
        0
176
     1
 90
        0
176
     1
 40
0.6
176
     1
 40
30.0
176
     1
 62
     7
420
 16777215
176
     1
 90
        1
176
     1
 90
        4
176
     1
 62
     7
176
     1
 62
   257
176
     1
 90
        1
176
     1
 90
        1
176
     1
 40
1.0
176
     1
 90
       12
176
     1
 62
     7
176
     1
 40
1.0
176
     1
 90
        1
176
     1
 90
        6
176
     1
 90
        2
176
     1
 62
     7
176
     1
 90
        5
176
     1
 90
        0
176
     1
 90
        0
176
     1
290
     0
176
     1
 90
        1
176
     1
 40
0.0
176
     1
 90
        0
176
     1
290
     0
176
     1
290
     1
176
     1
290
     1
176
     1
290
     0
176
     1
290
     0
176
     1
290
     0
176
     1
290
     0
176
     1
290
     0
176
     1
290
     0
176
     1
 90
       50
176
     1
 40
0.0
176
     1
 40
1.0
176
     1
 90
        0
176
     1
 62
    18
420
        0
176
     1
 90
       50
176
     1
 90
        3
176
     1
 62
     5
420
      255
176
     1
290
     0
176
     1
 90
       50
176
     1
 90
       50
176
     1
 90
       50
176
     1
290
     0
176
     1
 90
       50
176
     1
 62
   256
176
     0
 40
1.0
176
     0
 90
        2
176
     1
  1
strokes_ogs.tif
176
     1
290
     0
176
     1
 40
1.0
176
     1
 40
1.0
176
     1
  0
VISUALSTYLE
  5
30
102
{ACAD_REACTORS
330
2A
102
}
330
2A
100
AcDbVisualStyle
  2
Wireframe
 70
     5
177
     3
291
     0
 70
    58
 90
        0
176
     1
 90
        2
176
     1
 90
        0
176
     1
 90
        0
176
     1
 40
0.6
176
     1
 40
30.0
176
     1
 62
     7
420
 16777215
176
     1
 90
        1
176
     1
 90
        4
176
     1
 62
     7
176
     1
 62
   257
176
     1
 90
        1
176
     1
 90
        1
176
     1
 40
1.0
176
     1
 90
        0
176
     1
 62
   257
176
     1
 40
1.0
176
     1
 90
        1
176
     1
 90
        6
176
     1
 90
        2
176
     1
 62
     7
176
     1
 90
        3
176
     1
 90
        0
176
     1
 90
        0
176
     1
290
     0
176
     1
 90
        1
176
     1
 40
0.0
176
     1
 90
        0
176
     1
290
     0
176
     1
290
     1
176
     1
290
     1
176
     1
290
     0
176
     1
290
     0
176
     1
290
     0
176
     1
290
     0
176
     1
290
     0
176
     1
290
     0
176
     1
 90
       50
176
     1
 40
0.0
176
     1
 40
1.0
176
     1
 90
        0
176
     1
 62
    18
420
        0
176
     1
 90
       50
176
     1
 90
        3
176
     1
 62
     5
420
      255
176
     1
290
     0
176
     1
 90
       50
176
     1
 90
       50
176
     1
 90
       50
176
     1
290
     0
176
     1
 90
       50
176
     1
 62
   256
176
     0
 40
1.0
176
     0
 90
        2
176
     1
  1
strokes_ogs.tif
176
     1
290
     0
176
     1
 40
1.0
176
     1
 40
1.0
176
     1
  0
VISUALSTYLE
  5
40
102
{ACAD_REACTORS
330
2A
102
}
330
2A
100
AcDbVisualStyle
  2
X-Ray
 70
    25
177
     3
291
     0
 70
    58
 90
        2
176
     1
 90
        2
176
     1
 90
        1
176
     1
 90
        1
176
     1
 40
0.5
176
     1
 40
30.0
176
     1
 62
     7
420
 16777215
176
     1
 90
        1
176
     1
 90
        0
176
     1
 62
     7
176
     1
 62
   257
176
     1
 90
        1
176
     1
 90
        1
176
     1
 40
1.0
176
     1
 90
        8
176
     1
 62
     7
176
     1
 40
1.0
176
     1
 90
        1
176
     1
 90
        6
176
     1
 90
        2
176
     1
 62
     7
176
     1
 90
        3
176
     1
 90
        0
176
     1
 90
        0
176
     1
290
     0
176
     1
 90
       13
176
     1
 40
0.0
176
     1
 90
        0
176
     1
290
     0
176
     1
290
     1
176
     1
290
     1
176
     1
290
     0
176
     1
290
     0
176
     1
290
     0
176
     1
290
     0
176
     1
290
     0
176
     1
290
     0
176
     1
 90
       50
176
     1
 40
0.0
176
     1
 40
1.0
176
     1
 90
        0
176
     1
 62
    18
420
        0
176
     1
 90
       50
176
     1
 90
        3
176
     1
 62
     5
420
      255
176
     1
290
     0
176
     1
 90
       50
176
     1
 90
       50
176
     1
 90
       50
176
     1
290
     0
176
     1
 90
       50
176
     1
 62
   256
176
     0
 40
1.0
176
     0
 90
        2
176
     1
  1
strokes_ogs.tif
176
     1
290
     0
176
     1
 40
1.0
176
     1
 40
1.0
176
     1
  0
DICTIONARYVAR
  5
90
102
{ACAD_REACTORS
330
8F
102
}
330
8F
100
DictionaryVariables
280
     0
  1
1:1
  0
DICTIONARYVAR
  5
98
102
{ACAD_REACTORS
330
8F
102
}
330
8F
100
DictionaryVariables
280
     0
  1
3.500000
  0
DICTIONARYVAR
  5
99
102
{ACAD_REACTORS
330
8F
102
}
330
8F
100
DictionaryVariables
280
     0
  1
acadiso.lin
  0
DICTIONARYVAR
  5
95
102
{ACAD_REACTORS
330
8F
102
}
330
8F
100
DictionaryVariables
280
     0
  1
Standard
  0
DICTIONARYVAR
  5
94
102
{ACAD_REACTORS
330
8F
102
}
330
8F
100
DictionaryVariables
280
     0
  1
Standard
  0
DICTIONARY
  5
91
330
5A
100
AcDbDictionary
280
     1
281
     1
  3
ACAD_ROUNDTRIP_2008_TABLESTYLE_CELLSTYLEMAP
360
92
  0
CELLSTYLEMAP
  5
92
102
{ACAD_REACTORS
330
91
102
}
330
91
100
AcDbCellStyleMap
 90
        3
300
CELLSTYLE
  1
TABLEFORMAT_BEGIN
 90
        5
170
     1
 91
        0
 92
    32768
 62
   257
 93
        1
300
CONTENTFORMAT
  1
CONTENTFORMAT_BEGIN
 90
        0
 91
        0
 92
        4
 93
        0
300

 40
0.0
140
1.0
 94
        5
 62
     0
340
11
144
6.0
309
CONTENTFORMAT_END
171
     1
301
MARGIN
  1
CELLMARGIN_BEGIN
 40
1.5
 40
1.5
 40
1.5
 40
1.5
 40
1.5
 40
1.5
309
CELLMARGIN_END
 94
        6
 95
        1
302
GRIDFORMAT
  1
GRIDFORMAT_BEGIN
 90
        0
 91
        1
 62
     0
 92
       -2
340
14
 93
        0
 40
0.045
309
GRIDFORMAT_END
 95
        2
302
GRIDFORMAT
  1
GRIDFORMAT_BEGIN
 90
        0
 91
        1
 62
     0
 92
       -2
340
14
 93
        0
 40
0.045
309
GRIDFORMAT_END
 95
        4
302
GRIDFORMAT
  1
GRIDFORMAT_BEGIN
 90
        0
 91
        1
 62
     0
 92
       -2
340
14
 93
        0
 40
0.045
309
GRIDFORMAT_END
 95
        8
302
GRIDFORMAT
  1
GRIDFORMAT_BEGIN
 90
        0
 91
        1
 62
     0
 92
       -2
340
14
 93
        0
 40
0.045
309
GRIDFORMAT_END
 95
       16
302
GRIDFORMAT
  1
GRIDFORMAT_BEGIN
 90
        0
 91
        1
 62
     0
 92
       -2
340
14
 93
        0
 40
0.045
309
GRIDFORMAT_END
 95
       32
302
GRIDFORMAT
  1
GRIDFORMAT_BEGIN
 90
        0
 91
        1
 62
     0
 92
       -2
340
14
 93
        0
 40
0.045
309
GRIDFORMAT_END
309
TABLEFORMAT_END
  1
CELLSTYLE_BEGIN
 90
        1
 91
        1
300
_TITLE
309
CELLSTYLE_END
300
CELLSTYLE
  1
TABLEFORMAT_BEGIN
 90
        5
170
     1
 91
        0
 92
        0
 62
   257
 93
        1
300
CONTENTFORMAT
  1
CONTENTFORMAT_BEGIN
 90
        0
 91
        0
 92
        4
 93
        0
300

 40
0.0
140
1.0
 94
        5
 62
     0
340
11
144
4.5
309
CONTENTFORMAT_END
171
     1
301
MARGIN
  1
CELLMARGIN_BEGIN
 40
1.5
 40
1.5
 40
1.5
 40
1.5
 40
1.5
 40
1.5
309
CELLMARGIN_END
 94
        6
 95
        1
302
GRIDFORMAT
  1
GRIDFORMAT_BEGIN
 90
        0
 91
        1
 62
     0
 92
       -2
340
14
 93
        0
 40
0.045
309
GRIDFORMAT_END
 95
        2
302
GRIDFORMAT
  1
GRIDFORMAT_BEGIN
 90
        0
 91
        1
 62
     0
 92
       -2
340
14
 93
        0
 40
0.045
309
GRIDFORMAT_END
 95
        4
302
GRIDFORMAT
  1
GRIDFORMAT_BEGIN
 90
        0
 91
        1
 62
     0
 92
       -2
340
14
 93
        0
 40
0.045
309
GRIDFORMAT_END
 95
        8
302
GRIDFORMAT
  1
GRIDFORMAT_BEGIN
 90
        0
 91
        1
 62
     0
 92
       -2
340
14
 93
        0
 40
0.045
309
GRIDFORMAT_END
 95
       16
302
GRIDFORMAT
  1
GRIDFORMAT_BEGIN
 90
        0
 91
        1
 62
     0
 92
       -2
340
14
 93
        0
 40
0.045
309
GRIDFORMAT_END
 95
       32
302
GRIDFORMAT
  1
GRIDFORMAT_BEGIN
 90
        0
 91
        1
 62
     0
 92
       -2
340
14
 93
        0
 40
0.045
309
GRIDFORMAT_END
309
TABLEFORMAT_END
  1
CELLSTYLE_BEGIN
 90
        2
 91
        1
300
_HEADER
309
CELLSTYLE_END
300
CELLSTYLE
  1
TABLEFORMAT_BEGIN
 90
        5
170
     1
 91
        0
 92
        0
 62
   257
 93
        1
300
CONTENTFORMAT
  1
CONTENTFORMAT_BEGIN
 90
        0
 91
        0
 92
        4
 93
        0
300

 40
0.0
140
1.0
 94
        2
 62
     0
340
11
144
4.5
309
CONTENTFORMAT_END
171
     1
301
MARGIN
  1
CELLMARGIN_BEGIN
 40
1.5
 40
1.5
 40
1.5
 40
1.5
 40
1.5
 40
1.5
309
CELLMARGIN_END
 94
        6
 95
        1
302
GRIDFORMAT
  1
GRIDFORMAT_BEGIN
 90
        0
 91
        1
 62
     0
 92
       -2
340
14
 93
        0
 40
0.045
309
GRIDFORMAT_END
 95
        2
302
GRIDFORMAT
  1
GRIDFORMAT_BEGIN
 90
        0
 91
        1
 62
     0
 92
       -2
340
14
 93
        0
 40
0.045
309
GRIDFORMAT_END
 95
        4
302
GRIDFORMAT
  1
GRIDFORMAT_BEGIN
 90
        0
 91
        1
 62
     0
 92
       -2
340
14
 93
        0
 40
0.045
309
GRIDFORMAT_END
 95
        8
302
GRIDFORMAT
  1
GRIDFORMAT_BEGIN
 90
        0
 91
        1
 62
     0
 92
       -2
340
14
 93
        0
 40
0.045
309
GRIDFORMAT_END
 95
       16
302
GRIDFORMAT
  1
GRIDFORMAT_BEGIN
 90
        0
 91
        1
 62
     0
 92
       -2
340
14
 93
        0
 40
0.045
309
GRIDFORMAT_END
 95
       32
302
GRIDFORMAT
  1
GRIDFORMAT_BEGIN
 90
        0
 91
        1
 62
     0
 92
       -2
340
14
 93
        0
 40
0.045
309
GRIDFORMAT_END
309
TABLEFORMAT_END
  1
CELLSTYLE_BEGIN
 90
        3
 91
        2
300
_DATA
309
CELLSTYLE_END
  0
ENDSEC
  0
EOF
