  0
SECTION
  2
HEADER
  9
$ACADVER
  1
AC1027
  9
$ACADMAINTVER
 70
   105
  9
$DWGCODEPAGE
  3
ANSI_932
  9
$LASTSAVEDBY
  1
a.yasuda
  9
$REQUIREDVERSIONS
160
                 0
  9
$INSBASE
 10
0.0
 20
0.0
 30
0.0
  9
$EXTMIN
 10
0.0
 20
0.0
 30
0.0
  9
$EXTMAX
 10
302.9997823349792
 20
216.0016055409748
 30
0.0
  9
$LIMMIN
 10
0.0
 20
0.0
  9
$LIMMAX
 10
302.9997823349792
 20
216.0016055409748
  9
$ORTHOMODE
 70
     0
  9
$REGENMODE
 70
     1
  9
$FILLMODE
 70
     1
  9
$QTEXTMODE
 70
     0
  9
$MIRRTEXT
 70
     1
  9
$LTSCALE
 40
1.0
  9
$ATTMODE
 70
     1
  9
$TEXTSIZE
 40
2.5
  9
$TRACEWID
 40
1.0
  9
$TEXTSTYLE
  7
Standard
  9
$CLAYER
  8
0
  9
$CELTYPE
  6
ByLayer
  9
$CECOLOR
 62
   256
  9
$CELTSCALE
 40
1.0
  9
$DISPSILH
 70
     0
  9
$DIMSCALE
 40
1.0
  9
$DIMASZ
 40
2.5
  9
$DIMEXO
 40
0.625
  9
$DIMDLI
 40
3.75
  9
$DIMRND
 40
0.0
  9
$DIMDLE
 40
0.0
  9
$DIMEXE
 40
1.25
  9
$DIMTP
 40
0.0
  9
$DIMTM
 40
0.0
  9
$DIMTXT
 40
2.5
  9
$DIMCEN
 40
2.5
  9
$DIMTSZ
 40
0.0
  9
$DIMTOL
 70
     0
  9
$DIMLIM
 70
     0
  9
$DIMTIH
 70
     0
  9
$DIMTOH
 70
     0
  9
$DIMSE1
 70
     0
  9
$DIMSE2
 70
     0
  9
$DIMTAD
 70
     1
  9
$DIMZIN
 70
     8
  9
$DIMBLK
  1

  9
$DIMASO
 70
     1
  9
$DIMSHO
 70
     1
  9
$DIMPOST
  1

  9
$DIMAPOST
  1

  9
$DIMALT
 70
     0
  9
$DIMALTD
 70
     3
  9
$DIMALTF
 40
0.03937007874016
  9
$DIMLFAC
 40
1.0
  9
$DIMTOFL
 70
     1
  9
$DIMTVP
 40
0.0
  9
$DIMTIX
 70
     0
  9
$DIMSOXD
 70
     0
  9
$DIMSAH
 70
     0
  9
$DIMBLK1
  1

  9
$DIMBLK2
  1

  9
$DIMSTYLE
  2
ISO-25
  9
$DIMCLRD
 70
     0
  9
$DIMCLRE
 70
     0
  9
$DIMCLRT
 70
     0
  9
$DIMTFAC
 40
1.0
  9
$DIMGAP
 40
0.625
  9
$DIMJUST
 70
     0
  9
$DIMSD1
 70
     0
  9
$DIMSD2
 70
     0
  9
$DIMTOLJ
 70
     0
  9
$DIMTZIN
 70
     8
  9
$DIMALTZ
 70
     0
  9
$DIMALTTZ
 70
     0
  9
$DIMUPT
 70
     0
  9
$DIMDEC
 70
     2
  9
$DIMTDEC
 70
     2
  9
$DIMALTU
 70
     2
  9
$DIMALTTD
 70
     3
  9
$DIMTXSTY
  7
Standard
  9
$DIMAUNIT
 70
     0
  9
$DIMADEC
 70
     0
  9
$DIMALTRND
 40
0.0
  9
$DIMAZIN
 70
     0
  9
$DIMDSEP
 70
    44
  9
$DIMATFIT
 70
     3
  9
$DIMFRAC
 70
     0
  9
$DIMLDRBLK
  1

  9
$DIMLUNIT
 70
     2
  9
$DIMLWD
 70
    -2
  9
$DIMLWE
 70
    -2
  9
$DIMTMOVE
 70
     0
  9
$DIMFXL
 40
1.0
  9
$DIMFXLON
 70
     0
  9
$DIMJOGANG
 40
0.7853981633974483
  9
$DIMTFILL
 70
     0
  9
$DIMTFILLCLR
 70
     0
  9
$DIMARCSYM
 70
     0
  9
$DIMLTYPE
  6

  9
$DIMLTEX1
  6

  9
$DIMLTEX2
  6

  9
$DIMTXTDIRECTION
 70
     0
  9
$LUNITS
 70
     2
  9
$LUPREC
 70
     4
  9
$SKETCHINC
 40
1.0
  9
$FILLETRAD
 40
0.0
  9
$AUNITS
 70
     0
  9
$AUPREC
 70
     0
  9
$MENU
  1
.
  9
$ELEVATION
 40
0.0
  9
$PELEVATION
 40
0.0
  9
$THICKNESS
 40
0.0
  9
$LIMCHECK
 70
     0
  9
$CHAMFERA
 40
0.0
  9
$CHAMFERB
 40
0.0
  9
$CHAMFERC
 40
0.0
  9
$CHAMFERD
 40
0.0
  9
$SKPOLY
 70
     0
  9
$TDCREATE
 40
2459866.620515127
  9
$TDUCREATE
 40
2459866.245515127
  9
$TDUPDATE
 40
2459866.620515174
  9
$TDUUPDATE
 40
2459866.245515174
  9
$TDINDWG
 40
0.0000000116
  9
$TDUSRTIMER
 40
0.0000000116
  9
$USRTIMER
 70
     1
  9
$ANGBASE
 50
0.0
  9
$ANGDIR
 70
     0
  9
$PDMODE
 70
     0
  9
$PDSIZE
 40
0.0
  9
$PLINEWID
 40
0.0
  9
$SPLFRAME
 70
     0
  9
$SPLINETYPE
 70
     6
  9
$SPLINESEGS
 70
     8
  9
$HANDSEED
  5
A2
  9
$SURFTAB1
 70
     6
  9
$SURFTAB2
 70
     6
  9
$SURFTYPE
 70
     6
  9
$SURFU
 70
     6
  9
$SURFV
 70
     6
  9
$UCSBASE
  2

  9
$UCSNAME
  2

  9
$UCSORG
 10
0.0
 20
0.0
 30
0.0
  9
$UCSXDIR
 10
1.0
 20
0.0
 30
0.0
  9
$UCSYDIR
 10
0.0
 20
1.0
 30
0.0
  9
$UCSORTHOREF
  2

  9
$UCSORTHOVIEW
 70
     0
  9
$UCSORGTOP
 10
0.0
 20
0.0
 30
0.0
  9
$UCSORGBOTTOM
 10
0.0
 20
0.0
 30
0.0
  9
$UCSORGLEFT
 10
0.0
 20
0.0
 30
0.0
  9
$UCSORGRIGHT
 10
0.0
 20
0.0
 30
0.0
  9
$UCSORGFRONT
 10
0.0
 20
0.0
 30
0.0
  9
$UCSORGBACK
 10
0.0
 20
0.0
 30
0.0
  9
$PUCSBASE
  2

  9
$PUCSNAME
  2

  9
$PUCSORG
 10
0.0
 20
0.0
 30
0.0
  9
$PUCSXDIR
 10
1.0
 20
0.0
 30
0.0
  9
$PUCSYDIR
 10
0.0
 20
1.0
 30
0.0
  9
$PUCSORTHOREF
  2

  9
$PUCSORTHOVIEW
 70
     0
  9
$PUCSORGTOP
 10
0.0
 20
0.0
 30
0.0
  9
$PUCSORGBOTTOM
 10
0.0
 20
0.0
 30
0.0
  9
$PUCSORGLEFT
 10
0.0
 20
0.0
 30
0.0
  9
$PUCSORGRIGHT
 10
0.0
 20
0.0
 30
0.0
  9
$PUCSORGFRONT
 10
0.0
 20
0.0
 30
0.0
  9
$PUCSORGBACK
 10
0.0
 20
0.0
 30
0.0
  9
$USERI1
 70
     0
  9
$USERI2
 70
     0
  9
$USERI3
 70
     0
  9
$USERI4
 70
     0
  9
$USERI5
 70
     0
  9
$USERR1
 40
0.0
  9
$USERR2
 40
0.0
  9
$USERR3
 40
0.0
  9
$USERR4
 40
0.0
  9
$USERR5
 40
0.0
  9
$WORLDVIEW
 70
     1
  9
$SHADEDGE
 70
     3
  9
$SHADEDIF
 70
    70
  9
$TILEMODE
 70
     1
  9
$MAXACTVP
 70
    64
  9
$PINSBASE
 10
0.0
 20
0.0
 30
0.0
  9
$PLIMCHECK
 70
     0
  9
$PEXTMIN
 10
1.000000000000000E+20
 20
1.000000000000000E+20
 30
1.000000000000000E+20
  9
$PEXTMAX
 10
-1.000000000000000E+20
 20
-1.000000000000000E+20
 30
-1.000000000000000E+20
  9
$PLIMMIN
 10
0.0
 20
0.0
  9
$PLIMMAX
 10
420.0
 20
297.0
  9
$UNITMODE
 70
     0
  9
$VISRETAIN
 70
     1
  9
$PLINEGEN
 70
     0
  9
$PSLTSCALE
 70
     1
  9
$TREEDEPTH
 70
  3020
  9
$CMLSTYLE
  2
Standard
  9
$CMLJUST
 70
     0
  9
$CMLSCALE
 40
20.0
  9
$PROXYGRAPHICS
 70
     1
  9
$MEASUREMENT
 70
     1
  9
$CELWEIGHT
370
    -1
  9
$ENDCAPS
280
     0
  9
$JOINSTYLE
280
     0
  9
$LWDISPLAY
290
     0
  9
$INSUNITS
 70
     4
  9
$HYPERLINKBASE
  1

  9
$STYLESHEET
  1

  9
$XEDIT
290
     1
  9
$CEPSNTYPE
380
     0
  9
$PSTYLEMODE
290
     1
  9
$FINGERPRINTGUID
  2
{d7aa684a-9589-4cf3-bc6d-27ae613a8897}
  9
$VERSIONGUID
  2
{FAEB1C32-E019-11D5-929B-00C0DF256EC4}
  9
$EXTNAMES
290
     1
  9
$PSVPSCALE
 40
0.0
  9
$OLESTARTUP
290
     0
  9
$SORTENTS
280
   127
  9
$INDEXCTL
280
     0
  9
$HIDETEXT
280
     1
  9
$XCLIPFRAME
280
     2
  9
$HALOGAP
280
     0
  9
$OBSCOLOR
 70
   257
  9
$OBSLTYPE
280
     0
  9
$INTERSECTIONDISPLAY
280
     0
  9
$INTERSECTIONCOLOR
 70
   257
  9
$DIMASSOC
280
     2
  9
$PROJECTNAME
  1

  9
$CAMERADISPLAY
290
     0
  9
$LENSLENGTH
 40
50.0
  9
$CAMERAHEIGHT
 40
0.0
  9
$STEPSPERSEC
 40
2.0
  9
$STEPSIZE
 40
6.0
  9
$3DDWFPREC
 40
2.0
  9
$PSOLWIDTH
 40
5.0
  9
$PSOLHEIGHT
 40
80.0
  9
$LOFTANG1
 40
1.570796326794897
  9
$LOFTANG2
 40
1.570796326794897
  9
$LOFTMAG1
 40
0.0
  9
$LOFTMAG2
 40
0.0
  9
$LOFTPARAM
 70
     7
  9
$LOFTNORMALS
280
     1
  9
$LATITUDE
 40
37.795
  9
$LONGITUDE
 40
-122.394
  9
$NORTHDIRECTION
 40
0.0
  9
$TIMEZONE
 70
 -8000
  9
$LIGHTGLYPHDISPLAY
280
     1
  9
$TILEMODELIGHTSYNCH
280
     1
  9
$CMATERIAL
347
44
  9
$SOLIDHIST
280
     0
  9
$SHOWHIST
280
     1
  9
$DWFFRAME
280
     2
  9
$DGNFRAME
280
     2
  9
$REALWORLDSCALE
290
     1
  9
$INTERFERECOLOR
 62
   256
  9
$CSHADOW
280
     0
  9
$SHADOWPLANELOCATION
 40
0.0
  0
ENDSEC
  0
SECTION
  2
CLASSES
  0
CLASS
  1
ACDBDICTIONARYWDFLT
  2
AcDbDictionaryWithDefault
  3
ObjectDBX Classes
 90
        0
 91
        3
280
     0
281
     0
  0
CLASS
  1
VISUALSTYLE
  2
AcDbVisualStyle
  3
ObjectDBX Classes
 90
     4095
 91
        3
280
     0
281
     0
  0
CLASS
  1
MATERIAL
  2
AcDbMaterial
  3
ObjectDBX Classes
 90
     1153
 91
        3
280
     0
281
     0
  0
CLASS
  1
SCALE
  2
AcDbScale
  3
ObjectDBX Classes
 90
     1153
 91
        3
280
     0
281
     0
  0
CLASS
  1
TABLESTYLE
  2
AcDbTableStyle
  3
ObjectDBX Classes
 90
     4095
 91
        3
280
     0
281
     0
  0
CLASS
  1
MLEADERSTYLE
  2
AcDbMLeaderStyle
  3
ACDB_MLEADERSTYLE_CLASS
 90
     4095
 91
        3
280
     0
281
     0
  0
CLASS
  1
SUN
  2
AcDbSun
  3
SCENEOE
 90
     1153
 91
        3
280
     0
281
     0
  0
CLASS
  1
DICTIONARYVAR
  2
AcDbDictionaryVar
  3
ObjectDBX Classes
 90
        0
 91
        3
280
     0
281
     0
  0
CLASS
  1
CELLSTYLEMAP
  2
AcDbCellStyleMap
  3
ObjectDBX Classes
 90
     1152
 91
        3
280
     0
281
     0
  0
ENDSEC
  0
SECTION
  2
TABLES
  0
TABLE
  2
VPORT
  5
8
330
0
100
AcDbSymbolTable
 70
     1
  0
VPORT
  5
29
330
8
100
AcDbSymbolTableRecord
100
AcDbViewportTableRecord
  2
*Active
 70
     0
 10
0.0
 20
0.0
 11
1.0
 21
1.0
 12
151.4998911674896
 22
108.0008027704874
 13
0.0
 23
0.0
 14
10.0
 24
10.0
 15
10.0
 25
10.0
 16
0.0
 26
0.0
 36
1.0
 17
0.0
 27
0.0
 37
0.0
 40
237.6017660950723
 41
1.402766343222857
 42
50.0
 43
0.0
 44
0.0
 50
0.0
 51
0.0
 71
     0
 72
 10000
 73
     1
 74
     3
 75
     0
 76
     0
 77
     0
 78
     0
281
     0
 65
     1
110
0.0
120
0.0
130
0.0
111
1.0
121
0.0
131
0.0
112
0.0
122
1.0
132
0.0
 79
     0
146
0.0
348
2F
 60
     3
 61
     5
292
     1
282
     1
141
0.0
142
0.0
 63
   250
361
5D
  0
ENDTAB
  0
TABLE
  2
LTYPE
  5
5
330
0
100
AcDbSymbolTable
 70
     2
  0
LTYPE
  5
14
330
5
100
AcDbSymbolTableRecord
100
AcDbLinetypeTableRecord
  2
ByBlock
 70
     0
  3

 72
    65
 73
     0
 40
0.0
  0
LTYPE
  5
15
330
5
100
AcDbSymbolTableRecord
100
AcDbLinetypeTableRecord
  2
ByLayer
 70
     0
  3

 72
    65
 73
     0
 40
0.0
  0
LTYPE
  5
16
330
5
100
AcDbSymbolTableRecord
100
AcDbLinetypeTableRecord
  2
Continuous
 70
     0
  3
Solid line
 72
    65
 73
     0
 40
0.0
  0
LTYPE
  5
5F
330
5
100
AcDbSymbolTableRecord
100
AcDbLinetypeTableRecord
  2
UserDefined01
 70
     0
  3
----------------                
 72
    65
 73
     2
 40
0.7055555449591743
 49
0.3527777724795871
 74
     0
 49
-0.3527777724795871
 74
     0
  0
ENDTAB
  0
TABLE
  2
LAYER
  5
2
330
0
100
AcDbSymbolTable
 70
     3
  0
LAYER
  5
10
330
2
100
AcDbSymbolTableRecord
100
AcDbLayerTableRecord
  2
0
 70
     0
 62
     7
  6
Continuous
370
    -3
390
F
347
46
348
0
  0
LAYER
  5
60
330
2
100
AcDbSymbolTableRecord
100
AcDbLayerTableRecord
  2
外枠
 70
     0
 62
     7
  6
Continuous
370
    -3
390
F
347
46
348
0
  0
LAYER
  5
61
330
2
100
AcDbSymbolTableRecord
100
AcDbLayerTableRecord
  2
ISS138金台
 70
     0
 62
     7
  6
Continuous
370
    -3
390
F
347
46
348
0
  0
ENDTAB
  0
TABLE
  2
STYLE
  5
3
330
0
100
AcDbSymbolTable
 70
     2
  0
STYLE
  5
11
330
3
100
AcDbSymbolTableRecord
100
AcDbTextStyleTableRecord
  2
Standard
 70
     0
 40
0.0
 41
1.0
 50
0.0
 71
     0
 42
2.5
  3

  4

  0
STYLE
  5
5E
330
3
100
AcDbSymbolTableRecord
100
AcDbTextStyleTableRecord
  2
MS Gothic
 70
     0
 40
1.0
 41
1.0
 50
0.0
 71
     0
 42
2.5
  3
msgothic.ttc
  4

1001
ACAD
1000
MS Gothic
1071
    32817
  0
ENDTAB
  0
TABLE
  2
VIEW
  5
6
330
0
100
AcDbSymbolTable
 70
     0
  0
ENDTAB
  0
TABLE
  2
UCS
  5
7
330
0
100
AcDbSymbolTable
 70
     0
  0
ENDTAB
  0
TABLE
  2
APPID
  5
9
330
0
100
AcDbSymbolTable
 70
     1
  0
APPID
  5
12
330
9
100
AcDbSymbolTableRecord
100
AcDbRegAppTableRecord
  2
ACAD
 70
     0
  0
ENDTAB
  0
TABLE
  2
DIMSTYLE
  5
A
330
0
100
AcDbSymbolTable
 70
     1
100
AcDbDimStyleTable
  0
DIMSTYLE
105
27
330
A
100
AcDbSymbolTableRecord
100
AcDbDimStyleTableRecord
  2
ISO-25
 70
     0
 41
2.5
 42
0.625
 43
3.75
 44
1.25
 73
     0
 74
     0
 77
     1
 78
     8
140
2.5
141
2.5
143
0.03937007874016
147
0.625
171
     3
172
     1
178
     0
271
     2
272
     2
274
     3
278
    44
283
     0
284
     8
340
11
  0
ENDTAB
  0
TABLE
  2
BLOCK_RECORD
  5
1
330
0
100
AcDbSymbolTable
 70
     1
  0
BLOCK_RECORD
  5
1F
330
1
100
AcDbSymbolTableRecord
100
AcDbBlockTableRecord
  2
*Model_Space
340
22
 70
     0
280
     1
281
     0
  0
BLOCK_RECORD
  5
1B
330
1
100
AcDbSymbolTableRecord
100
AcDbBlockTableRecord
  2
*Paper_Space
340
1E
 70
     0
280
     1
281
     0
  0
BLOCK_RECORD
  5
23
330
1
100
AcDbSymbolTableRecord
100
AcDbBlockTableRecord
  2
*Paper_Space0
340
26
 70
     0
280
     1
281
     0
  0
ENDTAB
  0
ENDSEC
  0
SECTION
  2
BLOCKS
  0
BLOCK
  5
20
330
1F
100
AcDbEntity
  8
0
100
AcDbBlockBegin
  2
*Model_Space
 70
     0
 10
0.0
 20
0.0
 30
0.0
  3
*Model_Space
  1

  0
ENDBLK
  5
21
330
1F
100
AcDbEntity
  8
0
100
AcDbBlockEnd
  0
BLOCK
  5
1C
330
1B
100
AcDbEntity
 67
     1
  8
0
100
AcDbBlockBegin
  2
*Paper_Space
 70
     0
 10
0.0
 20
0.0
 30
0.0
  3
*Paper_Space
  1

  0
ENDBLK
  5
1D
330
1B
100
AcDbEntity
 67
     1
  8
0
100
AcDbBlockEnd
  0
BLOCK
  5
24
330
23
100
AcDbEntity
  8
0
100
AcDbBlockBegin
  2
*Paper_Space0
 70
     0
 10
0.0
 20
0.0
 30
0.0
  3
*Paper_Space0
  1

  0
ENDBLK
  5
25
330
23
100
AcDbEntity
  8
0
100
AcDbBlockEnd
  0
ENDSEC
  0
SECTION
  2
ENTITIES
  0
LWPOLYLINE
  5
62
330
1F
100
AcDbEntity
  8
外枠
  6
Continuous
 62
   250
420
  2367521
370
   100
100
AcDbPolyline
 90
        5
 70
     0
 43
0.0
 10
281.9999662644599
 20
13.29407825637392
 10
20.99981607051935
 20
13.29407825637392
 10
20.99981607051935
 20
193.0018900389566
 10
281.9999662644599
 20
193.0018900389566
 10
281.9999662644599
 20
13.29407825637392
  0
LINE
  5
63
330
1F
100
AcDbEntity
  8
外枠
  6
Continuous
 62
   250
420
  2367521
370
    25
100
AcDbLine
 10
223.3097080177524
 20
174.0786160074276
 30
0.0
 11
281.9999232007669
 21
174.0786160074276
 31
0.0
  0
LINE
  5
64
330
1F
100
AcDbEntity
  8
外枠
  6
Continuous
 62
   250
420
  2367521
370
    25
100
AcDbLine
 10
223.3097080177524
 20
50.37109023844297
 30
0.0
 11
281.9999232007669
 21
50.37109023844297
 31
0.0
  0
LINE
  5
65
330
1F
100
AcDbEntity
  8
外枠
  6
Continuous
 62
   250
420
  2367521
370
    25
100
AcDbLine
 10
223.3097080177524
 20
36.25997933925949
 30
0.0
 11
281.9999232007669
 21
36.25997933925949
 31
0.0
  0
LINE
  5
66
330
1F
100
AcDbEntity
  8
外枠
  6
Continuous
 62
   250
420
  2367521
370
    50
100
AcDbLine
 10
223.0158413772006
 20
193.3637327187979
 30
0.0
 11
223.0158413772006
 21
13.29396655992039
 31
0.0
  0
TEXT
  5
67
330
1F
100
AcDbEntity
  8
外枠
  6
Continuous
 62
   250
420
  2367521
100
AcDbText
 10
224.7190965599536
 20
186.6888051931772
 30
0.0
 40
2.688166626294454
  1
品名：
 41
0.974166170756022
  7
MS Gothic
100
AcDbText
  0
TEXT
  5
68
330
1F
100
AcDbEntity
  8
外枠
  6
Continuous
 62
   250
420
  2367521
100
AcDbText
 10
224.7190965599536
 20
168.1080059455944
 30
0.0
 40
2.688166626294454
  1
仕様：
 41
0.9978878657023111
  7
MS Gothic
100
AcDbText
  0
TEXT
  5
69
330
1F
100
AcDbEntity
  8
外枠
  6
Continuous
 62
   250
420
  2367521
100
AcDbText
 10
224.7190965599536
 20
44.16660664327048
 30
0.0
 40
2.688166626294454
  1
縮尺：
 41
0.9939999262491861
  7
MS Gothic
100
AcDbText
  0
TEXT
  5
6A
330
1F
100
AcDbEntity
  8
外枠
  6
Continuous
 62
   250
420
  2367521
100
AcDbText
 10
250.2379519709696
 20
40.59738467878129
 30
0.0
 40
2.150533301035563
  1
1/1
 41
1.000003814697266
  7
MS Gothic
100
AcDbText
  0
TEXT
  5
6B
330
1F
100
AcDbEntity
  8
外枠
  6
Continuous
 62
   250
420
  2367521
100
AcDbText
 10
232.7757967427735
 20
181.9845273775436
 30
0.0
 40
2.688166626294454
  1
スロープバー　XA-2(S)
 41
1.001240466889881
  7
MS Gothic
100
AcDbText
  0
TEXT
  5
6C
330
1F
100
AcDbEntity
  8
外枠
  6
Continuous
 62
   250
420
  2367521
100
AcDbText
 10
226.1633020978884
 20
24.25683874973963
 30
0.0
 40
2.553758294979732
  1
ヤスダインテリアサプライ株式会社
 41
1.0194908945184
  7
MS Gothic
100
AcDbText
  0
TEXT
  5
6D
330
1F
100
AcDbEntity
  8
外枠
  6
Continuous
 62
   250
420
  2367521
100
AcDbText
 10
227.7635273953072
 20
161.7763665048245
 30
0.0
 40
2.150533301035563
  1
材質
 41
1.028502464294433
  7
MS Gothic
100
AcDbText
  0
TEXT
  5
6E
330
1F
100
AcDbEntity
  8
外枠
  6
Continuous
 62
   250
420
  2367521
100
AcDbText
 10
232.7757967427735
 20
156.199681315683
 30
0.0
 40
2.016124969720841
  1
アルミ押出形材（A6063S-T5）/
 41
1.030580357142857
  7
MS Gothic
100
AcDbText
  0
TEXT
  5
6F
330
1F
100
AcDbEntity
  8
外枠
  6
Continuous
 62
   250
420
  2367521
100
AcDbText
 10
232.7757967427735
 20
151.9663480459279
 30
0.0
 40
2.016124969720841
  1
シルバー仕上（アルマイト）
 41
1.002858636318109
  7
MS Gothic
100
AcDbText
  0
HATCH
  5
70
330
1F
100
AcDbEntity
  8
ISS138金台
  6
Continuous
 62
     7
420
 16777215
370
    50
100
AcDbHatch
 10
0.0
 20
0.0
 30
0.0
210
0.0
220
0.0
230
1.0
  2
SOLID
 70
     1
 71
     0
 91
        1
 92
        3
 72
     0
 73
     1
 93
        8
 10
125.8572491711473
 20
103.6405392658223
 10
125.5559755754115
 20
103.8409146290239
 10
125.2592882629728
 20
103.6405392658223
 10
112.563519461538
 20
103.6405392658223
 10
112.5712816921886
 20
105.9918061338572
 10
120.5451165638887
 20
109.6405820698621
 10
130.5551858579969
 20
109.6405820698621
 10
130.5551858579969
 20
103.6405392658223
 97
        0
 75
     1
 76
     1
 98
        0
  0
LWPOLYLINE
  5
71
330
1F
100
AcDbEntity
  8
ISS138金台
  6
Continuous
 62
     7
420
 16777215
370
    50
100
AcDbPolyline
 90
        9
 70
     0
 43
0.0
 10
125.8572491711473
 20
103.6405392658223
 10
125.5559755754115
 20
103.8409146290239
 10
125.2592882629728
 20
103.6405392658223
 10
112.563519461538
 20
103.6405392658223
 10
112.5712816921886
 20
105.9918061338572
 10
120.5451165638887
 20
109.6405820698621
 10
130.5551858579969
 20
109.6405820698621
 10
130.5551858579969
 20
103.6405392658223
 10
125.8572491711473
 20
103.6405392658223
  0
LWPOLYLINE
  5
72
330
1F
100
AcDbEntity
  8
ISS138金台
  6
Continuous
 62
   250
420
  2367521
370
    25
100
AcDbPolyline
 90
        9
 70
     0
 43
0.0
 10
125.8572491711473
 20
103.6405392658223
 10
125.5559755754115
 20
103.8409146290239
 10
125.2592882629728
 20
103.6405392658223
 10
112.563519461538
 20
103.6405392658223
 10
112.5712816921886
 20
105.9918061338572
 10
120.5451165638887
 20
109.6405820698621
 10
130.5551858579969
 20
109.6405820698621
 10
130.5551858579969
 20
103.6405392658223
 10
125.8572491711473
 20
103.6405392658223
  0
LINE
  5
73
330
1F
100
AcDbEntity
  8
ISS138金台
  6
Continuous
 62
   250
420
  2367521
370
    13
100
AcDbLine
 10
120.5452565208907
 20
116.1641501888476
 30
0.0
 11
120.5452565208907
 21
111.1589432870217
 31
0.0
  0
LINE
  5
74
330
1F
100
AcDbEntity
  8
ISS138金台
  6
Continuous
 62
   250
420
  2367521
370
    13
100
AcDbLine
 10
130.6214824132621
 20
116.1641501888476
 30
0.0
 11
130.6214824132621
 21
111.1589432870217
 31
0.0
  0
LINE
  5
75
330
1F
100
AcDbEntity
  8
ISS138金台
  6
Continuous
 62
   250
420
  2367521
370
    13
100
AcDbLine
 10
120.5452565208907
 20
115.6790807516882
 30
0.0
 11
130.6216439021106
 21
115.6790807516882
 31
0.0
  0
LINE
  5
76
330
1F
100
AcDbEntity
  8
ISS138金台
  6
Continuous
 62
   250
420
  2367521
370
    13
100
AcDbLine
 10
131.5695511449546
 20
109.7111419307273
 30
0.0
 11
136.5747580467804
 21
109.7111419307273
 31
0.0
  0
LINE
  5
77
330
1F
100
AcDbEntity
  8
ISS138金台
  6
Continuous
 62
   250
420
  2367521
370
    13
100
AcDbLine
 10
131.5695511449546
 20
103.5743934334823
 30
0.0
 11
136.5747580467804
 21
103.5743934334823
 31
0.0
  0
LINE
  5
78
330
1F
100
AcDbEntity
  8
ISS138金台
  6
Continuous
 62
   250
420
  2367521
370
    13
100
AcDbLine
 10
136.0674785099925
 20
109.7111419307273
 30
0.0
 11
136.0674785099925
 21
103.0743378311834
 31
0.0
  0
LINE
  5
79
330
1F
100
AcDbEntity
  8
ISS138金台
  6
Continuous
 62
   250
420
  2367521
370
    13
100
AcDbLine
 10
112.4975135862001
 20
102.6483517807234
 30
0.0
 11
112.4975135862001
 21
92.59418526505519
 31
0.0
  0
LINE
  5
7A
330
1F
100
AcDbEntity
  8
ISS138金台
  6
Continuous
 62
   250
420
  2367521
370
    13
100
AcDbLine
 10
130.6214824132621
 20
102.6483517807234
 30
0.0
 11
130.6214824132621
 21
92.59418526505519
 31
0.0
  0
LINE
  5
7B
330
1F
100
AcDbEntity
  8
ISS138金台
  6
Continuous
 62
   250
420
  2367521
370
    13
100
AcDbLine
 10
112.4975135862001
 20
93.10130331299459
 30
0.0
 11
130.6214716473389
 21
93.10130331299459
 31
0.0
  0
HATCH
  5
7C
330
1F
100
AcDbEntity
  8
ISS138金台
  6
Continuous
 62
   250
420
  2367521
370
    13
100
AcDbHatch
 10
0.0
 20
0.0
 30
0.0
210
0.0
220
0.0
230
1.0
  2
SOLID
 70
     1
 71
     0
 91
        1
 92
        3
 72
     0
 73
     1
 93
       67
 10
112.4975135862001
 20
92.85118938445925
 10
112.5230611220306
 20
92.85248129524714
 10
112.5478658091581
 20
92.85627090022496
 10
112.5718199883502
 20
92.86245054016035
 10
112.5947837026049
 20
92.87088025805133
 10
112.6166492926899
 20
92.88142009689585
 10
112.63726603568
 20
92.89396239746162
 10
112.6565262723428
 20
92.90836720274658
 10
112.6743008115995
 20
92.92452685351842
 10
112.6904496964481
 20
92.9422906268519
 10
112.7048652676563
 20
92.96155086351467
 10
112.7174075682221
 20
92.98217837242797
 10
112.7279581729898
 20
93.00403319658977
 10
112.7363771249576
 20
93.02700767676774
 10
112.7425459989697
 20
93.05096185595984
 10
112.7463463698708
 20
93.07576654308731
 10
112.7476382806587
 20
93.10131407891782
 10
112.7476382806587
 20
93.10131407891782
 10
112.7463356039476
 20
93.12686161474832
 10
112.7425459989697
 20
93.15166630187579
 10
112.7363771249576
 20
93.17562048106791
 10
112.7279581729898
 20
93.19858419532264
 10
112.7174075682221
 20
93.22043901948442
 10
112.7048652676563
 20
93.24106652839772
 10
112.6904604623713
 20
93.26032676506051
 10
112.6743008115995
 20
93.27809053839397
 10
112.6565262723428
 20
93.29425018916582
 10
112.63726603568
 20
93.30865499445079
 10
112.6166492926899
 20
93.32119729501655
 10
112.5947837026049
 20
93.3317478997843
 10
112.5718199883502
 20
93.34016685175206
 10
112.5478658091581
 20
93.34633572576422
 10
112.5230503561074
 20
93.35013609666527
 10
112.4975135862001
 20
93.35142800745315
 10
112.4975135862001
 20
93.35142800745315
 10
112.4719660503696
 20
93.35012533074203
 10
112.4471721291654
 20
93.34634649168746
 10
112.42320718405
 20
93.34016685175206
 10
112.4002434697953
 20
93.3317478997843
 10
112.3783778797103
 20
93.32119729501655
 10
112.3577611367202
 20
93.30865499445079
 10
112.3384901341342
 20
93.29425018916582
 10
112.3207263608007
 20
93.27809053839397
 10
112.3045667100289
 20
93.26032676506051
 10
112.2901619047439
 20
93.24106652839772
 10
112.2776196041781
 20
93.22044978540765
 10
112.2670797653336
 20
93.19858419532264
 10
112.2586500474426
 20
93.17562048106791
 10
112.2524811734305
 20
93.15166630187579
 10
112.2486808025294
 20
93.12685084882509
 10
112.2473888917415
 20
93.10131407891782
 10
112.2473888917415
 20
93.10131407891782
 10
112.2486915684527
 20
93.07577730901053
 10
112.2524704075072
 20
93.05096185595984
 10
112.2586500474426
 20
93.02700767676774
 10
112.2670689994104
 20
93.00404396251301
 10
112.2776196041781
 20
92.98217837242797
 10
112.2901619047439
 20
92.96155086351467
 10
112.3045774759521
 20
92.9422906268519
 10
112.3207263608007
 20
92.92452685351842
 10
112.3385009000574
 20
92.90836720274658
 10
112.3577611367202
 20
92.89396239746162
 10
112.3783778797103
 20
92.88142009689585
 10
112.4002434697953
 20
92.8708694921281
 10
112.4232179499732
 20
92.86245054016035
 10
112.4471613632421
 20
92.85628166614819
 10
112.4719768162928
 20
92.85248129524714
 97
        0
 75
     1
 76
     1
 98
        0
  0
LWPOLYLINE
  5
7D
330
1F
100
AcDbEntity
  8
ISS138金台
  6
Continuous
 62
   250
420
  2367521
370
    13
100
AcDbPolyline
 90
       68
 70
     0
 43
0.0
 10
112.4975135862001
 20
92.85118938445925
 10
112.5230611220306
 20
92.85248129524714
 10
112.5478658091581
 20
92.85627090022496
 10
112.5718199883502
 20
92.86245054016035
 10
112.5947837026049
 20
92.87088025805133
 10
112.6166492926899
 20
92.88142009689585
 10
112.63726603568
 20
92.89396239746162
 10
112.6565262723428
 20
92.90836720274658
 10
112.6743008115995
 20
92.92452685351842
 10
112.6904496964481
 20
92.9422906268519
 10
112.7048652676563
 20
92.96155086351467
 10
112.7174075682221
 20
92.98217837242797
 10
112.7279581729898
 20
93.00403319658977
 10
112.7363771249576
 20
93.02700767676774
 10
112.7425459989697
 20
93.05096185595984
 10
112.7463463698708
 20
93.07576654308731
 10
112.7476382806587
 20
93.10131407891782
 10
112.7476382806587
 20
93.10131407891782
 10
112.7463356039476
 20
93.12686161474832
 10
112.7425459989697
 20
93.15166630187579
 10
112.7363771249576
 20
93.17562048106791
 10
112.7279581729898
 20
93.19858419532264
 10
112.7174075682221
 20
93.22043901948442
 10
112.7048652676563
 20
93.24106652839772
 10
112.6904604623713
 20
93.26032676506051
 10
112.6743008115995
 20
93.27809053839397
 10
112.6565262723428
 20
93.29425018916582
 10
112.63726603568
 20
93.30865499445079
 10
112.6166492926899
 20
93.32119729501655
 10
112.5947837026049
 20
93.3317478997843
 10
112.5718199883502
 20
93.34016685175206
 10
112.5478658091581
 20
93.34633572576422
 10
112.5230503561074
 20
93.35013609666527
 10
112.4975135862001
 20
93.35142800745315
 10
112.4975135862001
 20
93.35142800745315
 10
112.4719660503696
 20
93.35012533074203
 10
112.4471721291654
 20
93.34634649168746
 10
112.42320718405
 20
93.34016685175206
 10
112.4002434697953
 20
93.3317478997843
 10
112.3783778797103
 20
93.32119729501655
 10
112.3577611367202
 20
93.30865499445079
 10
112.3384901341342
 20
93.29425018916582
 10
112.3207263608007
 20
93.27809053839397
 10
112.3045667100289
 20
93.26032676506051
 10
112.2901619047439
 20
93.24106652839772
 10
112.2776196041781
 20
93.22044978540765
 10
112.2670797653336
 20
93.19858419532264
 10
112.2586500474426
 20
93.17562048106791
 10
112.2524811734305
 20
93.15166630187579
 10
112.2486808025294
 20
93.12685084882509
 10
112.2473888917415
 20
93.10131407891782
 10
112.2473888917415
 20
93.10131407891782
 10
112.2486915684527
 20
93.07577730901053
 10
112.2524704075072
 20
93.05096185595984
 10
112.2586500474426
 20
93.02700767676774
 10
112.2670689994104
 20
93.00404396251301
 10
112.2776196041781
 20
92.98217837242797
 10
112.2901619047439
 20
92.96155086351467
 10
112.3045774759521
 20
92.9422906268519
 10
112.3207263608007
 20
92.92452685351842
 10
112.3385009000574
 20
92.90836720274658
 10
112.3577611367202
 20
92.89396239746162
 10
112.3783778797103
 20
92.88142009689585
 10
112.4002434697953
 20
92.8708694921281
 10
112.4232179499732
 20
92.86245054016035
 10
112.4471613632421
 20
92.85628166614819
 10
112.4719768162928
 20
92.85248129524714
 10
112.4975135862001
 20
92.85118938445925
  0
HATCH
  5
7E
330
1F
100
AcDbEntity
  8
ISS138金台
  6
Continuous
 62
   250
420
  2367521
370
    13
100
AcDbHatch
 10
0.0
 20
0.0
 30
0.0
210
0.0
220
0.0
230
1.0
  2
SOLID
 70
     1
 71
     0
 91
        1
 92
        3
 72
     0
 73
     1
 93
       67
 10
130.6214824132621
 20
92.85118938445925
 10
130.6470299490927
 20
92.85248129524714
 10
130.6718238702969
 20
92.85627090022496
 10
130.6957888154122
 20
92.86245054016035
 10
130.7187525296669
 20
92.87088025805133
 10
130.7406288856752
 20
92.88142009689585
 10
130.761234862742
 20
92.89396239746162
 10
130.7804950994048
 20
92.90836720274658
 10
130.7982696386615
 20
92.92452685351842
 10
130.8144185235101
 20
92.9422906268519
 10
130.8288340947183
 20
92.96155086351467
 10
130.8413763952841
 20
92.98217837242797
 10
130.8519162341286
 20
93.00403319658977
 10
130.8603459520196
 20
93.02700767676774
 10
130.8665148260318
 20
93.05096185595984
 10
130.8703151969328
 20
93.07576654308731
 10
130.8716071077207
 20
93.10131407891782
 10
130.8716071077207
 20
93.10131407891782
 10
130.8703044310096
 20
93.12686161474832
 10
130.8665148260318
 20
93.15166630187579
 10
130.8603459520196
 20
93.17562048106791
 10
130.8519270000518
 20
93.19858419532264
 10
130.8413871612073
 20
93.22043901948442
 10
130.8288340947183
 20
93.24106652839772
 10
130.8144292894333
 20
93.26032676506051
 10
130.7982696386615
 20
93.27809053839397
 10
130.7804950994048
 20
93.29425018916582
 10
130.761234862742
 20
93.30865499445079
 10
130.740618119752
 20
93.32119729501655
 10
130.7187525296669
 20
93.3317478997843
 10
130.6957888154122
 20
93.34016685175206
 10
130.6718346362201
 20
93.34633572576422
 10
130.6470191831694
 20
93.35013609666527
 10
130.6214824132621
 20
93.35142800745315
 10
130.6214824132621
 20
93.35142800745315
 10
130.5959348774316
 20
93.35012533074203
 10
130.5711409562274
 20
93.34634649168746
 10
130.547176011112
 20
93.34016685175206
 10
130.5242122968573
 20
93.3317478997843
 10
130.5023574726955
 20
93.32119729501655
 10
130.4817299637822
 20
93.30865499445079
 10
130.4624589611962
 20
93.29425018916582
 10
130.4446951878627
 20
93.27809053839397
 10
130.4285355370909
 20
93.26032676506051
 10
130.4141307318059
 20
93.24106652839772
 10
130.4015884312402
 20
93.22044978540765
 10
130.3910485923956
 20
93.19858419532264
 10
130.3826188745047
 20
93.17562048106791
 10
130.3764500004925
 20
93.15166630187579
 10
130.3726496295915
 20
93.12685084882509
 10
130.3713577188036
 20
93.10131407891782
 10
130.3713577188036
 20
93.10131407891782
 10
130.3726496295915
 20
93.07577730901053
 10
130.3764500004925
 20
93.05096185595984
 10
130.3826188745047
 20
93.02700767676774
 10
130.3910378264724
 20
93.00404396251301
 10
130.4015991971634
 20
92.98217837242797
 10
130.4141307318059
 20
92.96155086351467
 10
130.4285463030141
 20
92.9422906268519
 10
130.4446951878627
 20
92.92452685351842
 10
130.4624697271194
 20
92.90836720274658
 10
130.4817299637822
 20
92.89396239746162
 10
130.5023467067723
 20
92.88142009689585
 10
130.5242122968573
 20
92.8708694921281
 10
130.5471867770353
 20
92.86245054016035
 10
130.5711301903041
 20
92.85628166614819
 10
130.5959456433549
 20
92.85248129524714
 97
        0
 75
     1
 76
     1
 98
        0
  0
LWPOLYLINE
  5
7F
330
1F
100
AcDbEntity
  8
ISS138金台
  6
Continuous
 62
   250
420
  2367521
370
    13
100
AcDbPolyline
 90
       68
 70
     0
 43
0.0
 10
130.6214824132621
 20
92.85118938445925
 10
130.6470299490927
 20
92.85248129524714
 10
130.6718238702969
 20
92.85627090022496
 10
130.6957888154122
 20
92.86245054016035
 10
130.7187525296669
 20
92.87088025805133
 10
130.7406288856752
 20
92.88142009689585
 10
130.761234862742
 20
92.89396239746162
 10
130.7804950994048
 20
92.90836720274658
 10
130.7982696386615
 20
92.92452685351842
 10
130.8144185235101
 20
92.9422906268519
 10
130.8288340947183
 20
92.96155086351467
 10
130.8413763952841
 20
92.98217837242797
 10
130.8519162341286
 20
93.00403319658977
 10
130.8603459520196
 20
93.02700767676774
 10
130.8665148260318
 20
93.05096185595984
 10
130.8703151969328
 20
93.07576654308731
 10
130.8716071077207
 20
93.10131407891782
 10
130.8716071077207
 20
93.10131407891782
 10
130.8703044310096
 20
93.12686161474832
 10
130.8665148260318
 20
93.15166630187579
 10
130.8603459520196
 20
93.17562048106791
 10
130.8519270000518
 20
93.19858419532264
 10
130.8413871612073
 20
93.22043901948442
 10
130.8288340947183
 20
93.24106652839772
 10
130.8144292894333
 20
93.26032676506051
 10
130.7982696386615
 20
93.27809053839397
 10
130.7804950994048
 20
93.29425018916582
 10
130.761234862742
 20
93.30865499445079
 10
130.740618119752
 20
93.32119729501655
 10
130.7187525296669
 20
93.3317478997843
 10
130.6957888154122
 20
93.34016685175206
 10
130.6718346362201
 20
93.34633572576422
 10
130.6470191831694
 20
93.35013609666527
 10
130.6214824132621
 20
93.35142800745315
 10
130.6214824132621
 20
93.35142800745315
 10
130.5959348774316
 20
93.35012533074203
 10
130.5711409562274
 20
93.34634649168746
 10
130.547176011112
 20
93.34016685175206
 10
130.5242122968573
 20
93.3317478997843
 10
130.5023574726955
 20
93.32119729501655
 10
130.4817299637822
 20
93.30865499445079
 10
130.4624589611962
 20
93.29425018916582
 10
130.4446951878627
 20
93.27809053839397
 10
130.4285355370909
 20
93.26032676506051
 10
130.4141307318059
 20
93.24106652839772
 10
130.4015884312402
 20
93.22044978540765
 10
130.3910485923956
 20
93.19858419532264
 10
130.3826188745047
 20
93.17562048106791
 10
130.3764500004925
 20
93.15166630187579
 10
130.3726496295915
 20
93.12685084882509
 10
130.3713577188036
 20
93.10131407891782
 10
130.3713577188036
 20
93.10131407891782
 10
130.3726496295915
 20
93.07577730901053
 10
130.3764500004925
 20
93.05096185595984
 10
130.3826188745047
 20
93.02700767676774
 10
130.3910378264724
 20
93.00404396251301
 10
130.4015991971634
 20
92.98217837242797
 10
130.4141307318059
 20
92.96155086351467
 10
130.4285463030141
 20
92.9422906268519
 10
130.4446951878627
 20
92.92452685351842
 10
130.4624697271194
 20
92.90836720274658
 10
130.4817299637822
 20
92.89396239746162
 10
130.5023467067723
 20
92.88142009689585
 10
130.5242122968573
 20
92.8708694921281
 10
130.5471867770353
 20
92.86245054016035
 10
130.5711301903041
 20
92.85628166614819
 10
130.5959456433549
 20
92.85248129524714
 10
130.6214824132621
 20
92.85118938445925
  0
HATCH
  5
80
330
1F
100
AcDbEntity
  8
ISS138金台
  6
Continuous
 62
   250
420
  2367521
370
    13
100
AcDbHatch
 10
0.0
 20
0.0
 30
0.0
210
0.0
220
0.0
230
1.0
  2
SOLID
 70
     1
 71
     0
 91
        1
 92
        3
 72
     0
 73
     1
 93
       67
 10
136.0674785099925
 20
109.4611894910405
 10
136.0930152798998
 20
109.4624706359051
 10
136.1178199670273
 20
109.4662494749597
 10
136.1417741462194
 20
109.4724183489719
 10
136.1647486263973
 20
109.4808265350164
 10
136.1866142164824
 20
109.4913340760912
 10
136.2072417253956
 20
109.5038440788873
 10
136.2265019620584
 20
109.5182273523258
 10
136.2442657353919
 20
109.5343439394047
 10
136.2604146202405
 20
109.5520861808917
 10
136.2748301914487
 20
109.5713141197848
 10
136.2873724920145
 20
109.5919093309284
 10
136.2979230967823
 20
109.6137426232437
 10
136.30634204875
 20
109.636684805652
 10
136.3125109227622
 20
109.6606174529976
 10
136.3163112936632
 20
109.6854221401251
 10
136.3176032044511
 20
109.7109589100324
 10
136.3176032044511
 20
109.7109589100324
 10
136.3163112936632
 20
109.7365602754791
 10
136.3125109227622
 20
109.7614187922227
 10
136.30634204875
 20
109.7853945032613
 10
136.2979230967823
 20
109.8083797493625
 10
136.2873724920145
 20
109.8302561053707
 10
136.2748301914487
 20
109.8508620824375
 10
136.2604146202405
 20
109.8701223191003
 10
136.2442657353919
 20
109.8878753265106
 10
136.2264911961352
 20
109.9040026795127
 10
136.2072417253956
 20
109.9183967188744
 10
136.1866142164824
 20
109.9309174875937
 10
136.1647486263973
 20
109.9414357945918
 10
136.1417849121426
 20
109.9498439806363
 10
136.1178307329505
 20
109.9560020887253
 10
136.0930152798998
 20
109.9597809277798
 10
136.0674785099925
 20
109.9610728385677
 10
136.0674785099925
 20
109.9610728385677
 10
136.0419417400852
 20
109.9597809277798
 10
136.0171262870346
 20
109.9560020887253
 10
135.9931721078424
 20
109.9498332147131
 10
135.9702083935877
 20
109.9414357945918
 10
135.9483428035027
 20
109.9309174875937
 10
135.9277260605126
 20
109.9184074847977
 10
135.9084658238498
 20
109.904013445436
 10
135.8906912845931
 20
109.8878753265106
 10
135.8745316338213
 20
109.8701223191003
 10
135.8601268285363
 20
109.8508728483608
 10
135.8475845279706
 20
109.8302453394475
 10
135.837044689126
 20
109.8083797493625
 10
135.8286149712351
 20
109.7853945032613
 10
135.8224460972229
 20
109.7614080262995
 10
135.8186457263218
 20
109.7365602754791
 10
135.817353815534
 20
109.7109589100324
 10
135.817353815534
 20
109.7109589100324
 10
135.8186457263218
 20
109.6854221401251
 10
135.8224353312997
 20
109.6606174529976
 10
135.8286149712351
 20
109.636684805652
 10
135.8370339232028
 20
109.6137318573205
 10
135.8475845279706
 20
109.5919093309284
 10
135.8601268285363
 20
109.5713141197848
 10
135.8745316338213
 20
109.5520754149685
 10
135.8906912845931
 20
109.5343439394047
 10
135.9084550579266
 20
109.5182165864026
 10
135.9277260605126
 20
109.5038440788873
 10
135.9483535694259
 20
109.4913340760912
 10
135.9702083935877
 20
109.4808157690932
 10
135.9931828737656
 20
109.4724183489719
 10
136.0171262870346
 20
109.4662602408829
 10
136.0419417400852
 20
109.4624814018284
 97
        0
 75
     1
 76
     1
 98
        0
  0
LWPOLYLINE
  5
81
330
1F
100
AcDbEntity
  8
ISS138金台
  6
Continuous
 62
   250
420
  2367521
370
    13
100
AcDbPolyline
 90
       68
 70
     0
 43
0.0
 10
136.0674785099925
 20
109.4611894910405
 10
136.0930152798998
 20
109.4624706359051
 10
136.1178199670273
 20
109.4662494749597
 10
136.1417741462194
 20
109.4724183489719
 10
136.1647486263973
 20
109.4808265350164
 10
136.1866142164824
 20
109.4913340760912
 10
136.2072417253956
 20
109.5038440788873
 10
136.2265019620584
 20
109.5182273523258
 10
136.2442657353919
 20
109.5343439394047
 10
136.2604146202405
 20
109.5520861808917
 10
136.2748301914487
 20
109.5713141197848
 10
136.2873724920145
 20
109.5919093309284
 10
136.2979230967823
 20
109.6137426232437
 10
136.30634204875
 20
109.636684805652
 10
136.3125109227622
 20
109.6606174529976
 10
136.3163112936632
 20
109.6854221401251
 10
136.3176032044511
 20
109.7109589100324
 10
136.3176032044511
 20
109.7109589100324
 10
136.3163112936632
 20
109.7365602754791
 10
136.3125109227622
 20
109.7614187922227
 10
136.30634204875
 20
109.7853945032613
 10
136.2979230967823
 20
109.8083797493625
 10
136.2873724920145
 20
109.8302561053707
 10
136.2748301914487
 20
109.8508620824375
 10
136.2604146202405
 20
109.8701223191003
 10
136.2442657353919
 20
109.8878753265106
 10
136.2264911961352
 20
109.9040026795127
 10
136.2072417253956
 20
109.9183967188744
 10
136.1866142164824
 20
109.9309174875937
 10
136.1647486263973
 20
109.9414357945918
 10
136.1417849121426
 20
109.9498439806363
 10
136.1178307329505
 20
109.9560020887253
 10
136.0930152798998
 20
109.9597809277798
 10
136.0674785099925
 20
109.9610728385677
 10
136.0674785099925
 20
109.9610728385677
 10
136.0419417400852
 20
109.9597809277798
 10
136.0171262870346
 20
109.9560020887253
 10
135.9931721078424
 20
109.9498332147131
 10
135.9702083935877
 20
109.9414357945918
 10
135.9483428035027
 20
109.9309174875937
 10
135.9277260605126
 20
109.9184074847977
 10
135.9084658238498
 20
109.904013445436
 10
135.8906912845931
 20
109.8878753265106
 10
135.8745316338213
 20
109.8701223191003
 10
135.8601268285363
 20
109.8508728483608
 10
135.8475845279706
 20
109.8302453394475
 10
135.837044689126
 20
109.8083797493625
 10
135.8286149712351
 20
109.7853945032613
 10
135.8224460972229
 20
109.7614080262995
 10
135.8186457263218
 20
109.7365602754791
 10
135.817353815534
 20
109.7109589100324
 10
135.817353815534
 20
109.7109589100324
 10
135.8186457263218
 20
109.6854221401251
 10
135.8224353312997
 20
109.6606174529976
 10
135.8286149712351
 20
109.636684805652
 10
135.8370339232028
 20
109.6137318573205
 10
135.8475845279706
 20
109.5919093309284
 10
135.8601268285363
 20
109.5713141197848
 10
135.8745316338213
 20
109.5520754149685
 10
135.8906912845931
 20
109.5343439394047
 10
135.9084550579266
 20
109.5182165864026
 10
135.9277260605126
 20
109.5038440788873
 10
135.9483535694259
 20
109.4913340760912
 10
135.9702083935877
 20
109.4808157690932
 10
135.9931828737656
 20
109.4724183489719
 10
136.0171262870346
 20
109.4662602408829
 10
136.0419417400852
 20
109.4624814018284
 10
136.0674785099925
 20
109.4611894910405
  0
HATCH
  5
82
330
1F
100
AcDbEntity
  8
ISS138金台
  6
Continuous
 62
   250
420
  2367521
370
    13
100
AcDbHatch
 10
0.0
 20
0.0
 30
0.0
210
0.0
220
0.0
230
1.0
  2
SOLID
 70
     1
 71
     0
 91
        1
 92
        3
 72
     0
 73
     1
 93
       67
 10
136.0674785099925
 20
103.3242579731005
 10
136.0930152798998
 20
103.3255498838884
 10
136.1178199670273
 20
103.3293394888662
 10
136.1417741462194
 20
103.3355191288016
 10
136.1647486263973
 20
103.3439488466926
 10
136.1866142164824
 20
103.3544886855371
 10
136.2072417253956
 20
103.3670202201797
 10
136.2265019620584
 20
103.3814357913879
 10
136.2442657353919
 20
103.3975954421597
 10
136.2604146202405
 20
103.4153592154932
 10
136.2748301914487
 20
103.434619452156
 10
136.2873724920145
 20
103.4552469610692
 10
136.2979230967823
 20
103.4771017852311
 10
136.30634204875
 20
103.500076265409
 10
136.3125109227622
 20
103.5240304446011
 10
136.3163112936632
 20
103.5488458976518
 10
136.3176032044511
 20
103.5743826675591
 10
136.3176032044511
 20
103.5743826675591
 10
136.3163112936632
 20
103.5999732670825
 10
136.3125109227622
 20
103.6248425497494
 10
136.30634204875
 20
103.6488074948647
 10
136.2979230967823
 20
103.6717927409659
 10
136.2873724920145
 20
103.6936690969742
 10
136.2748301914487
 20
103.7142858399642
 10
136.2604146202405
 20
103.733546076627
 10
136.2442657353919
 20
103.7512990840373
 10
136.2264911961352
 20
103.7674372029627
 10
136.2072417253956
 20
103.7818204764012
 10
136.1866142164824
 20
103.7943412451204
 10
136.1647486263973
 20
103.8048595521185
 10
136.1417849121426
 20
103.813267738163
 10
136.1178307329505
 20
103.819425846252
 10
136.0930152798998
 20
103.8232046853065
 10
136.0674785099925
 20
103.8244965960944
 10
136.0674785099925
 20
103.8244965960944
 10
136.0419417400852
 20
103.8232154512298
 10
136.0171262870346
 20
103.819425846252
 10
135.9931721078424
 20
103.813267738163
 10
135.9702083935877
 20
103.8048595521185
 10
135.9483428035027
 20
103.7943412451204
 10
135.9277260605126
 20
103.7818204764012
 10
135.9084658238498
 20
103.7674264370394
 10
135.8906912845931
 20
103.7512990840373
 10
135.8745316338213
 20
103.733546076627
 10
135.8601268285363
 20
103.7142858399642
 10
135.8475845279706
 20
103.6936690969742
 10
135.837044689126
 20
103.6718035068892
 10
135.8286149712351
 20
103.648818260788
 10
135.8224460972229
 20
103.6248317838262
 10
135.8186457263218
 20
103.5999840330058
 10
135.817353815534
 20
103.5743826675591
 10
135.817353815534
 20
103.5743826675591
 10
135.8186457263218
 20
103.5488458976518
 10
135.8224353312997
 20
103.5240304446011
 10
135.8286149712351
 20
103.500076265409
 10
135.8370339232028
 20
103.4771017852311
 10
135.8475845279706
 20
103.4552469610692
 10
135.8601268285363
 20
103.434619452156
 10
135.8745316338213
 20
103.4153699814164
 10
135.8906912845931
 20
103.3975954421597
 10
135.9084550579266
 20
103.3814357913879
 10
135.9277260605126
 20
103.3670309861029
 10
135.9483535694259
 20
103.3544886855371
 10
135.9702083935877
 20
103.3439380807694
 10
135.9931828737656
 20
103.3355191288016
 10
136.0171262870346
 20
103.3293502547895
 10
136.0419417400852
 20
103.3255498838884
 97
        0
 75
     1
 76
     1
 98
        0
  0
LWPOLYLINE
  5
83
330
1F
100
AcDbEntity
  8
ISS138金台
  6
Continuous
 62
   250
420
  2367521
370
    13
100
AcDbPolyline
 90
       68
 70
     0
 43
0.0
 10
136.0674785099925
 20
103.3242579731005
 10
136.0930152798998
 20
103.3255498838884
 10
136.1178199670273
 20
103.3293394888662
 10
136.1417741462194
 20
103.3355191288016
 10
136.1647486263973
 20
103.3439488466926
 10
136.1866142164824
 20
103.3544886855371
 10
136.2072417253956
 20
103.3670202201797
 10
136.2265019620584
 20
103.3814357913879
 10
136.2442657353919
 20
103.3975954421597
 10
136.2604146202405
 20
103.4153592154932
 10
136.2748301914487
 20
103.434619452156
 10
136.2873724920145
 20
103.4552469610692
 10
136.2979230967823
 20
103.4771017852311
 10
136.30634204875
 20
103.500076265409
 10
136.3125109227622
 20
103.5240304446011
 10
136.3163112936632
 20
103.5488458976518
 10
136.3176032044511
 20
103.5743826675591
 10
136.3176032044511
 20
103.5743826675591
 10
136.3163112936632
 20
103.5999732670825
 10
136.3125109227622
 20
103.6248425497494
 10
136.30634204875
 20
103.6488074948647
 10
136.2979230967823
 20
103.6717927409659
 10
136.2873724920145
 20
103.6936690969742
 10
136.2748301914487
 20
103.7142858399642
 10
136.2604146202405
 20
103.733546076627
 10
136.2442657353919
 20
103.7512990840373
 10
136.2264911961352
 20
103.7674372029627
 10
136.2072417253956
 20
103.7818204764012
 10
136.1866142164824
 20
103.7943412451204
 10
136.1647486263973
 20
103.8048595521185
 10
136.1417849121426
 20
103.813267738163
 10
136.1178307329505
 20
103.819425846252
 10
136.0930152798998
 20
103.8232046853065
 10
136.0674785099925
 20
103.8244965960944
 10
136.0674785099925
 20
103.8244965960944
 10
136.0419417400852
 20
103.8232154512298
 10
136.0171262870346
 20
103.819425846252
 10
135.9931721078424
 20
103.813267738163
 10
135.9702083935877
 20
103.8048595521185
 10
135.9483428035027
 20
103.7943412451204
 10
135.9277260605126
 20
103.7818204764012
 10
135.9084658238498
 20
103.7674264370394
 10
135.8906912845931
 20
103.7512990840373
 10
135.8745316338213
 20
103.733546076627
 10
135.8601268285363
 20
103.7142858399642
 10
135.8475845279706
 20
103.6936690969742
 10
135.837044689126
 20
103.6718035068892
 10
135.8286149712351
 20
103.648818260788
 10
135.8224460972229
 20
103.6248317838262
 10
135.8186457263218
 20
103.5999840330058
 10
135.817353815534
 20
103.5743826675591
 10
135.817353815534
 20
103.5743826675591
 10
135.8186457263218
 20
103.5488458976518
 10
135.8224353312997
 20
103.5240304446011
 10
135.8286149712351
 20
103.500076265409
 10
135.8370339232028
 20
103.4771017852311
 10
135.8475845279706
 20
103.4552469610692
 10
135.8601268285363
 20
103.434619452156
 10
135.8745316338213
 20
103.4153699814164
 10
135.8906912845931
 20
103.3975954421597
 10
135.9084550579266
 20
103.3814357913879
 10
135.9277260605126
 20
103.3670309861029
 10
135.9483535694259
 20
103.3544886855371
 10
135.9702083935877
 20
103.3439380807694
 10
135.9931828737656
 20
103.3355191288016
 10
136.0171262870346
 20
103.3293502547895
 10
136.0419417400852
 20
103.3255498838884
 10
136.0674785099925
 20
103.3242579731005
  0
HATCH
  5
84
330
1F
100
AcDbEntity
  8
ISS138金台
  6
Continuous
 62
   250
420
  2367521
370
    13
100
AcDbHatch
 10
0.0
 20
0.0
 30
0.0
210
0.0
220
0.0
230
1.0
  2
SOLID
 70
     1
 71
     0
 91
        1
 92
        3
 72
     0
 73
     1
 93
       67
 10
120.5452565208907
 20
115.4291390779245
 10
120.570793290798
 20
115.4304202227892
 10
120.5956087438487
 20
115.434209827767
 10
120.6195521571175
 20
115.4403679358559
 10
120.6425266372955
 20
115.4487653559772
 10
120.6643922273805
 20
115.4592836629753
 10
120.6850089703706
 20
115.4717936657714
 10
120.7042799729566
 20
115.4861769392098
 10
120.7220437462901
 20
115.5022935262888
 10
120.7381926311387
 20
115.5200357677758
 10
120.7526082023469
 20
115.5392637066689
 10
120.7651505029126
 20
115.5598589178125
 10
120.7757011076804
 20
115.5816922101278
 10
120.7841200596482
 20
115.6046343925361
 10
120.7902889336603
 20
115.6285670398817
 10
120.7940893045614
 20
115.6533717270092
 10
120.7953812153493
 20
115.6789084969164
 10
120.7953812153493
 20
115.6789084969164
 10
120.7940893045614
 20
115.7044990964399
 10
120.7902889336603
 20
115.7293683791067
 10
120.7841200596482
 20
115.7533440901453
 10
120.7757011076804
 20
115.7763185703233
 10
120.7651505029126
 20
115.7981949263315
 10
120.7526082023469
 20
115.8188116693216
 10
120.7381926311387
 20
115.8380719059844
 10
120.7220437462901
 20
115.8558249133946
 10
120.7042692070334
 20
115.8719522663968
 10
120.6850197362938
 20
115.8863463057585
 10
120.6643922273805
 20
115.8988670744778
 10
120.6425266372955
 20
115.9093853814759
 10
120.6195629230408
 20
115.9177935675204
 10
120.5956087438487
 20
115.9239516756093
 10
120.570793290798
 20
115.9277305146639
 10
120.5452565208907
 20
115.9290224254518
 10
120.5452565208907
 20
115.9290224254518
 10
120.5197197509834
 20
115.9277305146639
 10
120.4949150638559
 20
115.9239409096861
 10
120.4709501187406
 20
115.9177828015971
 10
120.4479864044859
 20
115.9093853814759
 10
120.4261208144008
 20
115.8988670744778
 10
120.4055040714108
 20
115.8863463057585
 10
120.386243834748
 20
115.87196303232
 10
120.3684692954913
 20
115.8558249133946
 10
120.3523096447195
 20
115.8380719059844
 10
120.3379048394345
 20
115.8188116693216
 10
120.3253625388687
 20
115.7981949263315
 10
120.3148227000242
 20
115.7763293362465
 10
120.3063929821332
 20
115.7533440901453
 10
120.300224108121
 20
115.7293576131835
 10
120.29642373722
 20
115.7045098623631
 10
120.2951318264321
 20
115.6789084969164
 10
120.2951318264321
 20
115.6789084969164
 10
120.29642373722
 20
115.6533717270092
 10
120.3002133421978
 20
115.6285778058049
 10
120.3063929821332
 20
115.6046343925361
 10
120.314811934101
 20
115.5816922101278
 10
120.3253625388687
 20
115.5598589178125
 10
120.3379048394345
 20
115.5392637066689
 10
120.3523096447195
 20
115.5200357677758
 10
120.3684692954913
 20
115.5022935262888
 10
120.3862330688248
 20
115.4861769392098
 10
120.4055040714108
 20
115.4717936657714
 10
120.4261208144008
 20
115.4592836629753
 10
120.4479864044859
 20
115.4487653559772
 10
120.4709608846638
 20
115.4403679358559
 10
120.4949042979327
 20
115.434209827767
 10
120.5197197509834
 20
115.4304309887124
 97
        0
 75
     1
 76
     1
 98
        0
  0
LWPOLYLINE
  5
85
330
1F
100
AcDbEntity
  8
ISS138金台
  6
Continuous
 62
   250
420
  2367521
370
    13
100
AcDbPolyline
 90
       68
 70
     0
 43
0.0
 10
120.5452565208907
 20
115.4291390779245
 10
120.570793290798
 20
115.4304202227892
 10
120.5956087438487
 20
115.434209827767
 10
120.6195521571175
 20
115.4403679358559
 10
120.6425266372955
 20
115.4487653559772
 10
120.6643922273805
 20
115.4592836629753
 10
120.6850089703706
 20
115.4717936657714
 10
120.7042799729566
 20
115.4861769392098
 10
120.7220437462901
 20
115.5022935262888
 10
120.7381926311387
 20
115.5200357677758
 10
120.7526082023469
 20
115.5392637066689
 10
120.7651505029126
 20
115.5598589178125
 10
120.7757011076804
 20
115.5816922101278
 10
120.7841200596482
 20
115.6046343925361
 10
120.7902889336603
 20
115.6285670398817
 10
120.7940893045614
 20
115.6533717270092
 10
120.7953812153493
 20
115.6789084969164
 10
120.7953812153493
 20
115.6789084969164
 10
120.7940893045614
 20
115.7044990964399
 10
120.7902889336603
 20
115.7293683791067
 10
120.7841200596482
 20
115.7533440901453
 10
120.7757011076804
 20
115.7763185703233
 10
120.7651505029126
 20
115.7981949263315
 10
120.7526082023469
 20
115.8188116693216
 10
120.7381926311387
 20
115.8380719059844
 10
120.7220437462901
 20
115.8558249133946
 10
120.7042692070334
 20
115.8719522663968
 10
120.6850197362938
 20
115.8863463057585
 10
120.6643922273805
 20
115.8988670744778
 10
120.6425266372955
 20
115.9093853814759
 10
120.6195629230408
 20
115.9177935675204
 10
120.5956087438487
 20
115.9239516756093
 10
120.570793290798
 20
115.9277305146639
 10
120.5452565208907
 20
115.9290224254518
 10
120.5452565208907
 20
115.9290224254518
 10
120.5197197509834
 20
115.9277305146639
 10
120.4949150638559
 20
115.9239409096861
 10
120.4709501187406
 20
115.9177828015971
 10
120.4479864044859
 20
115.9093853814759
 10
120.4261208144008
 20
115.8988670744778
 10
120.4055040714108
 20
115.8863463057585
 10
120.386243834748
 20
115.87196303232
 10
120.3684692954913
 20
115.8558249133946
 10
120.3523096447195
 20
115.8380719059844
 10
120.3379048394345
 20
115.8188116693216
 10
120.3253625388687
 20
115.7981949263315
 10
120.3148227000242
 20
115.7763293362465
 10
120.3063929821332
 20
115.7533440901453
 10
120.300224108121
 20
115.7293576131835
 10
120.29642373722
 20
115.7045098623631
 10
120.2951318264321
 20
115.6789084969164
 10
120.2951318264321
 20
115.6789084969164
 10
120.29642373722
 20
115.6533717270092
 10
120.3002133421978
 20
115.6285778058049
 10
120.3063929821332
 20
115.6046343925361
 10
120.314811934101
 20
115.5816922101278
 10
120.3253625388687
 20
115.5598589178125
 10
120.3379048394345
 20
115.5392637066689
 10
120.3523096447195
 20
115.5200357677758
 10
120.3684692954913
 20
115.5022935262888
 10
120.3862330688248
 20
115.4861769392098
 10
120.4055040714108
 20
115.4717936657714
 10
120.4261208144008
 20
115.4592836629753
 10
120.4479864044859
 20
115.4487653559772
 10
120.4709608846638
 20
115.4403679358559
 10
120.4949042979327
 20
115.434209827767
 10
120.5197197509834
 20
115.4304309887124
 10
120.5452565208907
 20
115.4291390779245
  0
HATCH
  5
86
330
1F
100
AcDbEntity
  8
ISS138金台
  6
Continuous
 62
   250
420
  2367521
370
    13
100
AcDbHatch
 10
0.0
 20
0.0
 30
0.0
210
0.0
220
0.0
230
1.0
  2
SOLID
 70
     1
 71
     0
 91
        1
 92
        3
 72
     0
 73
     1
 93
       67
 10
130.6214824132621
 20
115.4291390779245
 10
130.6470299490927
 20
115.4304202227892
 10
130.6718238702969
 20
115.434209827767
 10
130.6957888154122
 20
115.4403679358559
 10
130.7187525296669
 20
115.4487653559772
 10
130.7406288856752
 20
115.4592836629753
 10
130.761234862742
 20
115.4717936657714
 10
130.7804950994048
 20
115.4861769392098
 10
130.7982696386615
 20
115.5022935262888
 10
130.8144185235101
 20
115.5200357677758
 10
130.8288340947183
 20
115.5392637066689
 10
130.8413763952841
 20
115.5598589178125
 10
130.8519162341286
 20
115.5816922101278
 10
130.8603459520196
 20
115.6046343925361
 10
130.8665148260318
 20
115.6285670398817
 10
130.8703151969328
 20
115.6533717270092
 10
130.8716071077207
 20
115.6789084969164
 10
130.8716071077207
 20
115.6789084969164
 10
130.8703044310096
 20
115.7044990964399
 10
130.8665148260318
 20
115.7293683791067
 10
130.8603459520196
 20
115.7533440901453
 10
130.8519270000518
 20
115.7763185703233
 10
130.8413871612073
 20
115.7981949263315
 10
130.8288340947183
 20
115.8188116693216
 10
130.8144292894333
 20
115.8380719059844
 10
130.7982696386615
 20
115.8558249133946
 10
130.7804950994048
 20
115.8719522663968
 10
130.761234862742
 20
115.8863463057585
 10
130.740618119752
 20
115.8988670744778
 10
130.7187525296669
 20
115.9093853814759
 10
130.6957888154122
 20
115.9177935675204
 10
130.6718346362201
 20
115.9239516756093
 10
130.6470191831694
 20
115.9277305146639
 10
130.6214824132621
 20
115.9290224254518
 10
130.6214824132621
 20
115.9290224254518
 10
130.5959348774316
 20
115.9277305146639
 10
130.5711409562274
 20
115.9239409096861
 10
130.547176011112
 20
115.9177828015971
 10
130.5242122968573
 20
115.9093853814759
 10
130.5023574726955
 20
115.8988670744778
 10
130.4817299637822
 20
115.8863463057585
 10
130.4624589611962
 20
115.87196303232
 10
130.4446951878627
 20
115.8558249133946
 10
130.4285355370909
 20
115.8380719059844
 10
130.4141307318059
 20
115.8188116693216
 10
130.4015884312402
 20
115.7981949263315
 10
130.3910485923956
 20
115.7763293362465
 10
130.3826188745047
 20
115.7533440901453
 10
130.3764500004925
 20
115.7293576131835
 10
130.3726496295915
 20
115.7045098623631
 10
130.3713577188036
 20
115.6789084969164
 10
130.3713577188036
 20
115.6789084969164
 10
130.3726496295915
 20
115.6533717270092
 10
130.3764500004925
 20
115.6285778058049
 10
130.3826188745047
 20
115.6046343925361
 10
130.3910378264724
 20
115.5816922101278
 10
130.4015991971634
 20
115.5598589178125
 10
130.4141307318059
 20
115.5392637066689
 10
130.4285463030141
 20
115.5200357677758
 10
130.4446951878627
 20
115.5022935262888
 10
130.4624697271194
 20
115.4861769392098
 10
130.4817299637822
 20
115.4717936657714
 10
130.5023467067723
 20
115.4592836629753
 10
130.5242122968573
 20
115.4487653559772
 10
130.5471867770353
 20
115.4403679358559
 10
130.5711301903041
 20
115.434209827767
 10
130.5959456433549
 20
115.4304309887124
 97
        0
 75
     1
 76
     1
 98
        0
  0
LWPOLYLINE
  5
87
330
1F
100
AcDbEntity
  8
ISS138金台
  6
Continuous
 62
   250
420
  2367521
370
    13
100
AcDbPolyline
 90
       68
 70
     0
 43
0.0
 10
130.6214824132621
 20
115.4291390779245
 10
130.6470299490927
 20
115.4304202227892
 10
130.6718238702969
 20
115.434209827767
 10
130.6957888154122
 20
115.4403679358559
 10
130.7187525296669
 20
115.4487653559772
 10
130.7406288856752
 20
115.4592836629753
 10
130.761234862742
 20
115.4717936657714
 10
130.7804950994048
 20
115.4861769392098
 10
130.7982696386615
 20
115.5022935262888
 10
130.8144185235101
 20
115.5200357677758
 10
130.8288340947183
 20
115.5392637066689
 10
130.8413763952841
 20
115.5598589178125
 10
130.8519162341286
 20
115.5816922101278
 10
130.8603459520196
 20
115.6046343925361
 10
130.8665148260318
 20
115.6285670398817
 10
130.8703151969328
 20
115.6533717270092
 10
130.8716071077207
 20
115.6789084969164
 10
130.8716071077207
 20
115.6789084969164
 10
130.8703044310096
 20
115.7044990964399
 10
130.8665148260318
 20
115.7293683791067
 10
130.8603459520196
 20
115.7533440901453
 10
130.8519270000518
 20
115.7763185703233
 10
130.8413871612073
 20
115.7981949263315
 10
130.8288340947183
 20
115.8188116693216
 10
130.8144292894333
 20
115.8380719059844
 10
130.7982696386615
 20
115.8558249133946
 10
130.7804950994048
 20
115.8719522663968
 10
130.761234862742
 20
115.8863463057585
 10
130.740618119752
 20
115.8988670744778
 10
130.7187525296669
 20
115.9093853814759
 10
130.6957888154122
 20
115.9177935675204
 10
130.6718346362201
 20
115.9239516756093
 10
130.6470191831694
 20
115.9277305146639
 10
130.6214824132621
 20
115.9290224254518
 10
130.6214824132621
 20
115.9290224254518
 10
130.5959348774316
 20
115.9277305146639
 10
130.5711409562274
 20
115.9239409096861
 10
130.547176011112
 20
115.9177828015971
 10
130.5242122968573
 20
115.9093853814759
 10
130.5023574726955
 20
115.8988670744778
 10
130.4817299637822
 20
115.8863463057585
 10
130.4624589611962
 20
115.87196303232
 10
130.4446951878627
 20
115.8558249133946
 10
130.4285355370909
 20
115.8380719059844
 10
130.4141307318059
 20
115.8188116693216
 10
130.4015884312402
 20
115.7981949263315
 10
130.3910485923956
 20
115.7763293362465
 10
130.3826188745047
 20
115.7533440901453
 10
130.3764500004925
 20
115.7293576131835
 10
130.3726496295915
 20
115.7045098623631
 10
130.3713577188036
 20
115.6789084969164
 10
130.3713577188036
 20
115.6789084969164
 10
130.3726496295915
 20
115.6533717270092
 10
130.3764500004925
 20
115.6285778058049
 10
130.3826188745047
 20
115.6046343925361
 10
130.3910378264724
 20
115.5816922101278
 10
130.4015991971634
 20
115.5598589178125
 10
130.4141307318059
 20
115.5392637066689
 10
130.4285463030141
 20
115.5200357677758
 10
130.4446951878627
 20
115.5022935262888
 10
130.4624697271194
 20
115.4861769392098
 10
130.4817299637822
 20
115.4717936657714
 10
130.5023467067723
 20
115.4592836629753
 10
130.5242122968573
 20
115.4487653559772
 10
130.5471867770353
 20
115.4403679358559
 10
130.5711301903041
 20
115.434209827767
 10
130.5959456433549
 20
115.4304309887124
 10
130.6214824132621
 20
115.4291390779245
  0
TEXT
  5
88
330
1F
100
AcDbEntity
  8
ISS138金台
  6
Continuous
 62
   250
420
  2367521
100
AcDbText
 10
123.6320512641638
 20
116.2101562516603
 30
0.0
 40
2.150533301035563
  1
10
 41
0.9978761672973631
  7
MS Gothic
100
AcDbText
  0
TEXT
  5
89
330
1F
100
AcDbEntity
  8
ISS138金台
  6
Continuous
 62
   250
420
  2367521
100
AcDbText
 10
135.4049510873526
 20
105.6917275382061
 30
0.0
 40
2.150533301035563
  1
6
 50
90.00000250447816
 41
0.8919982910156248
  7
MS Gothic
100
AcDbText
  0
TEXT
  5
8A
330
1F
100
AcDbEntity
  8
ISS138金台
  6
Continuous
 62
   250
420
  2367521
100
AcDbText
 10
120.0531677017837
 20
93.87406302361113
 30
0.0
 40
2.150533301035563
  1
18
 41
0.9956231117248533
  7
MS Gothic
100
AcDbText
  0
TEXT
  5
8B
330
1F
100
AcDbEntity
  8
ISS138金台
  6
Continuous
 62
   250
420
  2367521
100
AcDbText
 10
105.3306567493911
 20
102.6394268129695
 30
0.0
 40
2.150533301035563
  1
2  .  5
 50
90.00000250447816
 41
0.3911437988281249
  7
MS Gothic
100
AcDbText
  0
LINE
  5
8C
330
1F
100
AcDbEntity
  8
ISS138金台
  6
Continuous
 62
   250
420
  2367521
370
    13
100
AcDbLine
 10
106.566437286387
 20
106.2126475171236
 30
0.0
 11
111.5494233226612
 21
106.2126475171236
 31
0.0
  0
LINE
  5
8D
330
1F
100
AcDbEntity
  8
ISS138金台
  6
Continuous
 62
   250
420
  2367521
370
    13
100
AcDbLine
 10
106.566437286387
 20
103.5743934334823
 30
0.0
 11
111.5494233226612
 21
103.5743934334823
 31
0.0
  0
LINE
  5
8E
330
1F
100
AcDbEntity
  8
ISS138金台
  6
Continuous
 62
   250
420
  2367521
370
    13
100
AcDbLine
 10
107.0514959576233
 20
106.2126475171236
 30
0.0
 11
107.0514959576233
 21
103.7209822442148
 31
0.0
  0
HATCH
  5
8F
330
1F
100
AcDbEntity
  8
ISS138金台
  6
Continuous
 62
   250
420
  2367521
370
    13
100
AcDbHatch
 10
0.0
 20
0.0
 30
0.0
210
0.0
220
0.0
230
1.0
  2
SOLID
 70
     1
 71
     0
 91
        1
 92
        3
 72
     0
 73
     1
 93
       67
 10
107.0514959576233
 20
103.3242579731005
 10
107.0770219616073
 20
103.3255498838884
 10
107.101837414658
 20
103.3293394888662
 10
107.1257915938501
 20
103.3355191288016
 10
107.1487660740281
 20
103.3439488466926
 10
107.1706316641131
 20
103.3544886855371
 10
107.1912484071032
 20
103.3670202201797
 10
107.2105086437659
 20
103.3814357913879
 10
107.2282831830226
 20
103.3975954421597
 10
107.2444428337945
 20
103.4153592154932
 10
107.2588476390795
 20
103.434619452156
 10
107.2713899396452
 20
103.4552469610692
 10
107.281940544413
 20
103.4771017852311
 10
107.2903594963807
 20
103.500076265409
 10
107.2965283703929
 20
103.5240304446011
 10
107.3003287412939
 20
103.5488458976518
 10
107.3016206520818
 20
103.5743826675591
 10
107.3016206520818
 20
103.5743826675591
 10
107.3003287412939
 20
103.5999732670825
 10
107.2965283703929
 20
103.6248425497494
 10
107.2903594963807
 20
103.6488074948647
 10
107.2819297784897
 20
103.6717927409659
 10
107.2713899396452
 20
103.6936690969742
 10
107.2588476390795
 20
103.7142858399642
 10
107.2444320678712
 20
103.733546076627
 10
107.2282831830226
 20
103.7512990840373
 10
107.2105086437659
 20
103.7674372029627
 10
107.1912591730264
 20
103.7818204764012
 10
107.1706316641131
 20
103.7943412451204
 10
107.1487660740281
 20
103.8048595521185
 10
107.1258023597733
 20
103.813267738163
 10
107.1018481805812
 20
103.819425846252
 10
107.0770327275305
 20
103.8232046853065
 10
107.0514959576233
 20
103.8244965960944
 10
107.0514959576233
 20
103.8244965960944
 10
107.025959187716
 20
103.8232154512298
 10
107.0011437346653
 20
103.819425846252
 10
106.9771895554732
 20
103.813267738163
 10
106.9542258412184
 20
103.8048595521185
 10
106.9323602511334
 20
103.7943412451204
 10
106.9117435081433
 20
103.7818204764012
 10
106.8924832714806
 20
103.7674264370394
 10
106.8747087322239
 20
103.7512990840373
 10
106.8585598473752
 20
103.733546076627
 10
106.8441442761671
 20
103.7142858399642
 10
106.8316019756013
 20
103.6936690969742
 10
106.8210513708335
 20
103.6718035068892
 10
106.8126324188658
 20
103.648818260788
 10
106.8064635448536
 20
103.6248317838262
 10
106.8026631739526
 20
103.5999840330058
 10
106.8013712631647
 20
103.5743826675591
 10
106.8013712631647
 20
103.5743826675591
 10
106.8026631739526
 20
103.5488458976518
 10
106.8064635448536
 20
103.5240304446011
 10
106.8126324188658
 20
103.500076265409
 10
106.8210621367568
 20
103.4771017852311
 10
106.8316019756013
 20
103.4552469610692
 10
106.8441442761671
 20
103.434619452156
 10
106.858549081452
 20
103.4153699814164
 10
106.8747087322239
 20
103.3975954421597
 10
106.8924832714806
 20
103.3814357913879
 10
106.9117435081433
 20
103.3670309861029
 10
106.9323602511334
 20
103.3544886855371
 10
106.9542258412184
 20
103.3439380807694
 10
106.9772003213964
 20
103.3355191288016
 10
107.0011437346653
 20
103.3293502547895
 10
107.025959187716
 20
103.3255498838884
 97
        0
 75
     1
 76
     1
 98
        0
  0
LWPOLYLINE
  5
90
330
1F
100
AcDbEntity
  8
ISS138金台
  6
Continuous
 62
   250
420
  2367521
370
    13
100
AcDbPolyline
 90
       68
 70
     0
 43
0.0
 10
107.0514959576233
 20
103.3242579731005
 10
107.0770219616073
 20
103.3255498838884
 10
107.101837414658
 20
103.3293394888662
 10
107.1257915938501
 20
103.3355191288016
 10
107.1487660740281
 20
103.3439488466926
 10
107.1706316641131
 20
103.3544886855371
 10
107.1912484071032
 20
103.3670202201797
 10
107.2105086437659
 20
103.3814357913879
 10
107.2282831830226
 20
103.3975954421597
 10
107.2444428337945
 20
103.4153592154932
 10
107.2588476390795
 20
103.434619452156
 10
107.2713899396452
 20
103.4552469610692
 10
107.281940544413
 20
103.4771017852311
 10
107.2903594963807
 20
103.500076265409
 10
107.2965283703929
 20
103.5240304446011
 10
107.3003287412939
 20
103.5488458976518
 10
107.3016206520818
 20
103.5743826675591
 10
107.3016206520818
 20
103.5743826675591
 10
107.3003287412939
 20
103.5999732670825
 10
107.2965283703929
 20
103.6248425497494
 10
107.2903594963807
 20
103.6488074948647
 10
107.2819297784897
 20
103.6717927409659
 10
107.2713899396452
 20
103.6936690969742
 10
107.2588476390795
 20
103.7142858399642
 10
107.2444320678712
 20
103.733546076627
 10
107.2282831830226
 20
103.7512990840373
 10
107.2105086437659
 20
103.7674372029627
 10
107.1912591730264
 20
103.7818204764012
 10
107.1706316641131
 20
103.7943412451204
 10
107.1487660740281
 20
103.8048595521185
 10
107.1258023597733
 20
103.813267738163
 10
107.1018481805812
 20
103.819425846252
 10
107.0770327275305
 20
103.8232046853065
 10
107.0514959576233
 20
103.8244965960944
 10
107.0514959576233
 20
103.8244965960944
 10
107.025959187716
 20
103.8232154512298
 10
107.0011437346653
 20
103.819425846252
 10
106.9771895554732
 20
103.813267738163
 10
106.9542258412184
 20
103.8048595521185
 10
106.9323602511334
 20
103.7943412451204
 10
106.9117435081433
 20
103.7818204764012
 10
106.8924832714806
 20
103.7674264370394
 10
106.8747087322239
 20
103.7512990840373
 10
106.8585598473752
 20
103.733546076627
 10
106.8441442761671
 20
103.7142858399642
 10
106.8316019756013
 20
103.6936690969742
 10
106.8210513708335
 20
103.6718035068892
 10
106.8126324188658
 20
103.648818260788
 10
106.8064635448536
 20
103.6248317838262
 10
106.8026631739526
 20
103.5999840330058
 10
106.8013712631647
 20
103.5743826675591
 10
106.8013712631647
 20
103.5743826675591
 10
106.8026631739526
 20
103.5488458976518
 10
106.8064635448536
 20
103.5240304446011
 10
106.8126324188658
 20
103.500076265409
 10
106.8210621367568
 20
103.4771017852311
 10
106.8316019756013
 20
103.4552469610692
 10
106.8441442761671
 20
103.434619452156
 10
106.858549081452
 20
103.4153699814164
 10
106.8747087322239
 20
103.3975954421597
 10
106.8924832714806
 20
103.3814357913879
 10
106.9117435081433
 20
103.3670309861029
 10
106.9323602511334
 20
103.3544886855371
 10
106.9542258412184
 20
103.3439380807694
 10
106.9772003213964
 20
103.3355191288016
 10
107.0011437346653
 20
103.3293502547895
 10
107.025959187716
 20
103.3255498838884
 10
107.0514959576233
 20
103.3242579731005
  0
HATCH
  5
91
330
1F
100
AcDbEntity
  8
ISS138金台
  6
Continuous
 62
   250
420
  2367521
370
    13
100
AcDbHatch
 10
0.0
 20
0.0
 30
0.0
210
0.0
220
0.0
230
1.0
  2
SOLID
 70
     1
 71
     0
 91
        1
 92
        3
 72
     0
 73
     1
 93
       67
 10
107.0514959576233
 20
105.9628673322085
 10
107.0770219616073
 20
105.9641592429964
 10
107.101837414658
 20
105.9679488479742
 10
107.1257915938501
 20
105.9740854242167
 10
107.1487660740281
 20
105.9825043761844
 10
107.1706316641131
 20
105.9930119172592
 10
107.1912484071032
 20
106.0055219200553
 10
107.2105086437659
 20
106.0198944275705
 10
107.2282831830226
 20
106.0360217805727
 10
107.2444428337945
 20
106.0537640220597
 10
107.2588476390795
 20
106.0729919609528
 10
107.2713899396452
 20
106.0935764061732
 10
107.281940544413
 20
106.1154204644117
 10
107.2903594963807
 20
106.13836264682
 10
107.2965283703929
 20
106.1622952941656
 10
107.3003287412939
 20
106.1870999812931
 10
107.3016206520818
 20
106.2126367512004
 10
107.3016206520818
 20
106.2126367512004
 10
107.3003287412939
 20
106.2382919462632
 10
107.2965283703929
 20
106.2631827607765
 10
107.2903594963807
 20
106.2872015355081
 10
107.2819297784897
 20
106.3102190793789
 10
107.2713899396452
 20
106.332084669464
 10
107.2588476390795
 20
106.352701412454
 10
107.2444320678712
 20
106.3719508831936
 10
107.2282831830226
 20
106.3896823587574
 10
107.2105086437659
 20
106.4057989458363
 10
107.1912591730264
 20
106.4201714533515
 10
107.1706316641131
 20
106.4326599243011
 10
107.1487660740281
 20
106.443167465376
 10
107.1258023597733
 20
106.451554119574
 10
107.1018481805812
 20
106.4576906958165
 10
107.0770327275305
 20
106.4614695348711
 10
107.0514959576233
 20
106.4627506797357
 10
107.0514959576233
 20
106.4627506797357
 10
107.025959187716
 20
106.4614803007943
 10
107.0011437346653
 20
106.4576906958165
 10
106.9771895554732
 20
106.4515433536508
 10
106.9542258412184
 20
106.4431566994527
 10
106.9323602511334
 20
106.4326706902244
 10
106.9117435081433
 20
106.4201714533515
 10
106.8924832714806
 20
106.4057989458363
 10
106.8747087322239
 20
106.3896823587574
 10
106.8585598473752
 20
106.3719508831936
 10
106.8441442761671
 20
106.352701412454
 10
106.8316019756013
 20
106.332084669464
 10
106.8210513708335
 20
106.3102083134557
 10
106.8126324188658
 20
106.2872015355081
 10
106.8064635448536
 20
106.2631935266998
 10
106.8026631739526
 20
106.2382919462632
 10
106.8013712631647
 20
106.2126367512004
 10
106.8013712631647
 20
106.2126367512004
 10
106.8026631739526
 20
106.1870999812931
 10
106.8064635448536
 20
106.1622952941656
 10
106.8126324188658
 20
106.13836264682
 10
106.8210621367568
 20
106.1154204644117
 10
106.8316019756013
 20
106.0935764061732
 10
106.8441442761671
 20
106.0729811950296
 10
106.858549081452
 20
106.0537640220597
 10
106.8747087322239
 20
106.0360217805727
 10
106.8924832714806
 20
106.0198944275705
 10
106.9117435081433
 20
106.0055219200553
 10
106.9323602511334
 20
105.9930119172592
 10
106.9542258412184
 20
105.9824936102612
 10
106.9772003213964
 20
105.9740961901399
 10
107.0011437346653
 20
105.967938082051
 10
107.025959187716
 20
105.9641592429964
 97
        0
 75
     1
 76
     1
 98
        0
  0
LWPOLYLINE
  5
92
330
1F
100
AcDbEntity
  8
ISS138金台
  6
Continuous
 62
   250
420
  2367521
370
    13
100
AcDbPolyline
 90
       68
 70
     0
 43
0.0
 10
107.0514959576233
 20
105.9628673322085
 10
107.0770219616073
 20
105.9641592429964
 10
107.101837414658
 20
105.9679488479742
 10
107.1257915938501
 20
105.9740854242167
 10
107.1487660740281
 20
105.9825043761844
 10
107.1706316641131
 20
105.9930119172592
 10
107.1912484071032
 20
106.0055219200553
 10
107.2105086437659
 20
106.0198944275705
 10
107.2282831830226
 20
106.0360217805727
 10
107.2444428337945
 20
106.0537640220597
 10
107.2588476390795
 20
106.0729919609528
 10
107.2713899396452
 20
106.0935764061732
 10
107.281940544413
 20
106.1154204644117
 10
107.2903594963807
 20
106.13836264682
 10
107.2965283703929
 20
106.1622952941656
 10
107.3003287412939
 20
106.1870999812931
 10
107.3016206520818
 20
106.2126367512004
 10
107.3016206520818
 20
106.2126367512004
 10
107.3003287412939
 20
106.2382919462632
 10
107.2965283703929
 20
106.2631827607765
 10
107.2903594963807
 20
106.2872015355081
 10
107.2819297784897
 20
106.3102190793789
 10
107.2713899396452
 20
106.332084669464
 10
107.2588476390795
 20
106.352701412454
 10
107.2444320678712
 20
106.3719508831936
 10
107.2282831830226
 20
106.3896823587574
 10
107.2105086437659
 20
106.4057989458363
 10
107.1912591730264
 20
106.4201714533515
 10
107.1706316641131
 20
106.4326599243011
 10
107.1487660740281
 20
106.443167465376
 10
107.1258023597733
 20
106.451554119574
 10
107.1018481805812
 20
106.4576906958165
 10
107.0770327275305
 20
106.4614695348711
 10
107.0514959576233
 20
106.4627506797357
 10
107.0514959576233
 20
106.4627506797357
 10
107.025959187716
 20
106.4614803007943
 10
107.0011437346653
 20
106.4576906958165
 10
106.9771895554732
 20
106.4515433536508
 10
106.9542258412184
 20
106.4431566994527
 10
106.9323602511334
 20
106.4326706902244
 10
106.9117435081433
 20
106.4201714533515
 10
106.8924832714806
 20
106.4057989458363
 10
106.8747087322239
 20
106.3896823587574
 10
106.8585598473752
 20
106.3719508831936
 10
106.8441442761671
 20
106.352701412454
 10
106.8316019756013
 20
106.332084669464
 10
106.8210513708335
 20
106.3102083134557
 10
106.8126324188658
 20
106.2872015355081
 10
106.8064635448536
 20
106.2631935266998
 10
106.8026631739526
 20
106.2382919462632
 10
106.8013712631647
 20
106.2126367512004
 10
106.8013712631647
 20
106.2126367512004
 10
106.8026631739526
 20
106.1870999812931
 10
106.8064635448536
 20
106.1622952941656
 10
106.8126324188658
 20
106.13836264682
 10
106.8210621367568
 20
106.1154204644117
 10
106.8316019756013
 20
106.0935764061732
 10
106.8441442761671
 20
106.0729811950296
 10
106.858549081452
 20
106.0537640220597
 10
106.8747087322239
 20
106.0360217805727
 10
106.8924832714806
 20
106.0198944275705
 10
106.9117435081433
 20
106.0055219200553
 10
106.9323602511334
 20
105.9930119172592
 10
106.9542258412184
 20
105.9824936102612
 10
106.9772003213964
 20
105.9740961901399
 10
107.0011437346653
 20
105.967938082051
 10
107.025959187716
 20
105.9641592429964
 10
107.0514959576233
 20
105.9628673322085
  0
LINE
  5
93
330
1F
100
AcDbEntity
  8
ISS138金台
  6
UserDefined01
 62
   140
420
    44526
370
    13
100
AcDbLine
 10
125.5502911679448
 20
98.5769379963838
 30
0.0
 11
130.5554980697707
 21
98.5769379963838
 31
0.0
  0
TEXT
  5
94
330
1F
100
AcDbEntity
  8
ISS138金台
  6
Continuous
 62
   140
420
    44526
100
AcDbText
 10
127.3277989232318
 20
99.36678012658429
 30
0.0
 40
1.881716638406118
  1
5
 41
1.010001046316964
  7
MS Gothic
100
AcDbText
  0
HATCH
  5
95
330
1F
100
AcDbEntity
  8
ISS138金台
  6
Continuous
 62
   140
420
    44526
370
    13
100
AcDbHatch
 10
0.0
 20
0.0
 30
0.0
210
0.0
220
0.0
230
1.0
  2
SOLID
 70
     1
 71
     0
 91
        1
 92
        3
 72
     0
 73
     1
 93
        3
 10
124.6841834098207
 20
112.5993376881322
 10
126.4163235646063
 20
112.5986271371989
 10
125.5509586551852
 20
111.1003874305607
 97
        0
 75
     1
 76
     1
 98
        0
  0
LWPOLYLINE
  5
96
330
1F
100
AcDbEntity
  8
ISS138金台
  6
Continuous
 62
   140
420
    44526
370
    13
100
AcDbPolyline
 90
        4
 70
     0
 43
0.0
 10
124.6841834098207
 20
112.5993376881322
 10
126.4163235646063
 20
112.5986271371989
 10
125.5509586551852
 20
111.1003874305607
 10
124.6841834098207
 20
112.5993376881322
  0
ENDSEC
  0
SECTION
  2
OBJECTS
  0
DICTIONARY
  5
C
330
0
100
AcDbDictionary
281
     1
  3
ACAD_DETAILVIEWSTYLE
350
9E
  3
ACAD_GROUP
350
D
  3
ACAD_LAYOUT
350
1A
  3
ACAD_MATERIAL
350
43
  3
ACAD_MLEADERSTYLE
350
5B
  3
ACAD_MLINESTYLE
350
17
  3
ACAD_PLOTSETTINGS
350
19
  3
ACAD_PLOTSTYLENAME
350
E
  3
ACAD_SCALELIST
350
47
  3
ACAD_SECTIONVIEWSTYLE
350
9F
  3
ACAD_TABLESTYLE
350
59
  3
ACAD_VISUALSTYLE
350
2A
  3
ACDB_RECOMPOSE_DATA
350
9B
  3
AcDbVariableDictionary
350
97
  0
SUN
  5
5D
330
29
100
AcDbSun
 90
        1
290
     0
 63
     7
421
 16777215
 40
1.0
291
     1
 91
  2455826
 92
 54000000
292
     0
 70
     2
 71
   256
280
     1
  0
DICTIONARY
  5
9E
102
{ACAD_REACTORS
330
C
102
}
330
C
100
AcDbDictionary
281
     1
  0
DICTIONARY
  5
D
102
{ACAD_REACTORS
330
C
102
}
330
C
100
AcDbDictionary
281
     1
  0
DICTIONARY
  5
1A
102
{ACAD_REACTORS
330
C
102
}
330
C
100
AcDbDictionary
281
     1
  3
Layout1
350
1E
  3
Layout2
350
26
  3
Model
350
22
  0
DICTIONARY
  5
43
102
{ACAD_REACTORS
330
C
102
}
330
C
100
AcDbDictionary
281
     1
  3
ByBlock
350
45
  3
ByLayer
350
44
  3
Global
350
46
  0
DICTIONARY
  5
5B
102
{ACAD_REACTORS
330
C
102
}
330
C
100
AcDbDictionary
281
     1
  3
Standard
350
5C
  0
DICTIONARY
  5
17
102
{ACAD_REACTORS
330
C
102
}
330
C
100
AcDbDictionary
281
     1
  3
Standard
350
18
  0
DICTIONARY
  5
19
102
{ACAD_REACTORS
330
C
102
}
330
C
100
AcDbDictionary
281
     1
  0
ACDBDICTIONARYWDFLT
  5
E
102
{ACAD_REACTORS
330
C
102
}
330
C
100
AcDbDictionary
281
     1
  3
Normal
350
F
100
AcDbDictionaryWithDefault
340
F
  0
DICTIONARY
  5
47
102
{ACAD_REACTORS
330
C
102
}
330
C
100
AcDbDictionary
281
     1
  3
A0
350
48
  3
A1
350
49
  3
A2
350
4A
  3
A3
350
4B
  3
A4
350
4C
  3
A5
350
4D
  3
A6
350
4E
  3
A7
350
4F
  3
A8
350
50
  3
A9
350
51
  3
B0
350
52
  3
B1
350
53
  3
B2
350
54
  3
B3
350
55
  3
B4
350
56
  3
B5
350
57
  3
B6
350
58
  0
DICTIONARY
  5
9F
102
{ACAD_REACTORS
330
C
102
}
330
C
100
AcDbDictionary
281
     1
  0
DICTIONARY
  5
59
102
{ACAD_REACTORS
330
C
102
}
330
C
100
AcDbDictionary
281
     1
  3
Standard
350
5A
  0
DICTIONARY
  5
2A
102
{ACAD_REACTORS
330
C
102
}
330
C
100
AcDbDictionary
281
     1
  3
2dWireframe
350
2F
  3
Basic
350
32
  3
Brighten
350
36
  3
ColorChange
350
3A
  3
Conceptual
350
34
  3
Dim
350
35
  3
EdgeColorOff
350
3D
  3
Facepattern
350
39
  3
Flat
350
2B
  3
FlatWithEdges
350
2C
  3
Gouraud
350
2D
  3
GouraudWithEdges
350
2E
  3
Hidden
350
31
  3
JitterOff
350
3B
  3
Linepattern
350
38
  3
OverhangOff
350
3C
  3
Realistic
350
33
  3
Shaded
350
42
  3
Shaded with edges
350
41
  3
Shades of Gray
350
3E
  3
Sketchy
350
3F
  3
Thicken
350
37
  3
Wireframe
350
30
  3
X-Ray
350
40
  0
XRECORD
  5
9B
102
{ACAD_REACTORS
330
C
102
}
330
C
100
AcDbXrecord
280
     1
 90
        1
330
5A
  0
DICTIONARY
  5
97
102
{ACAD_REACTORS
330
C
102
}
330
C
100
AcDbDictionary
281
     1
  3
CANNOSCALE
350
98
  3
CENTEREXE
350
A0
  3
CENTERLTYPEFILE
350
A1
  3
CMLEADERSTYLE
350
9D
  3
CTABLESTYLE
350
9C
  0
LAYOUT
  5
1E
102
{ACAD_REACTORS
330
1A
102
}
330
1A
100
AcDbPlotSettings
  1

  2
none_device
  4

  6

 40
0.0
 41
0.0
 42
0.0
 43
0.0
 44
0.0
 45
0.0
 46
0.0
 47
0.0
 48
0.0
 49
0.0
140
0.0
141
0.0
142
1.0
143
1.0
 70
   688
 72
     1
 73
     0
 74
     5
  7

 75
    16
 76
     0
 77
     5
 78
   300
147
1.0
148
0.0
149
0.0
100
AcDbLayout
  1
Layout1
 70
     1
 71
     1
 10
0.0
 20
0.0
 11
420.0
 21
297.0
 12
0.0
 22
0.0
 32
0.0
 14
1.000000000000000E+20
 24
1.000000000000000E+20
 34
1.000000000000000E+20
 15
-1.000000000000000E+20
 25
-1.000000000000000E+20
 35
-1.000000000000000E+20
146
0.0
 13
0.0
 23
0.0
 33
0.0
 16
1.0
 26
0.0
 36
0.0
 17
0.0
 27
1.0
 37
0.0
 76
     0
330
1B
  0
LAYOUT
  5
26
102
{ACAD_REACTORS
330
1A
102
}
330
1A
100
AcDbPlotSettings
  1

  2
none_device
  4

  6

 40
0.0
 41
0.0
 42
0.0
 43
0.0
 44
0.0
 45
0.0
 46
0.0
 47
0.0
 48
0.0
 49
0.0
140
0.0
141
0.0
142
1.0
143
1.0
 70
   688
 72
     1
 73
     0
 74
     5
  7

 75
    16
 76
     0
 77
     5
 78
   300
147
1.0
148
0.0
149
0.0
100
AcDbLayout
  1
Layout2
 70
     1
 71
     2
 10
0.0
 20
0.0
 11
0.0
 21
0.0
 12
0.0
 22
0.0
 32
0.0
 14
0.0
 24
0.0
 34
0.0
 15
0.0
 25
0.0
 35
0.0
146
0.0
 13
0.0
 23
0.0
 33
0.0
 16
1.0
 26
0.0
 36
0.0
 17
0.0
 27
1.0
 37
0.0
 76
     0
330
23
  0
LAYOUT
  5
22
102
{ACAD_REACTORS
330
1A
102
}
330
1A
100
AcDbPlotSettings
  1

  2
none_device
  4
Letter_(8.50_x_11.00_Inches)
  6

 40
6.35
 41
6.35
 42
6.35000508
 43
6.35000508
 44
215.9
 45
279.4
 46
0.0
 47
0.0
 48
0.0
 49
0.0
140
0.0
141
0.0
142
1.0
143
1.0
 70
  1712
 72
     1
 73
     0
 74
     0
  7

 75
     0
 76
     0
 77
     5
 78
   300
147
1.0
148
0.0
149
0.0
100
AcDbLayout
  1
Model
 70
     1
 71
     0
 10
0.0
 20
0.0
 11
302.9997823349792
 21
216.0016055409748
 12
0.0
 22
0.0
 32
0.0
 14
0.0
 24
0.0
 34
0.0
 15
302.9997823349792
 25
216.0016055409748
 35
0.0
146
0.0
 13
0.0
 23
0.0
 33
0.0
 16
1.0
 26
0.0
 36
0.0
 17
0.0
 27
1.0
 37
0.0
 76
     0
330
1F
331
29
  0
MATERIAL
  5
45
102
{ACAD_REACTORS
330
43
102
}
330
43
100
AcDbMaterial
  1
ByBlock
 72
     1
 94
      127
  0
MATERIAL
  5
44
102
{ACAD_REACTORS
330
43
102
}
330
43
100
AcDbMaterial
  1
ByLayer
 72
     1
 94
      127
  0
MATERIAL
  5
46
102
{ACAD_REACTORS
330
43
102
}
330
43
100
AcDbMaterial
  1
Global
 72
     1
 94
      127
  0
MLEADERSTYLE
  5
5C
102
{ACAD_REACTORS
330
5B
102
}
330
5B
100
AcDbMLeaderStyle
179
     2
170
     2
171
     1
172
     0
 90
        2
 40
0.0
 41
0.0
173
     1
 91
-1056964608
340
14
 92
       -2
290
     1
 42
2.0
291
     1
 43
8.0
  3
Standard
341
0
 44
4.0
300

342
11
174
     1
178
     6
175
     1
176
     0
 93
-1056964608
 45
4.0
292
     0
297
     0
 46
4.0
343
0
 94
-1056964608
 47
1.0
 49
1.0
140
1.0
293
     1
141
0.0
294
     1
177
     0
142
1.0
295
     0
296
     0
143
3.75
271
     0
272
     9
273
     9
298
     0
  0
MLINESTYLE
  5
18
102
{ACAD_REACTORS
330
17
102
}
330
17
100
AcDbMlineStyle
  2
Standard
 70
     0
  3

 62
   256
 51
90.0
 52
90.0
 71
     2
 49
0.5
 62
   256
  6
BYLAYER
 49
-0.5
 62
   256
  6
BYLAYER
  0
ACDBPLACEHOLDER
  5
F
102
{ACAD_REACTORS
330
E
102
}
330
E
  0
SCALE
  5
48
102
{ACAD_REACTORS
330
47
102
}
330
47
100
AcDbScale
 70
     0
300
1:1
140
1.0
141
1.0
290
     1
  0
SCALE
  5
49
102
{ACAD_REACTORS
330
47
102
}
330
47
100
AcDbScale
 70
     0
300
1:2
140
1.0
141
2.0
290
     0
  0
SCALE
  5
4A
102
{ACAD_REACTORS
330
47
102
}
330
47
100
AcDbScale
 70
     0
300
1:4
140
1.0
141
4.0
290
     0
  0
SCALE
  5
4B
102
{ACAD_REACTORS
330
47
102
}
330
47
100
AcDbScale
 70
     0
300
1:5
140
1.0
141
5.0
290
     0
  0
SCALE
  5
4C
102
{ACAD_REACTORS
330
47
102
}
330
47
100
AcDbScale
 70
     0
300
1:8
140
1.0
141
8.0
290
     0
  0
SCALE
  5
4D
102
{ACAD_REACTORS
330
47
102
}
330
47
100
AcDbScale
 70
     0
300
1:10
140
1.0
141
10.0
290
     0
  0
SCALE
  5
4E
102
{ACAD_REACTORS
330
47
102
}
330
47
100
AcDbScale
 70
     0
300
1:16
140
1.0
141
16.0
290
     0
  0
SCALE
  5
4F
102
{ACAD_REACTORS
330
47
102
}
330
47
100
AcDbScale
 70
     0
300
1:20
140
1.0
141
20.0
290
     0
  0
SCALE
  5
50
102
{ACAD_REACTORS
330
47
102
}
330
47
100
AcDbScale
 70
     0
300
1:30
140
1.0
141
30.0
290
     0
  0
SCALE
  5
51
102
{ACAD_REACTORS
330
47
102
}
330
47
100
AcDbScale
 70
     0
300
1:40
140
1.0
141
40.0
290
     0
  0
SCALE
  5
52
102
{ACAD_REACTORS
330
47
102
}
330
47
100
AcDbScale
 70
     0
300
1:50
140
1.0
141
50.0
290
     0
  0
SCALE
  5
53
102
{ACAD_REACTORS
330
47
102
}
330
47
100
AcDbScale
 70
     0
300
1:100
140
1.0
141
100.0
290
     0
  0
SCALE
  5
54
102
{ACAD_REACTORS
330
47
102
}
330
47
100
AcDbScale
 70
     0
300
2:1
140
2.0
141
1.0
290
     0
  0
SCALE
  5
55
102
{ACAD_REACTORS
330
47
102
}
330
47
100
AcDbScale
 70
     0
300
4:1
140
4.0
141
1.0
290
     0
  0
SCALE
  5
56
102
{ACAD_REACTORS
330
47
102
}
330
47
100
AcDbScale
 70
     0
300
8:1
140
8.0
141
1.0
290
     0
  0
SCALE
  5
57
102
{ACAD_REACTORS
330
47
102
}
330
47
100
AcDbScale
 70
     0
300
10:1
140
10.0
141
1.0
290
     0
  0
SCALE
  5
58
102
{ACAD_REACTORS
330
47
102
}
330
47
100
AcDbScale
 70
     0
300
100:1
140
100.0
141
1.0
290
     0
  0
TABLESTYLE
  5
5A
102
{ACAD_REACTORS
330
59
102
}
102
{ACAD_XDICTIONARY
360
99
102
}
330
59
100
AcDbTableStyle
  3
Standard
 70
     0
 71
     0
 40
0.06
 41
0.06
280
     0
281
     0
  7
Standard
140
4.5
170
     2
 62
     0
 63
   257
283
     0
 90
        4
 91
        0
  1

274
    -2
284
     1
 64
     0
275
    -2
285
     1
 65
     0
276
    -2
286
     1
 66
     0
277
    -2
287
     1
 67
     0
278
    -2
288
     1
 68
     0
279
    -2
289
     1
 69
     0
  7
Standard
140
6.0
170
     5
 62
     0
 63
   257
283
     0
 90
        4
 91
        0
  1

274
    -2
284
     1
 64
     0
275
    -2
285
     1
 65
     0
276
    -2
286
     1
 66
     0
277
    -2
287
     1
 67
     0
278
    -2
288
     1
 68
     0
279
    -2
289
     1
 69
     0
  7
Standard
140
4.5
170
     5
 62
     0
 63
   257
283
     0
 90
        4
 91
        0
  1

274
    -2
284
     1
 64
     0
275
    -2
285
     1
 65
     0
276
    -2
286
     1
 66
     0
277
    -2
287
     1
 67
     0
278
    -2
288
     1
 68
     0
279
    -2
289
     1
 69
     0
  0
VISUALSTYLE
  5
2F
102
{ACAD_REACTORS
330
2A
102
}
330
2A
100
AcDbVisualStyle
  2
2dWireframe
 70
     4
177
     3
291
     0
 70
    58
 90
        0
176
     1
 90
        2
176
     1
 90
        0
176
     1
 90
        0
176
     1
 40
0.6
176
     1
 40
30.0
176
     1
 62
     7
420
 16777215
176
     1
 90
        1
176
     1
 90
        4
176
     1
 62
     7
176
     1
 62
   257
176
     1
 90
        1
176
     1
 90
        1
176
     1
 40
1.0
176
     1
 90
        0
176
     1
 62
   257
176
     1
 40
1.0
176
     1
 90
        1
176
     1
 90
        6
176
     1
 90
        2
176
     1
 62
     7
176
     1
 90
        5
176
     1
 90
        0
176
     1
 90
        0
176
     1
290
     0
176
     1
 90
        1
176
     1
 40
0.0
176
     1
 90
        0
176
     1
290
     1
176
     1
290
     1
176
     1
290
     0
176
     1
290
     0
176
     1
290
     0
176
     1
290
     0
176
     1
290
     0
176
     1
290
     0
176
     1
290
     0
176
     1
 90
       50
176
     1
 40
0.0
176
     1
 40
1.0
176
     1
 90
        0
176
     1
 62
    18
420
        0
176
     1
 90
       50
176
     1
 90
        3
176
     1
 62
     5
420
      255
176
     1
290
     0
176
     1
 90
       50
176
     1
 90
       50
176
     1
 90
       50
176
     1
290
     0
176
     1
 90
       50
176
     1
 62
   256
176
     0
 40
1.0
176
     0
 90
        2
176
     1
  1
strokes_ogs.tif
176
     1
290
     0
176
     1
 40
1.0
176
     1
 40
1.0
176
     1
  0
VISUALSTYLE
  5
32
102
{ACAD_REACTORS
330
2A
102
}
330
2A
100
AcDbVisualStyle
  2
Basic
 70
     7
177
     3
291
     1
 70
    58
 90
        1
176
     1
 90
        0
176
     1
 90
        1
176
     1
 90
        0
176
     1
 40
0.6
176
     1
 40
30.0
176
     1
 62
     7
420
 16777215
176
     1
 90
        0
176
     1
 90
        4
176
     1
 62
     7
176
     1
 62
   257
176
     1
 90
        1
176
     1
 90
        1
176
     1
 40
1.0
176
     1
 90
        8
176
     1
 62
     7
176
     1
 40
1.0
176
     1
 90
        1
176
     1
 90
        6
176
     1
 90
        2
176
     1
 62
     7
176
     1
 90
        5
176
     1
 90
        0
176
     1
 90
        0
176
     1
290
     0
176
     1
 90
        1
176
     1
 40
0.0
176
     1
 90
        0
176
     1
290
     0
176
     1
290
     1
176
     1
290
     1
176
     1
290
     0
176
     1
290
     0
176
     1
290
     0
176
     1
290
     0
176
     1
290
     0
176
     1
290
     0
176
     1
 90
       50
176
     1
 40
0.0
176
     1
 40
1.0
176
     1
 90
        0
176
     1
 62
    18
420
        0
176
     1
 90
       50
176
     1
 90
        3
176
     1
 62
     5
420
      255
176
     1
290
     0
176
     1
 90
       50
176
     1
 90
       50
176
     1
 90
       50
176
     1
290
     0
176
     1
 90
       50
176
     1
 62
   256
176
     0
 40
1.0
176
     0
 90
        2
176
     1
  1
strokes_ogs.tif
176
     1
290
     0
176
     1
 40
1.0
176
     1
 40
1.0
176
     1
  0
VISUALSTYLE
  5
36
102
{ACAD_REACTORS
330
2A
102
}
330
2A
100
AcDbVisualStyle
  2
Brighten
 70
    12
177
     3
291
     1
 70
    58
 90
        2
176
     1
 90
        2
176
     1
 90
        0
176
     1
 90
        0
176
     1
 40
0.6
176
     1
 40
30.0
176
     1
 62
     7
420
 16777215
176
     1
 90
        1
176
     1
 90
        4
176
     1
 62
     7
176
     1
 62
   257
176
     1
 90
        1
176
     1
 90
        1
176
     1
 40
1.0
176
     1
 90
        8
176
     1
 62
     7
176
     1
 40
1.0
176
     1
 90
        1
176
     1
 90
        6
176
     1
 90
        2
176
     1
 62
     7
176
     1
 90
        5
176
     1
 90
        0
176
     1
 90
        0
176
     1
290
     0
176
     1
 90
        1
176
     1
 40
50.0
176
     1
 90
        0
176
     1
290
     0
176
     1
290
     1
176
     1
290
     1
176
     1
290
     0
176
     1
290
     0
176
     1
290
     0
176
     1
290
     0
176
     1
290
     0
176
     1
290
     0
176
     1
 90
       50
176
     1
 40
0.0
176
     1
 40
1.0
176
     1
 90
        0
176
     1
 62
    18
420
        0
176
     1
 90
       50
176
     1
 90
        3
176
     1
 62
     5
420
      255
176
     1
290
     0
176
     1
 90
       50
176
     1
 90
       50
176
     1
 90
       50
176
     1
290
     0
176
     1
 90
       50
176
     1
 62
   256
176
     0
 40
1.0
176
     0
 90
        2
176
     1
  1
strokes_ogs.tif
176
     1
290
     0
176
     1
 40
1.0
176
     1
 40
1.0
176
     1
  0
VISUALSTYLE
  5
3A
102
{ACAD_REACTORS
330
2A
102
}
330
2A
100
AcDbVisualStyle
  2
ColorChange
 70
    16
177
     3
291
     1
 70
    58
 90
        2
176
     1
 90
        2
176
     1
 90
        3
176
     1
 90
        0
176
     1
 40
0.6
176
     1
 40
30.0
176
     1
 62
     8
420
  8421504
176
     1
 90
        1
176
     1
 90
        4
176
     1
 62
     7
176
     1
 62
   257
176
     1
 90
        1
176
     1
 90
        1
176
     1
 40
1.0
176
     1
 90
        8
176
     1
 62
     8
420
  8421504
176
     1
 40
1.0
176
     1
 90
        1
176
     1
 90
        6
176
     1
 90
        2
176
     1
 62
     7
176
     1
 90
        5
176
     1
 90
        0
176
     1
 90
        0
176
     1
290
     0
176
     1
 90
        1
176
     1
 40
0.0
176
     1
 90
        0
176
     1
290
     0
176
     1
290
     1
176
     1
290
     1
176
     1
290
     0
176
     1
290
     0
176
     1
290
     0
176
     1
290
     0
176
     1
290
     0
176
     1
290
     0
176
     1
 90
       50
176
     1
 40
0.0
176
     1
 40
1.0
176
     1
 90
        0
176
     1
 62
    18
420
        0
176
     1
 90
       50
176
     1
 90
        3
176
     1
 62
     5
420
      255
176
     1
290
     0
176
     1
 90
       50
176
     1
 90
       50
176
     1
 90
       50
176
     1
290
     0
176
     1
 90
       50
176
     1
 62
   256
176
     0
 40
1.0
176
     0
 90
        2
176
     1
  1
strokes_ogs.tif
176
     1
290
     0
176
     1
 40
1.0
176
     1
 40
1.0
176
     1
  0
VISUALSTYLE
  5
34
102
{ACAD_REACTORS
330
2A
102
}
330
2A
100
AcDbVisualStyle
  2
Conceptual
 70
     9
177
     3
291
     0
 70
    58
 90
        3
176
     1
 90
        2
176
     1
 90
        0
176
     1
 90
        0
176
     1
 40
0.6
176
     1
 40
30.0
176
     1
 62
     7
420
 16777215
176
     1
 90
        2
176
     1
 90
        2
176
     1
 62
     7
176
     1
 62
   257
176
     1
 90
        1
176
     1
 90
        1
176
     1
 40
179.0
176
     1
 90
        8
176
     1
 62
     7
176
     1
 40
1.0
176
     1
 90
        1
176
     1
 90
        6
176
     1
 90
        2
176
     1
 62
     7
176
     1
 90
        3
176
     1
 90
        0
176
     1
 90
        0
176
     1
290
     0
176
     1
 90
        1
176
     1
 40
0.0
176
     1
 90
        0
176
     1
290
     0
176
     1
290
     1
176
     1
290
     1
176
     1
290
     0
176
     1
290
     0
176
     1
290
     0
176
     1
290
     0
176
     1
290
     0
176
     1
290
     0
176
     1
 90
       50
176
     1
 40
0.0
176
     1
 40
1.0
176
     1
 90
        0
176
     1
 62
    18
420
        0
176
     1
 90
       50
176
     1
 90
        3
176
     1
 62
     5
420
      255
176
     1
290
     0
176
     1
 90
       50
176
     1
 90
       50
176
     1
 90
       50
176
     1
290
     0
176
     1
 90
       50
176
     1
 62
   256
176
     0
 40
1.0
176
     0
 90
        2
176
     1
  1
strokes_ogs.tif
176
     1
290
     0
176
     1
 40
1.0
176
     1
 40
1.0
176
     1
  0
VISUALSTYLE
  5
35
102
{ACAD_REACTORS
330
2A
102
}
330
2A
100
AcDbVisualStyle
  2
Dim
 70
    11
177
     3
291
     1
 70
    58
 90
        2
176
     1
 90
        2
176
     1
 90
        0
176
     1
 90
        0
176
     1
 40
0.6
176
     1
 40
30.0
176
     1
 62
     7
420
 16777215
176
     1
 90
        1
176
     1
 90
        4
176
     1
 62
     7
176
     1
 62
   257
176
     1
 90
        1
176
     1
 90
        1
176
     1
 40
1.0
176
     1
 90
        8
176
     1
 62
     7
176
     1
 40
1.0
176
     1
 90
        1
176
     1
 90
        6
176
     1
 90
        2
176
     1
 62
     7
176
     1
 90
        5
176
     1
 90
        0
176
     1
 90
        0
176
     1
290
     0
176
     1
 90
        1
176
     1
 40
-50.0
176
     1
 90
        0
176
     1
290
     0
176
     1
290
     1
176
     1
290
     1
176
     1
290
     0
176
     1
290
     0
176
     1
290
     0
176
     1
290
     0
176
     1
290
     0
176
     1
290
     0
176
     1
 90
       50
176
     1
 40
0.0
176
     1
 40
1.0
176
     1
 90
        0
176
     1
 62
    18
420
        0
176
     1
 90
       50
176
     1
 90
        3
176
     1
 62
     5
420
      255
176
     1
290
     0
176
     1
 90
       50
176
     1
 90
       50
176
     1
 90
       50
176
     1
290
     0
176
     1
 90
       50
176
     1
 62
   256
176
     0
 40
1.0
176
     0
 90
        2
176
     1
  1
strokes_ogs.tif
176
     1
290
     0
176
     1
 40
1.0
176
     1
 40
1.0
176
     1
  0
VISUALSTYLE
  5
3D
102
{ACAD_REACTORS
330
2A
102
}
330
2A
100
AcDbVisualStyle
  2
EdgeColorOff
 70
    22
177
     3
291
     1
 70
    58
 90
        2
176
     0
 90
        2
176
     0
 90
        0
176
     0
 90
        0
176
     0
 40
0.6
176
     0
 40
30.0
176
     0
 62
     7
420
 16777215
176
     0
 90
        1
176
     0
 90
        4
176
     0
 62
     7
176
     0
 62
   257
176
     0
 90
        1
176
     0
 90
        1
176
     0
 40
1.0
176
     0
 90
        8
176
     2
 62
     7
176
     0
 40
1.0
176
     0
 90
        1
176
     0
 90
        6
176
     0
 90
        2
176
     0
 62
     7
176
     0
 90
        5
176
     0
 90
        0
176
     0
 90
        0
176
     0
290
     0
176
     0
 90
        1
176
     0
 40
0.0
176
     0
 90
        0
176
     0
290
     0
176
     0
290
     1
176
     0
290
     1
176
     0
290
     0
176
     0
290
     0
176
     0
290
     0
176
     0
290
     0
176
     0
290
     0
176
     0
290
     0
176
     0
 90
       50
176
     0
 40
0.0
176
     0
 40
1.0
176
     0
 90
        0
176
     0
 62
    18
420
        0
176
     0
 90
       50
176
     0
 90
        3
176
     0
 62
     5
420
      255
176
     0
290
     0
176
     0
 90
       50
176
     0
 90
       50
176
     0
 90
       50
176
     0
290
     0
176
     0
 90
       50
176
     0
 62
   256
176
     0
 40
1.0
176
     0
 90
        2
176
     0
  1
strokes_ogs.tif
176
     0
290
     0
176
     0
 40
1.0
176
     0
 40
1.0
176
     0
  0
VISUALSTYLE
  5
39
102
{ACAD_REACTORS
330
2A
102
}
330
2A
100
AcDbVisualStyle
  2
Facepattern
 70
    15
177
     3
291
     1
 70
    58
 90
        2
176
     1
 90
        2
176
     1
 90
        0
176
     1
 90
        0
176
     1
 40
0.6
176
     1
 40
30.0
176
     1
 62
     7
420
 16777215
176
     1
 90
        1
176
     1
 90
        4
176
     1
 62
     7
176
     1
 62
   257
176
     1
 90
        1
176
     1
 90
        1
176
     1
 40
1.0
176
     1
 90
        8
176
     1
 62
     7
176
     1
 40
1.0
176
     1
 90
        1
176
     1
 90
        6
176
     1
 90
        2
176
     1
 62
     7
176
     1
 90
        5
176
     1
 90
        0
176
     1
 90
        0
176
     1
290
     0
176
     1
 90
        1
176
     1
 40
0.0
176
     1
 90
        0
176
     1
290
     0
176
     1
290
     1
176
     1
290
     1
176
     1
290
     0
176
     1
290
     0
176
     1
290
     0
176
     1
290
     0
176
     1
290
     0
176
     1
290
     0
176
     1
 90
       50
176
     1
 40
0.0
176
     1
 40
1.0
176
     1
 90
        0
176
     1
 62
    18
420
        0
176
     1
 90
       50
176
     1
 90
        3
176
     1
 62
     5
420
      255
176
     1
290
     0
176
     1
 90
       50
176
     1
 90
       50
176
     1
 90
       50
176
     1
290
     0
176
     1
 90
       50
176
     1
 62
   256
176
     0
 40
1.0
176
     0
 90
        2
176
     1
  1
strokes_ogs.tif
176
     1
290
     0
176
     1
 40
1.0
176
     1
 40
1.0
176
     1
  0
VISUALSTYLE
  5
2B
102
{ACAD_REACTORS
330
2A
102
}
330
2A
100
AcDbVisualStyle
  2
Flat
 70
     0
177
     3
291
     1
 70
    58
 90
        2
176
     1
 90
        1
176
     1
 90
        1
176
     1
 90
        2
176
     1
 40
0.6
176
     1
 40
30.0
176
     1
 62
     7
420
 16777215
176
     1
 90
        0
176
     1
 90
        0
176
     1
 62
     7
176
     1
 62
   257
176
     1
 90
        1
176
     1
 90
        1
176
     1
 40
1.0
176
     1
 90
        8
176
     1
 62
     7
176
     1
 40
1.0
176
     1
 90
        1
176
     1
 90
        6
176
     1
 90
        2
176
     1
 62
     7
176
     1
 90
        5
176
     1
 90
        0
176
     1
 90
        0
176
     1
290
     0
176
     1
 90
       13
176
     1
 40
0.0
176
     1
 90
        0
176
     1
290
     0
176
     1
290
     1
176
     1
290
     1
176
     1
290
     0
176
     1
290
     0
176
     1
290
     0
176
     1
290
     0
176
     1
290
     0
176
     1
290
     0
176
     1
 90
       50
176
     1
 40
0.0
176
     1
 40
1.0
176
     1
 90
        0
176
     1
 62
    18
420
        0
176
     1
 90
       50
176
     1
 90
        3
176
     1
 62
     5
420
      255
176
     1
290
     0
176
     1
 90
       50
176
     1
 90
       50
176
     1
 90
       50
176
     1
290
     0
176
     1
 90
       50
176
     1
 62
   256
176
     0
 40
1.0
176
     0
 90
        2
176
     1
  1
strokes_ogs.tif
176
     1
290
     0
176
     1
 40
1.0
176
     1
 40
1.0
176
     1
  0
VISUALSTYLE
  5
2C
102
{ACAD_REACTORS
330
2A
102
}
330
2A
100
AcDbVisualStyle
  2
FlatWithEdges
 70
     1
177
     3
291
     1
 70
    58
 90
        2
176
     1
 90
        1
176
     1
 90
        1
176
     1
 90
        2
176
     1
 40
0.6
176
     1
 40
30.0
176
     1
 62
     7
420
 16777215
176
     1
 90
        1
176
     1
 90
        0
176
     1
 62
     7
176
     1
 62
   257
176
     1
 90
        1
176
     1
 90
        1
176
     1
 40
1.0
176
     1
 90
        0
176
     1
 62
   257
176
     1
 40
1.0
176
     1
 90
        1
176
     1
 90
        6
176
     1
 90
        2
176
     1
 62
     7
176
     1
 90
        5
176
     1
 90
        0
176
     1
 90
        0
176
     1
290
     0
176
     1
 90
       13
176
     1
 40
0.0
176
     1
 90
        0
176
     1
290
     0
176
     1
290
     1
176
     1
290
     1
176
     1
290
     0
176
     1
290
     0
176
     1
290
     0
176
     1
290
     0
176
     1
290
     0
176
     1
290
     0
176
     1
 90
       50
176
     1
 40
0.0
176
     1
 40
1.0
176
     1
 90
        0
176
     1
 62
    18
420
        0
176
     1
 90
       50
176
     1
 90
        3
176
     1
 62
     5
420
      255
176
     1
290
     0
176
     1
 90
       50
176
     1
 90
       50
176
     1
 90
       50
176
     1
290
     0
176
     1
 90
       50
176
     1
 62
   256
176
     0
 40
1.0
176
     0
 90
        2
176
     1
  1
strokes_ogs.tif
176
     1
290
     0
176
     1
 40
1.0
176
     1
 40
1.0
176
     1
  0
VISUALSTYLE
  5
2D
102
{ACAD_REACTORS
330
2A
102
}
330
2A
100
AcDbVisualStyle
  2
Gouraud
 70
     2
177
     3
291
     1
 70
    58
 90
        2
176
     1
 90
        2
176
     1
 90
        1
176
     1
 90
        2
176
     1
 40
0.6
176
     1
 40
30.0
176
     1
 62
     7
420
 16777215
176
     1
 90
        0
176
     1
 90
        0
176
     1
 62
     7
176
     1
 62
   257
176
     1
 90
        1
176
     1
 90
        1
176
     1
 40
1.0
176
     1
 90
        0
176
     1
 62
     7
176
     1
 40
1.0
176
     1
 90
        1
176
     1
 90
        6
176
     1
 90
        2
176
     1
 62
     7
176
     1
 90
        5
176
     1
 90
        0
176
     1
 90
        0
176
     1
290
     0
176
     1
 90
       13
176
     1
 40
0.0
176
     1
 90
        0
176
     1
290
     0
176
     1
290
     1
176
     1
290
     1
176
     1
290
     0
176
     1
290
     0
176
     1
290
     0
176
     1
290
     0
176
     1
290
     0
176
     1
290
     0
176
     1
 90
       50
176
     1
 40
0.0
176
     1
 40
1.0
176
     1
 90
        0
176
     1
 62
    18
420
        0
176
     1
 90
       50
176
     1
 90
        3
176
     1
 62
     5
420
      255
176
     1
290
     0
176
     1
 90
       50
176
     1
 90
       50
176
     1
 90
       50
176
     1
290
     0
176
     1
 90
       50
176
     1
 62
   256
176
     0
 40
1.0
176
     0
 90
        2
176
     1
  1
strokes_ogs.tif
176
     1
290
     0
176
     1
 40
1.0
176
     1
 40
1.0
176
     1
  0
VISUALSTYLE
  5
2E
102
{ACAD_REACTORS
330
2A
102
}
330
2A
100
AcDbVisualStyle
  2
GouraudWithEdges
 70
     3
177
     3
291
     1
 70
    58
 90
        2
176
     1
 90
        2
176
     1
 90
        1
176
     1
 90
        2
176
     1
 40
0.6
176
     1
 40
30.0
176
     1
 62
     7
420
 16777215
176
     1
 90
        1
176
     1
 90
        0
176
     1
 62
     7
176
     1
 62
   257
176
     1
 90
        1
176
     1
 90
        1
176
     1
 40
1.0
176
     1
 90
        0
176
     1
 62
   257
176
     1
 40
1.0
176
     1
 90
        1
176
     1
 90
        6
176
     1
 90
        2
176
     1
 62
     7
176
     1
 90
        5
176
     1
 90
        0
176
     1
 90
        0
176
     1
290
     0
176
     1
 90
       13
176
     1
 40
0.0
176
     1
 90
        0
176
     1
290
     0
176
     1
290
     1
176
     1
290
     1
176
     1
290
     0
176
     1
290
     0
176
     1
290
     0
176
     1
290
     0
176
     1
290
     0
176
     1
290
     0
176
     1
 90
       50
176
     1
 40
0.0
176
     1
 40
1.0
176
     1
 90
        0
176
     1
 62
    18
420
        0
176
     1
 90
       50
176
     1
 90
        3
176
     1
 62
     5
420
      255
176
     1
290
     0
176
     1
 90
       50
176
     1
 90
       50
176
     1
 90
       50
176
     1
290
     0
176
     1
 90
       50
176
     1
 62
   256
176
     0
 40
1.0
176
     0
 90
        2
176
     1
  1
strokes_ogs.tif
176
     1
290
     0
176
     1
 40
1.0
176
     1
 40
1.0
176
     1
  0
VISUALSTYLE
  5
31
102
{ACAD_REACTORS
330
2A
102
}
330
2A
100
AcDbVisualStyle
  2
Hidden
 70
     6
177
     3
291
     0
 70
    58
 90
        1
176
     1
 90
        2
176
     1
 90
        2
176
     1
 90
        0
176
     1
 40
0.6
176
     1
 40
30.0
176
     1
 62
     7
420
 16777215
176
     1
 90
        2
176
     1
 90
        2
176
     1
 62
     7
176
     1
 62
   257
176
     1
 90
        2
176
     1
 90
        1
176
     1
 40
40.0
176
     1
 90
        0
176
     1
 62
   257
176
     1
 40
1.0
176
     1
 90
        1
176
     1
 90
        6
176
     1
 90
        2
176
     1
 62
     7
176
     1
 90
        3
176
     1
 90
        0
176
     1
 90
        0
176
     1
290
     0
176
     1
 90
        1
176
     1
 40
0.0
176
     1
 90
        0
176
     1
290
     0
176
     1
290
     1
176
     1
290
     1
176
     1
290
     0
176
     1
290
     0
176
     1
290
     0
176
     1
290
     0
176
     1
290
     0
176
     1
290
     0
176
     1
 90
       50
176
     1
 40
0.0
176
     1
 40
1.0
176
     1
 90
        0
176
     1
 62
    18
420
        0
176
     1
 90
       50
176
     1
 90
        3
176
     1
 62
     5
420
      255
176
     1
290
     0
176
     1
 90
       50
176
     1
 90
       50
176
     1
 90
       50
176
     1
290
     0
176
     1
 90
       50
176
     1
 62
   256
176
     0
 40
1.0
176
     0
 90
        2
176
     1
  1
strokes_ogs.tif
176
     1
290
     0
176
     1
 40
1.0
176
     1
 40
1.0
176
     1
  0
VISUALSTYLE
  5
3B
102
{ACAD_REACTORS
330
2A
102
}
330
2A
100
AcDbVisualStyle
  2
JitterOff
 70
    20
177
     3
291
     1
 70
    58
 90
        2
176
     0
 90
        2
176
     0
 90
        0
176
     0
 90
        0
176
     0
 40
0.6
176
     0
 40
30.0
176
     0
 62
     7
420
 16777215
176
     0
 90
        1
176
     0
 90
        4
176
     0
 62
     7
176
     0
 62
   257
176
     0
 90
        1
176
     0
 90
        1
176
     0
 40
1.0
176
     0
 90
       10
176
     2
 62
     7
176
     0
 40
1.0
176
     0
 90
        1
176
     0
 90
        6
176
     0
 90
        2
176
     0
 62
     7
176
     0
 90
        5
176
     0
 90
        0
176
     0
 90
        0
176
     0
290
     0
176
     0
 90
        1
176
     0
 40
0.0
176
     0
 90
        0
176
     0
290
     0
176
     0
290
     1
176
     0
290
     1
176
     0
290
     0
176
     0
290
     0
176
     0
290
     0
176
     0
290
     0
176
     0
290
     0
176
     0
290
     0
176
     0
 90
       50
176
     0
 40
0.0
176
     0
 40
1.0
176
     0
 90
        0
176
     0
 62
    18
420
        0
176
     0
 90
       50
176
     0
 90
        3
176
     0
 62
     5
420
      255
176
     0
290
     0
176
     0
 90
       50
176
     0
 90
       50
176
     0
 90
       50
176
     0
290
     0
176
     0
 90
       50
176
     0
 62
   256
176
     0
 40
1.0
176
     0
 90
        2
176
     0
  1
strokes_ogs.tif
176
     0
290
     0
176
     0
 40
1.0
176
     0
 40
1.0
176
     0
  0
VISUALSTYLE
  5
38
102
{ACAD_REACTORS
330
2A
102
}
330
2A
100
AcDbVisualStyle
  2
Linepattern
 70
    14
177
     3
291
     1
 70
    58
 90
        2
176
     1
 90
        2
176
     1
 90
        0
176
     1
 90
        0
176
     1
 40
0.6
176
     1
 40
30.0
176
     1
 62
     7
420
 16777215
176
     1
 90
        1
176
     1
 90
        4
176
     1
 62
     7
176
     1
 62
   257
176
     1
 90
        7
176
     1
 90
        7
176
     1
 40
1.0
176
     1
 90
        8
176
     1
 62
     7
176
     1
 40
1.0
176
     1
 90
        1
176
     1
 90
        6
176
     1
 90
        2
176
     1
 62
     7
176
     1
 90
        5
176
     1
 90
        0
176
     1
 90
        0
176
     1
290
     0
176
     1
 90
        1
176
     1
 40
0.0
176
     1
 90
        0
176
     1
290
     0
176
     1
290
     1
176
     1
290
     1
176
     1
290
     0
176
     1
290
     0
176
     1
290
     0
176
     1
290
     0
176
     1
290
     0
176
     1
290
     0
176
     1
 90
       50
176
     1
 40
0.0
176
     1
 40
1.0
176
     1
 90
        0
176
     1
 62
    18
420
        0
176
     1
 90
       50
176
     1
 90
        3
176
     1
 62
     5
420
      255
176
     1
290
     0
176
     1
 90
       50
176
     1
 90
       50
176
     1
 90
       50
176
     1
290
     0
176
     1
 90
       50
176
     1
 62
   256
176
     0
 40
1.0
176
     0
 90
        2
176
     1
  1
strokes_ogs.tif
176
     1
290
     0
176
     1
 40
1.0
176
     1
 40
1.0
176
     1
  0
VISUALSTYLE
  5
3C
102
{ACAD_REACTORS
330
2A
102
}
330
2A
100
AcDbVisualStyle
  2
OverhangOff
 70
    21
177
     3
291
     1
 70
    58
 90
        2
176
     0
 90
        2
176
     0
 90
        0
176
     0
 90
        0
176
     0
 40
0.6
176
     0
 40
30.0
176
     0
 62
     7
420
 16777215
176
     0
 90
        1
176
     0
 90
        4
176
     0
 62
     7
176
     0
 62
   257
176
     0
 90
        1
176
     0
 90
        1
176
     0
 40
1.0
176
     0
 90
        9
176
     2
 62
     7
176
     0
 40
1.0
176
     0
 90
        1
176
     0
 90
        6
176
     0
 90
        2
176
     0
 62
     7
176
     0
 90
        5
176
     0
 90
        0
176
     0
 90
        0
176
     0
290
     0
176
     0
 90
        1
176
     0
 40
0.0
176
     0
 90
        0
176
     0
290
     0
176
     0
290
     1
176
     0
290
     1
176
     0
290
     0
176
     0
290
     0
176
     0
290
     0
176
     0
290
     0
176
     0
290
     0
176
     0
290
     0
176
     0
 90
       50
176
     0
 40
0.0
176
     0
 40
1.0
176
     0
 90
        0
176
     0
 62
    18
420
        0
176
     0
 90
       50
176
     0
 90
        3
176
     0
 62
     5
420
      255
176
     0
290
     0
176
     0
 90
       50
176
     0
 90
       50
176
     0
 90
       50
176
     0
290
     0
176
     0
 90
       50
176
     0
 62
   256
176
     0
 40
1.0
176
     0
 90
        2
176
     0
  1
strokes_ogs.tif
176
     0
290
     0
176
     0
 40
1.0
176
     0
 40
1.0
176
     0
  0
VISUALSTYLE
  5
33
102
{ACAD_REACTORS
330
2A
102
}
330
2A
100
AcDbVisualStyle
  2
Realistic
 70
     8
177
     3
291
     0
 70
    58
 90
        2
176
     1
 90
        3
176
     1
 90
        0
176
     1
 90
        2
176
     1
 40
0.6
176
     1
 40
30.0
176
     1
 62
     7
420
 16777215
176
     1
 90
        0
176
     1
 90
        0
176
     1
 62
     7
176
     1
 62
   257
176
     1
 90
        1
176
     1
 90
        1
176
     1
 40
1.0
176
     1
 90
        8
176
     1
 62
   257
176
     1
 40
1.0
176
     1
 90
        1
176
     1
 90
        6
176
     1
 90
        2
176
     1
 62
     7
176
     1
 90
        3
176
     1
 90
        0
176
     1
 90
        0
176
     1
290
     0
176
     1
 90
       13
176
     1
 40
0.0
176
     1
 90
        0
176
     1
290
     0
176
     1
290
     1
176
     1
290
     1
176
     1
290
     0
176
     1
290
     0
176
     1
290
     0
176
     1
290
     0
176
     1
290
     0
176
     1
290
     0
176
     1
 90
       50
176
     1
 40
0.0
176
     1
 40
1.0
176
     1
 90
        0
176
     1
 62
    18
420
        0
176
     1
 90
       50
176
     1
 90
        3
176
     1
 62
     5
420
      255
176
     1
290
     0
176
     1
 90
       50
176
     1
 90
       50
176
     1
 90
       50
176
     1
290
     0
176
     1
 90
       50
176
     1
 62
   256
176
     0
 40
1.0
176
     0
 90
        2
176
     1
  1
strokes_ogs.tif
176
     1
290
     0
176
     1
 40
1.0
176
     1
 40
1.0
176
     1
  0
VISUALSTYLE
  5
42
102
{ACAD_REACTORS
330
2A
102
}
330
2A
100
AcDbVisualStyle
  2
Shaded
 70
    27
177
     3
291
     0
 70
    58
 90
        2
176
     1
 90
        2
176
     1
 90
        1
176
     1
 90
        2
176
     1
 40
0.6
176
     1
 40
30.0
176
     1
 62
     7
420
 16777215
176
     1
 90
        0
176
     1
 90
        4
176
     1
 62
     7
176
     1
 62
   257
176
     1
 90
        1
176
     1
 90
        1
176
     1
 40
1.0
176
     1
 90
        8
176
     1
 62
   257
176
     1
 40
1.0
176
     1
 90
        1
176
     1
 90
        6
176
     1
 90
        2
176
     1
 62
     8
420
  7895160
176
     1
 90
        3
176
     1
 90
        0
176
     1
 90
        0
176
     1
290
     0
176
     1
 90
        5
176
     1
 40
0.0
176
     1
 90
        0
176
     1
290
     0
176
     1
290
     1
176
     1
290
     1
176
     1
290
     0
176
     1
290
     0
176
     1
290
     0
176
     1
290
     0
176
     1
290
     0
176
     1
290
     0
176
     1
 90
       50
176
     1
 40
0.0
176
     1
 40
1.0
176
     1
 90
        0
176
     1
 62
    18
420
        0
176
     1
 90
       50
176
     1
 90
        3
176
     1
 62
     5
420
      255
176
     1
290
     0
176
     1
 90
       50
176
     1
 90
       50
176
     1
 90
       50
176
     1
290
     0
176
     1
 90
       50
176
     1
 62
   256
176
     0
 40
1.0
176
     0
 90
        2
176
     1
  1
strokes_ogs.tif
176
     1
290
     0
176
     1
 40
1.0
176
     1
 40
1.0
176
     1
  0
VISUALSTYLE
  5
41
102
{ACAD_REACTORS
330
2A
102
}
330
2A
100
AcDbVisualStyle
  2
Shaded with edges
 70
    26
177
     3
291
     0
 70
    58
 90
        2
176
     1
 90
        2
176
     1
 90
        1
176
     1
 90
        2
176
     1
 40
0.6
176
     1
 40
30.0
176
     1
 62
     7
420
 16777215
176
     1
 90
        1
176
     1
 90
       10
176
     1
 62
     7
176
     1
 62
   257
176
     1
 90
        2
176
     1
 90
        1
176
     1
 40
1.0
176
     1
 90
        8
176
     1
 62
   257
176
     1
 40
1.0
176
     1
 90
        1
176
     1
 90
        6
176
     1
 90
        2
176
     1
 62
     7
176
     1
 90
        3
176
     1
 90
        0
176
     1
 90
        0
176
     1
290
     0
176
     1
 90
        5
176
     1
 40
0.0
176
     1
 90
        0
176
     1
290
     0
176
     1
290
     1
176
     1
290
     1
176
     1
290
     0
176
     1
290
     0
176
     1
290
     0
176
     1
290
     0
176
     1
290
     0
176
     1
290
     0
176
     1
 90
       50
176
     1
 40
0.0
176
     1
 40
1.0
176
     1
 90
        0
176
     1
 62
    18
420
        0
176
     1
 90
       50
176
     1
 90
        3
176
     1
 62
     5
420
      255
176
     1
290
     0
176
     1
 90
       50
176
     1
 90
       50
176
     1
 90
       50
176
     1
290
     0
176
     1
 90
       50
176
     1
 62
   256
176
     0
 40
1.0
176
     0
 90
        2
176
     1
  1
strokes_ogs.tif
176
     1
290
     0
176
     1
 40
1.0
176
     1
 40
1.0
176
     1
  0
VISUALSTYLE
  5
3E
102
{ACAD_REACTORS
330
2A
102
}
330
2A
100
AcDbVisualStyle
  2
Shades of Gray
 70
    23
177
     3
291
     0
 70
    58
 90
        2
176
     1
 90
        2
176
     1
 90
        3
176
     1
 90
        0
176
     1
 40
0.6
176
     1
 40
30.0
176
     1
 62
     7
420
 16777215
176
     1
 90
        2
176
     1
 90
        2
176
     1
 62
     7
176
     1
 62
     7
176
     1
 90
        1
176
     1
 90
        1
176
     1
 40
40.0
176
     1
 90
        8
176
     1
 62
     7
176
     1
 40
1.0
176
     1
 90
        1
176
     1
 90
        6
176
     1
 90
        2
176
     1
 62
     7
176
     1
 90
        3
176
     1
 90
        0
176
     1
 90
        0
176
     1
290
     0
176
     1
 90
        1
176
     1
 40
0.0
176
     1
 90
        0
176
     1
290
     0
176
     1
290
     1
176
     1
290
     1
176
     1
290
     0
176
     1
290
     0
176
     1
290
     0
176
     1
290
     0
176
     1
290
     0
176
     1
290
     0
176
     1
 90
       50
176
     1
 40
0.0
176
     1
 40
1.0
176
     1
 90
        0
176
     1
 62
    18
420
        0
176
     1
 90
       50
176
     1
 90
        3
176
     1
 62
     5
420
      255
176
     1
290
     0
176
     1
 90
       50
176
     1
 90
       50
176
     1
 90
       50
176
     1
290
     0
176
     1
 90
       50
176
     1
 62
   256
176
     0
 40
1.0
176
     0
 90
        2
176
     1
  1
strokes_ogs.tif
176
     1
290
     0
176
     1
 40
1.0
176
     1
 40
1.0
176
     1
  0
VISUALSTYLE
  5
3F
102
{ACAD_REACTORS
330
2A
102
}
330
2A
100
AcDbVisualStyle
  2
Sketchy
 70
    24
177
     3
291
     0
 70
    58
 90
        1
176
     1
 90
        2
176
     1
 90
        2
176
     1
 90
        0
176
     1
 40
0.6
176
     1
 40
30.0
176
     1
 62
     7
420
 16777215
176
     1
 90
        2
176
     1
 90
        2
176
     1
 62
     7
176
     1
 62
     7
176
     1
 90
        1
176
     1
 90
        1
176
     1
 40
40.0
176
     1
 90
       11
176
     1
 62
     7
176
     1
 40
1.0
176
     1
 90
        1
176
     1
 90
        6
176
     1
 90
        2
176
     1
 62
     7
176
     1
 90
        6
176
     1
 90
        0
176
     1
 90
        0
176
     1
290
     0
176
     1
 90
        1
176
     1
 40
0.0
176
     1
 90
        0
176
     1
290
     0
176
     1
290
     1
176
     1
290
     1
176
     1
290
     0
176
     1
290
     0
176
     1
290
     0
176
     1
290
     0
176
     1
290
     0
176
     1
290
     0
176
     1
 90
       50
176
     1
 40
0.0
176
     1
 40
1.0
176
     1
 90
        0
176
     1
 62
    18
420
        0
176
     1
 90
       50
176
     1
 90
        3
176
     1
 62
     5
420
      255
176
     1
290
     0
176
     1
 90
       50
176
     1
 90
       50
176
     1
 90
       50
176
     1
290
     0
176
     1
 90
       50
176
     1
 62
   256
176
     0
 40
1.0
176
     0
 90
        2
176
     1
  1
strokes_ogs.tif
176
     1
290
     0
176
     1
 40
1.0
176
     1
 40
1.0
176
     1
  0
VISUALSTYLE
  5
37
102
{ACAD_REACTORS
330
2A
102
}
330
2A
100
AcDbVisualStyle
  2
Thicken
 70
    13
177
     3
291
     1
 70
    58
 90
        2
176
     1
 90
        2
176
     1
 90
        0
176
     1
 90
        0
176
     1
 40
0.6
176
     1
 40
30.0
176
     1
 62
     7
420
 16777215
176
     1
 90
        1
176
     1
 90
        4
176
     1
 62
     7
176
     1
 62
   257
176
     1
 90
        1
176
     1
 90
        1
176
     1
 40
1.0
176
     1
 90
       12
176
     1
 62
     7
176
     1
 40
1.0
176
     1
 90
        1
176
     1
 90
        6
176
     1
 90
        2
176
     1
 62
     7
176
     1
 90
        5
176
     1
 90
        0
176
     1
 90
        0
176
     1
290
     0
176
     1
 90
        1
176
     1
 40
0.0
176
     1
 90
        0
176
     1
290
     0
176
     1
290
     1
176
     1
290
     1
176
     1
290
     0
176
     1
290
     0
176
     1
290
     0
176
     1
290
     0
176
     1
290
     0
176
     1
290
     0
176
     1
 90
       50
176
     1
 40
0.0
176
     1
 40
1.0
176
     1
 90
        0
176
     1
 62
    18
420
        0
176
     1
 90
       50
176
     1
 90
        3
176
     1
 62
     5
420
      255
176
     1
290
     0
176
     1
 90
       50
176
     1
 90
       50
176
     1
 90
       50
176
     1
290
     0
176
     1
 90
       50
176
     1
 62
   256
176
     0
 40
1.0
176
     0
 90
        2
176
     1
  1
strokes_ogs.tif
176
     1
290
     0
176
     1
 40
1.0
176
     1
 40
1.0
176
     1
  0
VISUALSTYLE
  5
30
102
{ACAD_REACTORS
330
2A
102
}
330
2A
100
AcDbVisualStyle
  2
Wireframe
 70
     5
177
     3
291
     0
 70
    58
 90
        0
176
     1
 90
        2
176
     1
 90
        0
176
     1
 90
        0
176
     1
 40
0.6
176
     1
 40
30.0
176
     1
 62
     7
420
 16777215
176
     1
 90
        1
176
     1
 90
        4
176
     1
 62
     7
176
     1
 62
   257
176
     1
 90
        1
176
     1
 90
        1
176
     1
 40
1.0
176
     1
 90
        0
176
     1
 62
   257
176
     1
 40
1.0
176
     1
 90
        1
176
     1
 90
        6
176
     1
 90
        2
176
     1
 62
     7
176
     1
 90
        3
176
     1
 90
        0
176
     1
 90
        0
176
     1
290
     0
176
     1
 90
        1
176
     1
 40
0.0
176
     1
 90
        0
176
     1
290
     0
176
     1
290
     1
176
     1
290
     1
176
     1
290
     0
176
     1
290
     0
176
     1
290
     0
176
     1
290
     0
176
     1
290
     0
176
     1
290
     0
176
     1
 90
       50
176
     1
 40
0.0
176
     1
 40
1.0
176
     1
 90
        0
176
     1
 62
    18
420
        0
176
     1
 90
       50
176
     1
 90
        3
176
     1
 62
     5
420
      255
176
     1
290
     0
176
     1
 90
       50
176
     1
 90
       50
176
     1
 90
       50
176
     1
290
     0
176
     1
 90
       50
176
     1
 62
   256
176
     0
 40
1.0
176
     0
 90
        2
176
     1
  1
strokes_ogs.tif
176
     1
290
     0
176
     1
 40
1.0
176
     1
 40
1.0
176
     1
  0
VISUALSTYLE
  5
40
102
{ACAD_REACTORS
330
2A
102
}
330
2A
100
AcDbVisualStyle
  2
X-Ray
 70
    25
177
     3
291
     0
 70
    58
 90
        2
176
     1
 90
        2
176
     1
 90
        1
176
     1
 90
        1
176
     1
 40
0.5
176
     1
 40
30.0
176
     1
 62
     7
420
 16777215
176
     1
 90
        1
176
     1
 90
        0
176
     1
 62
     7
176
     1
 62
   257
176
     1
 90
        1
176
     1
 90
        1
176
     1
 40
1.0
176
     1
 90
        8
176
     1
 62
     7
176
     1
 40
1.0
176
     1
 90
        1
176
     1
 90
        6
176
     1
 90
        2
176
     1
 62
     7
176
     1
 90
        3
176
     1
 90
        0
176
     1
 90
        0
176
     1
290
     0
176
     1
 90
       13
176
     1
 40
0.0
176
     1
 90
        0
176
     1
290
     0
176
     1
290
     1
176
     1
290
     1
176
     1
290
     0
176
     1
290
     0
176
     1
290
     0
176
     1
290
     0
176
     1
290
     0
176
     1
290
     0
176
     1
 90
       50
176
     1
 40
0.0
176
     1
 40
1.0
176
     1
 90
        0
176
     1
 62
    18
420
        0
176
     1
 90
       50
176
     1
 90
        3
176
     1
 62
     5
420
      255
176
     1
290
     0
176
     1
 90
       50
176
     1
 90
       50
176
     1
 90
       50
176
     1
290
     0
176
     1
 90
       50
176
     1
 62
   256
176
     0
 40
1.0
176
     0
 90
        2
176
     1
  1
strokes_ogs.tif
176
     1
290
     0
176
     1
 40
1.0
176
     1
 40
1.0
176
     1
  0
DICTIONARYVAR
  5
98
102
{ACAD_REACTORS
330
97
102
}
330
97
100
DictionaryVariables
280
     0
  1
1:1
  0
DICTIONARYVAR
  5
A0
102
{ACAD_REACTORS
330
97
102
}
330
97
100
DictionaryVariables
280
     0
  1
3.500000
  0
DICTIONARYVAR
  5
A1
102
{ACAD_REACTORS
330
97
102
}
330
97
100
DictionaryVariables
280
     0
  1
acadiso.lin
  0
DICTIONARYVAR
  5
9D
102
{ACAD_REACTORS
330
97
102
}
330
97
100
DictionaryVariables
280
     0
  1
Standard
  0
DICTIONARYVAR
  5
9C
102
{ACAD_REACTORS
330
97
102
}
330
97
100
DictionaryVariables
280
     0
  1
Standard
  0
DICTIONARY
  5
99
330
5A
100
AcDbDictionary
280
     1
281
     1
  3
ACAD_ROUNDTRIP_2008_TABLESTYLE_CELLSTYLEMAP
360
9A
  0
CELLSTYLEMAP
  5
9A
102
{ACAD_REACTORS
330
99
102
}
330
99
100
AcDbCellStyleMap
 90
        3
300
CELLSTYLE
  1
TABLEFORMAT_BEGIN
 90
        5
170
     1
 91
        0
 92
    32768
 62
   257
 93
        1
300
CONTENTFORMAT
  1
CONTENTFORMAT_BEGIN
 90
        0
 91
        0
 92
        4
 93
        0
300

 40
0.0
140
1.0
 94
        5
 62
     0
340
11
144
6.0
309
CONTENTFORMAT_END
171
     1
301
MARGIN
  1
CELLMARGIN_BEGIN
 40
1.5
 40
1.5
 40
1.5
 40
1.5
 40
1.5
 40
1.5
309
CELLMARGIN_END
 94
        6
 95
        1
302
GRIDFORMAT
  1
GRIDFORMAT_BEGIN
 90
        0
 91
        1
 62
     0
 92
       -2
340
14
 93
        0
 40
0.045
309
GRIDFORMAT_END
 95
        2
302
GRIDFORMAT
  1
GRIDFORMAT_BEGIN
 90
        0
 91
        1
 62
     0
 92
       -2
340
14
 93
        0
 40
0.045
309
GRIDFORMAT_END
 95
        4
302
GRIDFORMAT
  1
GRIDFORMAT_BEGIN
 90
        0
 91
        1
 62
     0
 92
       -2
340
14
 93
        0
 40
0.045
309
GRIDFORMAT_END
 95
        8
302
GRIDFORMAT
  1
GRIDFORMAT_BEGIN
 90
        0
 91
        1
 62
     0
 92
       -2
340
14
 93
        0
 40
0.045
309
GRIDFORMAT_END
 95
       16
302
GRIDFORMAT
  1
GRIDFORMAT_BEGIN
 90
        0
 91
        1
 62
     0
 92
       -2
340
14
 93
        0
 40
0.045
309
GRIDFORMAT_END
 95
       32
302
GRIDFORMAT
  1
GRIDFORMAT_BEGIN
 90
        0
 91
        1
 62
     0
 92
       -2
340
14
 93
        0
 40
0.045
309
GRIDFORMAT_END
309
TABLEFORMAT_END
  1
CELLSTYLE_BEGIN
 90
        1
 91
        1
300
_TITLE
309
CELLSTYLE_END
300
CELLSTYLE
  1
TABLEFORMAT_BEGIN
 90
        5
170
     1
 91
        0
 92
        0
 62
   257
 93
        1
300
CONTENTFORMAT
  1
CONTENTFORMAT_BEGIN
 90
        0
 91
        0
 92
        4
 93
        0
300

 40
0.0
140
1.0
 94
        5
 62
     0
340
11
144
4.5
309
CONTENTFORMAT_END
171
     1
301
MARGIN
  1
CELLMARGIN_BEGIN
 40
1.5
 40
1.5
 40
1.5
 40
1.5
 40
1.5
 40
1.5
309
CELLMARGIN_END
 94
        6
 95
        1
302
GRIDFORMAT
  1
GRIDFORMAT_BEGIN
 90
        0
 91
        1
 62
     0
 92
       -2
340
14
 93
        0
 40
0.045
309
GRIDFORMAT_END
 95
        2
302
GRIDFORMAT
  1
GRIDFORMAT_BEGIN
 90
        0
 91
        1
 62
     0
 92
       -2
340
14
 93
        0
 40
0.045
309
GRIDFORMAT_END
 95
        4
302
GRIDFORMAT
  1
GRIDFORMAT_BEGIN
 90
        0
 91
        1
 62
     0
 92
       -2
340
14
 93
        0
 40
0.045
309
GRIDFORMAT_END
 95
        8
302
GRIDFORMAT
  1
GRIDFORMAT_BEGIN
 90
        0
 91
        1
 62
     0
 92
       -2
340
14
 93
        0
 40
0.045
309
GRIDFORMAT_END
 95
       16
302
GRIDFORMAT
  1
GRIDFORMAT_BEGIN
 90
        0
 91
        1
 62
     0
 92
       -2
340
14
 93
        0
 40
0.045
309
GRIDFORMAT_END
 95
       32
302
GRIDFORMAT
  1
GRIDFORMAT_BEGIN
 90
        0
 91
        1
 62
     0
 92
       -2
340
14
 93
        0
 40
0.045
309
GRIDFORMAT_END
309
TABLEFORMAT_END
  1
CELLSTYLE_BEGIN
 90
        2
 91
        1
300
_HEADER
309
CELLSTYLE_END
300
CELLSTYLE
  1
TABLEFORMAT_BEGIN
 90
        5
170
     1
 91
        0
 92
        0
 62
   257
 93
        1
300
CONTENTFORMAT
  1
CONTENTFORMAT_BEGIN
 90
        0
 91
        0
 92
        4
 93
        0
300

 40
0.0
140
1.0
 94
        2
 62
     0
340
11
144
4.5
309
CONTENTFORMAT_END
171
     1
301
MARGIN
  1
CELLMARGIN_BEGIN
 40
1.5
 40
1.5
 40
1.5
 40
1.5
 40
1.5
 40
1.5
309
CELLMARGIN_END
 94
        6
 95
        1
302
GRIDFORMAT
  1
GRIDFORMAT_BEGIN
 90
        0
 91
        1
 62
     0
 92
       -2
340
14
 93
        0
 40
0.045
309
GRIDFORMAT_END
 95
        2
302
GRIDFORMAT
  1
GRIDFORMAT_BEGIN
 90
        0
 91
        1
 62
     0
 92
       -2
340
14
 93
        0
 40
0.045
309
GRIDFORMAT_END
 95
        4
302
GRIDFORMAT
  1
GRIDFORMAT_BEGIN
 90
        0
 91
        1
 62
     0
 92
       -2
340
14
 93
        0
 40
0.045
309
GRIDFORMAT_END
 95
        8
302
GRIDFORMAT
  1
GRIDFORMAT_BEGIN
 90
        0
 91
        1
 62
     0
 92
       -2
340
14
 93
        0
 40
0.045
309
GRIDFORMAT_END
 95
       16
302
GRIDFORMAT
  1
GRIDFORMAT_BEGIN
 90
        0
 91
        1
 62
     0
 92
       -2
340
14
 93
        0
 40
0.045
309
GRIDFORMAT_END
 95
       32
302
GRIDFORMAT
  1
GRIDFORMAT_BEGIN
 90
        0
 91
        1
 62
     0
 92
       -2
340
14
 93
        0
 40
0.045
309
GRIDFORMAT_END
309
TABLEFORMAT_END
  1
CELLSTYLE_BEGIN
 90
        3
 91
        2
300
_DATA
309
CELLSTYLE_END
  0
ENDSEC
  0
EOF
