  0
SECTION
  2
HEADER
  9
$ACADVER
  1
AC1027
  9
$ACADMAINTVER
 70
   105
  9
$DWGCODEPAGE
  3
ANSI_932
  9
$LASTSAVEDBY
  1
a.yasuda
  9
$REQUIREDVERSIONS
160
                 0
  9
$INSBASE
 10
0.0
 20
0.0
 30
0.0
  9
$EXTMIN
 10
0.0
 20
0.0
 30
0.0
  9
$EXTMAX
 10
302.9997823349792
 20
216.0016055409748
 30
0.0
  9
$LIMMIN
 10
0.0
 20
0.0
  9
$LIMMAX
 10
302.9997823349792
 20
216.0016055409748
  9
$ORTHOMODE
 70
     0
  9
$REGENMODE
 70
     1
  9
$FILLMODE
 70
     1
  9
$QTEXTMODE
 70
     0
  9
$MIRRTEXT
 70
     1
  9
$LTSCALE
 40
1.0
  9
$ATTMODE
 70
     1
  9
$TEXTSIZE
 40
2.5
  9
$TRACEWID
 40
1.0
  9
$TEXTSTYLE
  7
Standard
  9
$CLAYER
  8
0
  9
$CELTYPE
  6
ByLayer
  9
$CECOLOR
 62
   256
  9
$CELTSCALE
 40
1.0
  9
$DISPSILH
 70
     0
  9
$DIMSCALE
 40
1.0
  9
$DIMASZ
 40
2.5
  9
$DIMEXO
 40
0.625
  9
$DIMDLI
 40
3.75
  9
$DIMRND
 40
0.0
  9
$DIMDLE
 40
0.0
  9
$DIMEXE
 40
1.25
  9
$DIMTP
 40
0.0
  9
$DIMTM
 40
0.0
  9
$DIMTXT
 40
2.5
  9
$DIMCEN
 40
2.5
  9
$DIMTSZ
 40
0.0
  9
$DIMTOL
 70
     0
  9
$DIMLIM
 70
     0
  9
$DIMTIH
 70
     0
  9
$DIMTOH
 70
     0
  9
$DIMSE1
 70
     0
  9
$DIMSE2
 70
     0
  9
$DIMTAD
 70
     1
  9
$DIMZIN
 70
     8
  9
$DIMBLK
  1

  9
$DIMASO
 70
     1
  9
$DIMSHO
 70
     1
  9
$DIMPOST
  1

  9
$DIMAPOST
  1

  9
$DIMALT
 70
     0
  9
$DIMALTD
 70
     3
  9
$DIMALTF
 40
0.03937007874016
  9
$DIMLFAC
 40
1.0
  9
$DIMTOFL
 70
     1
  9
$DIMTVP
 40
0.0
  9
$DIMTIX
 70
     0
  9
$DIMSOXD
 70
     0
  9
$DIMSAH
 70
     0
  9
$DIMBLK1
  1

  9
$DIMBLK2
  1

  9
$DIMSTYLE
  2
ISO-25
  9
$DIMCLRD
 70
     0
  9
$DIMCLRE
 70
     0
  9
$DIMCLRT
 70
     0
  9
$DIMTFAC
 40
1.0
  9
$DIMGAP
 40
0.625
  9
$DIMJUST
 70
     0
  9
$DIMSD1
 70
     0
  9
$DIMSD2
 70
     0
  9
$DIMTOLJ
 70
     0
  9
$DIMTZIN
 70
     8
  9
$DIMALTZ
 70
     0
  9
$DIMALTTZ
 70
     0
  9
$DIMUPT
 70
     0
  9
$DIMDEC
 70
     2
  9
$DIMTDEC
 70
     2
  9
$DIMALTU
 70
     2
  9
$DIMALTTD
 70
     3
  9
$DIMTXSTY
  7
Standard
  9
$DIMAUNIT
 70
     0
  9
$DIMADEC
 70
     0
  9
$DIMALTRND
 40
0.0
  9
$DIMAZIN
 70
     0
  9
$DIMDSEP
 70
    44
  9
$DIMATFIT
 70
     3
  9
$DIMFRAC
 70
     0
  9
$DIMLDRBLK
  1

  9
$DIMLUNIT
 70
     2
  9
$DIMLWD
 70
    -2
  9
$DIMLWE
 70
    -2
  9
$DIMTMOVE
 70
     0
  9
$DIMFXL
 40
1.0
  9
$DIMFXLON
 70
     0
  9
$DIMJOGANG
 40
0.7853981633974483
  9
$DIMTFILL
 70
     0
  9
$DIMTFILLCLR
 70
     0
  9
$DIMARCSYM
 70
     0
  9
$DIMLTYPE
  6

  9
$DIMLTEX1
  6

  9
$DIMLTEX2
  6

  9
$DIMTXTDIRECTION
 70
     0
  9
$LUNITS
 70
     2
  9
$LUPREC
 70
     4
  9
$SKETCHINC
 40
1.0
  9
$FILLETRAD
 40
0.0
  9
$AUNITS
 70
     0
  9
$AUPREC
 70
     0
  9
$MENU
  1
.
  9
$ELEVATION
 40
0.0
  9
$PELEVATION
 40
0.0
  9
$THICKNESS
 40
0.0
  9
$LIMCHECK
 70
     0
  9
$CHAMFERA
 40
0.0
  9
$CHAMFERB
 40
0.0
  9
$CHAMFERC
 40
0.0
  9
$CHAMFERD
 40
0.0
  9
$SKPOLY
 70
     0
  9
$TDCREATE
 40
2459866.620516898
  9
$TDUCREATE
 40
2459866.245516898
  9
$TDUPDATE
 40
2459866.620516945
  9
$TDUUPDATE
 40
2459866.245516945
  9
$TDINDWG
 40
0.0000000116
  9
$TDUSRTIMER
 40
0.0000000116
  9
$USRTIMER
 70
     1
  9
$ANGBASE
 50
0.0
  9
$ANGDIR
 70
     0
  9
$PDMODE
 70
     0
  9
$PDSIZE
 40
0.0
  9
$PLINEWID
 40
0.0
  9
$SPLFRAME
 70
     0
  9
$SPLINETYPE
 70
     6
  9
$SPLINESEGS
 70
     8
  9
$HANDSEED
  5
99
  9
$SURFTAB1
 70
     6
  9
$SURFTAB2
 70
     6
  9
$SURFTYPE
 70
     6
  9
$SURFU
 70
     6
  9
$SURFV
 70
     6
  9
$UCSBASE
  2

  9
$UCSNAME
  2

  9
$UCSORG
 10
0.0
 20
0.0
 30
0.0
  9
$UCSXDIR
 10
1.0
 20
0.0
 30
0.0
  9
$UCSYDIR
 10
0.0
 20
1.0
 30
0.0
  9
$UCSORTHOREF
  2

  9
$UCSORTHOVIEW
 70
     0
  9
$UCSORGTOP
 10
0.0
 20
0.0
 30
0.0
  9
$UCSORGBOTTOM
 10
0.0
 20
0.0
 30
0.0
  9
$UCSORGLEFT
 10
0.0
 20
0.0
 30
0.0
  9
$UCSORGRIGHT
 10
0.0
 20
0.0
 30
0.0
  9
$UCSORGFRONT
 10
0.0
 20
0.0
 30
0.0
  9
$UCSORGBACK
 10
0.0
 20
0.0
 30
0.0
  9
$PUCSBASE
  2

  9
$PUCSNAME
  2

  9
$PUCSORG
 10
0.0
 20
0.0
 30
0.0
  9
$PUCSXDIR
 10
1.0
 20
0.0
 30
0.0
  9
$PUCSYDIR
 10
0.0
 20
1.0
 30
0.0
  9
$PUCSORTHOREF
  2

  9
$PUCSORTHOVIEW
 70
     0
  9
$PUCSORGTOP
 10
0.0
 20
0.0
 30
0.0
  9
$PUCSORGBOTTOM
 10
0.0
 20
0.0
 30
0.0
  9
$PUCSORGLEFT
 10
0.0
 20
0.0
 30
0.0
  9
$PUCSORGRIGHT
 10
0.0
 20
0.0
 30
0.0
  9
$PUCSORGFRONT
 10
0.0
 20
0.0
 30
0.0
  9
$PUCSORGBACK
 10
0.0
 20
0.0
 30
0.0
  9
$USERI1
 70
     0
  9
$USERI2
 70
     0
  9
$USERI3
 70
     0
  9
$USERI4
 70
     0
  9
$USERI5
 70
     0
  9
$USERR1
 40
0.0
  9
$USERR2
 40
0.0
  9
$USERR3
 40
0.0
  9
$USERR4
 40
0.0
  9
$USERR5
 40
0.0
  9
$WORLDVIEW
 70
     1
  9
$SHADEDGE
 70
     3
  9
$SHADEDIF
 70
    70
  9
$TILEMODE
 70
     1
  9
$MAXACTVP
 70
    64
  9
$PINSBASE
 10
0.0
 20
0.0
 30
0.0
  9
$PLIMCHECK
 70
     0
  9
$PEXTMIN
 10
1.000000000000000E+20
 20
1.000000000000000E+20
 30
1.000000000000000E+20
  9
$PEXTMAX
 10
-1.000000000000000E+20
 20
-1.000000000000000E+20
 30
-1.000000000000000E+20
  9
$PLIMMIN
 10
0.0
 20
0.0
  9
$PLIMMAX
 10
420.0
 20
297.0
  9
$UNITMODE
 70
     0
  9
$VISRETAIN
 70
     1
  9
$PLINEGEN
 70
     0
  9
$PSLTSCALE
 70
     1
  9
$TREEDEPTH
 70
  3020
  9
$CMLSTYLE
  2
Standard
  9
$CMLJUST
 70
     0
  9
$CMLSCALE
 40
20.0
  9
$PROXYGRAPHICS
 70
     1
  9
$MEASUREMENT
 70
     1
  9
$CELWEIGHT
370
    -1
  9
$ENDCAPS
280
     0
  9
$JOINSTYLE
280
     0
  9
$LWDISPLAY
290
     0
  9
$INSUNITS
 70
     4
  9
$HYPERLINKBASE
  1

  9
$STYLESHEET
  1

  9
$XEDIT
290
     1
  9
$CEPSNTYPE
380
     0
  9
$PSTYLEMODE
290
     1
  9
$FINGERPRINTGUID
  2
{823e7709-e2f6-4223-adf0-860315626f9c}
  9
$VERSIONGUID
  2
{FAEB1C32-E019-11D5-929B-00C0DF256EC4}
  9
$EXTNAMES
290
     1
  9
$PSVPSCALE
 40
0.0
  9
$OLESTARTUP
290
     0
  9
$SORTENTS
280
   127
  9
$INDEXCTL
280
     0
  9
$HIDETEXT
280
     1
  9
$XCLIPFRAME
280
     2
  9
$HALOGAP
280
     0
  9
$OBSCOLOR
 70
   257
  9
$OBSLTYPE
280
     0
  9
$INTERSECTIONDISPLAY
280
     0
  9
$INTERSECTIONCOLOR
 70
   257
  9
$DIMASSOC
280
     2
  9
$PROJECTNAME
  1

  9
$CAMERADISPLAY
290
     0
  9
$LENSLENGTH
 40
50.0
  9
$CAMERAHEIGHT
 40
0.0
  9
$STEPSPERSEC
 40
2.0
  9
$STEPSIZE
 40
6.0
  9
$3DDWFPREC
 40
2.0
  9
$PSOLWIDTH
 40
5.0
  9
$PSOLHEIGHT
 40
80.0
  9
$LOFTANG1
 40
1.570796326794897
  9
$LOFTANG2
 40
1.570796326794897
  9
$LOFTMAG1
 40
0.0
  9
$LOFTMAG2
 40
0.0
  9
$LOFTPARAM
 70
     7
  9
$LOFTNORMALS
280
     1
  9
$LATITUDE
 40
37.795
  9
$LONGITUDE
 40
-122.394
  9
$NORTHDIRECTION
 40
0.0
  9
$TIMEZONE
 70
 -8000
  9
$LIGHTGLYPHDISPLAY
280
     1
  9
$TILEMODELIGHTSYNCH
280
     1
  9
$CMATERIAL
347
44
  9
$SOLIDHIST
280
     0
  9
$SHOWHIST
280
     1
  9
$DWFFRAME
280
     2
  9
$DGNFRAME
280
     2
  9
$REALWORLDSCALE
290
     1
  9
$INTERFERECOLOR
 62
   256
  9
$CSHADOW
280
     0
  9
$SHADOWPLANELOCATION
 40
0.0
  0
ENDSEC
  0
SECTION
  2
CLASSES
  0
CLASS
  1
ACDBDICTIONARYWDFLT
  2
AcDbDictionaryWithDefault
  3
ObjectDBX Classes
 90
        0
 91
        3
280
     0
281
     0
  0
CLASS
  1
VISUALSTYLE
  2
AcDbVisualStyle
  3
ObjectDBX Classes
 90
     4095
 91
        3
280
     0
281
     0
  0
CLASS
  1
MATERIAL
  2
AcDbMaterial
  3
ObjectDBX Classes
 90
     1153
 91
        3
280
     0
281
     0
  0
CLASS
  1
SCALE
  2
AcDbScale
  3
ObjectDBX Classes
 90
     1153
 91
        3
280
     0
281
     0
  0
CLASS
  1
TABLESTYLE
  2
AcDbTableStyle
  3
ObjectDBX Classes
 90
     4095
 91
        3
280
     0
281
     0
  0
CLASS
  1
MLEADERSTYLE
  2
AcDbMLeaderStyle
  3
ACDB_MLEADERSTYLE_CLASS
 90
     4095
 91
        3
280
     0
281
     0
  0
CLASS
  1
SUN
  2
AcDbSun
  3
SCENEOE
 90
     1153
 91
        3
280
     0
281
     0
  0
CLASS
  1
DICTIONARYVAR
  2
AcDbDictionaryVar
  3
ObjectDBX Classes
 90
        0
 91
        3
280
     0
281
     0
  0
CLASS
  1
CELLSTYLEMAP
  2
AcDbCellStyleMap
  3
ObjectDBX Classes
 90
     1152
 91
        3
280
     0
281
     0
  0
ENDSEC
  0
SECTION
  2
TABLES
  0
TABLE
  2
VPORT
  5
8
330
0
100
AcDbSymbolTable
 70
     1
  0
VPORT
  5
29
330
8
100
AcDbSymbolTableRecord
100
AcDbViewportTableRecord
  2
*Active
 70
     0
 10
0.0
 20
0.0
 11
1.0
 21
1.0
 12
151.4998911674896
 22
108.0008027704874
 13
0.0
 23
0.0
 14
10.0
 24
10.0
 15
10.0
 25
10.0
 16
0.0
 26
0.0
 36
1.0
 17
0.0
 27
0.0
 37
0.0
 40
237.6017660950723
 41
1.402766343222857
 42
50.0
 43
0.0
 44
0.0
 50
0.0
 51
0.0
 71
     0
 72
 10000
 73
     1
 74
     3
 75
     0
 76
     0
 77
     0
 78
     0
281
     0
 65
     1
110
0.0
120
0.0
130
0.0
111
1.0
121
0.0
131
0.0
112
0.0
122
1.0
132
0.0
 79
     0
146
0.0
348
2F
 60
     3
 61
     5
292
     1
282
     1
141
0.0
142
0.0
 63
   250
361
5D
  0
ENDTAB
  0
TABLE
  2
LTYPE
  5
5
330
0
100
AcDbSymbolTable
 70
     2
  0
LTYPE
  5
14
330
5
100
AcDbSymbolTableRecord
100
AcDbLinetypeTableRecord
  2
ByBlock
 70
     0
  3

 72
    65
 73
     0
 40
0.0
  0
LTYPE
  5
15
330
5
100
AcDbSymbolTableRecord
100
AcDbLinetypeTableRecord
  2
ByLayer
 70
     0
  3

 72
    65
 73
     0
 40
0.0
  0
LTYPE
  5
16
330
5
100
AcDbSymbolTableRecord
100
AcDbLinetypeTableRecord
  2
Continuous
 70
     0
  3
Solid line
 72
    65
 73
     0
 40
0.0
  0
LTYPE
  5
5F
330
5
100
AcDbSymbolTableRecord
100
AcDbLinetypeTableRecord
  2
UserDefined01
 70
     0
  3
----------------                
 72
    65
 73
     2
 40
0.7055555449591743
 49
0.3527777724795871
 74
     0
 49
-0.3527777724795871
 74
     0
  0
ENDTAB
  0
TABLE
  2
LAYER
  5
2
330
0
100
AcDbSymbolTable
 70
     3
  0
LAYER
  5
10
330
2
100
AcDbSymbolTableRecord
100
AcDbLayerTableRecord
  2
0
 70
     0
 62
     7
  6
Continuous
370
    -3
390
F
347
46
348
0
  0
LAYER
  5
60
330
2
100
AcDbSymbolTableRecord
100
AcDbLayerTableRecord
  2
外枠
 70
     0
 62
     7
  6
Continuous
370
    -3
390
F
347
46
348
0
  0
LAYER
  5
61
330
2
100
AcDbSymbolTableRecord
100
AcDbLayerTableRecord
  2
ISS138金台
 70
     0
 62
     7
  6
Continuous
370
    -3
390
F
347
46
348
0
  0
ENDTAB
  0
TABLE
  2
STYLE
  5
3
330
0
100
AcDbSymbolTable
 70
     2
  0
STYLE
  5
11
330
3
100
AcDbSymbolTableRecord
100
AcDbTextStyleTableRecord
  2
Standard
 70
     0
 40
0.0
 41
1.0
 50
0.0
 71
     0
 42
2.5
  3

  4

  0
STYLE
  5
5E
330
3
100
AcDbSymbolTableRecord
100
AcDbTextStyleTableRecord
  2
MS Gothic
 70
     0
 40
1.0
 41
1.0
 50
0.0
 71
     0
 42
2.5
  3
msgothic.ttc
  4

1001
ACAD
1000
MS Gothic
1071
    32817
  0
ENDTAB
  0
TABLE
  2
VIEW
  5
6
330
0
100
AcDbSymbolTable
 70
     0
  0
ENDTAB
  0
TABLE
  2
UCS
  5
7
330
0
100
AcDbSymbolTable
 70
     0
  0
ENDTAB
  0
TABLE
  2
APPID
  5
9
330
0
100
AcDbSymbolTable
 70
     1
  0
APPID
  5
12
330
9
100
AcDbSymbolTableRecord
100
AcDbRegAppTableRecord
  2
ACAD
 70
     0
  0
ENDTAB
  0
TABLE
  2
DIMSTYLE
  5
A
330
0
100
AcDbSymbolTable
 70
     1
100
AcDbDimStyleTable
  0
DIMSTYLE
105
27
330
A
100
AcDbSymbolTableRecord
100
AcDbDimStyleTableRecord
  2
ISO-25
 70
     0
 41
2.5
 42
0.625
 43
3.75
 44
1.25
 73
     0
 74
     0
 77
     1
 78
     8
140
2.5
141
2.5
143
0.03937007874016
147
0.625
171
     3
172
     1
178
     0
271
     2
272
     2
274
     3
278
    44
283
     0
284
     8
340
11
  0
ENDTAB
  0
TABLE
  2
BLOCK_RECORD
  5
1
330
0
100
AcDbSymbolTable
 70
     1
  0
BLOCK_RECORD
  5
1F
330
1
100
AcDbSymbolTableRecord
100
AcDbBlockTableRecord
  2
*Model_Space
340
22
 70
     0
280
     1
281
     0
  0
BLOCK_RECORD
  5
1B
330
1
100
AcDbSymbolTableRecord
100
AcDbBlockTableRecord
  2
*Paper_Space
340
1E
 70
     0
280
     1
281
     0
  0
BLOCK_RECORD
  5
23
330
1
100
AcDbSymbolTableRecord
100
AcDbBlockTableRecord
  2
*Paper_Space0
340
26
 70
     0
280
     1
281
     0
  0
ENDTAB
  0
ENDSEC
  0
SECTION
  2
BLOCKS
  0
BLOCK
  5
20
330
1F
100
AcDbEntity
  8
0
100
AcDbBlockBegin
  2
*Model_Space
 70
     0
 10
0.0
 20
0.0
 30
0.0
  3
*Model_Space
  1

  0
ENDBLK
  5
21
330
1F
100
AcDbEntity
  8
0
100
AcDbBlockEnd
  0
BLOCK
  5
1C
330
1B
100
AcDbEntity
 67
     1
  8
0
100
AcDbBlockBegin
  2
*Paper_Space
 70
     0
 10
0.0
 20
0.0
 30
0.0
  3
*Paper_Space
  1

  0
ENDBLK
  5
1D
330
1B
100
AcDbEntity
 67
     1
  8
0
100
AcDbBlockEnd
  0
BLOCK
  5
24
330
23
100
AcDbEntity
  8
0
100
AcDbBlockBegin
  2
*Paper_Space0
 70
     0
 10
0.0
 20
0.0
 30
0.0
  3
*Paper_Space0
  1

  0
ENDBLK
  5
25
330
23
100
AcDbEntity
  8
0
100
AcDbBlockEnd
  0
ENDSEC
  0
SECTION
  2
ENTITIES
  0
LWPOLYLINE
  5
62
330
1F
100
AcDbEntity
  8
外枠
  6
Continuous
 62
   250
420
  2367521
370
   100
100
AcDbPolyline
 90
        5
 70
     0
 43
0.0
 10
281.9999662644599
 20
13.29407825637392
 10
20.99981607051935
 20
13.29407825637392
 10
20.99981607051935
 20
193.0018900389566
 10
281.9999662644599
 20
193.0018900389566
 10
281.9999662644599
 20
13.29407825637392
  0
LINE
  5
63
330
1F
100
AcDbEntity
  8
外枠
  6
Continuous
 62
   250
420
  2367521
370
    25
100
AcDbLine
 10
223.3097080177524
 20
174.0786160074276
 30
0.0
 11
281.9999232007669
 21
174.0786160074276
 31
0.0
  0
LINE
  5
64
330
1F
100
AcDbEntity
  8
外枠
  6
Continuous
 62
   250
420
  2367521
370
    25
100
AcDbLine
 10
223.3097080177524
 20
50.37109023844297
 30
0.0
 11
281.9999232007669
 21
50.37109023844297
 31
0.0
  0
LINE
  5
65
330
1F
100
AcDbEntity
  8
外枠
  6
Continuous
 62
   250
420
  2367521
370
    25
100
AcDbLine
 10
223.3097080177524
 20
36.25997933925949
 30
0.0
 11
281.9999232007669
 21
36.25997933925949
 31
0.0
  0
LINE
  5
66
330
1F
100
AcDbEntity
  8
外枠
  6
Continuous
 62
   250
420
  2367521
370
    50
100
AcDbLine
 10
223.0158413772006
 20
193.3637327187979
 30
0.0
 11
223.0158413772006
 21
13.29396655992039
 31
0.0
  0
TEXT
  5
67
330
1F
100
AcDbEntity
  8
外枠
  6
Continuous
 62
   250
420
  2367521
100
AcDbText
 10
224.7190965599536
 20
186.6888051931772
 30
0.0
 40
2.688166626294454
  1
品名：
 41
0.974166170756022
  7
MS Gothic
100
AcDbText
  0
TEXT
  5
68
330
1F
100
AcDbEntity
  8
外枠
  6
Continuous
 62
   250
420
  2367521
100
AcDbText
 10
224.7190965599536
 20
168.1080059455944
 30
0.0
 40
2.688166626294454
  1
仕様：
 41
0.9978878657023111
  7
MS Gothic
100
AcDbText
  0
TEXT
  5
69
330
1F
100
AcDbEntity
  8
外枠
  6
Continuous
 62
   250
420
  2367521
100
AcDbText
 10
224.7190965599536
 20
44.16660664327048
 30
0.0
 40
2.688166626294454
  1
縮尺：
 41
0.9939999262491861
  7
MS Gothic
100
AcDbText
  0
TEXT
  5
6A
330
1F
100
AcDbEntity
  8
外枠
  6
Continuous
 62
   250
420
  2367521
100
AcDbText
 10
250.2379519709696
 20
40.59738467878129
 30
0.0
 40
2.150533301035563
  1
1/1
 41
1.000003814697266
  7
MS Gothic
100
AcDbText
  0
TEXT
  5
6B
330
1F
100
AcDbEntity
  8
外枠
  6
Continuous
 62
   250
420
  2367521
100
AcDbText
 10
232.7757967427735
 20
181.9845273775436
 30
0.0
 40
2.688166626294454
  1
スロープバー　XB-1
 41
1.01645516289605
  7
MS Gothic
100
AcDbText
  0
TEXT
  5
6C
330
1F
100
AcDbEntity
  8
外枠
  6
Continuous
 62
   250
420
  2367521
100
AcDbText
 10
226.1633020978884
 20
24.25683874973963
 30
0.0
 40
2.553758294979732
  1
ヤスダインテリアサプライ株式会社
 41
1.0194908945184
  7
MS Gothic
100
AcDbText
  0
TEXT
  5
6D
330
1F
100
AcDbEntity
  8
外枠
  6
Continuous
 62
   250
420
  2367521
100
AcDbText
 10
227.7635273953072
 20
161.7763665048245
 30
0.0
 40
2.150533301035563
  1
材質
 41
1.028502464294433
  7
MS Gothic
100
AcDbText
  0
TEXT
  5
6E
330
1F
100
AcDbEntity
  8
外枠
  6
Continuous
 62
   250
420
  2367521
100
AcDbText
 10
232.7757967427735
 20
156.199681315683
 30
0.0
 40
2.016124969720841
  1
真鍮/磨き仕上
 41
1.082876195663061
  7
MS Gothic
100
AcDbText
  0
LINE
  5
6F
330
1F
100
AcDbEntity
  8
ISS138金台
  6
Continuous
 62
   250
420
  2367521
370
    13
100
AcDbLine
 10
119.2841793371392
 20
112.9339964118117
 30
0.0
 11
119.2841793371392
 21
107.9287895099858
 31
0.0
  0
LINE
  5
70
330
1F
100
AcDbEntity
  8
ISS138金台
  6
Continuous
 62
   250
420
  2367521
370
    13
100
AcDbLine
 10
129.3603944635874
 20
112.9339964118117
 30
0.0
 11
129.3603944635874
 21
107.9287895099858
 31
0.0
  0
LINE
  5
71
330
1F
100
AcDbEntity
  8
ISS138金台
  6
Continuous
 62
   250
420
  2367521
370
    13
100
AcDbLine
 10
119.2841793371392
 20
112.4489377405755
 30
0.0
 11
129.3605667183591
 21
112.4489377405755
 31
0.0
  0
LINE
  5
72
330
1F
100
AcDbEntity
  8
ISS138金台
  6
Continuous
 62
   250
420
  2367521
370
    13
100
AcDbLine
 10
130.2864361163463
 20
107.0029308779219
 30
0.0
 11
135.2916430181722
 21
107.0029308779219
 31
0.0
  0
LINE
  5
73
330
1F
100
AcDbEntity
  8
ISS138金台
  6
Continuous
 62
   250
420
  2367521
370
    13
100
AcDbLine
 10
130.2864361163463
 20
103.8720281471655
 30
0.0
 11
135.2916430181722
 21
103.8720281471655
 31
0.0
  0
LINE
  5
74
330
1F
100
AcDbEntity
  8
ISS138金台
  6
Continuous
 62
   250
420
  2367521
370
    13
100
AcDbLine
 10
134.7843527154611
 20
107.0029308779219
 30
0.0
 11
134.7843527154611
 21
103.8720281471655
 31
0.0
  0
LINE
  5
75
330
1F
100
AcDbEntity
  8
ISS138金台
  6
Continuous
 62
   250
420
  2367521
370
    13
100
AcDbLine
 10
115.2272349536239
 20
102.9459864944066
 30
0.0
 11
115.2272349536239
 21
92.95779355630657
 31
0.0
  0
LINE
  5
76
330
1F
100
AcDbEntity
  8
ISS138金台
  6
Continuous
 62
   250
420
  2367521
370
    13
100
AcDbLine
 10
129.3603944635874
 20
102.9459864944066
 30
0.0
 11
129.3603944635874
 21
92.95779355630657
 31
0.0
  0
LINE
  5
77
330
1F
100
AcDbEntity
  8
ISS138金台
  6
Continuous
 62
   250
420
  2367521
370
    13
100
AcDbLine
 10
115.2272349536239
 20
93.4650838590177
 30
0.0
 11
129.3605667183591
 21
93.4650838590177
 31
0.0
  0
HATCH
  5
78
330
1F
100
AcDbEntity
  8
ISS138金台
  6
Continuous
 62
   250
420
  2367521
370
    13
100
AcDbHatch
 10
0.0
 20
0.0
 30
0.0
210
0.0
220
0.0
230
1.0
  2
SOLID
 70
     1
 71
     0
 91
        1
 92
        3
 72
     0
 73
     1
 93
       67
 10
115.2272349536239
 20
93.21496993048237
 10
115.2527717235312
 20
93.21627260719347
 10
115.2775871765819
 20
93.22005144624805
 10
115.3015305898508
 20
93.22623108618346
 10
115.324515835952
 20
93.23466080407444
 10
115.3463598941905
 20
93.24518987699574
 10
115.3669874031038
 20
93.25774294348471
 10
115.3862584056899
 20
93.2721477487697
 10
115.4040221790233
 20
93.2882966336183
 10
115.4201818297952
 20
93.30607117287501
 10
115.4345866350802
 20
93.3253314095378
 10
115.4471289356459
 20
93.34595891845109
 10
115.4576687744904
 20
93.36781374261287
 10
115.4660984923814
 20
93.39078822279083
 10
115.4722673663936
 20
93.41474240198295
 10
115.4760677372946
 20
93.43955785503366
 10
115.4773596480825
 20
93.46509462494092
 10
115.4773596480825
 20
93.46509462494092
 10
115.4760677372946
 20
93.49063139484821
 10
115.4722673663936
 20
93.51544684789891
 10
115.4660984923814
 20
93.53939026116778
 10
115.4576687744904
 20
93.56235397542251
 10
115.4471289356459
 20
93.58421956550754
 10
115.4345866350802
 20
93.60484707442083
 10
115.420171063872
 20
93.6241073110836
 10
115.4040221790233
 20
93.64187108441709
 10
115.3862584056899
 20
93.65803073518893
 10
115.3669981690271
 20
93.6724355404739
 10
115.3463706601138
 20
93.68497784103965
 10
115.3245050700288
 20
93.69552844580741
 10
115.301541355774
 20
93.70394739777515
 10
115.2775871765819
 20
93.71011627178733
 10
115.2527717235312
 20
93.71391664268836
 10
115.2272349536239
 20
93.71520855347626
 10
115.2272349536239
 20
93.71520855347626
 10
115.2016874177934
 20
93.71391664268836
 10
115.1768934965892
 20
93.71011627178733
 10
115.1529393173971
 20
93.70394739777515
 10
115.1299648372191
 20
93.69552844580741
 10
115.1080992471341
 20
93.68497784103965
 10
115.087482504144
 20
93.67244630639712
 10
115.0682222674813
 20
93.65803073518893
 10
115.0504477282245
 20
93.64187108441709
 10
115.0342988433759
 20
93.6241073110836
 10
115.0198832721677
 20
93.60484707442083
 10
115.007340971602
 20
93.58421956550754
 10
114.9967903668342
 20
93.56236474134575
 10
114.9883714148665
 20
93.53939026116778
 10
114.9822025408543
 20
93.51544684789891
 10
114.9784021699533
 20
93.49063139484821
 10
114.9771102591654
 20
93.46509462494092
 10
114.9771102591654
 20
93.46509462494092
 10
114.9784021699533
 20
93.43954708911042
 10
114.9821917749311
 20
93.41475316790618
 10
114.9883821807897
 20
93.39078822279083
 10
114.9968011327575
 20
93.36781374261287
 10
115.007340971602
 20
93.34594815252785
 10
115.0198832721677
 20
93.3253314095378
 10
115.0342880774527
 20
93.30608193879824
 10
115.0504477282245
 20
93.2882966336183
 10
115.0682222674813
 20
93.2721477487697
 10
115.087482504144
 20
93.25774294348471
 10
115.1080992471341
 20
93.24520064291897
 10
115.1299648372191
 20
93.23465003815122
 10
115.1529393173971
 20
93.22623108618346
 10
115.176882730666
 20
93.22006221217129
 10
115.2016981837167
 20
93.21626184127025
 97
        0
 75
     1
 76
     1
 98
        0
  0
LWPOLYLINE
  5
79
330
1F
100
AcDbEntity
  8
ISS138金台
  6
Continuous
 62
   250
420
  2367521
370
    13
100
AcDbPolyline
 90
       68
 70
     0
 43
0.0
 10
115.2272349536239
 20
93.21496993048237
 10
115.2527717235312
 20
93.21627260719347
 10
115.2775871765819
 20
93.22005144624805
 10
115.3015305898508
 20
93.22623108618346
 10
115.324515835952
 20
93.23466080407444
 10
115.3463598941905
 20
93.24518987699574
 10
115.3669874031038
 20
93.25774294348471
 10
115.3862584056899
 20
93.2721477487697
 10
115.4040221790233
 20
93.2882966336183
 10
115.4201818297952
 20
93.30607117287501
 10
115.4345866350802
 20
93.3253314095378
 10
115.4471289356459
 20
93.34595891845109
 10
115.4576687744904
 20
93.36781374261287
 10
115.4660984923814
 20
93.39078822279083
 10
115.4722673663936
 20
93.41474240198295
 10
115.4760677372946
 20
93.43955785503366
 10
115.4773596480825
 20
93.46509462494092
 10
115.4773596480825
 20
93.46509462494092
 10
115.4760677372946
 20
93.49063139484821
 10
115.4722673663936
 20
93.51544684789891
 10
115.4660984923814
 20
93.53939026116778
 10
115.4576687744904
 20
93.56235397542251
 10
115.4471289356459
 20
93.58421956550754
 10
115.4345866350802
 20
93.60484707442083
 10
115.420171063872
 20
93.6241073110836
 10
115.4040221790233
 20
93.64187108441709
 10
115.3862584056899
 20
93.65803073518893
 10
115.3669981690271
 20
93.6724355404739
 10
115.3463706601138
 20
93.68497784103965
 10
115.3245050700288
 20
93.69552844580741
 10
115.301541355774
 20
93.70394739777515
 10
115.2775871765819
 20
93.71011627178733
 10
115.2527717235312
 20
93.71391664268836
 10
115.2272349536239
 20
93.71520855347626
 10
115.2272349536239
 20
93.71520855347626
 10
115.2016874177934
 20
93.71391664268836
 10
115.1768934965892
 20
93.71011627178733
 10
115.1529393173971
 20
93.70394739777515
 10
115.1299648372191
 20
93.69552844580741
 10
115.1080992471341
 20
93.68497784103965
 10
115.087482504144
 20
93.67244630639712
 10
115.0682222674813
 20
93.65803073518893
 10
115.0504477282245
 20
93.64187108441709
 10
115.0342988433759
 20
93.6241073110836
 10
115.0198832721677
 20
93.60484707442083
 10
115.007340971602
 20
93.58421956550754
 10
114.9967903668342
 20
93.56236474134575
 10
114.9883714148665
 20
93.53939026116778
 10
114.9822025408543
 20
93.51544684789891
 10
114.9784021699533
 20
93.49063139484821
 10
114.9771102591654
 20
93.46509462494092
 10
114.9771102591654
 20
93.46509462494092
 10
114.9784021699533
 20
93.43954708911042
 10
114.9821917749311
 20
93.41475316790618
 10
114.9883821807897
 20
93.39078822279083
 10
114.9968011327575
 20
93.36781374261287
 10
115.007340971602
 20
93.34594815252785
 10
115.0198832721677
 20
93.3253314095378
 10
115.0342880774527
 20
93.30608193879824
 10
115.0504477282245
 20
93.2882966336183
 10
115.0682222674813
 20
93.2721477487697
 10
115.087482504144
 20
93.25774294348471
 10
115.1080992471341
 20
93.24520064291897
 10
115.1299648372191
 20
93.23465003815122
 10
115.1529393173971
 20
93.22623108618346
 10
115.176882730666
 20
93.22006221217129
 10
115.2016981837167
 20
93.21626184127025
 10
115.2272349536239
 20
93.21496993048237
  0
HATCH
  5
7A
330
1F
100
AcDbEntity
  8
ISS138金台
  6
Continuous
 62
   250
420
  2367521
370
    13
100
AcDbHatch
 10
0.0
 20
0.0
 30
0.0
210
0.0
220
0.0
230
1.0
  2
SOLID
 70
     1
 71
     0
 91
        1
 92
        3
 72
     0
 73
     1
 93
       67
 10
129.3603944635874
 20
93.21496993048237
 10
129.3859312334947
 20
93.21627260719347
 10
129.4107466865454
 20
93.22005144624805
 10
129.4346900998142
 20
93.22623108618346
 10
129.4576753459154
 20
93.23466080407444
 10
129.479519404154
 20
93.24518987699574
 10
129.5001469130673
 20
93.25774294348471
 10
129.5194071497301
 20
93.2721477487697
 10
129.5371816889868
 20
93.2882966336183
 10
129.5533305738354
 20
93.30607117287501
 10
129.5677461450436
 20
93.3253314095378
 10
129.5802884456094
 20
93.34595891845109
 10
129.5908282844539
 20
93.36781374261287
 10
129.5992580023449
 20
93.39078822279083
 10
129.6054268763571
 20
93.41474240198295
 10
129.6092272472581
 20
93.43955785503366
 10
129.610519158046
 20
93.46509462494092
 10
129.610519158046
 20
93.46509462494092
 10
129.6092164813348
 20
93.49063139484821
 10
129.6054268763571
 20
93.51544684789891
 10
129.5992580023449
 20
93.53939026116778
 10
129.5908282844539
 20
93.56235397542251
 10
129.5802884456094
 20
93.58421956550754
 10
129.5677461450436
 20
93.60484707442083
 10
129.5533413397586
 20
93.6241073110836
 10
129.5371816889868
 20
93.64187108441709
 10
129.5194071497301
 20
93.65803073518893
 10
129.5001469130673
 20
93.6724355404739
 10
129.4795301700772
 20
93.68497784103965
 10
129.4576645799922
 20
93.69552844580741
 10
129.4347008657375
 20
93.70394739777515
 10
129.4107466865454
 20
93.71011627178733
 10
129.3859312334947
 20
93.71391664268836
 10
129.3603944635874
 20
93.71520855347626
 10
129.3603944635874
 20
93.71520855347626
 10
129.3348469277569
 20
93.71391664268836
 10
129.3100530065527
 20
93.71011627178733
 10
129.2860880614373
 20
93.70394739777515
 10
129.2631243471826
 20
93.69552844580741
 10
129.2412587570976
 20
93.68497784103965
 10
129.2206420141075
 20
93.67244630639712
 10
129.2013710115215
 20
93.65803073518893
 10
129.183607238188
 20
93.64187108441709
 10
129.1674475874162
 20
93.6241073110836
 10
129.1530427821312
 20
93.60484707442083
 10
129.1405004815654
 20
93.58421956550754
 10
129.1299498767977
 20
93.56236474134575
 10
129.1215309248299
 20
93.53939026116778
 10
129.1153620508178
 20
93.51544684789891
 10
129.1115616799167
 20
93.49063139484821
 10
129.1102697691288
 20
93.46509462494092
 10
129.1102697691288
 20
93.46509462494092
 10
129.11157244584
 20
93.43954708911042
 10
129.1153512848945
 20
93.41475316790618
 10
129.1215309248299
 20
93.39078822279083
 10
129.1299606427209
 20
93.36781374261287
 10
129.1405004815654
 20
93.34594815252785
 10
129.1530427821312
 20
93.3253314095378
 10
129.1674583533394
 20
93.30608193879824
 10
129.183607238188
 20
93.2882966336183
 10
129.2013710115215
 20
93.2721477487697
 10
129.2206420141075
 20
93.25774294348471
 10
129.2412587570976
 20
93.24520064291897
 10
129.2631243471826
 20
93.23465003815122
 10
129.2860988273605
 20
93.22623108618346
 10
129.3100422406294
 20
93.22006221217129
 10
129.3348576936801
 20
93.21626184127025
 97
        0
 75
     1
 76
     1
 98
        0
  0
LWPOLYLINE
  5
7B
330
1F
100
AcDbEntity
  8
ISS138金台
  6
Continuous
 62
   250
420
  2367521
370
    13
100
AcDbPolyline
 90
       68
 70
     0
 43
0.0
 10
129.3603944635874
 20
93.21496993048237
 10
129.3859312334947
 20
93.21627260719347
 10
129.4107466865454
 20
93.22005144624805
 10
129.4346900998142
 20
93.22623108618346
 10
129.4576753459154
 20
93.23466080407444
 10
129.479519404154
 20
93.24518987699574
 10
129.5001469130673
 20
93.25774294348471
 10
129.5194071497301
 20
93.2721477487697
 10
129.5371816889868
 20
93.2882966336183
 10
129.5533305738354
 20
93.30607117287501
 10
129.5677461450436
 20
93.3253314095378
 10
129.5802884456094
 20
93.34595891845109
 10
129.5908282844539
 20
93.36781374261287
 10
129.5992580023449
 20
93.39078822279083
 10
129.6054268763571
 20
93.41474240198295
 10
129.6092272472581
 20
93.43955785503366
 10
129.610519158046
 20
93.46509462494092
 10
129.610519158046
 20
93.46509462494092
 10
129.6092164813348
 20
93.49063139484821
 10
129.6054268763571
 20
93.51544684789891
 10
129.5992580023449
 20
93.53939026116778
 10
129.5908282844539
 20
93.56235397542251
 10
129.5802884456094
 20
93.58421956550754
 10
129.5677461450436
 20
93.60484707442083
 10
129.5533413397586
 20
93.6241073110836
 10
129.5371816889868
 20
93.64187108441709
 10
129.5194071497301
 20
93.65803073518893
 10
129.5001469130673
 20
93.6724355404739
 10
129.4795301700772
 20
93.68497784103965
 10
129.4576645799922
 20
93.69552844580741
 10
129.4347008657375
 20
93.70394739777515
 10
129.4107466865454
 20
93.71011627178733
 10
129.3859312334947
 20
93.71391664268836
 10
129.3603944635874
 20
93.71520855347626
 10
129.3603944635874
 20
93.71520855347626
 10
129.3348469277569
 20
93.71391664268836
 10
129.3100530065527
 20
93.71011627178733
 10
129.2860880614373
 20
93.70394739777515
 10
129.2631243471826
 20
93.69552844580741
 10
129.2412587570976
 20
93.68497784103965
 10
129.2206420141075
 20
93.67244630639712
 10
129.2013710115215
 20
93.65803073518893
 10
129.183607238188
 20
93.64187108441709
 10
129.1674475874162
 20
93.6241073110836
 10
129.1530427821312
 20
93.60484707442083
 10
129.1405004815654
 20
93.58421956550754
 10
129.1299498767977
 20
93.56236474134575
 10
129.1215309248299
 20
93.53939026116778
 10
129.1153620508178
 20
93.51544684789891
 10
129.1115616799167
 20
93.49063139484821
 10
129.1102697691288
 20
93.46509462494092
 10
129.1102697691288
 20
93.46509462494092
 10
129.11157244584
 20
93.43954708911042
 10
129.1153512848945
 20
93.41475316790618
 10
129.1215309248299
 20
93.39078822279083
 10
129.1299606427209
 20
93.36781374261287
 10
129.1405004815654
 20
93.34594815252785
 10
129.1530427821312
 20
93.3253314095378
 10
129.1674583533394
 20
93.30608193879824
 10
129.183607238188
 20
93.2882966336183
 10
129.2013710115215
 20
93.2721477487697
 10
129.2206420141075
 20
93.25774294348471
 10
129.2412587570976
 20
93.24520064291897
 10
129.2631243471826
 20
93.23465003815122
 10
129.2860988273605
 20
93.22623108618346
 10
129.3100422406294
 20
93.22006221217129
 10
129.3348576936801
 20
93.21626184127025
 10
129.3603944635874
 20
93.21496993048237
  0
HATCH
  5
7C
330
1F
100
AcDbEntity
  8
ISS138金台
  6
Continuous
 62
   250
420
  2367521
370
    13
100
AcDbHatch
 10
0.0
 20
0.0
 30
0.0
210
0.0
220
0.0
230
1.0
  2
SOLID
 70
     1
 71
     0
 91
        1
 92
        3
 72
     0
 73
     1
 93
       67
 10
134.7843527154611
 20
106.7528169493865
 10
134.8098894853683
 20
106.7541196260976
 10
134.834704938419
 20
106.7578984651522
 10
134.8586483516879
 20
106.7640781050876
 10
134.8816335977891
 20
106.7725078229786
 10
134.9034776560277
 20
106.7830368958999
 10
134.924105164941
 20
106.7955791964657
 10
134.9433654016037
 20
106.8099947676738
 10
134.9611399408604
 20
106.8261544184457
 10
134.9772888257091
 20
106.8439181917792
 10
134.9917043969173
 20
106.8631784284419
 10
135.004246697483
 20
106.8838059373552
 10
135.0147865363276
 20
106.905660761517
 10
135.0232162542185
 20
106.928635241695
 10
135.0293851282307
 20
106.9525894208871
 10
135.0331854991317
 20
106.9774048739378
 10
135.0344774099196
 20
107.0029416438451
 10
135.0344774099196
 20
107.0029416438451
 10
135.0331747332085
 20
107.0284784137524
 10
135.0293851282307
 20
107.0533046327263
 10
135.0232162542185
 20
107.0772480459952
 10
135.0147865363276
 20
107.1002009943267
 10
135.004246697483
 20
107.1220665844117
 10
134.9917043969173
 20
107.142694093325
 10
134.9772995916323
 20
107.1619543299878
 10
134.9611399408604
 20
107.1797181033212
 10
134.9433654016037
 20
107.1958777540931
 10
134.924105164941
 20
107.2102825593781
 10
134.9034884219509
 20
107.2228248599438
 10
134.8816228318659
 20
107.2333754647116
 10
134.8586591176111
 20
107.2417944166793
 10
134.834704938419
 20
107.2479632906915
 10
134.8098894853683
 20
107.2517636615925
 10
134.7843527154611
 20
107.2530555723804
 10
134.7843527154611
 20
107.2530555723804
 10
134.7588051796305
 20
107.2517636615925
 10
134.7340112584263
 20
107.2479632906915
 10
134.710046313311
 20
107.2417944166793
 10
134.6870825990562
 20
107.2333754647116
 10
134.6652170089712
 20
107.2228248599438
 10
134.6446002659812
 20
107.2102825593781
 10
134.6253292633951
 20
107.1958777540931
 10
134.6075654900617
 20
107.1797181033212
 10
134.5914058392898
 20
107.1619543299878
 10
134.5770010340049
 20
107.142694093325
 10
134.5644587334391
 20
107.1220665844117
 10
134.5539081286713
 20
107.1002117602499
 10
134.5454891767036
 20
107.0772372800719
 10
134.5393203026914
 20
107.0532938668031
 10
134.5355199317904
 20
107.0284784137524
 10
134.5342280210025
 20
107.0029416438451
 10
134.5342280210025
 20
107.0029416438451
 10
134.5355306977136
 20
106.9773941080146
 10
134.5393095367682
 20
106.9525894208871
 10
134.5454891767036
 20
106.928635241695
 10
134.5539188945946
 20
106.905660761517
 10
134.5644587334391
 20
106.883795171432
 10
134.5770010340049
 20
106.8631784284419
 10
134.5914166052131
 20
106.8439181917792
 10
134.6075654900617
 20
106.8261544184457
 10
134.6253292633951
 20
106.8099947676738
 10
134.6446002659812
 20
106.7955899623889
 10
134.6652277748944
 20
106.7830476618231
 10
134.6870825990562
 20
106.7724970570554
 10
134.7100570792342
 20
106.7640781050876
 10
134.7340004925031
 20
106.7579092310755
 10
134.7588159455538
 20
106.7541088601744
 97
        0
 75
     1
 76
     1
 98
        0
  0
LWPOLYLINE
  5
7D
330
1F
100
AcDbEntity
  8
ISS138金台
  6
Continuous
 62
   250
420
  2367521
370
    13
100
AcDbPolyline
 90
       68
 70
     0
 43
0.0
 10
134.7843527154611
 20
106.7528169493865
 10
134.8098894853683
 20
106.7541196260976
 10
134.834704938419
 20
106.7578984651522
 10
134.8586483516879
 20
106.7640781050876
 10
134.8816335977891
 20
106.7725078229786
 10
134.9034776560277
 20
106.7830368958999
 10
134.924105164941
 20
106.7955791964657
 10
134.9433654016037
 20
106.8099947676738
 10
134.9611399408604
 20
106.8261544184457
 10
134.9772888257091
 20
106.8439181917792
 10
134.9917043969173
 20
106.8631784284419
 10
135.004246697483
 20
106.8838059373552
 10
135.0147865363276
 20
106.905660761517
 10
135.0232162542185
 20
106.928635241695
 10
135.0293851282307
 20
106.9525894208871
 10
135.0331854991317
 20
106.9774048739378
 10
135.0344774099196
 20
107.0029416438451
 10
135.0344774099196
 20
107.0029416438451
 10
135.0331747332085
 20
107.0284784137524
 10
135.0293851282307
 20
107.0533046327263
 10
135.0232162542185
 20
107.0772480459952
 10
135.0147865363276
 20
107.1002009943267
 10
135.004246697483
 20
107.1220665844117
 10
134.9917043969173
 20
107.142694093325
 10
134.9772995916323
 20
107.1619543299878
 10
134.9611399408604
 20
107.1797181033212
 10
134.9433654016037
 20
107.1958777540931
 10
134.924105164941
 20
107.2102825593781
 10
134.9034884219509
 20
107.2228248599438
 10
134.8816228318659
 20
107.2333754647116
 10
134.8586591176111
 20
107.2417944166793
 10
134.834704938419
 20
107.2479632906915
 10
134.8098894853683
 20
107.2517636615925
 10
134.7843527154611
 20
107.2530555723804
 10
134.7843527154611
 20
107.2530555723804
 10
134.7588051796305
 20
107.2517636615925
 10
134.7340112584263
 20
107.2479632906915
 10
134.710046313311
 20
107.2417944166793
 10
134.6870825990562
 20
107.2333754647116
 10
134.6652170089712
 20
107.2228248599438
 10
134.6446002659812
 20
107.2102825593781
 10
134.6253292633951
 20
107.1958777540931
 10
134.6075654900617
 20
107.1797181033212
 10
134.5914058392898
 20
107.1619543299878
 10
134.5770010340049
 20
107.142694093325
 10
134.5644587334391
 20
107.1220665844117
 10
134.5539081286713
 20
107.1002117602499
 10
134.5454891767036
 20
107.0772372800719
 10
134.5393203026914
 20
107.0532938668031
 10
134.5355199317904
 20
107.0284784137524
 10
134.5342280210025
 20
107.0029416438451
 10
134.5342280210025
 20
107.0029416438451
 10
134.5355306977136
 20
106.9773941080146
 10
134.5393095367682
 20
106.9525894208871
 10
134.5454891767036
 20
106.928635241695
 10
134.5539188945946
 20
106.905660761517
 10
134.5644587334391
 20
106.883795171432
 10
134.5770010340049
 20
106.8631784284419
 10
134.5914166052131
 20
106.8439181917792
 10
134.6075654900617
 20
106.8261544184457
 10
134.6253292633951
 20
106.8099947676738
 10
134.6446002659812
 20
106.7955899623889
 10
134.6652277748944
 20
106.7830476618231
 10
134.6870825990562
 20
106.7724970570554
 10
134.7100570792342
 20
106.7640781050876
 10
134.7340004925031
 20
106.7579092310755
 10
134.7588159455538
 20
106.7541088601744
 10
134.7843527154611
 20
106.7528169493865
  0
HATCH
  5
7E
330
1F
100
AcDbEntity
  8
ISS138金台
  6
Continuous
 62
   250
420
  2367521
370
    13
100
AcDbHatch
 10
0.0
 20
0.0
 30
0.0
210
0.0
220
0.0
230
1.0
  2
SOLID
 70
     1
 71
     0
 91
        1
 92
        3
 72
     0
 73
     1
 93
       67
 10
134.7843527154611
 20
103.6219142186302
 10
134.8098894853683
 20
103.6232168953413
 10
134.834704938419
 20
103.6269957343959
 10
134.8586483516879
 20
103.6331753743313
 10
134.8816335977891
 20
103.6416050922223
 10
134.9034776560277
 20
103.6521341651436
 10
134.924105164941
 20
103.6646764657093
 10
134.9433654016037
 20
103.6790920369175
 10
134.9611399408604
 20
103.6952516876893
 10
134.9772888257091
 20
103.7130154610228
 10
134.9917043969173
 20
103.7322756976856
 10
135.004246697483
 20
103.7529032065989
 10
135.0147865363276
 20
103.7747580307607
 10
135.0232162542185
 20
103.7977325109387
 10
135.0293851282307
 20
103.8216866901308
 10
135.0331854991317
 20
103.8465021431815
 10
135.0344774099196
 20
103.8720389130888
 10
135.0344774099196
 20
103.8720389130888
 10
135.0331747332085
 20
103.897575682996
 10
135.0293851282307
 20
103.92240190197
 10
135.0232162542185
 20
103.9463453152388
 10
135.0147865363276
 20
103.9692982635703
 10
135.004246697483
 20
103.9911638536554
 10
134.9917043969173
 20
104.0117913625687
 10
134.9772995916323
 20
104.0310515992314
 10
134.9611399408604
 20
104.0488153725649
 10
134.9433654016037
 20
104.0649750233367
 10
134.924105164941
 20
104.0793798286217
 10
134.9034884219509
 20
104.0919221291875
 10
134.8816228318659
 20
104.1024727339552
 10
134.8586591176111
 20
104.110891685923
 10
134.834704938419
 20
104.1170605599352
 10
134.8098894853683
 20
104.1208609308362
 10
134.7843527154611
 20
104.1221528416241
 10
134.7843527154611
 20
104.1221528416241
 10
134.7588051796305
 20
104.1208609308362
 10
134.7340112584263
 20
104.1170605599352
 10
134.710046313311
 20
104.110891685923
 10
134.6870825990562
 20
104.1024727339552
 10
134.6652170089712
 20
104.0919221291875
 10
134.6446002659812
 20
104.0793798286217
 10
134.6253292633951
 20
104.0649750233367
 10
134.6075654900617
 20
104.0488153725649
 10
134.5914058392898
 20
104.0310515992314
 10
134.5770010340049
 20
104.0117913625687
 10
134.5644587334391
 20
103.9911638536554
 10
134.5539081286713
 20
103.9693090294936
 10
134.5454891767036
 20
103.9463345493156
 10
134.5393203026914
 20
103.9223911360467
 10
134.5355199317904
 20
103.897575682996
 10
134.5342280210025
 20
103.8720389130888
 10
134.5342280210025
 20
103.8720389130888
 10
134.5355306977136
 20
103.8464913772582
 10
134.5393095367682
 20
103.8216866901308
 10
134.5454891767036
 20
103.7977325109387
 10
134.5539188945946
 20
103.7747580307607
 10
134.5644587334391
 20
103.7528924406757
 10
134.5770010340049
 20
103.7322756976856
 10
134.5914166052131
 20
103.7130154610228
 10
134.6075654900617
 20
103.6952516876893
 10
134.6253292633951
 20
103.6790920369175
 10
134.6446002659812
 20
103.6646872316326
 10
134.6652277748944
 20
103.6521449310668
 10
134.6870825990562
 20
103.641594326299
 10
134.7100570792342
 20
103.6331753743313
 10
134.7340004925031
 20
103.6270065003191
 10
134.7588159455538
 20
103.6232061294181
 97
        0
 75
     1
 76
     1
 98
        0
  0
LWPOLYLINE
  5
7F
330
1F
100
AcDbEntity
  8
ISS138金台
  6
Continuous
 62
   250
420
  2367521
370
    13
100
AcDbPolyline
 90
       68
 70
     0
 43
0.0
 10
134.7843527154611
 20
103.6219142186302
 10
134.8098894853683
 20
103.6232168953413
 10
134.834704938419
 20
103.6269957343959
 10
134.8586483516879
 20
103.6331753743313
 10
134.8816335977891
 20
103.6416050922223
 10
134.9034776560277
 20
103.6521341651436
 10
134.924105164941
 20
103.6646764657093
 10
134.9433654016037
 20
103.6790920369175
 10
134.9611399408604
 20
103.6952516876893
 10
134.9772888257091
 20
103.7130154610228
 10
134.9917043969173
 20
103.7322756976856
 10
135.004246697483
 20
103.7529032065989
 10
135.0147865363276
 20
103.7747580307607
 10
135.0232162542185
 20
103.7977325109387
 10
135.0293851282307
 20
103.8216866901308
 10
135.0331854991317
 20
103.8465021431815
 10
135.0344774099196
 20
103.8720389130888
 10
135.0344774099196
 20
103.8720389130888
 10
135.0331747332085
 20
103.897575682996
 10
135.0293851282307
 20
103.92240190197
 10
135.0232162542185
 20
103.9463453152388
 10
135.0147865363276
 20
103.9692982635703
 10
135.004246697483
 20
103.9911638536554
 10
134.9917043969173
 20
104.0117913625687
 10
134.9772995916323
 20
104.0310515992314
 10
134.9611399408604
 20
104.0488153725649
 10
134.9433654016037
 20
104.0649750233367
 10
134.924105164941
 20
104.0793798286217
 10
134.9034884219509
 20
104.0919221291875
 10
134.8816228318659
 20
104.1024727339552
 10
134.8586591176111
 20
104.110891685923
 10
134.834704938419
 20
104.1170605599352
 10
134.8098894853683
 20
104.1208609308362
 10
134.7843527154611
 20
104.1221528416241
 10
134.7843527154611
 20
104.1221528416241
 10
134.7588051796305
 20
104.1208609308362
 10
134.7340112584263
 20
104.1170605599352
 10
134.710046313311
 20
104.110891685923
 10
134.6870825990562
 20
104.1024727339552
 10
134.6652170089712
 20
104.0919221291875
 10
134.6446002659812
 20
104.0793798286217
 10
134.6253292633951
 20
104.0649750233367
 10
134.6075654900617
 20
104.0488153725649
 10
134.5914058392898
 20
104.0310515992314
 10
134.5770010340049
 20
104.0117913625687
 10
134.5644587334391
 20
103.9911638536554
 10
134.5539081286713
 20
103.9693090294936
 10
134.5454891767036
 20
103.9463345493156
 10
134.5393203026914
 20
103.9223911360467
 10
134.5355199317904
 20
103.897575682996
 10
134.5342280210025
 20
103.8720389130888
 10
134.5342280210025
 20
103.8720389130888
 10
134.5355306977136
 20
103.8464913772582
 10
134.5393095367682
 20
103.8216866901308
 10
134.5454891767036
 20
103.7977325109387
 10
134.5539188945946
 20
103.7747580307607
 10
134.5644587334391
 20
103.7528924406757
 10
134.5770010340049
 20
103.7322756976856
 10
134.5914166052131
 20
103.7130154610228
 10
134.6075654900617
 20
103.6952516876893
 10
134.6253292633951
 20
103.6790920369175
 10
134.6446002659812
 20
103.6646872316326
 10
134.6652277748944
 20
103.6521449310668
 10
134.6870825990562
 20
103.641594326299
 10
134.7100570792342
 20
103.6331753743313
 10
134.7340004925031
 20
103.6270065003191
 10
134.7588159455538
 20
103.6232061294181
 10
134.7843527154611
 20
103.6219142186302
  0
HATCH
  5
80
330
1F
100
AcDbEntity
  8
ISS138金台
  6
Continuous
 62
   250
420
  2367521
370
    13
100
AcDbHatch
 10
0.0
 20
0.0
 30
0.0
210
0.0
220
0.0
230
1.0
  2
SOLID
 70
     1
 71
     0
 91
        1
 92
        3
 72
     0
 73
     1
 93
       67
 10
119.2841793371392
 20
112.1989960668119
 10
119.3097161070465
 20
112.2002879775998
 10
119.3345315600972
 20
112.2040668166543
 10
119.3584749733661
 20
112.2102356906665
 10
119.3814602194673
 20
112.2186223448646
 10
119.4033042777058
 20
112.2291406518626
 10
119.4239317866191
 20
112.2416506546587
 10
119.4432027892051
 20
112.2560339280972
 10
119.4609665625386
 20
112.2721505151761
 10
119.4771262133104
 20
112.2898927566631
 10
119.4915310185954
 20
112.3091206955562
 10
119.5040733191612
 20
112.3297159066998
 10
119.5146131580057
 20
112.3515384330919
 10
119.5230428758966
 20
112.3744913814234
 10
119.5292117499088
 20
112.398424028769
 10
119.5330121208099
 20
112.4232287158965
 10
119.5343040315978
 20
112.4487654858037
 10
119.5343040315978
 20
112.4487654858037
 10
119.5330121208099
 20
112.4743668512504
 10
119.5292117499088
 20
112.4992253679941
 10
119.5230428758966
 20
112.5232118449559
 10
119.5146131580057
 20
112.5461863251338
 10
119.5040733191612
 20
112.5680519152189
 10
119.4915310185954
 20
112.5886686582089
 10
119.4771154473872
 20
112.6079181289485
 10
119.4609665625386
 20
112.6256819022819
 10
119.4432027892051
 20
112.6418200212073
 10
119.4239425525423
 20
112.6562032946458
 10
119.403315043629
 20
112.6687240633651
 10
119.381449453544
 20
112.6792423703632
 10
119.3584857392893
 20
112.6876505564077
 10
119.3345315600972
 20
112.6938086644966
 10
119.3097161070465
 20
112.6975875035512
 10
119.2841793371392
 20
112.6988794143391
 10
119.2841793371392
 20
112.6988794143391
 10
119.2586318013087
 20
112.6975982694744
 10
119.2338378801044
 20
112.6937978985734
 10
119.2098837009123
 20
112.6876613223309
 10
119.1869092207344
 20
112.6792423703632
 10
119.1650436306494
 20
112.6687240633651
 10
119.1444268876593
 20
112.6562032946458
 10
119.1251666509965
 20
112.6418200212073
 10
119.1073921117398
 20
112.6256819022819
 10
119.0912432268912
 20
112.6079288948717
 10
119.076827655683
 20
112.5886686582089
 10
119.0642853551172
 20
112.5680519152189
 10
119.0537347503495
 20
112.5461863251338
 10
119.0453157983817
 20
112.5232010790326
 10
119.0391469243696
 20
112.4992146020708
 10
119.0353465534685
 20
112.4743668512504
 10
119.0340546426806
 20
112.4487654858037
 10
119.0340546426806
 20
112.4487654858037
 10
119.0353465534685
 20
112.4232287158965
 10
119.0391361584463
 20
112.3984347946922
 10
119.045326564305
 20
112.3745021473466
 10
119.0537455162727
 20
112.3515491990151
 10
119.0642853551172
 20
112.3297051407765
 10
119.076827655683
 20
112.3091206955562
 10
119.091232460968
 20
112.2898927566631
 10
119.1073921117398
 20
112.2721505151761
 10
119.1251666509965
 20
112.2560339280972
 10
119.1444268876593
 20
112.2416506546587
 10
119.1650436306494
 20
112.2291406518626
 10
119.1869092207344
 20
112.2186223448646
 10
119.2098837009123
 20
112.2102249247433
 10
119.2338271141812
 20
112.2040668166543
 10
119.2586425672319
 20
112.2002879775998
 97
        0
 75
     1
 76
     1
 98
        0
  0
LWPOLYLINE
  5
81
330
1F
100
AcDbEntity
  8
ISS138金台
  6
Continuous
 62
   250
420
  2367521
370
    13
100
AcDbPolyline
 90
       68
 70
     0
 43
0.0
 10
119.2841793371392
 20
112.1989960668119
 10
119.3097161070465
 20
112.2002879775998
 10
119.3345315600972
 20
112.2040668166543
 10
119.3584749733661
 20
112.2102356906665
 10
119.3814602194673
 20
112.2186223448646
 10
119.4033042777058
 20
112.2291406518626
 10
119.4239317866191
 20
112.2416506546587
 10
119.4432027892051
 20
112.2560339280972
 10
119.4609665625386
 20
112.2721505151761
 10
119.4771262133104
 20
112.2898927566631
 10
119.4915310185954
 20
112.3091206955562
 10
119.5040733191612
 20
112.3297159066998
 10
119.5146131580057
 20
112.3515384330919
 10
119.5230428758966
 20
112.3744913814234
 10
119.5292117499088
 20
112.398424028769
 10
119.5330121208099
 20
112.4232287158965
 10
119.5343040315978
 20
112.4487654858037
 10
119.5343040315978
 20
112.4487654858037
 10
119.5330121208099
 20
112.4743668512504
 10
119.5292117499088
 20
112.4992253679941
 10
119.5230428758966
 20
112.5232118449559
 10
119.5146131580057
 20
112.5461863251338
 10
119.5040733191612
 20
112.5680519152189
 10
119.4915310185954
 20
112.5886686582089
 10
119.4771154473872
 20
112.6079181289485
 10
119.4609665625386
 20
112.6256819022819
 10
119.4432027892051
 20
112.6418200212073
 10
119.4239425525423
 20
112.6562032946458
 10
119.403315043629
 20
112.6687240633651
 10
119.381449453544
 20
112.6792423703632
 10
119.3584857392893
 20
112.6876505564077
 10
119.3345315600972
 20
112.6938086644966
 10
119.3097161070465
 20
112.6975875035512
 10
119.2841793371392
 20
112.6988794143391
 10
119.2841793371392
 20
112.6988794143391
 10
119.2586318013087
 20
112.6975982694744
 10
119.2338378801044
 20
112.6937978985734
 10
119.2098837009123
 20
112.6876613223309
 10
119.1869092207344
 20
112.6792423703632
 10
119.1650436306494
 20
112.6687240633651
 10
119.1444268876593
 20
112.6562032946458
 10
119.1251666509965
 20
112.6418200212073
 10
119.1073921117398
 20
112.6256819022819
 10
119.0912432268912
 20
112.6079288948717
 10
119.076827655683
 20
112.5886686582089
 10
119.0642853551172
 20
112.5680519152189
 10
119.0537347503495
 20
112.5461863251338
 10
119.0453157983817
 20
112.5232010790326
 10
119.0391469243696
 20
112.4992146020708
 10
119.0353465534685
 20
112.4743668512504
 10
119.0340546426806
 20
112.4487654858037
 10
119.0340546426806
 20
112.4487654858037
 10
119.0353465534685
 20
112.4232287158965
 10
119.0391361584463
 20
112.3984347946922
 10
119.045326564305
 20
112.3745021473466
 10
119.0537455162727
 20
112.3515491990151
 10
119.0642853551172
 20
112.3297051407765
 10
119.076827655683
 20
112.3091206955562
 10
119.091232460968
 20
112.2898927566631
 10
119.1073921117398
 20
112.2721505151761
 10
119.1251666509965
 20
112.2560339280972
 10
119.1444268876593
 20
112.2416506546587
 10
119.1650436306494
 20
112.2291406518626
 10
119.1869092207344
 20
112.2186223448646
 10
119.2098837009123
 20
112.2102249247433
 10
119.2338271141812
 20
112.2040668166543
 10
119.2586425672319
 20
112.2002879775998
 10
119.2841793371392
 20
112.1989960668119
  0
HATCH
  5
82
330
1F
100
AcDbEntity
  8
ISS138金台
  6
Continuous
 62
   250
420
  2367521
370
    13
100
AcDbHatch
 10
0.0
 20
0.0
 30
0.0
210
0.0
220
0.0
230
1.0
  2
SOLID
 70
     1
 71
     0
 91
        1
 92
        3
 72
     0
 73
     1
 93
       67
 10
129.3603944635874
 20
112.1989960668119
 10
129.3859312334947
 20
112.2002879775998
 10
129.4107466865454
 20
112.2040668166543
 10
129.4346900998142
 20
112.2102356906665
 10
129.4576753459154
 20
112.2186223448646
 10
129.479519404154
 20
112.2291406518626
 10
129.5001469130673
 20
112.2416506546587
 10
129.5194071497301
 20
112.2560339280972
 10
129.5371816889868
 20
112.2721505151761
 10
129.5533305738354
 20
112.2898927566631
 10
129.5677461450436
 20
112.3091206955562
 10
129.5802884456094
 20
112.3297159066998
 10
129.5908282844539
 20
112.3515384330919
 10
129.5992580023449
 20
112.3744913814234
 10
129.6054268763571
 20
112.398424028769
 10
129.6092272472581
 20
112.4232287158965
 10
129.610519158046
 20
112.4487654858037
 10
129.610519158046
 20
112.4487654858037
 10
129.6092164813348
 20
112.4743668512504
 10
129.6054268763571
 20
112.4992253679941
 10
129.5992580023449
 20
112.5232118449559
 10
129.5908282844539
 20
112.5461863251338
 10
129.5802884456094
 20
112.5680519152189
 10
129.5677461450436
 20
112.5886686582089
 10
129.5533413397586
 20
112.6079181289485
 10
129.5371816889868
 20
112.6256819022819
 10
129.5194071497301
 20
112.6418200212073
 10
129.5001469130673
 20
112.6562032946458
 10
129.4795301700772
 20
112.6687240633651
 10
129.4576645799922
 20
112.6792423703632
 10
129.4347008657375
 20
112.6876505564077
 10
129.4107466865454
 20
112.6938086644966
 10
129.3859312334947
 20
112.6975875035512
 10
129.3603944635874
 20
112.6988794143391
 10
129.3603944635874
 20
112.6988794143391
 10
129.3348469277569
 20
112.6975982694744
 10
129.3100530065527
 20
112.6937978985734
 10
129.2860880614373
 20
112.6876613223309
 10
129.2631243471826
 20
112.6792423703632
 10
129.2412587570976
 20
112.6687240633651
 10
129.2206420141075
 20
112.6562032946458
 10
129.2013710115215
 20
112.6418200212073
 10
129.183607238188
 20
112.6256819022819
 10
129.1674475874162
 20
112.6079288948717
 10
129.1530427821312
 20
112.5886686582089
 10
129.1405004815654
 20
112.5680519152189
 10
129.1299498767977
 20
112.5461863251338
 10
129.1215309248299
 20
112.5232010790326
 10
129.1153620508178
 20
112.4992146020708
 10
129.1115616799167
 20
112.4743668512504
 10
129.1102697691288
 20
112.4487654858037
 10
129.1102697691288
 20
112.4487654858037
 10
129.11157244584
 20
112.4232287158965
 10
129.1153512848945
 20
112.3984347946922
 10
129.1215309248299
 20
112.3745021473466
 10
129.1299606427209
 20
112.3515491990151
 10
129.1405004815654
 20
112.3297051407765
 10
129.1530427821312
 20
112.3091206955562
 10
129.1674583533394
 20
112.2898927566631
 10
129.183607238188
 20
112.2721505151761
 10
129.2013710115215
 20
112.2560339280972
 10
129.2206420141075
 20
112.2416506546587
 10
129.2412587570976
 20
112.2291406518626
 10
129.2631243471826
 20
112.2186223448646
 10
129.2860988273605
 20
112.2102249247433
 10
129.3100422406294
 20
112.2040668166543
 10
129.3348576936801
 20
112.2002879775998
 97
        0
 75
     1
 76
     1
 98
        0
  0
LWPOLYLINE
  5
83
330
1F
100
AcDbEntity
  8
ISS138金台
  6
Continuous
 62
   250
420
  2367521
370
    13
100
AcDbPolyline
 90
       68
 70
     0
 43
0.0
 10
129.3603944635874
 20
112.1989960668119
 10
129.3859312334947
 20
112.2002879775998
 10
129.4107466865454
 20
112.2040668166543
 10
129.4346900998142
 20
112.2102356906665
 10
129.4576753459154
 20
112.2186223448646
 10
129.479519404154
 20
112.2291406518626
 10
129.5001469130673
 20
112.2416506546587
 10
129.5194071497301
 20
112.2560339280972
 10
129.5371816889868
 20
112.2721505151761
 10
129.5533305738354
 20
112.2898927566631
 10
129.5677461450436
 20
112.3091206955562
 10
129.5802884456094
 20
112.3297159066998
 10
129.5908282844539
 20
112.3515384330919
 10
129.5992580023449
 20
112.3744913814234
 10
129.6054268763571
 20
112.398424028769
 10
129.6092272472581
 20
112.4232287158965
 10
129.610519158046
 20
112.4487654858037
 10
129.610519158046
 20
112.4487654858037
 10
129.6092164813348
 20
112.4743668512504
 10
129.6054268763571
 20
112.4992253679941
 10
129.5992580023449
 20
112.5232118449559
 10
129.5908282844539
 20
112.5461863251338
 10
129.5802884456094
 20
112.5680519152189
 10
129.5677461450436
 20
112.5886686582089
 10
129.5533413397586
 20
112.6079181289485
 10
129.5371816889868
 20
112.6256819022819
 10
129.5194071497301
 20
112.6418200212073
 10
129.5001469130673
 20
112.6562032946458
 10
129.4795301700772
 20
112.6687240633651
 10
129.4576645799922
 20
112.6792423703632
 10
129.4347008657375
 20
112.6876505564077
 10
129.4107466865454
 20
112.6938086644966
 10
129.3859312334947
 20
112.6975875035512
 10
129.3603944635874
 20
112.6988794143391
 10
129.3603944635874
 20
112.6988794143391
 10
129.3348469277569
 20
112.6975982694744
 10
129.3100530065527
 20
112.6937978985734
 10
129.2860880614373
 20
112.6876613223309
 10
129.2631243471826
 20
112.6792423703632
 10
129.2412587570976
 20
112.6687240633651
 10
129.2206420141075
 20
112.6562032946458
 10
129.2013710115215
 20
112.6418200212073
 10
129.183607238188
 20
112.6256819022819
 10
129.1674475874162
 20
112.6079288948717
 10
129.1530427821312
 20
112.5886686582089
 10
129.1405004815654
 20
112.5680519152189
 10
129.1299498767977
 20
112.5461863251338
 10
129.1215309248299
 20
112.5232010790326
 10
129.1153620508178
 20
112.4992146020708
 10
129.1115616799167
 20
112.4743668512504
 10
129.1102697691288
 20
112.4487654858037
 10
129.1102697691288
 20
112.4487654858037
 10
129.11157244584
 20
112.4232287158965
 10
129.1153512848945
 20
112.3984347946922
 10
129.1215309248299
 20
112.3745021473466
 10
129.1299606427209
 20
112.3515491990151
 10
129.1405004815654
 20
112.3297051407765
 10
129.1530427821312
 20
112.3091206955562
 10
129.1674583533394
 20
112.2898927566631
 10
129.183607238188
 20
112.2721505151761
 10
129.2013710115215
 20
112.2560339280972
 10
129.2206420141075
 20
112.2416506546587
 10
129.2412587570976
 20
112.2291406518626
 10
129.2631243471826
 20
112.2186223448646
 10
129.2860988273605
 20
112.2102249247433
 10
129.3100422406294
 20
112.2040668166543
 10
129.3348576936801
 20
112.2002879775998
 10
129.3603944635874
 20
112.1989960668119
  0
TEXT
  5
84
330
1F
100
AcDbEntity
  8
ISS138金台
  6
Continuous
 62
   250
420
  2367521
100
AcDbText
 10
122.3709848463356
 20
112.9791519666891
 30
0.0
 40
2.150533301035563
  1
10
 41
0.9978761672973631
  7
MS Gothic
100
AcDbText
  0
TEXT
  5
85
330
1F
100
AcDbEntity
  8
ISS138金台
  6
Continuous
 62
   250
420
  2367521
100
AcDbText
 10
134.1218360587444
 20
104.6657781178504
 30
0.0
 40
2.150533301035563
  1
3
 50
90.00000250447816
 41
0.8120040893554685
  7
MS Gothic
100
AcDbText
  0
TEXT
  5
86
330
1F
100
AcDbEntity
  8
ISS138金台
  6
Continuous
 62
   250
420
  2367521
100
AcDbText
 10
121.0921654210971
 20
94.23784356963424
 30
0.0
 40
2.150533301035563
  1
14
 41
1.012501716613769
  7
MS Gothic
100
AcDbText
  0
LINE
  5
87
330
1F
100
AcDbEntity
  8
ISS138金台
  6
UserDefined01
 62
   140
420
    44526
370
    13
100
AcDbLine
 10
124.2892139841933
 20
98.94071854240691
 30
0.0
 11
129.2944208860192
 21
98.94071854240691
 31
0.0
  0
TEXT
  5
88
330
1F
100
AcDbEntity
  8
ISS138金台
  6
Continuous
 62
   140
420
    44526
100
AcDbText
 10
126.0667109735571
 20
99.72989318536698
 30
0.0
 40
1.881716638406118
  1
5
 41
1.010001046316964
  7
MS Gothic
100
AcDbText
  0
HATCH
  5
89
330
1F
100
AcDbEntity
  8
ISS138金台
  6
Continuous
 62
   140
420
    44526
370
    13
100
AcDbHatch
 10
0.0
 20
0.0
 30
0.0
210
0.0
220
0.0
230
1.0
  2
SOLID
 70
     1
 71
     0
 91
        1
 92
        3
 72
     0
 73
     1
 93
        3
 10
123.4231062260693
 20
109.494100918362
 10
125.1552463808548
 20
109.4933903674286
 10
124.2898814714338
 20
107.9951506607904
 97
        0
 75
     1
 76
     1
 98
        0
  0
LWPOLYLINE
  5
8A
330
1F
100
AcDbEntity
  8
ISS138金台
  6
Continuous
 62
   140
420
    44526
370
    13
100
AcDbPolyline
 90
        4
 70
     0
 43
0.0
 10
123.4231062260693
 20
109.494100918362
 10
125.1552463808548
 20
109.4933903674286
 10
124.2898814714338
 20
107.9951506607904
 10
123.4231062260693
 20
109.494100918362
  0
HATCH
  5
8B
330
1F
100
AcDbEntity
  8
ISS138金台
  6
Continuous
 62
     7
420
 16777215
370
    13
100
AcDbHatch
 10
0.0
 20
0.0
 30
0.0
210
0.0
220
0.0
230
1.0
  2
SOLID
 70
     1
 71
     0
 91
        1
 92
        3
 72
     0
 73
     1
 93
        7
 10
115.3705724555402
 20
103.9381632135822
 10
119.3615432614873
 20
106.9367742796587
 10
129.3716125555956
 20
106.9367742796587
 10
129.3716125555956
 20
103.9381632135822
 10
124.6733205932792
 20
103.9381632135822
 10
124.3720469975435
 20
104.1385385767838
 10
124.0753596851048
 20
103.9381632135822
 97
        0
 75
     1
 76
     1
 98
        0
  0
LWPOLYLINE
  5
8C
330
1F
100
AcDbEntity
  8
ISS138金台
  6
Continuous
 62
     7
420
 16777215
370
    13
100
AcDbPolyline
 90
        8
 70
     0
 43
0.0
 10
115.3705724555402
 20
103.9381632135822
 10
119.3615432614873
 20
106.9367742796587
 10
129.3716125555956
 20
106.9367742796587
 10
129.3716125555956
 20
103.9381632135822
 10
124.6733205932792
 20
103.9381632135822
 10
124.3720469975435
 20
104.1385385767838
 10
124.0753596851048
 20
103.9381632135822
 10
115.3705724555402
 20
103.9381632135822
  0
LWPOLYLINE
  5
8D
330
1F
100
AcDbEntity
  8
ISS138金台
  6
Continuous
 62
   250
420
  2367521
370
    25
100
AcDbPolyline
 90
        8
 70
     0
 43
0.0
 10
115.3705724555402
 20
103.9381632135822
 10
119.3615432614873
 20
106.9367742796587
 10
129.3716125555956
 20
106.9367742796587
 10
129.3716125555956
 20
103.9381632135822
 10
124.6733205932792
 20
103.9381632135822
 10
124.3720469975435
 20
104.1385385767838
 10
124.0753596851048
 20
103.9381632135822
 10
115.3705724555402
 20
103.9381632135822
  0
ENDSEC
  0
SECTION
  2
OBJECTS
  0
DICTIONARY
  5
C
330
0
100
AcDbDictionary
281
     1
  3
ACAD_DETAILVIEWSTYLE
350
95
  3
ACAD_GROUP
350
D
  3
ACAD_LAYOUT
350
1A
  3
ACAD_MATERIAL
350
43
  3
ACAD_MLEADERSTYLE
350
5B
  3
ACAD_MLINESTYLE
350
17
  3
ACAD_PLOTSETTINGS
350
19
  3
ACAD_PLOTSTYLENAME
350
E
  3
ACAD_SCALELIST
350
47
  3
ACAD_SECTIONVIEWSTYLE
350
96
  3
ACAD_TABLESTYLE
350
59
  3
ACAD_VISUALSTYLE
350
2A
  3
ACDB_RECOMPOSE_DATA
350
92
  3
AcDbVariableDictionary
350
8E
  0
SUN
  5
5D
330
29
100
AcDbSun
 90
        1
290
     0
 63
     7
421
 16777215
 40
1.0
291
     1
 91
  2455826
 92
 54000000
292
     0
 70
     2
 71
   256
280
     1
  0
DICTIONARY
  5
95
102
{ACAD_REACTORS
330
C
102
}
330
C
100
AcDbDictionary
281
     1
  0
DICTIONARY
  5
D
102
{ACAD_REACTORS
330
C
102
}
330
C
100
AcDbDictionary
281
     1
  0
DICTIONARY
  5
1A
102
{ACAD_REACTORS
330
C
102
}
330
C
100
AcDbDictionary
281
     1
  3
Layout1
350
1E
  3
Layout2
350
26
  3
Model
350
22
  0
DICTIONARY
  5
43
102
{ACAD_REACTORS
330
C
102
}
330
C
100
AcDbDictionary
281
     1
  3
ByBlock
350
45
  3
ByLayer
350
44
  3
Global
350
46
  0
DICTIONARY
  5
5B
102
{ACAD_REACTORS
330
C
102
}
330
C
100
AcDbDictionary
281
     1
  3
Standard
350
5C
  0
DICTIONARY
  5
17
102
{ACAD_REACTORS
330
C
102
}
330
C
100
AcDbDictionary
281
     1
  3
Standard
350
18
  0
DICTIONARY
  5
19
102
{ACAD_REACTORS
330
C
102
}
330
C
100
AcDbDictionary
281
     1
  0
ACDBDICTIONARYWDFLT
  5
E
102
{ACAD_REACTORS
330
C
102
}
330
C
100
AcDbDictionary
281
     1
  3
Normal
350
F
100
AcDbDictionaryWithDefault
340
F
  0
DICTIONARY
  5
47
102
{ACAD_REACTORS
330
C
102
}
330
C
100
AcDbDictionary
281
     1
  3
A0
350
48
  3
A1
350
49
  3
A2
350
4A
  3
A3
350
4B
  3
A4
350
4C
  3
A5
350
4D
  3
A6
350
4E
  3
A7
350
4F
  3
A8
350
50
  3
A9
350
51
  3
B0
350
52
  3
B1
350
53
  3
B2
350
54
  3
B3
350
55
  3
B4
350
56
  3
B5
350
57
  3
B6
350
58
  0
DICTIONARY
  5
96
102
{ACAD_REACTORS
330
C
102
}
330
C
100
AcDbDictionary
281
     1
  0
DICTIONARY
  5
59
102
{ACAD_REACTORS
330
C
102
}
330
C
100
AcDbDictionary
281
     1
  3
Standard
350
5A
  0
DICTIONARY
  5
2A
102
{ACAD_REACTORS
330
C
102
}
330
C
100
AcDbDictionary
281
     1
  3
2dWireframe
350
2F
  3
Basic
350
32
  3
Brighten
350
36
  3
ColorChange
350
3A
  3
Conceptual
350
34
  3
Dim
350
35
  3
EdgeColorOff
350
3D
  3
Facepattern
350
39
  3
Flat
350
2B
  3
FlatWithEdges
350
2C
  3
Gouraud
350
2D
  3
GouraudWithEdges
350
2E
  3
Hidden
350
31
  3
JitterOff
350
3B
  3
Linepattern
350
38
  3
OverhangOff
350
3C
  3
Realistic
350
33
  3
Shaded
350
42
  3
Shaded with edges
350
41
  3
Shades of Gray
350
3E
  3
Sketchy
350
3F
  3
Thicken
350
37
  3
Wireframe
350
30
  3
X-Ray
350
40
  0
XRECORD
  5
92
102
{ACAD_REACTORS
330
C
102
}
330
C
100
AcDbXrecord
280
     1
 90
        1
330
5A
  0
DICTIONARY
  5
8E
102
{ACAD_REACTORS
330
C
102
}
330
C
100
AcDbDictionary
281
     1
  3
CANNOSCALE
350
8F
  3
CENTEREXE
350
97
  3
CENTERLTYPEFILE
350
98
  3
CMLEADERSTYLE
350
94
  3
CTABLESTYLE
350
93
  0
LAYOUT
  5
1E
102
{ACAD_REACTORS
330
1A
102
}
330
1A
100
AcDbPlotSettings
  1

  2
none_device
  4

  6

 40
0.0
 41
0.0
 42
0.0
 43
0.0
 44
0.0
 45
0.0
 46
0.0
 47
0.0
 48
0.0
 49
0.0
140
0.0
141
0.0
142
1.0
143
1.0
 70
   688
 72
     1
 73
     0
 74
     5
  7

 75
    16
 76
     0
 77
     5
 78
   300
147
1.0
148
0.0
149
0.0
100
AcDbLayout
  1
Layout1
 70
     1
 71
     1
 10
0.0
 20
0.0
 11
420.0
 21
297.0
 12
0.0
 22
0.0
 32
0.0
 14
1.000000000000000E+20
 24
1.000000000000000E+20
 34
1.000000000000000E+20
 15
-1.000000000000000E+20
 25
-1.000000000000000E+20
 35
-1.000000000000000E+20
146
0.0
 13
0.0
 23
0.0
 33
0.0
 16
1.0
 26
0.0
 36
0.0
 17
0.0
 27
1.0
 37
0.0
 76
     0
330
1B
  0
LAYOUT
  5
26
102
{ACAD_REACTORS
330
1A
102
}
330
1A
100
AcDbPlotSettings
  1

  2
none_device
  4

  6

 40
0.0
 41
0.0
 42
0.0
 43
0.0
 44
0.0
 45
0.0
 46
0.0
 47
0.0
 48
0.0
 49
0.0
140
0.0
141
0.0
142
1.0
143
1.0
 70
   688
 72
     1
 73
     0
 74
     5
  7

 75
    16
 76
     0
 77
     5
 78
   300
147
1.0
148
0.0
149
0.0
100
AcDbLayout
  1
Layout2
 70
     1
 71
     2
 10
0.0
 20
0.0
 11
0.0
 21
0.0
 12
0.0
 22
0.0
 32
0.0
 14
0.0
 24
0.0
 34
0.0
 15
0.0
 25
0.0
 35
0.0
146
0.0
 13
0.0
 23
0.0
 33
0.0
 16
1.0
 26
0.0
 36
0.0
 17
0.0
 27
1.0
 37
0.0
 76
     0
330
23
  0
LAYOUT
  5
22
102
{ACAD_REACTORS
330
1A
102
}
330
1A
100
AcDbPlotSettings
  1

  2
none_device
  4
Letter_(8.50_x_11.00_Inches)
  6

 40
6.35
 41
6.35
 42
6.35000508
 43
6.35000508
 44
215.9
 45
279.4
 46
0.0
 47
0.0
 48
0.0
 49
0.0
140
0.0
141
0.0
142
1.0
143
1.0
 70
  1712
 72
     1
 73
     0
 74
     0
  7

 75
     0
 76
     0
 77
     5
 78
   300
147
1.0
148
0.0
149
0.0
100
AcDbLayout
  1
Model
 70
     1
 71
     0
 10
0.0
 20
0.0
 11
302.9997823349792
 21
216.0016055409748
 12
0.0
 22
0.0
 32
0.0
 14
0.0
 24
0.0
 34
0.0
 15
302.9997823349792
 25
216.0016055409748
 35
0.0
146
0.0
 13
0.0
 23
0.0
 33
0.0
 16
1.0
 26
0.0
 36
0.0
 17
0.0
 27
1.0
 37
0.0
 76
     0
330
1F
331
29
  0
MATERIAL
  5
45
102
{ACAD_REACTORS
330
43
102
}
330
43
100
AcDbMaterial
  1
ByBlock
 72
     1
 94
      127
  0
MATERIAL
  5
44
102
{ACAD_REACTORS
330
43
102
}
330
43
100
AcDbMaterial
  1
ByLayer
 72
     1
 94
      127
  0
MATERIAL
  5
46
102
{ACAD_REACTORS
330
43
102
}
330
43
100
AcDbMaterial
  1
Global
 72
     1
 94
      127
  0
MLEADERSTYLE
  5
5C
102
{ACAD_REACTORS
330
5B
102
}
330
5B
100
AcDbMLeaderStyle
179
     2
170
     2
171
     1
172
     0
 90
        2
 40
0.0
 41
0.0
173
     1
 91
-1056964608
340
14
 92
       -2
290
     1
 42
2.0
291
     1
 43
8.0
  3
Standard
341
0
 44
4.0
300

342
11
174
     1
178
     6
175
     1
176
     0
 93
-1056964608
 45
4.0
292
     0
297
     0
 46
4.0
343
0
 94
-1056964608
 47
1.0
 49
1.0
140
1.0
293
     1
141
0.0
294
     1
177
     0
142
1.0
295
     0
296
     0
143
3.75
271
     0
272
     9
273
     9
298
     0
  0
MLINESTYLE
  5
18
102
{ACAD_REACTORS
330
17
102
}
330
17
100
AcDbMlineStyle
  2
Standard
 70
     0
  3

 62
   256
 51
90.0
 52
90.0
 71
     2
 49
0.5
 62
   256
  6
BYLAYER
 49
-0.5
 62
   256
  6
BYLAYER
  0
ACDBPLACEHOLDER
  5
F
102
{ACAD_REACTORS
330
E
102
}
330
E
  0
SCALE
  5
48
102
{ACAD_REACTORS
330
47
102
}
330
47
100
AcDbScale
 70
     0
300
1:1
140
1.0
141
1.0
290
     1
  0
SCALE
  5
49
102
{ACAD_REACTORS
330
47
102
}
330
47
100
AcDbScale
 70
     0
300
1:2
140
1.0
141
2.0
290
     0
  0
SCALE
  5
4A
102
{ACAD_REACTORS
330
47
102
}
330
47
100
AcDbScale
 70
     0
300
1:4
140
1.0
141
4.0
290
     0
  0
SCALE
  5
4B
102
{ACAD_REACTORS
330
47
102
}
330
47
100
AcDbScale
 70
     0
300
1:5
140
1.0
141
5.0
290
     0
  0
SCALE
  5
4C
102
{ACAD_REACTORS
330
47
102
}
330
47
100
AcDbScale
 70
     0
300
1:8
140
1.0
141
8.0
290
     0
  0
SCALE
  5
4D
102
{ACAD_REACTORS
330
47
102
}
330
47
100
AcDbScale
 70
     0
300
1:10
140
1.0
141
10.0
290
     0
  0
SCALE
  5
4E
102
{ACAD_REACTORS
330
47
102
}
330
47
100
AcDbScale
 70
     0
300
1:16
140
1.0
141
16.0
290
     0
  0
SCALE
  5
4F
102
{ACAD_REACTORS
330
47
102
}
330
47
100
AcDbScale
 70
     0
300
1:20
140
1.0
141
20.0
290
     0
  0
SCALE
  5
50
102
{ACAD_REACTORS
330
47
102
}
330
47
100
AcDbScale
 70
     0
300
1:30
140
1.0
141
30.0
290
     0
  0
SCALE
  5
51
102
{ACAD_REACTORS
330
47
102
}
330
47
100
AcDbScale
 70
     0
300
1:40
140
1.0
141
40.0
290
     0
  0
SCALE
  5
52
102
{ACAD_REACTORS
330
47
102
}
330
47
100
AcDbScale
 70
     0
300
1:50
140
1.0
141
50.0
290
     0
  0
SCALE
  5
53
102
{ACAD_REACTORS
330
47
102
}
330
47
100
AcDbScale
 70
     0
300
1:100
140
1.0
141
100.0
290
     0
  0
SCALE
  5
54
102
{ACAD_REACTORS
330
47
102
}
330
47
100
AcDbScale
 70
     0
300
2:1
140
2.0
141
1.0
290
     0
  0
SCALE
  5
55
102
{ACAD_REACTORS
330
47
102
}
330
47
100
AcDbScale
 70
     0
300
4:1
140
4.0
141
1.0
290
     0
  0
SCALE
  5
56
102
{ACAD_REACTORS
330
47
102
}
330
47
100
AcDbScale
 70
     0
300
8:1
140
8.0
141
1.0
290
     0
  0
SCALE
  5
57
102
{ACAD_REACTORS
330
47
102
}
330
47
100
AcDbScale
 70
     0
300
10:1
140
10.0
141
1.0
290
     0
  0
SCALE
  5
58
102
{ACAD_REACTORS
330
47
102
}
330
47
100
AcDbScale
 70
     0
300
100:1
140
100.0
141
1.0
290
     0
  0
TABLESTYLE
  5
5A
102
{ACAD_REACTORS
330
59
102
}
102
{ACAD_XDICTIONARY
360
90
102
}
330
59
100
AcDbTableStyle
  3
Standard
 70
     0
 71
     0
 40
0.06
 41
0.06
280
     0
281
     0
  7
Standard
140
4.5
170
     2
 62
     0
 63
   257
283
     0
 90
        4
 91
        0
  1

274
    -2
284
     1
 64
     0
275
    -2
285
     1
 65
     0
276
    -2
286
     1
 66
     0
277
    -2
287
     1
 67
     0
278
    -2
288
     1
 68
     0
279
    -2
289
     1
 69
     0
  7
Standard
140
6.0
170
     5
 62
     0
 63
   257
283
     0
 90
        4
 91
        0
  1

274
    -2
284
     1
 64
     0
275
    -2
285
     1
 65
     0
276
    -2
286
     1
 66
     0
277
    -2
287
     1
 67
     0
278
    -2
288
     1
 68
     0
279
    -2
289
     1
 69
     0
  7
Standard
140
4.5
170
     5
 62
     0
 63
   257
283
     0
 90
        4
 91
        0
  1

274
    -2
284
     1
 64
     0
275
    -2
285
     1
 65
     0
276
    -2
286
     1
 66
     0
277
    -2
287
     1
 67
     0
278
    -2
288
     1
 68
     0
279
    -2
289
     1
 69
     0
  0
VISUALSTYLE
  5
2F
102
{ACAD_REACTORS
330
2A
102
}
330
2A
100
AcDbVisualStyle
  2
2dWireframe
 70
     4
177
     3
291
     0
 70
    58
 90
        0
176
     1
 90
        2
176
     1
 90
        0
176
     1
 90
        0
176
     1
 40
0.6
176
     1
 40
30.0
176
     1
 62
     7
420
 16777215
176
     1
 90
        1
176
     1
 90
        4
176
     1
 62
     7
176
     1
 62
   257
176
     1
 90
        1
176
     1
 90
        1
176
     1
 40
1.0
176
     1
 90
        0
176
     1
 62
   257
176
     1
 40
1.0
176
     1
 90
        1
176
     1
 90
        6
176
     1
 90
        2
176
     1
 62
     7
176
     1
 90
        5
176
     1
 90
        0
176
     1
 90
        0
176
     1
290
     0
176
     1
 90
        1
176
     1
 40
0.0
176
     1
 90
        0
176
     1
290
     1
176
     1
290
     1
176
     1
290
     0
176
     1
290
     0
176
     1
290
     0
176
     1
290
     0
176
     1
290
     0
176
     1
290
     0
176
     1
290
     0
176
     1
 90
       50
176
     1
 40
0.0
176
     1
 40
1.0
176
     1
 90
        0
176
     1
 62
    18
420
        0
176
     1
 90
       50
176
     1
 90
        3
176
     1
 62
     5
420
      255
176
     1
290
     0
176
     1
 90
       50
176
     1
 90
       50
176
     1
 90
       50
176
     1
290
     0
176
     1
 90
       50
176
     1
 62
   256
176
     0
 40
1.0
176
     0
 90
        2
176
     1
  1
strokes_ogs.tif
176
     1
290
     0
176
     1
 40
1.0
176
     1
 40
1.0
176
     1
  0
VISUALSTYLE
  5
32
102
{ACAD_REACTORS
330
2A
102
}
330
2A
100
AcDbVisualStyle
  2
Basic
 70
     7
177
     3
291
     1
 70
    58
 90
        1
176
     1
 90
        0
176
     1
 90
        1
176
     1
 90
        0
176
     1
 40
0.6
176
     1
 40
30.0
176
     1
 62
     7
420
 16777215
176
     1
 90
        0
176
     1
 90
        4
176
     1
 62
     7
176
     1
 62
   257
176
     1
 90
        1
176
     1
 90
        1
176
     1
 40
1.0
176
     1
 90
        8
176
     1
 62
     7
176
     1
 40
1.0
176
     1
 90
        1
176
     1
 90
        6
176
     1
 90
        2
176
     1
 62
     7
176
     1
 90
        5
176
     1
 90
        0
176
     1
 90
        0
176
     1
290
     0
176
     1
 90
        1
176
     1
 40
0.0
176
     1
 90
        0
176
     1
290
     0
176
     1
290
     1
176
     1
290
     1
176
     1
290
     0
176
     1
290
     0
176
     1
290
     0
176
     1
290
     0
176
     1
290
     0
176
     1
290
     0
176
     1
 90
       50
176
     1
 40
0.0
176
     1
 40
1.0
176
     1
 90
        0
176
     1
 62
    18
420
        0
176
     1
 90
       50
176
     1
 90
        3
176
     1
 62
     5
420
      255
176
     1
290
     0
176
     1
 90
       50
176
     1
 90
       50
176
     1
 90
       50
176
     1
290
     0
176
     1
 90
       50
176
     1
 62
   256
176
     0
 40
1.0
176
     0
 90
        2
176
     1
  1
strokes_ogs.tif
176
     1
290
     0
176
     1
 40
1.0
176
     1
 40
1.0
176
     1
  0
VISUALSTYLE
  5
36
102
{ACAD_REACTORS
330
2A
102
}
330
2A
100
AcDbVisualStyle
  2
Brighten
 70
    12
177
     3
291
     1
 70
    58
 90
        2
176
     1
 90
        2
176
     1
 90
        0
176
     1
 90
        0
176
     1
 40
0.6
176
     1
 40
30.0
176
     1
 62
     7
420
 16777215
176
     1
 90
        1
176
     1
 90
        4
176
     1
 62
     7
176
     1
 62
   257
176
     1
 90
        1
176
     1
 90
        1
176
     1
 40
1.0
176
     1
 90
        8
176
     1
 62
     7
176
     1
 40
1.0
176
     1
 90
        1
176
     1
 90
        6
176
     1
 90
        2
176
     1
 62
     7
176
     1
 90
        5
176
     1
 90
        0
176
     1
 90
        0
176
     1
290
     0
176
     1
 90
        1
176
     1
 40
50.0
176
     1
 90
        0
176
     1
290
     0
176
     1
290
     1
176
     1
290
     1
176
     1
290
     0
176
     1
290
     0
176
     1
290
     0
176
     1
290
     0
176
     1
290
     0
176
     1
290
     0
176
     1
 90
       50
176
     1
 40
0.0
176
     1
 40
1.0
176
     1
 90
        0
176
     1
 62
    18
420
        0
176
     1
 90
       50
176
     1
 90
        3
176
     1
 62
     5
420
      255
176
     1
290
     0
176
     1
 90
       50
176
     1
 90
       50
176
     1
 90
       50
176
     1
290
     0
176
     1
 90
       50
176
     1
 62
   256
176
     0
 40
1.0
176
     0
 90
        2
176
     1
  1
strokes_ogs.tif
176
     1
290
     0
176
     1
 40
1.0
176
     1
 40
1.0
176
     1
  0
VISUALSTYLE
  5
3A
102
{ACAD_REACTORS
330
2A
102
}
330
2A
100
AcDbVisualStyle
  2
ColorChange
 70
    16
177
     3
291
     1
 70
    58
 90
        2
176
     1
 90
        2
176
     1
 90
        3
176
     1
 90
        0
176
     1
 40
0.6
176
     1
 40
30.0
176
     1
 62
     8
420
  8421504
176
     1
 90
        1
176
     1
 90
        4
176
     1
 62
     7
176
     1
 62
   257
176
     1
 90
        1
176
     1
 90
        1
176
     1
 40
1.0
176
     1
 90
        8
176
     1
 62
     8
420
  8421504
176
     1
 40
1.0
176
     1
 90
        1
176
     1
 90
        6
176
     1
 90
        2
176
     1
 62
     7
176
     1
 90
        5
176
     1
 90
        0
176
     1
 90
        0
176
     1
290
     0
176
     1
 90
        1
176
     1
 40
0.0
176
     1
 90
        0
176
     1
290
     0
176
     1
290
     1
176
     1
290
     1
176
     1
290
     0
176
     1
290
     0
176
     1
290
     0
176
     1
290
     0
176
     1
290
     0
176
     1
290
     0
176
     1
 90
       50
176
     1
 40
0.0
176
     1
 40
1.0
176
     1
 90
        0
176
     1
 62
    18
420
        0
176
     1
 90
       50
176
     1
 90
        3
176
     1
 62
     5
420
      255
176
     1
290
     0
176
     1
 90
       50
176
     1
 90
       50
176
     1
 90
       50
176
     1
290
     0
176
     1
 90
       50
176
     1
 62
   256
176
     0
 40
1.0
176
     0
 90
        2
176
     1
  1
strokes_ogs.tif
176
     1
290
     0
176
     1
 40
1.0
176
     1
 40
1.0
176
     1
  0
VISUALSTYLE
  5
34
102
{ACAD_REACTORS
330
2A
102
}
330
2A
100
AcDbVisualStyle
  2
Conceptual
 70
     9
177
     3
291
     0
 70
    58
 90
        3
176
     1
 90
        2
176
     1
 90
        0
176
     1
 90
        0
176
     1
 40
0.6
176
     1
 40
30.0
176
     1
 62
     7
420
 16777215
176
     1
 90
        2
176
     1
 90
        2
176
     1
 62
     7
176
     1
 62
   257
176
     1
 90
        1
176
     1
 90
        1
176
     1
 40
179.0
176
     1
 90
        8
176
     1
 62
     7
176
     1
 40
1.0
176
     1
 90
        1
176
     1
 90
        6
176
     1
 90
        2
176
     1
 62
     7
176
     1
 90
        3
176
     1
 90
        0
176
     1
 90
        0
176
     1
290
     0
176
     1
 90
        1
176
     1
 40
0.0
176
     1
 90
        0
176
     1
290
     0
176
     1
290
     1
176
     1
290
     1
176
     1
290
     0
176
     1
290
     0
176
     1
290
     0
176
     1
290
     0
176
     1
290
     0
176
     1
290
     0
176
     1
 90
       50
176
     1
 40
0.0
176
     1
 40
1.0
176
     1
 90
        0
176
     1
 62
    18
420
        0
176
     1
 90
       50
176
     1
 90
        3
176
     1
 62
     5
420
      255
176
     1
290
     0
176
     1
 90
       50
176
     1
 90
       50
176
     1
 90
       50
176
     1
290
     0
176
     1
 90
       50
176
     1
 62
   256
176
     0
 40
1.0
176
     0
 90
        2
176
     1
  1
strokes_ogs.tif
176
     1
290
     0
176
     1
 40
1.0
176
     1
 40
1.0
176
     1
  0
VISUALSTYLE
  5
35
102
{ACAD_REACTORS
330
2A
102
}
330
2A
100
AcDbVisualStyle
  2
Dim
 70
    11
177
     3
291
     1
 70
    58
 90
        2
176
     1
 90
        2
176
     1
 90
        0
176
     1
 90
        0
176
     1
 40
0.6
176
     1
 40
30.0
176
     1
 62
     7
420
 16777215
176
     1
 90
        1
176
     1
 90
        4
176
     1
 62
     7
176
     1
 62
   257
176
     1
 90
        1
176
     1
 90
        1
176
     1
 40
1.0
176
     1
 90
        8
176
     1
 62
     7
176
     1
 40
1.0
176
     1
 90
        1
176
     1
 90
        6
176
     1
 90
        2
176
     1
 62
     7
176
     1
 90
        5
176
     1
 90
        0
176
     1
 90
        0
176
     1
290
     0
176
     1
 90
        1
176
     1
 40
-50.0
176
     1
 90
        0
176
     1
290
     0
176
     1
290
     1
176
     1
290
     1
176
     1
290
     0
176
     1
290
     0
176
     1
290
     0
176
     1
290
     0
176
     1
290
     0
176
     1
290
     0
176
     1
 90
       50
176
     1
 40
0.0
176
     1
 40
1.0
176
     1
 90
        0
176
     1
 62
    18
420
        0
176
     1
 90
       50
176
     1
 90
        3
176
     1
 62
     5
420
      255
176
     1
290
     0
176
     1
 90
       50
176
     1
 90
       50
176
     1
 90
       50
176
     1
290
     0
176
     1
 90
       50
176
     1
 62
   256
176
     0
 40
1.0
176
     0
 90
        2
176
     1
  1
strokes_ogs.tif
176
     1
290
     0
176
     1
 40
1.0
176
     1
 40
1.0
176
     1
  0
VISUALSTYLE
  5
3D
102
{ACAD_REACTORS
330
2A
102
}
330
2A
100
AcDbVisualStyle
  2
EdgeColorOff
 70
    22
177
     3
291
     1
 70
    58
 90
        2
176
     0
 90
        2
176
     0
 90
        0
176
     0
 90
        0
176
     0
 40
0.6
176
     0
 40
30.0
176
     0
 62
     7
420
 16777215
176
     0
 90
        1
176
     0
 90
        4
176
     0
 62
     7
176
     0
 62
   257
176
     0
 90
        1
176
     0
 90
        1
176
     0
 40
1.0
176
     0
 90
        8
176
     2
 62
     7
176
     0
 40
1.0
176
     0
 90
        1
176
     0
 90
        6
176
     0
 90
        2
176
     0
 62
     7
176
     0
 90
        5
176
     0
 90
        0
176
     0
 90
        0
176
     0
290
     0
176
     0
 90
        1
176
     0
 40
0.0
176
     0
 90
        0
176
     0
290
     0
176
     0
290
     1
176
     0
290
     1
176
     0
290
     0
176
     0
290
     0
176
     0
290
     0
176
     0
290
     0
176
     0
290
     0
176
     0
290
     0
176
     0
 90
       50
176
     0
 40
0.0
176
     0
 40
1.0
176
     0
 90
        0
176
     0
 62
    18
420
        0
176
     0
 90
       50
176
     0
 90
        3
176
     0
 62
     5
420
      255
176
     0
290
     0
176
     0
 90
       50
176
     0
 90
       50
176
     0
 90
       50
176
     0
290
     0
176
     0
 90
       50
176
     0
 62
   256
176
     0
 40
1.0
176
     0
 90
        2
176
     0
  1
strokes_ogs.tif
176
     0
290
     0
176
     0
 40
1.0
176
     0
 40
1.0
176
     0
  0
VISUALSTYLE
  5
39
102
{ACAD_REACTORS
330
2A
102
}
330
2A
100
AcDbVisualStyle
  2
Facepattern
 70
    15
177
     3
291
     1
 70
    58
 90
        2
176
     1
 90
        2
176
     1
 90
        0
176
     1
 90
        0
176
     1
 40
0.6
176
     1
 40
30.0
176
     1
 62
     7
420
 16777215
176
     1
 90
        1
176
     1
 90
        4
176
     1
 62
     7
176
     1
 62
   257
176
     1
 90
        1
176
     1
 90
        1
176
     1
 40
1.0
176
     1
 90
        8
176
     1
 62
     7
176
     1
 40
1.0
176
     1
 90
        1
176
     1
 90
        6
176
     1
 90
        2
176
     1
 62
     7
176
     1
 90
        5
176
     1
 90
        0
176
     1
 90
        0
176
     1
290
     0
176
     1
 90
        1
176
     1
 40
0.0
176
     1
 90
        0
176
     1
290
     0
176
     1
290
     1
176
     1
290
     1
176
     1
290
     0
176
     1
290
     0
176
     1
290
     0
176
     1
290
     0
176
     1
290
     0
176
     1
290
     0
176
     1
 90
       50
176
     1
 40
0.0
176
     1
 40
1.0
176
     1
 90
        0
176
     1
 62
    18
420
        0
176
     1
 90
       50
176
     1
 90
        3
176
     1
 62
     5
420
      255
176
     1
290
     0
176
     1
 90
       50
176
     1
 90
       50
176
     1
 90
       50
176
     1
290
     0
176
     1
 90
       50
176
     1
 62
   256
176
     0
 40
1.0
176
     0
 90
        2
176
     1
  1
strokes_ogs.tif
176
     1
290
     0
176
     1
 40
1.0
176
     1
 40
1.0
176
     1
  0
VISUALSTYLE
  5
2B
102
{ACAD_REACTORS
330
2A
102
}
330
2A
100
AcDbVisualStyle
  2
Flat
 70
     0
177
     3
291
     1
 70
    58
 90
        2
176
     1
 90
        1
176
     1
 90
        1
176
     1
 90
        2
176
     1
 40
0.6
176
     1
 40
30.0
176
     1
 62
     7
420
 16777215
176
     1
 90
        0
176
     1
 90
        0
176
     1
 62
     7
176
     1
 62
   257
176
     1
 90
        1
176
     1
 90
        1
176
     1
 40
1.0
176
     1
 90
        8
176
     1
 62
     7
176
     1
 40
1.0
176
     1
 90
        1
176
     1
 90
        6
176
     1
 90
        2
176
     1
 62
     7
176
     1
 90
        5
176
     1
 90
        0
176
     1
 90
        0
176
     1
290
     0
176
     1
 90
       13
176
     1
 40
0.0
176
     1
 90
        0
176
     1
290
     0
176
     1
290
     1
176
     1
290
     1
176
     1
290
     0
176
     1
290
     0
176
     1
290
     0
176
     1
290
     0
176
     1
290
     0
176
     1
290
     0
176
     1
 90
       50
176
     1
 40
0.0
176
     1
 40
1.0
176
     1
 90
        0
176
     1
 62
    18
420
        0
176
     1
 90
       50
176
     1
 90
        3
176
     1
 62
     5
420
      255
176
     1
290
     0
176
     1
 90
       50
176
     1
 90
       50
176
     1
 90
       50
176
     1
290
     0
176
     1
 90
       50
176
     1
 62
   256
176
     0
 40
1.0
176
     0
 90
        2
176
     1
  1
strokes_ogs.tif
176
     1
290
     0
176
     1
 40
1.0
176
     1
 40
1.0
176
     1
  0
VISUALSTYLE
  5
2C
102
{ACAD_REACTORS
330
2A
102
}
330
2A
100
AcDbVisualStyle
  2
FlatWithEdges
 70
     1
177
     3
291
     1
 70
    58
 90
        2
176
     1
 90
        1
176
     1
 90
        1
176
     1
 90
        2
176
     1
 40
0.6
176
     1
 40
30.0
176
     1
 62
     7
420
 16777215
176
     1
 90
        1
176
     1
 90
        0
176
     1
 62
     7
176
     1
 62
   257
176
     1
 90
        1
176
     1
 90
        1
176
     1
 40
1.0
176
     1
 90
        0
176
     1
 62
   257
176
     1
 40
1.0
176
     1
 90
        1
176
     1
 90
        6
176
     1
 90
        2
176
     1
 62
     7
176
     1
 90
        5
176
     1
 90
        0
176
     1
 90
        0
176
     1
290
     0
176
     1
 90
       13
176
     1
 40
0.0
176
     1
 90
        0
176
     1
290
     0
176
     1
290
     1
176
     1
290
     1
176
     1
290
     0
176
     1
290
     0
176
     1
290
     0
176
     1
290
     0
176
     1
290
     0
176
     1
290
     0
176
     1
 90
       50
176
     1
 40
0.0
176
     1
 40
1.0
176
     1
 90
        0
176
     1
 62
    18
420
        0
176
     1
 90
       50
176
     1
 90
        3
176
     1
 62
     5
420
      255
176
     1
290
     0
176
     1
 90
       50
176
     1
 90
       50
176
     1
 90
       50
176
     1
290
     0
176
     1
 90
       50
176
     1
 62
   256
176
     0
 40
1.0
176
     0
 90
        2
176
     1
  1
strokes_ogs.tif
176
     1
290
     0
176
     1
 40
1.0
176
     1
 40
1.0
176
     1
  0
VISUALSTYLE
  5
2D
102
{ACAD_REACTORS
330
2A
102
}
330
2A
100
AcDbVisualStyle
  2
Gouraud
 70
     2
177
     3
291
     1
 70
    58
 90
        2
176
     1
 90
        2
176
     1
 90
        1
176
     1
 90
        2
176
     1
 40
0.6
176
     1
 40
30.0
176
     1
 62
     7
420
 16777215
176
     1
 90
        0
176
     1
 90
        0
176
     1
 62
     7
176
     1
 62
   257
176
     1
 90
        1
176
     1
 90
        1
176
     1
 40
1.0
176
     1
 90
        0
176
     1
 62
     7
176
     1
 40
1.0
176
     1
 90
        1
176
     1
 90
        6
176
     1
 90
        2
176
     1
 62
     7
176
     1
 90
        5
176
     1
 90
        0
176
     1
 90
        0
176
     1
290
     0
176
     1
 90
       13
176
     1
 40
0.0
176
     1
 90
        0
176
     1
290
     0
176
     1
290
     1
176
     1
290
     1
176
     1
290
     0
176
     1
290
     0
176
     1
290
     0
176
     1
290
     0
176
     1
290
     0
176
     1
290
     0
176
     1
 90
       50
176
     1
 40
0.0
176
     1
 40
1.0
176
     1
 90
        0
176
     1
 62
    18
420
        0
176
     1
 90
       50
176
     1
 90
        3
176
     1
 62
     5
420
      255
176
     1
290
     0
176
     1
 90
       50
176
     1
 90
       50
176
     1
 90
       50
176
     1
290
     0
176
     1
 90
       50
176
     1
 62
   256
176
     0
 40
1.0
176
     0
 90
        2
176
     1
  1
strokes_ogs.tif
176
     1
290
     0
176
     1
 40
1.0
176
     1
 40
1.0
176
     1
  0
VISUALSTYLE
  5
2E
102
{ACAD_REACTORS
330
2A
102
}
330
2A
100
AcDbVisualStyle
  2
GouraudWithEdges
 70
     3
177
     3
291
     1
 70
    58
 90
        2
176
     1
 90
        2
176
     1
 90
        1
176
     1
 90
        2
176
     1
 40
0.6
176
     1
 40
30.0
176
     1
 62
     7
420
 16777215
176
     1
 90
        1
176
     1
 90
        0
176
     1
 62
     7
176
     1
 62
   257
176
     1
 90
        1
176
     1
 90
        1
176
     1
 40
1.0
176
     1
 90
        0
176
     1
 62
   257
176
     1
 40
1.0
176
     1
 90
        1
176
     1
 90
        6
176
     1
 90
        2
176
     1
 62
     7
176
     1
 90
        5
176
     1
 90
        0
176
     1
 90
        0
176
     1
290
     0
176
     1
 90
       13
176
     1
 40
0.0
176
     1
 90
        0
176
     1
290
     0
176
     1
290
     1
176
     1
290
     1
176
     1
290
     0
176
     1
290
     0
176
     1
290
     0
176
     1
290
     0
176
     1
290
     0
176
     1
290
     0
176
     1
 90
       50
176
     1
 40
0.0
176
     1
 40
1.0
176
     1
 90
        0
176
     1
 62
    18
420
        0
176
     1
 90
       50
176
     1
 90
        3
176
     1
 62
     5
420
      255
176
     1
290
     0
176
     1
 90
       50
176
     1
 90
       50
176
     1
 90
       50
176
     1
290
     0
176
     1
 90
       50
176
     1
 62
   256
176
     0
 40
1.0
176
     0
 90
        2
176
     1
  1
strokes_ogs.tif
176
     1
290
     0
176
     1
 40
1.0
176
     1
 40
1.0
176
     1
  0
VISUALSTYLE
  5
31
102
{ACAD_REACTORS
330
2A
102
}
330
2A
100
AcDbVisualStyle
  2
Hidden
 70
     6
177
     3
291
     0
 70
    58
 90
        1
176
     1
 90
        2
176
     1
 90
        2
176
     1
 90
        0
176
     1
 40
0.6
176
     1
 40
30.0
176
     1
 62
     7
420
 16777215
176
     1
 90
        2
176
     1
 90
        2
176
     1
 62
     7
176
     1
 62
   257
176
     1
 90
        2
176
     1
 90
        1
176
     1
 40
40.0
176
     1
 90
        0
176
     1
 62
   257
176
     1
 40
1.0
176
     1
 90
        1
176
     1
 90
        6
176
     1
 90
        2
176
     1
 62
     7
176
     1
 90
        3
176
     1
 90
        0
176
     1
 90
        0
176
     1
290
     0
176
     1
 90
        1
176
     1
 40
0.0
176
     1
 90
        0
176
     1
290
     0
176
     1
290
     1
176
     1
290
     1
176
     1
290
     0
176
     1
290
     0
176
     1
290
     0
176
     1
290
     0
176
     1
290
     0
176
     1
290
     0
176
     1
 90
       50
176
     1
 40
0.0
176
     1
 40
1.0
176
     1
 90
        0
176
     1
 62
    18
420
        0
176
     1
 90
       50
176
     1
 90
        3
176
     1
 62
     5
420
      255
176
     1
290
     0
176
     1
 90
       50
176
     1
 90
       50
176
     1
 90
       50
176
     1
290
     0
176
     1
 90
       50
176
     1
 62
   256
176
     0
 40
1.0
176
     0
 90
        2
176
     1
  1
strokes_ogs.tif
176
     1
290
     0
176
     1
 40
1.0
176
     1
 40
1.0
176
     1
  0
VISUALSTYLE
  5
3B
102
{ACAD_REACTORS
330
2A
102
}
330
2A
100
AcDbVisualStyle
  2
JitterOff
 70
    20
177
     3
291
     1
 70
    58
 90
        2
176
     0
 90
        2
176
     0
 90
        0
176
     0
 90
        0
176
     0
 40
0.6
176
     0
 40
30.0
176
     0
 62
     7
420
 16777215
176
     0
 90
        1
176
     0
 90
        4
176
     0
 62
     7
176
     0
 62
   257
176
     0
 90
        1
176
     0
 90
        1
176
     0
 40
1.0
176
     0
 90
       10
176
     2
 62
     7
176
     0
 40
1.0
176
     0
 90
        1
176
     0
 90
        6
176
     0
 90
        2
176
     0
 62
     7
176
     0
 90
        5
176
     0
 90
        0
176
     0
 90
        0
176
     0
290
     0
176
     0
 90
        1
176
     0
 40
0.0
176
     0
 90
        0
176
     0
290
     0
176
     0
290
     1
176
     0
290
     1
176
     0
290
     0
176
     0
290
     0
176
     0
290
     0
176
     0
290
     0
176
     0
290
     0
176
     0
290
     0
176
     0
 90
       50
176
     0
 40
0.0
176
     0
 40
1.0
176
     0
 90
        0
176
     0
 62
    18
420
        0
176
     0
 90
       50
176
     0
 90
        3
176
     0
 62
     5
420
      255
176
     0
290
     0
176
     0
 90
       50
176
     0
 90
       50
176
     0
 90
       50
176
     0
290
     0
176
     0
 90
       50
176
     0
 62
   256
176
     0
 40
1.0
176
     0
 90
        2
176
     0
  1
strokes_ogs.tif
176
     0
290
     0
176
     0
 40
1.0
176
     0
 40
1.0
176
     0
  0
VISUALSTYLE
  5
38
102
{ACAD_REACTORS
330
2A
102
}
330
2A
100
AcDbVisualStyle
  2
Linepattern
 70
    14
177
     3
291
     1
 70
    58
 90
        2
176
     1
 90
        2
176
     1
 90
        0
176
     1
 90
        0
176
     1
 40
0.6
176
     1
 40
30.0
176
     1
 62
     7
420
 16777215
176
     1
 90
        1
176
     1
 90
        4
176
     1
 62
     7
176
     1
 62
   257
176
     1
 90
        7
176
     1
 90
        7
176
     1
 40
1.0
176
     1
 90
        8
176
     1
 62
     7
176
     1
 40
1.0
176
     1
 90
        1
176
     1
 90
        6
176
     1
 90
        2
176
     1
 62
     7
176
     1
 90
        5
176
     1
 90
        0
176
     1
 90
        0
176
     1
290
     0
176
     1
 90
        1
176
     1
 40
0.0
176
     1
 90
        0
176
     1
290
     0
176
     1
290
     1
176
     1
290
     1
176
     1
290
     0
176
     1
290
     0
176
     1
290
     0
176
     1
290
     0
176
     1
290
     0
176
     1
290
     0
176
     1
 90
       50
176
     1
 40
0.0
176
     1
 40
1.0
176
     1
 90
        0
176
     1
 62
    18
420
        0
176
     1
 90
       50
176
     1
 90
        3
176
     1
 62
     5
420
      255
176
     1
290
     0
176
     1
 90
       50
176
     1
 90
       50
176
     1
 90
       50
176
     1
290
     0
176
     1
 90
       50
176
     1
 62
   256
176
     0
 40
1.0
176
     0
 90
        2
176
     1
  1
strokes_ogs.tif
176
     1
290
     0
176
     1
 40
1.0
176
     1
 40
1.0
176
     1
  0
VISUALSTYLE
  5
3C
102
{ACAD_REACTORS
330
2A
102
}
330
2A
100
AcDbVisualStyle
  2
OverhangOff
 70
    21
177
     3
291
     1
 70
    58
 90
        2
176
     0
 90
        2
176
     0
 90
        0
176
     0
 90
        0
176
     0
 40
0.6
176
     0
 40
30.0
176
     0
 62
     7
420
 16777215
176
     0
 90
        1
176
     0
 90
        4
176
     0
 62
     7
176
     0
 62
   257
176
     0
 90
        1
176
     0
 90
        1
176
     0
 40
1.0
176
     0
 90
        9
176
     2
 62
     7
176
     0
 40
1.0
176
     0
 90
        1
176
     0
 90
        6
176
     0
 90
        2
176
     0
 62
     7
176
     0
 90
        5
176
     0
 90
        0
176
     0
 90
        0
176
     0
290
     0
176
     0
 90
        1
176
     0
 40
0.0
176
     0
 90
        0
176
     0
290
     0
176
     0
290
     1
176
     0
290
     1
176
     0
290
     0
176
     0
290
     0
176
     0
290
     0
176
     0
290
     0
176
     0
290
     0
176
     0
290
     0
176
     0
 90
       50
176
     0
 40
0.0
176
     0
 40
1.0
176
     0
 90
        0
176
     0
 62
    18
420
        0
176
     0
 90
       50
176
     0
 90
        3
176
     0
 62
     5
420
      255
176
     0
290
     0
176
     0
 90
       50
176
     0
 90
       50
176
     0
 90
       50
176
     0
290
     0
176
     0
 90
       50
176
     0
 62
   256
176
     0
 40
1.0
176
     0
 90
        2
176
     0
  1
strokes_ogs.tif
176
     0
290
     0
176
     0
 40
1.0
176
     0
 40
1.0
176
     0
  0
VISUALSTYLE
  5
33
102
{ACAD_REACTORS
330
2A
102
}
330
2A
100
AcDbVisualStyle
  2
Realistic
 70
     8
177
     3
291
     0
 70
    58
 90
        2
176
     1
 90
        3
176
     1
 90
        0
176
     1
 90
        2
176
     1
 40
0.6
176
     1
 40
30.0
176
     1
 62
     7
420
 16777215
176
     1
 90
        0
176
     1
 90
        0
176
     1
 62
     7
176
     1
 62
   257
176
     1
 90
        1
176
     1
 90
        1
176
     1
 40
1.0
176
     1
 90
        8
176
     1
 62
   257
176
     1
 40
1.0
176
     1
 90
        1
176
     1
 90
        6
176
     1
 90
        2
176
     1
 62
     7
176
     1
 90
        3
176
     1
 90
        0
176
     1
 90
        0
176
     1
290
     0
176
     1
 90
       13
176
     1
 40
0.0
176
     1
 90
        0
176
     1
290
     0
176
     1
290
     1
176
     1
290
     1
176
     1
290
     0
176
     1
290
     0
176
     1
290
     0
176
     1
290
     0
176
     1
290
     0
176
     1
290
     0
176
     1
 90
       50
176
     1
 40
0.0
176
     1
 40
1.0
176
     1
 90
        0
176
     1
 62
    18
420
        0
176
     1
 90
       50
176
     1
 90
        3
176
     1
 62
     5
420
      255
176
     1
290
     0
176
     1
 90
       50
176
     1
 90
       50
176
     1
 90
       50
176
     1
290
     0
176
     1
 90
       50
176
     1
 62
   256
176
     0
 40
1.0
176
     0
 90
        2
176
     1
  1
strokes_ogs.tif
176
     1
290
     0
176
     1
 40
1.0
176
     1
 40
1.0
176
     1
  0
VISUALSTYLE
  5
42
102
{ACAD_REACTORS
330
2A
102
}
330
2A
100
AcDbVisualStyle
  2
Shaded
 70
    27
177
     3
291
     0
 70
    58
 90
        2
176
     1
 90
        2
176
     1
 90
        1
176
     1
 90
        2
176
     1
 40
0.6
176
     1
 40
30.0
176
     1
 62
     7
420
 16777215
176
     1
 90
        0
176
     1
 90
        4
176
     1
 62
     7
176
     1
 62
   257
176
     1
 90
        1
176
     1
 90
        1
176
     1
 40
1.0
176
     1
 90
        8
176
     1
 62
   257
176
     1
 40
1.0
176
     1
 90
        1
176
     1
 90
        6
176
     1
 90
        2
176
     1
 62
     8
420
  7895160
176
     1
 90
        3
176
     1
 90
        0
176
     1
 90
        0
176
     1
290
     0
176
     1
 90
        5
176
     1
 40
0.0
176
     1
 90
        0
176
     1
290
     0
176
     1
290
     1
176
     1
290
     1
176
     1
290
     0
176
     1
290
     0
176
     1
290
     0
176
     1
290
     0
176
     1
290
     0
176
     1
290
     0
176
     1
 90
       50
176
     1
 40
0.0
176
     1
 40
1.0
176
     1
 90
        0
176
     1
 62
    18
420
        0
176
     1
 90
       50
176
     1
 90
        3
176
     1
 62
     5
420
      255
176
     1
290
     0
176
     1
 90
       50
176
     1
 90
       50
176
     1
 90
       50
176
     1
290
     0
176
     1
 90
       50
176
     1
 62
   256
176
     0
 40
1.0
176
     0
 90
        2
176
     1
  1
strokes_ogs.tif
176
     1
290
     0
176
     1
 40
1.0
176
     1
 40
1.0
176
     1
  0
VISUALSTYLE
  5
41
102
{ACAD_REACTORS
330
2A
102
}
330
2A
100
AcDbVisualStyle
  2
Shaded with edges
 70
    26
177
     3
291
     0
 70
    58
 90
        2
176
     1
 90
        2
176
     1
 90
        1
176
     1
 90
        2
176
     1
 40
0.6
176
     1
 40
30.0
176
     1
 62
     7
420
 16777215
176
     1
 90
        1
176
     1
 90
       10
176
     1
 62
     7
176
     1
 62
   257
176
     1
 90
        2
176
     1
 90
        1
176
     1
 40
1.0
176
     1
 90
        8
176
     1
 62
   257
176
     1
 40
1.0
176
     1
 90
        1
176
     1
 90
        6
176
     1
 90
        2
176
     1
 62
     7
176
     1
 90
        3
176
     1
 90
        0
176
     1
 90
        0
176
     1
290
     0
176
     1
 90
        5
176
     1
 40
0.0
176
     1
 90
        0
176
     1
290
     0
176
     1
290
     1
176
     1
290
     1
176
     1
290
     0
176
     1
290
     0
176
     1
290
     0
176
     1
290
     0
176
     1
290
     0
176
     1
290
     0
176
     1
 90
       50
176
     1
 40
0.0
176
     1
 40
1.0
176
     1
 90
        0
176
     1
 62
    18
420
        0
176
     1
 90
       50
176
     1
 90
        3
176
     1
 62
     5
420
      255
176
     1
290
     0
176
     1
 90
       50
176
     1
 90
       50
176
     1
 90
       50
176
     1
290
     0
176
     1
 90
       50
176
     1
 62
   256
176
     0
 40
1.0
176
     0
 90
        2
176
     1
  1
strokes_ogs.tif
176
     1
290
     0
176
     1
 40
1.0
176
     1
 40
1.0
176
     1
  0
VISUALSTYLE
  5
3E
102
{ACAD_REACTORS
330
2A
102
}
330
2A
100
AcDbVisualStyle
  2
Shades of Gray
 70
    23
177
     3
291
     0
 70
    58
 90
        2
176
     1
 90
        2
176
     1
 90
        3
176
     1
 90
        0
176
     1
 40
0.6
176
     1
 40
30.0
176
     1
 62
     7
420
 16777215
176
     1
 90
        2
176
     1
 90
        2
176
     1
 62
     7
176
     1
 62
     7
176
     1
 90
        1
176
     1
 90
        1
176
     1
 40
40.0
176
     1
 90
        8
176
     1
 62
     7
176
     1
 40
1.0
176
     1
 90
        1
176
     1
 90
        6
176
     1
 90
        2
176
     1
 62
     7
176
     1
 90
        3
176
     1
 90
        0
176
     1
 90
        0
176
     1
290
     0
176
     1
 90
        1
176
     1
 40
0.0
176
     1
 90
        0
176
     1
290
     0
176
     1
290
     1
176
     1
290
     1
176
     1
290
     0
176
     1
290
     0
176
     1
290
     0
176
     1
290
     0
176
     1
290
     0
176
     1
290
     0
176
     1
 90
       50
176
     1
 40
0.0
176
     1
 40
1.0
176
     1
 90
        0
176
     1
 62
    18
420
        0
176
     1
 90
       50
176
     1
 90
        3
176
     1
 62
     5
420
      255
176
     1
290
     0
176
     1
 90
       50
176
     1
 90
       50
176
     1
 90
       50
176
     1
290
     0
176
     1
 90
       50
176
     1
 62
   256
176
     0
 40
1.0
176
     0
 90
        2
176
     1
  1
strokes_ogs.tif
176
     1
290
     0
176
     1
 40
1.0
176
     1
 40
1.0
176
     1
  0
VISUALSTYLE
  5
3F
102
{ACAD_REACTORS
330
2A
102
}
330
2A
100
AcDbVisualStyle
  2
Sketchy
 70
    24
177
     3
291
     0
 70
    58
 90
        1
176
     1
 90
        2
176
     1
 90
        2
176
     1
 90
        0
176
     1
 40
0.6
176
     1
 40
30.0
176
     1
 62
     7
420
 16777215
176
     1
 90
        2
176
     1
 90
        2
176
     1
 62
     7
176
     1
 62
     7
176
     1
 90
        1
176
     1
 90
        1
176
     1
 40
40.0
176
     1
 90
       11
176
     1
 62
     7
176
     1
 40
1.0
176
     1
 90
        1
176
     1
 90
        6
176
     1
 90
        2
176
     1
 62
     7
176
     1
 90
        6
176
     1
 90
        0
176
     1
 90
        0
176
     1
290
     0
176
     1
 90
        1
176
     1
 40
0.0
176
     1
 90
        0
176
     1
290
     0
176
     1
290
     1
176
     1
290
     1
176
     1
290
     0
176
     1
290
     0
176
     1
290
     0
176
     1
290
     0
176
     1
290
     0
176
     1
290
     0
176
     1
 90
       50
176
     1
 40
0.0
176
     1
 40
1.0
176
     1
 90
        0
176
     1
 62
    18
420
        0
176
     1
 90
       50
176
     1
 90
        3
176
     1
 62
     5
420
      255
176
     1
290
     0
176
     1
 90
       50
176
     1
 90
       50
176
     1
 90
       50
176
     1
290
     0
176
     1
 90
       50
176
     1
 62
   256
176
     0
 40
1.0
176
     0
 90
        2
176
     1
  1
strokes_ogs.tif
176
     1
290
     0
176
     1
 40
1.0
176
     1
 40
1.0
176
     1
  0
VISUALSTYLE
  5
37
102
{ACAD_REACTORS
330
2A
102
}
330
2A
100
AcDbVisualStyle
  2
Thicken
 70
    13
177
     3
291
     1
 70
    58
 90
        2
176
     1
 90
        2
176
     1
 90
        0
176
     1
 90
        0
176
     1
 40
0.6
176
     1
 40
30.0
176
     1
 62
     7
420
 16777215
176
     1
 90
        1
176
     1
 90
        4
176
     1
 62
     7
176
     1
 62
   257
176
     1
 90
        1
176
     1
 90
        1
176
     1
 40
1.0
176
     1
 90
       12
176
     1
 62
     7
176
     1
 40
1.0
176
     1
 90
        1
176
     1
 90
        6
176
     1
 90
        2
176
     1
 62
     7
176
     1
 90
        5
176
     1
 90
        0
176
     1
 90
        0
176
     1
290
     0
176
     1
 90
        1
176
     1
 40
0.0
176
     1
 90
        0
176
     1
290
     0
176
     1
290
     1
176
     1
290
     1
176
     1
290
     0
176
     1
290
     0
176
     1
290
     0
176
     1
290
     0
176
     1
290
     0
176
     1
290
     0
176
     1
 90
       50
176
     1
 40
0.0
176
     1
 40
1.0
176
     1
 90
        0
176
     1
 62
    18
420
        0
176
     1
 90
       50
176
     1
 90
        3
176
     1
 62
     5
420
      255
176
     1
290
     0
176
     1
 90
       50
176
     1
 90
       50
176
     1
 90
       50
176
     1
290
     0
176
     1
 90
       50
176
     1
 62
   256
176
     0
 40
1.0
176
     0
 90
        2
176
     1
  1
strokes_ogs.tif
176
     1
290
     0
176
     1
 40
1.0
176
     1
 40
1.0
176
     1
  0
VISUALSTYLE
  5
30
102
{ACAD_REACTORS
330
2A
102
}
330
2A
100
AcDbVisualStyle
  2
Wireframe
 70
     5
177
     3
291
     0
 70
    58
 90
        0
176
     1
 90
        2
176
     1
 90
        0
176
     1
 90
        0
176
     1
 40
0.6
176
     1
 40
30.0
176
     1
 62
     7
420
 16777215
176
     1
 90
        1
176
     1
 90
        4
176
     1
 62
     7
176
     1
 62
   257
176
     1
 90
        1
176
     1
 90
        1
176
     1
 40
1.0
176
     1
 90
        0
176
     1
 62
   257
176
     1
 40
1.0
176
     1
 90
        1
176
     1
 90
        6
176
     1
 90
        2
176
     1
 62
     7
176
     1
 90
        3
176
     1
 90
        0
176
     1
 90
        0
176
     1
290
     0
176
     1
 90
        1
176
     1
 40
0.0
176
     1
 90
        0
176
     1
290
     0
176
     1
290
     1
176
     1
290
     1
176
     1
290
     0
176
     1
290
     0
176
     1
290
     0
176
     1
290
     0
176
     1
290
     0
176
     1
290
     0
176
     1
 90
       50
176
     1
 40
0.0
176
     1
 40
1.0
176
     1
 90
        0
176
     1
 62
    18
420
        0
176
     1
 90
       50
176
     1
 90
        3
176
     1
 62
     5
420
      255
176
     1
290
     0
176
     1
 90
       50
176
     1
 90
       50
176
     1
 90
       50
176
     1
290
     0
176
     1
 90
       50
176
     1
 62
   256
176
     0
 40
1.0
176
     0
 90
        2
176
     1
  1
strokes_ogs.tif
176
     1
290
     0
176
     1
 40
1.0
176
     1
 40
1.0
176
     1
  0
VISUALSTYLE
  5
40
102
{ACAD_REACTORS
330
2A
102
}
330
2A
100
AcDbVisualStyle
  2
X-Ray
 70
    25
177
     3
291
     0
 70
    58
 90
        2
176
     1
 90
        2
176
     1
 90
        1
176
     1
 90
        1
176
     1
 40
0.5
176
     1
 40
30.0
176
     1
 62
     7
420
 16777215
176
     1
 90
        1
176
     1
 90
        0
176
     1
 62
     7
176
     1
 62
   257
176
     1
 90
        1
176
     1
 90
        1
176
     1
 40
1.0
176
     1
 90
        8
176
     1
 62
     7
176
     1
 40
1.0
176
     1
 90
        1
176
     1
 90
        6
176
     1
 90
        2
176
     1
 62
     7
176
     1
 90
        3
176
     1
 90
        0
176
     1
 90
        0
176
     1
290
     0
176
     1
 90
       13
176
     1
 40
0.0
176
     1
 90
        0
176
     1
290
     0
176
     1
290
     1
176
     1
290
     1
176
     1
290
     0
176
     1
290
     0
176
     1
290
     0
176
     1
290
     0
176
     1
290
     0
176
     1
290
     0
176
     1
 90
       50
176
     1
 40
0.0
176
     1
 40
1.0
176
     1
 90
        0
176
     1
 62
    18
420
        0
176
     1
 90
       50
176
     1
 90
        3
176
     1
 62
     5
420
      255
176
     1
290
     0
176
     1
 90
       50
176
     1
 90
       50
176
     1
 90
       50
176
     1
290
     0
176
     1
 90
       50
176
     1
 62
   256
176
     0
 40
1.0
176
     0
 90
        2
176
     1
  1
strokes_ogs.tif
176
     1
290
     0
176
     1
 40
1.0
176
     1
 40
1.0
176
     1
  0
DICTIONARYVAR
  5
8F
102
{ACAD_REACTORS
330
8E
102
}
330
8E
100
DictionaryVariables
280
     0
  1
1:1
  0
DICTIONARYVAR
  5
97
102
{ACAD_REACTORS
330
8E
102
}
330
8E
100
DictionaryVariables
280
     0
  1
3.500000
  0
DICTIONARYVAR
  5
98
102
{ACAD_REACTORS
330
8E
102
}
330
8E
100
DictionaryVariables
280
     0
  1
acadiso.lin
  0
DICTIONARYVAR
  5
94
102
{ACAD_REACTORS
330
8E
102
}
330
8E
100
DictionaryVariables
280
     0
  1
Standard
  0
DICTIONARYVAR
  5
93
102
{ACAD_REACTORS
330
8E
102
}
330
8E
100
DictionaryVariables
280
     0
  1
Standard
  0
DICTIONARY
  5
90
330
5A
100
AcDbDictionary
280
     1
281
     1
  3
ACAD_ROUNDTRIP_2008_TABLESTYLE_CELLSTYLEMAP
360
91
  0
CELLSTYLEMAP
  5
91
102
{ACAD_REACTORS
330
90
102
}
330
90
100
AcDbCellStyleMap
 90
        3
300
CELLSTYLE
  1
TABLEFORMAT_BEGIN
 90
        5
170
     1
 91
        0
 92
    32768
 62
   257
 93
        1
300
CONTENTFORMAT
  1
CONTENTFORMAT_BEGIN
 90
        0
 91
        0
 92
        4
 93
        0
300

 40
0.0
140
1.0
 94
        5
 62
     0
340
11
144
6.0
309
CONTENTFORMAT_END
171
     1
301
MARGIN
  1
CELLMARGIN_BEGIN
 40
1.5
 40
1.5
 40
1.5
 40
1.5
 40
1.5
 40
1.5
309
CELLMARGIN_END
 94
        6
 95
        1
302
GRIDFORMAT
  1
GRIDFORMAT_BEGIN
 90
        0
 91
        1
 62
     0
 92
       -2
340
14
 93
        0
 40
0.045
309
GRIDFORMAT_END
 95
        2
302
GRIDFORMAT
  1
GRIDFORMAT_BEGIN
 90
        0
 91
        1
 62
     0
 92
       -2
340
14
 93
        0
 40
0.045
309
GRIDFORMAT_END
 95
        4
302
GRIDFORMAT
  1
GRIDFORMAT_BEGIN
 90
        0
 91
        1
 62
     0
 92
       -2
340
14
 93
        0
 40
0.045
309
GRIDFORMAT_END
 95
        8
302
GRIDFORMAT
  1
GRIDFORMAT_BEGIN
 90
        0
 91
        1
 62
     0
 92
       -2
340
14
 93
        0
 40
0.045
309
GRIDFORMAT_END
 95
       16
302
GRIDFORMAT
  1
GRIDFORMAT_BEGIN
 90
        0
 91
        1
 62
     0
 92
       -2
340
14
 93
        0
 40
0.045
309
GRIDFORMAT_END
 95
       32
302
GRIDFORMAT
  1
GRIDFORMAT_BEGIN
 90
        0
 91
        1
 62
     0
 92
       -2
340
14
 93
        0
 40
0.045
309
GRIDFORMAT_END
309
TABLEFORMAT_END
  1
CELLSTYLE_BEGIN
 90
        1
 91
        1
300
_TITLE
309
CELLSTYLE_END
300
CELLSTYLE
  1
TABLEFORMAT_BEGIN
 90
        5
170
     1
 91
        0
 92
        0
 62
   257
 93
        1
300
CONTENTFORMAT
  1
CONTENTFORMAT_BEGIN
 90
        0
 91
        0
 92
        4
 93
        0
300

 40
0.0
140
1.0
 94
        5
 62
     0
340
11
144
4.5
309
CONTENTFORMAT_END
171
     1
301
MARGIN
  1
CELLMARGIN_BEGIN
 40
1.5
 40
1.5
 40
1.5
 40
1.5
 40
1.5
 40
1.5
309
CELLMARGIN_END
 94
        6
 95
        1
302
GRIDFORMAT
  1
GRIDFORMAT_BEGIN
 90
        0
 91
        1
 62
     0
 92
       -2
340
14
 93
        0
 40
0.045
309
GRIDFORMAT_END
 95
        2
302
GRIDFORMAT
  1
GRIDFORMAT_BEGIN
 90
        0
 91
        1
 62
     0
 92
       -2
340
14
 93
        0
 40
0.045
309
GRIDFORMAT_END
 95
        4
302
GRIDFORMAT
  1
GRIDFORMAT_BEGIN
 90
        0
 91
        1
 62
     0
 92
       -2
340
14
 93
        0
 40
0.045
309
GRIDFORMAT_END
 95
        8
302
GRIDFORMAT
  1
GRIDFORMAT_BEGIN
 90
        0
 91
        1
 62
     0
 92
       -2
340
14
 93
        0
 40
0.045
309
GRIDFORMAT_END
 95
       16
302
GRIDFORMAT
  1
GRIDFORMAT_BEGIN
 90
        0
 91
        1
 62
     0
 92
       -2
340
14
 93
        0
 40
0.045
309
GRIDFORMAT_END
 95
       32
302
GRIDFORMAT
  1
GRIDFORMAT_BEGIN
 90
        0
 91
        1
 62
     0
 92
       -2
340
14
 93
        0
 40
0.045
309
GRIDFORMAT_END
309
TABLEFORMAT_END
  1
CELLSTYLE_BEGIN
 90
        2
 91
        1
300
_HEADER
309
CELLSTYLE_END
300
CELLSTYLE
  1
TABLEFORMAT_BEGIN
 90
        5
170
     1
 91
        0
 92
        0
 62
   257
 93
        1
300
CONTENTFORMAT
  1
CONTENTFORMAT_BEGIN
 90
        0
 91
        0
 92
        4
 93
        0
300

 40
0.0
140
1.0
 94
        2
 62
     0
340
11
144
4.5
309
CONTENTFORMAT_END
171
     1
301
MARGIN
  1
CELLMARGIN_BEGIN
 40
1.5
 40
1.5
 40
1.5
 40
1.5
 40
1.5
 40
1.5
309
CELLMARGIN_END
 94
        6
 95
        1
302
GRIDFORMAT
  1
GRIDFORMAT_BEGIN
 90
        0
 91
        1
 62
     0
 92
       -2
340
14
 93
        0
 40
0.045
309
GRIDFORMAT_END
 95
        2
302
GRIDFORMAT
  1
GRIDFORMAT_BEGIN
 90
        0
 91
        1
 62
     0
 92
       -2
340
14
 93
        0
 40
0.045
309
GRIDFORMAT_END
 95
        4
302
GRIDFORMAT
  1
GRIDFORMAT_BEGIN
 90
        0
 91
        1
 62
     0
 92
       -2
340
14
 93
        0
 40
0.045
309
GRIDFORMAT_END
 95
        8
302
GRIDFORMAT
  1
GRIDFORMAT_BEGIN
 90
        0
 91
        1
 62
     0
 92
       -2
340
14
 93
        0
 40
0.045
309
GRIDFORMAT_END
 95
       16
302
GRIDFORMAT
  1
GRIDFORMAT_BEGIN
 90
        0
 91
        1
 62
     0
 92
       -2
340
14
 93
        0
 40
0.045
309
GRIDFORMAT_END
 95
       32
302
GRIDFORMAT
  1
GRIDFORMAT_BEGIN
 90
        0
 91
        1
 62
     0
 92
       -2
340
14
 93
        0
 40
0.045
309
GRIDFORMAT_END
309
TABLEFORMAT_END
  1
CELLSTYLE_BEGIN
 90
        3
 91
        2
300
_DATA
309
CELLSTYLE_END
  0
ENDSEC
  0
EOF
