  0
SECTION
  2
HEADER
  9
$ACADVER
  1
AC1027
  9
$ACADMAINTVER
 70
   105
  9
$DWGCODEPAGE
  3
ANSI_932
  9
$LASTSAVEDBY
  1
a.yasuda
  9
$REQUIREDVERSIONS
160
                 0
  9
$INSBASE
 10
0.0
 20
0.0
 30
0.0
  9
$EXTMIN
 10
0.0
 20
0.0
 30
0.0
  9
$EXTMAX
 10
302.9997823349792
 20
216.0016055409748
 30
0.0
  9
$LIMMIN
 10
0.0
 20
0.0
  9
$LIMMAX
 10
302.9997823349792
 20
216.0016055409748
  9
$ORTHOMODE
 70
     0
  9
$REGENMODE
 70
     1
  9
$FILLMODE
 70
     1
  9
$QTEXTMODE
 70
     0
  9
$MIRRTEXT
 70
     1
  9
$LTSCALE
 40
1.0
  9
$ATTMODE
 70
     1
  9
$TEXTSIZE
 40
2.5
  9
$TRACEWID
 40
1.0
  9
$TEXTSTYLE
  7
Standard
  9
$CLAYER
  8
0
  9
$CELTYPE
  6
ByLayer
  9
$CECOLOR
 62
   256
  9
$CELTSCALE
 40
1.0
  9
$DISPSILH
 70
     0
  9
$DIMSCALE
 40
1.0
  9
$DIMASZ
 40
2.5
  9
$DIMEXO
 40
0.625
  9
$DIMDLI
 40
3.75
  9
$DIMRND
 40
0.0
  9
$DIMDLE
 40
0.0
  9
$DIMEXE
 40
1.25
  9
$DIMTP
 40
0.0
  9
$DIMTM
 40
0.0
  9
$DIMTXT
 40
2.5
  9
$DIMCEN
 40
2.5
  9
$DIMTSZ
 40
0.0
  9
$DIMTOL
 70
     0
  9
$DIMLIM
 70
     0
  9
$DIMTIH
 70
     0
  9
$DIMTOH
 70
     0
  9
$DIMSE1
 70
     0
  9
$DIMSE2
 70
     0
  9
$DIMTAD
 70
     1
  9
$DIMZIN
 70
     8
  9
$DIMBLK
  1

  9
$DIMASO
 70
     1
  9
$DIMSHO
 70
     1
  9
$DIMPOST
  1

  9
$DIMAPOST
  1

  9
$DIMALT
 70
     0
  9
$DIMALTD
 70
     3
  9
$DIMALTF
 40
0.03937007874016
  9
$DIMLFAC
 40
1.0
  9
$DIMTOFL
 70
     1
  9
$DIMTVP
 40
0.0
  9
$DIMTIX
 70
     0
  9
$DIMSOXD
 70
     0
  9
$DIMSAH
 70
     0
  9
$DIMBLK1
  1

  9
$DIMBLK2
  1

  9
$DIMSTYLE
  2
ISO-25
  9
$DIMCLRD
 70
     0
  9
$DIMCLRE
 70
     0
  9
$DIMCLRT
 70
     0
  9
$DIMTFAC
 40
1.0
  9
$DIMGAP
 40
0.625
  9
$DIMJUST
 70
     0
  9
$DIMSD1
 70
     0
  9
$DIMSD2
 70
     0
  9
$DIMTOLJ
 70
     0
  9
$DIMTZIN
 70
     8
  9
$DIMALTZ
 70
     0
  9
$DIMALTTZ
 70
     0
  9
$DIMUPT
 70
     0
  9
$DIMDEC
 70
     2
  9
$DIMTDEC
 70
     2
  9
$DIMALTU
 70
     2
  9
$DIMALTTD
 70
     3
  9
$DIMTXSTY
  7
Standard
  9
$DIMAUNIT
 70
     0
  9
$DIMADEC
 70
     0
  9
$DIMALTRND
 40
0.0
  9
$DIMAZIN
 70
     0
  9
$DIMDSEP
 70
    44
  9
$DIMATFIT
 70
     3
  9
$DIMFRAC
 70
     0
  9
$DIMLDRBLK
  1

  9
$DIMLUNIT
 70
     2
  9
$DIMLWD
 70
    -2
  9
$DIMLWE
 70
    -2
  9
$DIMTMOVE
 70
     0
  9
$DIMFXL
 40
1.0
  9
$DIMFXLON
 70
     0
  9
$DIMJOGANG
 40
0.7853981633974483
  9
$DIMTFILL
 70
     0
  9
$DIMTFILLCLR
 70
     0
  9
$DIMARCSYM
 70
     0
  9
$DIMLTYPE
  6

  9
$DIMLTEX1
  6

  9
$DIMLTEX2
  6

  9
$DIMTXTDIRECTION
 70
     0
  9
$LUNITS
 70
     2
  9
$LUPREC
 70
     4
  9
$SKETCHINC
 40
1.0
  9
$FILLETRAD
 40
0.0
  9
$AUNITS
 70
     0
  9
$AUPREC
 70
     0
  9
$MENU
  1
.
  9
$ELEVATION
 40
0.0
  9
$PELEVATION
 40
0.0
  9
$THICKNESS
 40
0.0
  9
$LIMCHECK
 70
     0
  9
$CHAMFERA
 40
0.0
  9
$CHAMFERB
 40
0.0
  9
$CHAMFERC
 40
0.0
  9
$CHAMFERD
 40
0.0
  9
$SKPOLY
 70
     0
  9
$TDCREATE
 40
2459866.620517789
  9
$TDUCREATE
 40
2459866.245517789
  9
$TDUPDATE
 40
2459866.620517835
  9
$TDUUPDATE
 40
2459866.245517835
  9
$TDINDWG
 40
0.0000000116
  9
$TDUSRTIMER
 40
0.0000000116
  9
$USRTIMER
 70
     1
  9
$ANGBASE
 50
0.0
  9
$ANGDIR
 70
     0
  9
$PDMODE
 70
     0
  9
$PDSIZE
 40
0.0
  9
$PLINEWID
 40
0.0
  9
$SPLFRAME
 70
     0
  9
$SPLINETYPE
 70
     6
  9
$SPLINESEGS
 70
     8
  9
$HANDSEED
  5
9A
  9
$SURFTAB1
 70
     6
  9
$SURFTAB2
 70
     6
  9
$SURFTYPE
 70
     6
  9
$SURFU
 70
     6
  9
$SURFV
 70
     6
  9
$UCSBASE
  2

  9
$UCSNAME
  2

  9
$UCSORG
 10
0.0
 20
0.0
 30
0.0
  9
$UCSXDIR
 10
1.0
 20
0.0
 30
0.0
  9
$UCSYDIR
 10
0.0
 20
1.0
 30
0.0
  9
$UCSORTHOREF
  2

  9
$UCSORTHOVIEW
 70
     0
  9
$UCSORGTOP
 10
0.0
 20
0.0
 30
0.0
  9
$UCSORGBOTTOM
 10
0.0
 20
0.0
 30
0.0
  9
$UCSORGLEFT
 10
0.0
 20
0.0
 30
0.0
  9
$UCSORGRIGHT
 10
0.0
 20
0.0
 30
0.0
  9
$UCSORGFRONT
 10
0.0
 20
0.0
 30
0.0
  9
$UCSORGBACK
 10
0.0
 20
0.0
 30
0.0
  9
$PUCSBASE
  2

  9
$PUCSNAME
  2

  9
$PUCSORG
 10
0.0
 20
0.0
 30
0.0
  9
$PUCSXDIR
 10
1.0
 20
0.0
 30
0.0
  9
$PUCSYDIR
 10
0.0
 20
1.0
 30
0.0
  9
$PUCSORTHOREF
  2

  9
$PUCSORTHOVIEW
 70
     0
  9
$PUCSORGTOP
 10
0.0
 20
0.0
 30
0.0
  9
$PUCSORGBOTTOM
 10
0.0
 20
0.0
 30
0.0
  9
$PUCSORGLEFT
 10
0.0
 20
0.0
 30
0.0
  9
$PUCSORGRIGHT
 10
0.0
 20
0.0
 30
0.0
  9
$PUCSORGFRONT
 10
0.0
 20
0.0
 30
0.0
  9
$PUCSORGBACK
 10
0.0
 20
0.0
 30
0.0
  9
$USERI1
 70
     0
  9
$USERI2
 70
     0
  9
$USERI3
 70
     0
  9
$USERI4
 70
     0
  9
$USERI5
 70
     0
  9
$USERR1
 40
0.0
  9
$USERR2
 40
0.0
  9
$USERR3
 40
0.0
  9
$USERR4
 40
0.0
  9
$USERR5
 40
0.0
  9
$WORLDVIEW
 70
     1
  9
$SHADEDGE
 70
     3
  9
$SHADEDIF
 70
    70
  9
$TILEMODE
 70
     1
  9
$MAXACTVP
 70
    64
  9
$PINSBASE
 10
0.0
 20
0.0
 30
0.0
  9
$PLIMCHECK
 70
     0
  9
$PEXTMIN
 10
1.000000000000000E+20
 20
1.000000000000000E+20
 30
1.000000000000000E+20
  9
$PEXTMAX
 10
-1.000000000000000E+20
 20
-1.000000000000000E+20
 30
-1.000000000000000E+20
  9
$PLIMMIN
 10
0.0
 20
0.0
  9
$PLIMMAX
 10
420.0
 20
297.0
  9
$UNITMODE
 70
     0
  9
$VISRETAIN
 70
     1
  9
$PLINEGEN
 70
     0
  9
$PSLTSCALE
 70
     1
  9
$TREEDEPTH
 70
  3020
  9
$CMLSTYLE
  2
Standard
  9
$CMLJUST
 70
     0
  9
$CMLSCALE
 40
20.0
  9
$PROXYGRAPHICS
 70
     1
  9
$MEASUREMENT
 70
     1
  9
$CELWEIGHT
370
    -1
  9
$ENDCAPS
280
     0
  9
$JOINSTYLE
280
     0
  9
$LWDISPLAY
290
     0
  9
$INSUNITS
 70
     4
  9
$HYPERLINKBASE
  1

  9
$STYLESHEET
  1

  9
$XEDIT
290
     1
  9
$CEPSNTYPE
380
     0
  9
$PSTYLEMODE
290
     1
  9
$FINGERPRINTGUID
  2
{5222e884-844a-4d2c-8ed5-d029fff45445}
  9
$VERSIONGUID
  2
{FAEB1C32-E019-11D5-929B-00C0DF256EC4}
  9
$EXTNAMES
290
     1
  9
$PSVPSCALE
 40
0.0
  9
$OLESTARTUP
290
     0
  9
$SORTENTS
280
   127
  9
$INDEXCTL
280
     0
  9
$HIDETEXT
280
     1
  9
$XCLIPFRAME
280
     2
  9
$HALOGAP
280
     0
  9
$OBSCOLOR
 70
   257
  9
$OBSLTYPE
280
     0
  9
$INTERSECTIONDISPLAY
280
     0
  9
$INTERSECTIONCOLOR
 70
   257
  9
$DIMASSOC
280
     2
  9
$PROJECTNAME
  1

  9
$CAMERADISPLAY
290
     0
  9
$LENSLENGTH
 40
50.0
  9
$CAMERAHEIGHT
 40
0.0
  9
$STEPSPERSEC
 40
2.0
  9
$STEPSIZE
 40
6.0
  9
$3DDWFPREC
 40
2.0
  9
$PSOLWIDTH
 40
5.0
  9
$PSOLHEIGHT
 40
80.0
  9
$LOFTANG1
 40
1.570796326794897
  9
$LOFTANG2
 40
1.570796326794897
  9
$LOFTMAG1
 40
0.0
  9
$LOFTMAG2
 40
0.0
  9
$LOFTPARAM
 70
     7
  9
$LOFTNORMALS
280
     1
  9
$LATITUDE
 40
37.795
  9
$LONGITUDE
 40
-122.394
  9
$NORTHDIRECTION
 40
0.0
  9
$TIMEZONE
 70
 -8000
  9
$LIGHTGLYPHDISPLAY
280
     1
  9
$TILEMODELIGHTSYNCH
280
     1
  9
$CMATERIAL
347
44
  9
$SOLIDHIST
280
     0
  9
$SHOWHIST
280
     1
  9
$DWFFRAME
280
     2
  9
$DGNFRAME
280
     2
  9
$REALWORLDSCALE
290
     1
  9
$INTERFERECOLOR
 62
   256
  9
$CSHADOW
280
     0
  9
$SHADOWPLANELOCATION
 40
0.0
  0
ENDSEC
  0
SECTION
  2
CLASSES
  0
CLASS
  1
ACDBDICTIONARYWDFLT
  2
AcDbDictionaryWithDefault
  3
ObjectDBX Classes
 90
        0
 91
        3
280
     0
281
     0
  0
CLASS
  1
VISUALSTYLE
  2
AcDbVisualStyle
  3
ObjectDBX Classes
 90
     4095
 91
        3
280
     0
281
     0
  0
CLASS
  1
MATERIAL
  2
AcDbMaterial
  3
ObjectDBX Classes
 90
     1153
 91
        3
280
     0
281
     0
  0
CLASS
  1
SCALE
  2
AcDbScale
  3
ObjectDBX Classes
 90
     1153
 91
        3
280
     0
281
     0
  0
CLASS
  1
TABLESTYLE
  2
AcDbTableStyle
  3
ObjectDBX Classes
 90
     4095
 91
        3
280
     0
281
     0
  0
CLASS
  1
MLEADERSTYLE
  2
AcDbMLeaderStyle
  3
ACDB_MLEADERSTYLE_CLASS
 90
     4095
 91
        3
280
     0
281
     0
  0
CLASS
  1
SUN
  2
AcDbSun
  3
SCENEOE
 90
     1153
 91
        3
280
     0
281
     0
  0
CLASS
  1
DICTIONARYVAR
  2
AcDbDictionaryVar
  3
ObjectDBX Classes
 90
        0
 91
        3
280
     0
281
     0
  0
CLASS
  1
CELLSTYLEMAP
  2
AcDbCellStyleMap
  3
ObjectDBX Classes
 90
     1152
 91
        3
280
     0
281
     0
  0
ENDSEC
  0
SECTION
  2
TABLES
  0
TABLE
  2
VPORT
  5
8
330
0
100
AcDbSymbolTable
 70
     1
  0
VPORT
  5
29
330
8
100
AcDbSymbolTableRecord
100
AcDbViewportTableRecord
  2
*Active
 70
     0
 10
0.0
 20
0.0
 11
1.0
 21
1.0
 12
151.4998911674896
 22
108.0008027704874
 13
0.0
 23
0.0
 14
10.0
 24
10.0
 15
10.0
 25
10.0
 16
0.0
 26
0.0
 36
1.0
 17
0.0
 27
0.0
 37
0.0
 40
237.6017660950723
 41
1.402766343222857
 42
50.0
 43
0.0
 44
0.0
 50
0.0
 51
0.0
 71
     0
 72
 10000
 73
     1
 74
     3
 75
     0
 76
     0
 77
     0
 78
     0
281
     0
 65
     1
110
0.0
120
0.0
130
0.0
111
1.0
121
0.0
131
0.0
112
0.0
122
1.0
132
0.0
 79
     0
146
0.0
348
2F
 60
     3
 61
     5
292
     1
282
     1
141
0.0
142
0.0
 63
   250
361
5D
  0
ENDTAB
  0
TABLE
  2
LTYPE
  5
5
330
0
100
AcDbSymbolTable
 70
     2
  0
LTYPE
  5
14
330
5
100
AcDbSymbolTableRecord
100
AcDbLinetypeTableRecord
  2
ByBlock
 70
     0
  3

 72
    65
 73
     0
 40
0.0
  0
LTYPE
  5
15
330
5
100
AcDbSymbolTableRecord
100
AcDbLinetypeTableRecord
  2
ByLayer
 70
     0
  3

 72
    65
 73
     0
 40
0.0
  0
LTYPE
  5
16
330
5
100
AcDbSymbolTableRecord
100
AcDbLinetypeTableRecord
  2
Continuous
 70
     0
  3
Solid line
 72
    65
 73
     0
 40
0.0
  0
LTYPE
  5
5F
330
5
100
AcDbSymbolTableRecord
100
AcDbLinetypeTableRecord
  2
UserDefined01
 70
     0
  3
----------------                
 72
    65
 73
     2
 40
0.7055555449591743
 49
0.3527777724795871
 74
     0
 49
-0.3527777724795871
 74
     0
  0
ENDTAB
  0
TABLE
  2
LAYER
  5
2
330
0
100
AcDbSymbolTable
 70
     3
  0
LAYER
  5
10
330
2
100
AcDbSymbolTableRecord
100
AcDbLayerTableRecord
  2
0
 70
     0
 62
     7
  6
Continuous
370
    -3
390
F
347
46
348
0
  0
LAYER
  5
60
330
2
100
AcDbSymbolTableRecord
100
AcDbLayerTableRecord
  2
外枠
 70
     0
 62
     7
  6
Continuous
370
    -3
390
F
347
46
348
0
  0
LAYER
  5
61
330
2
100
AcDbSymbolTableRecord
100
AcDbLayerTableRecord
  2
ISS138金台
 70
     0
 62
     7
  6
Continuous
370
    -3
390
F
347
46
348
0
  0
ENDTAB
  0
TABLE
  2
STYLE
  5
3
330
0
100
AcDbSymbolTable
 70
     2
  0
STYLE
  5
11
330
3
100
AcDbSymbolTableRecord
100
AcDbTextStyleTableRecord
  2
Standard
 70
     0
 40
0.0
 41
1.0
 50
0.0
 71
     0
 42
2.5
  3

  4

  0
STYLE
  5
5E
330
3
100
AcDbSymbolTableRecord
100
AcDbTextStyleTableRecord
  2
MS Gothic
 70
     0
 40
1.0
 41
1.0
 50
0.0
 71
     0
 42
2.5
  3
msgothic.ttc
  4

1001
ACAD
1000
MS Gothic
1071
    32817
  0
ENDTAB
  0
TABLE
  2
VIEW
  5
6
330
0
100
AcDbSymbolTable
 70
     0
  0
ENDTAB
  0
TABLE
  2
UCS
  5
7
330
0
100
AcDbSymbolTable
 70
     0
  0
ENDTAB
  0
TABLE
  2
APPID
  5
9
330
0
100
AcDbSymbolTable
 70
     1
  0
APPID
  5
12
330
9
100
AcDbSymbolTableRecord
100
AcDbRegAppTableRecord
  2
ACAD
 70
     0
  0
ENDTAB
  0
TABLE
  2
DIMSTYLE
  5
A
330
0
100
AcDbSymbolTable
 70
     1
100
AcDbDimStyleTable
  0
DIMSTYLE
105
27
330
A
100
AcDbSymbolTableRecord
100
AcDbDimStyleTableRecord
  2
ISO-25
 70
     0
 41
2.5
 42
0.625
 43
3.75
 44
1.25
 73
     0
 74
     0
 77
     1
 78
     8
140
2.5
141
2.5
143
0.03937007874016
147
0.625
171
     3
172
     1
178
     0
271
     2
272
     2
274
     3
278
    44
283
     0
284
     8
340
11
  0
ENDTAB
  0
TABLE
  2
BLOCK_RECORD
  5
1
330
0
100
AcDbSymbolTable
 70
     1
  0
BLOCK_RECORD
  5
1F
330
1
100
AcDbSymbolTableRecord
100
AcDbBlockTableRecord
  2
*Model_Space
340
22
 70
     0
280
     1
281
     0
  0
BLOCK_RECORD
  5
1B
330
1
100
AcDbSymbolTableRecord
100
AcDbBlockTableRecord
  2
*Paper_Space
340
1E
 70
     0
280
     1
281
     0
  0
BLOCK_RECORD
  5
23
330
1
100
AcDbSymbolTableRecord
100
AcDbBlockTableRecord
  2
*Paper_Space0
340
26
 70
     0
280
     1
281
     0
  0
ENDTAB
  0
ENDSEC
  0
SECTION
  2
BLOCKS
  0
BLOCK
  5
20
330
1F
100
AcDbEntity
  8
0
100
AcDbBlockBegin
  2
*Model_Space
 70
     0
 10
0.0
 20
0.0
 30
0.0
  3
*Model_Space
  1

  0
ENDBLK
  5
21
330
1F
100
AcDbEntity
  8
0
100
AcDbBlockEnd
  0
BLOCK
  5
1C
330
1B
100
AcDbEntity
 67
     1
  8
0
100
AcDbBlockBegin
  2
*Paper_Space
 70
     0
 10
0.0
 20
0.0
 30
0.0
  3
*Paper_Space
  1

  0
ENDBLK
  5
1D
330
1B
100
AcDbEntity
 67
     1
  8
0
100
AcDbBlockEnd
  0
BLOCK
  5
24
330
23
100
AcDbEntity
  8
0
100
AcDbBlockBegin
  2
*Paper_Space0
 70
     0
 10
0.0
 20
0.0
 30
0.0
  3
*Paper_Space0
  1

  0
ENDBLK
  5
25
330
23
100
AcDbEntity
  8
0
100
AcDbBlockEnd
  0
ENDSEC
  0
SECTION
  2
ENTITIES
  0
LWPOLYLINE
  5
62
330
1F
100
AcDbEntity
  8
外枠
  6
Continuous
 62
   250
420
  2367521
370
   100
100
AcDbPolyline
 90
        5
 70
     0
 43
0.0
 10
281.9999662644599
 20
13.29407825637392
 10
20.99981607051935
 20
13.29407825637392
 10
20.99981607051935
 20
193.0018900389566
 10
281.9999662644599
 20
193.0018900389566
 10
281.9999662644599
 20
13.29407825637392
  0
LINE
  5
63
330
1F
100
AcDbEntity
  8
外枠
  6
Continuous
 62
   250
420
  2367521
370
    25
100
AcDbLine
 10
223.3097080177524
 20
174.0786160074276
 30
0.0
 11
281.9999232007669
 21
174.0786160074276
 31
0.0
  0
LINE
  5
64
330
1F
100
AcDbEntity
  8
外枠
  6
Continuous
 62
   250
420
  2367521
370
    25
100
AcDbLine
 10
223.3097080177524
 20
50.37109023844297
 30
0.0
 11
281.9999232007669
 21
50.37109023844297
 31
0.0
  0
LINE
  5
65
330
1F
100
AcDbEntity
  8
外枠
  6
Continuous
 62
   250
420
  2367521
370
    25
100
AcDbLine
 10
223.3097080177524
 20
36.25997933925949
 30
0.0
 11
281.9999232007669
 21
36.25997933925949
 31
0.0
  0
LINE
  5
66
330
1F
100
AcDbEntity
  8
外枠
  6
Continuous
 62
   250
420
  2367521
370
    50
100
AcDbLine
 10
223.0158413772006
 20
193.3637327187979
 30
0.0
 11
223.0158413772006
 21
13.29396655992039
 31
0.0
  0
TEXT
  5
67
330
1F
100
AcDbEntity
  8
外枠
  6
Continuous
 62
   250
420
  2367521
100
AcDbText
 10
224.7190965599536
 20
186.6888051931772
 30
0.0
 40
2.688166626294454
  1
品名：
 41
0.974166170756022
  7
MS Gothic
100
AcDbText
  0
TEXT
  5
68
330
1F
100
AcDbEntity
  8
外枠
  6
Continuous
 62
   250
420
  2367521
100
AcDbText
 10
224.7190965599536
 20
168.1080059455944
 30
0.0
 40
2.688166626294454
  1
仕様：
 41
0.9978878657023111
  7
MS Gothic
100
AcDbText
  0
TEXT
  5
69
330
1F
100
AcDbEntity
  8
外枠
  6
Continuous
 62
   250
420
  2367521
100
AcDbText
 10
224.7190965599536
 20
44.16660664327048
 30
0.0
 40
2.688166626294454
  1
縮尺：
 41
0.9939999262491861
  7
MS Gothic
100
AcDbText
  0
TEXT
  5
6A
330
1F
100
AcDbEntity
  8
外枠
  6
Continuous
 62
   250
420
  2367521
100
AcDbText
 10
250.2379519709696
 20
40.59738467878129
 30
0.0
 40
2.150533301035563
  1
1/1
 41
1.000003814697266
  7
MS Gothic
100
AcDbText
  0
TEXT
  5
6B
330
1F
100
AcDbEntity
  8
外枠
  6
Continuous
 62
   250
420
  2367521
100
AcDbText
 10
232.7757967427735
 20
181.9845273775436
 30
0.0
 40
2.688166626294454
  1
スロープバー　XS-03
 41
1.018473253752056
  7
MS Gothic
100
AcDbText
  0
TEXT
  5
6C
330
1F
100
AcDbEntity
  8
外枠
  6
Continuous
 62
   250
420
  2367521
100
AcDbText
 10
226.1633020978884
 20
24.25683874973963
 30
0.0
 40
2.553758294979732
  1
ヤスダインテリアサプライ株式会社
 41
1.0194908945184
  7
MS Gothic
100
AcDbText
  0
TEXT
  5
6D
330
1F
100
AcDbEntity
  8
外枠
  6
Continuous
 62
   250
420
  2367521
100
AcDbText
 10
227.7635273953072
 20
161.7763665048245
 30
0.0
 40
2.150533301035563
  1
材質
 41
1.028502464294433
  7
MS Gothic
100
AcDbText
  0
TEXT
  5
6E
330
1F
100
AcDbEntity
  8
外枠
  6
Continuous
 62
   250
420
  2367521
100
AcDbText
 10
232.7757967427735
 20
156.199681315683
 30
0.0
 40
2.016124969720841
  1
 ステンレスSUS304（18.8CR）/HL仕上
 41
1.066277118757659
  7
MS Gothic
100
AcDbText
  0
HATCH
  5
6F
330
1F
100
AcDbEntity
  8
ISS138金台
  6
Continuous
 62
     7
420
 16777215
370
    50
100
AcDbHatch
 10
0.0
 20
0.0
 30
0.0
210
0.0
220
0.0
230
1.0
  2
SOLID
 70
     1
 71
     0
 91
        1
 92
        3
 72
     0
 73
     1
 93
        4
 10
113.732763320117
 20
103.2216156610027
 10
117.7237341260641
 20
106.2202267270792
 10
127.7338034201724
 20
106.2202267270792
 10
127.7338034201724
 20
103.2216156610027
 97
        0
 75
     1
 76
     1
 98
        0
  0
LWPOLYLINE
  5
70
330
1F
100
AcDbEntity
  8
ISS138金台
  6
Continuous
 62
     7
420
 16777215
370
    50
100
AcDbPolyline
 90
        5
 70
     0
 43
0.0
 10
113.732763320117
 20
103.2216156610027
 10
117.7237341260641
 20
106.2202267270792
 10
127.7338034201724
 20
106.2202267270792
 10
127.7338034201724
 20
103.2216156610027
 10
113.732763320117
 20
103.2216156610027
  0
LWPOLYLINE
  5
71
330
1F
100
AcDbEntity
  8
ISS138金台
  6
Continuous
 62
   250
420
  2367521
370
    25
100
AcDbPolyline
 90
        5
 70
     0
 43
0.0
 10
113.732763320117
 20
103.2216156610027
 10
117.7237341260641
 20
106.2202267270792
 10
127.7338034201724
 20
106.2202267270792
 10
127.7338034201724
 20
103.2216156610027
 10
113.732763320117
 20
103.2216156610027
  0
LINE
  5
72
330
1F
100
AcDbEntity
  8
ISS138金台
  6
Continuous
 62
   250
420
  2367521
370
    13
100
AcDbLine
 10
117.7235726372156
 20
112.2176211140039
 30
0.0
 11
117.7235726372156
 21
107.2124142121781
 31
0.0
  0
LINE
  5
73
330
1F
100
AcDbEntity
  8
ISS138金台
  6
Continuous
 62
   250
420
  2367521
370
    13
100
AcDbLine
 10
127.7997769977406
 20
112.2176211140039
 30
0.0
 11
127.7997769977406
 21
107.2124142121781
 31
0.0
  0
LINE
  5
74
330
1F
100
AcDbEntity
  8
ISS138金台
  6
Continuous
 62
   250
420
  2367521
370
    13
100
AcDbLine
 10
117.7235726372156
 20
111.7325624427677
 30
0.0
 11
127.7999600184355
 21
111.7325624427677
 31
0.0
  0
LINE
  5
75
330
1F
100
AcDbEntity
  8
ISS138金台
  6
Continuous
 62
   250
420
  2367521
370
    13
100
AcDbLine
 10
128.7258186504995
 20
106.2863725594191
 30
0.0
 11
133.7310255523254
 21
106.2863725594191
 31
0.0
  0
LINE
  5
76
330
1F
100
AcDbEntity
  8
ISS138金台
  6
Continuous
 62
   250
420
  2367521
370
    13
100
AcDbLine
 10
128.7258186504995
 20
103.1554698286628
 30
0.0
 11
133.7310255523254
 21
103.1554698286628
 31
0.0
  0
LINE
  5
77
330
1F
100
AcDbEntity
  8
ISS138金台
  6
Continuous
 62
   250
420
  2367521
370
    13
100
AcDbLine
 10
133.2237460155375
 20
106.2863725594191
 30
0.0
 11
133.2237460155375
 21
103.1554698286628
 31
0.0
  0
LINE
  5
78
330
1F
100
AcDbEntity
  8
ISS138金台
  6
Continuous
 62
   250
420
  2367521
370
    13
100
AcDbLine
 10
113.6666282537004
 20
102.2294281759039
 30
0.0
 11
113.6666282537004
 21
92.24123523780386
 31
0.0
  0
LINE
  5
79
330
1F
100
AcDbEntity
  8
ISS138金台
  6
Continuous
 62
   250
420
  2367521
370
    13
100
AcDbLine
 10
127.7997769977406
 20
102.2294281759039
 30
0.0
 11
127.7997769977406
 21
92.24123523780386
 31
0.0
  0
LINE
  5
7A
330
1F
100
AcDbEntity
  8
ISS138金台
  6
Continuous
 62
   250
420
  2367521
370
    13
100
AcDbLine
 10
113.6666282537004
 20
92.748525540515
 30
0.0
 11
127.7999600184355
 21
92.748525540515
 31
0.0
  0
HATCH
  5
7B
330
1F
100
AcDbEntity
  8
ISS138金台
  6
Continuous
 62
   250
420
  2367521
370
    13
100
AcDbHatch
 10
0.0
 20
0.0
 30
0.0
210
0.0
220
0.0
230
1.0
  2
SOLID
 70
     1
 71
     0
 91
        1
 92
        3
 72
     0
 73
     1
 93
       67
 10
113.6666282537004
 20
92.49841161197966
 10
113.6921650236076
 20
92.49970352276756
 10
113.7169804766583
 20
92.50349312774537
 10
113.7409238899272
 20
92.50967276768077
 10
113.7638983701052
 20
92.51810248557175
 10
113.7857639601902
 20
92.52864232441627
 10
113.8063914691035
 20
92.54118462498204
 10
113.825640939843
 20
92.55558943026699
 10
113.8434154790997
 20
92.57174908103883
 10
113.8595643639484
 20
92.58951285437232
 10
113.8739799351566
 20
92.60877309103509
 10
113.8865222357223
 20
92.62940059994838
 10
113.8970728404901
 20
92.65125542411019
 10
113.9054917924578
 20
92.67422990428814
 10
113.91166066647
 20
92.69818408348024
 10
113.915461037371
 20
92.72298877060771
 10
113.9167529481589
 20
92.74853630643824
 10
113.9167529481589
 20
92.74853630643824
 10
113.915461037371
 20
92.77408384226874
 10
113.91166066647
 20
92.79888852939621
 10
113.9054810265346
 20
92.82284270858833
 10
113.8970728404901
 20
92.84580642284305
 10
113.8865330016455
 20
92.86767201292807
 10
113.8739907010798
 20
92.88828875591813
 10
113.8595643639484
 20
92.90754899258091
 10
113.8434154790997
 20
92.92531276591438
 10
113.825640939843
 20
92.94147241668624
 10
113.8063807031803
 20
92.9558772219712
 10
113.7857639601902
 20
92.96841952253695
 10
113.7638983701052
 20
92.97897012730472
 10
113.7409238899272
 20
92.98738907927246
 10
113.7169804766583
 20
92.99355795328464
 10
113.6921650236076
 20
92.99735832418568
 10
113.6666282537004
 20
92.99865023497355
 10
113.6666282537004
 20
92.99865023497355
 10
113.6410914837931
 20
92.99734755826245
 10
113.6162867966656
 20
92.99356871920787
 10
113.5923326174735
 20
92.98738907927246
 10
113.5693581372955
 20
92.97897012730472
 10
113.5474925472105
 20
92.96841952253695
 10
113.5268758042205
 20
92.9558772219712
 10
113.5076048016344
 20
92.94147241668624
 10
113.489841028301
 20
92.92531276591438
 10
113.4736813775291
 20
92.90754899258091
 10
113.4592765722442
 20
92.88828875591813
 10
113.4467342716784
 20
92.86767201292807
 10
113.4361836669107
 20
92.84580642284305
 10
113.4277647149429
 20
92.82284270858833
 10
113.4215958409307
 20
92.79888852939621
 10
113.4177954700297
 20
92.7740730763455
 10
113.4165035592418
 20
92.74853630643824
 10
113.4165035592418
 20
92.74853630643824
 10
113.4177954700297
 20
92.72299953653095
 10
113.4215958409307
 20
92.69818408348024
 10
113.4277754808661
 20
92.67422990428814
 10
113.4361836669107
 20
92.65126619003341
 10
113.4467342716784
 20
92.62940059994838
 10
113.4592765722442
 20
92.60877309103509
 10
113.4736813775291
 20
92.58951285437232
 10
113.489841028301
 20
92.57174908103883
 10
113.5076048016344
 20
92.55558943026699
 10
113.5268758042205
 20
92.54118462498204
 10
113.5474925472105
 20
92.52864232441627
 10
113.5693581372955
 20
92.51809171964851
 10
113.5923218515503
 20
92.50967276768077
 10
113.6162760307424
 20
92.5035038936686
 10
113.6410914837931
 20
92.49970352276756
 97
        0
 75
     1
 76
     1
 98
        0
  0
LWPOLYLINE
  5
7C
330
1F
100
AcDbEntity
  8
ISS138金台
  6
Continuous
 62
   250
420
  2367521
370
    13
100
AcDbPolyline
 90
       68
 70
     0
 43
0.0
 10
113.6666282537004
 20
92.49841161197966
 10
113.6921650236076
 20
92.49970352276756
 10
113.7169804766583
 20
92.50349312774537
 10
113.7409238899272
 20
92.50967276768077
 10
113.7638983701052
 20
92.51810248557175
 10
113.7857639601902
 20
92.52864232441627
 10
113.8063914691035
 20
92.54118462498204
 10
113.825640939843
 20
92.55558943026699
 10
113.8434154790997
 20
92.57174908103883
 10
113.8595643639484
 20
92.58951285437232
 10
113.8739799351566
 20
92.60877309103509
 10
113.8865222357223
 20
92.62940059994838
 10
113.8970728404901
 20
92.65125542411019
 10
113.9054917924578
 20
92.67422990428814
 10
113.91166066647
 20
92.69818408348024
 10
113.915461037371
 20
92.72298877060771
 10
113.9167529481589
 20
92.74853630643824
 10
113.9167529481589
 20
92.74853630643824
 10
113.915461037371
 20
92.77408384226874
 10
113.91166066647
 20
92.79888852939621
 10
113.9054810265346
 20
92.82284270858833
 10
113.8970728404901
 20
92.84580642284305
 10
113.8865330016455
 20
92.86767201292807
 10
113.8739907010798
 20
92.88828875591813
 10
113.8595643639484
 20
92.90754899258091
 10
113.8434154790997
 20
92.92531276591438
 10
113.825640939843
 20
92.94147241668624
 10
113.8063807031803
 20
92.9558772219712
 10
113.7857639601902
 20
92.96841952253695
 10
113.7638983701052
 20
92.97897012730472
 10
113.7409238899272
 20
92.98738907927246
 10
113.7169804766583
 20
92.99355795328464
 10
113.6921650236076
 20
92.99735832418568
 10
113.6666282537004
 20
92.99865023497355
 10
113.6666282537004
 20
92.99865023497355
 10
113.6410914837931
 20
92.99734755826245
 10
113.6162867966656
 20
92.99356871920787
 10
113.5923326174735
 20
92.98738907927246
 10
113.5693581372955
 20
92.97897012730472
 10
113.5474925472105
 20
92.96841952253695
 10
113.5268758042205
 20
92.9558772219712
 10
113.5076048016344
 20
92.94147241668624
 10
113.489841028301
 20
92.92531276591438
 10
113.4736813775291
 20
92.90754899258091
 10
113.4592765722442
 20
92.88828875591813
 10
113.4467342716784
 20
92.86767201292807
 10
113.4361836669107
 20
92.84580642284305
 10
113.4277647149429
 20
92.82284270858833
 10
113.4215958409307
 20
92.79888852939621
 10
113.4177954700297
 20
92.7740730763455
 10
113.4165035592418
 20
92.74853630643824
 10
113.4165035592418
 20
92.74853630643824
 10
113.4177954700297
 20
92.72299953653095
 10
113.4215958409307
 20
92.69818408348024
 10
113.4277754808661
 20
92.67422990428814
 10
113.4361836669107
 20
92.65126619003341
 10
113.4467342716784
 20
92.62940059994838
 10
113.4592765722442
 20
92.60877309103509
 10
113.4736813775291
 20
92.58951285437232
 10
113.489841028301
 20
92.57174908103883
 10
113.5076048016344
 20
92.55558943026699
 10
113.5268758042205
 20
92.54118462498204
 10
113.5474925472105
 20
92.52864232441627
 10
113.5693581372955
 20
92.51809171964851
 10
113.5923218515503
 20
92.50967276768077
 10
113.6162760307424
 20
92.5035038936686
 10
113.6410914837931
 20
92.49970352276756
 10
113.6666282537004
 20
92.49841161197966
  0
HATCH
  5
7D
330
1F
100
AcDbEntity
  8
ISS138金台
  6
Continuous
 62
   250
420
  2367521
370
    13
100
AcDbHatch
 10
0.0
 20
0.0
 30
0.0
210
0.0
220
0.0
230
1.0
  2
SOLID
 70
     1
 71
     0
 91
        1
 92
        3
 72
     0
 73
     1
 93
       67
 10
127.7997769977406
 20
92.49841161197966
 10
127.8253137676479
 20
92.49970352276756
 10
127.8501184547753
 20
92.50349312774537
 10
127.8740833998907
 20
92.50967276768077
 10
127.8970471141454
 20
92.51810248557175
 10
127.9189019383072
 20
92.52864232441627
 10
127.9395402131437
 20
92.54118462498204
 10
127.9587896838833
 20
92.55558943026699
 10
127.97656422314
 20
92.57174908103883
 10
127.9927238739118
 20
92.58951285437232
 10
128.0071286791968
 20
92.60877309103509
 10
128.0196709797626
 20
92.62940059994838
 10
128.0302215845303
 20
92.65125542411019
 10
128.0386405364981
 20
92.67422990428814
 10
128.0448094105102
 20
92.69818408348024
 10
128.0486097814112
 20
92.72298877060771
 10
128.0499016921992
 20
92.74853630643824
 10
128.0499016921992
 20
92.74853630643824
 10
128.0486097814112
 20
92.77408384226874
 10
128.0448094105102
 20
92.79888852939621
 10
128.0386405364981
 20
92.82284270858833
 10
128.0302108186071
 20
92.84580642284305
 10
128.0196709797626
 20
92.86767201292807
 10
128.0071286791968
 20
92.88828875591813
 10
127.9927238739118
 20
92.90754899258091
 10
127.97656422314
 20
92.92531276591438
 10
127.9588004498065
 20
92.94147241668624
 10
127.9395402131437
 20
92.9558772219712
 10
127.9189127042304
 20
92.96841952253695
 10
127.8970471141454
 20
92.97897012730472
 10
127.8740833998907
 20
92.98738907927246
 10
127.8501292206986
 20
92.99355795328464
 10
127.8253137676479
 20
92.99735832418568
 10
127.7997769977406
 20
92.99865023497355
 10
127.7997769977406
 20
92.99865023497355
 10
127.7742294619101
 20
92.99734755826245
 10
127.7494247747826
 20
92.99356871920787
 10
127.7254813615137
 20
92.98738907927246
 10
127.7025068813358
 20
92.97897012730472
 10
127.6806412912508
 20
92.96841952253695
 10
127.6600137823374
 20
92.9558772219712
 10
127.6407535456747
 20
92.94147241668624
 10
127.6229897723412
 20
92.92531276591438
 10
127.6068408874926
 20
92.90754899258091
 10
127.5924253162844
 20
92.88828875591813
 10
127.5798830157186
 20
92.86767201292807
 10
127.5693324109509
 20
92.84580642284305
 10
127.5609134589831
 20
92.82284270858833
 10
127.5547445849709
 20
92.79888852939621
 10
127.5509442140699
 20
92.7740730763455
 10
127.549652303282
 20
92.74853630643824
 10
127.549652303282
 20
92.74853630643824
 10
127.5509442140699
 20
92.72299953653095
 10
127.5547338190477
 20
92.69818408348024
 10
127.5609134589831
 20
92.67422990428814
 10
127.5693431768741
 20
92.65126619003341
 10
127.5798830157186
 20
92.62940059994838
 10
127.5924253162844
 20
92.60877309103509
 10
127.6068408874926
 20
92.58951285437232
 10
127.6229897723412
 20
92.57174908103883
 10
127.6407643115979
 20
92.55558943026699
 10
127.6600245482607
 20
92.54118462498204
 10
127.6806412912508
 20
92.52864232441627
 10
127.7025068813358
 20
92.51809171964851
 10
127.7254705955905
 20
92.50967276768077
 10
127.7494247747826
 20
92.5035038936686
 10
127.7742402278333
 20
92.49970352276756
 97
        0
 75
     1
 76
     1
 98
        0
  0
LWPOLYLINE
  5
7E
330
1F
100
AcDbEntity
  8
ISS138金台
  6
Continuous
 62
   250
420
  2367521
370
    13
100
AcDbPolyline
 90
       68
 70
     0
 43
0.0
 10
127.7997769977406
 20
92.49841161197966
 10
127.8253137676479
 20
92.49970352276756
 10
127.8501184547753
 20
92.50349312774537
 10
127.8740833998907
 20
92.50967276768077
 10
127.8970471141454
 20
92.51810248557175
 10
127.9189019383072
 20
92.52864232441627
 10
127.9395402131437
 20
92.54118462498204
 10
127.9587896838833
 20
92.55558943026699
 10
127.97656422314
 20
92.57174908103883
 10
127.9927238739118
 20
92.58951285437232
 10
128.0071286791968
 20
92.60877309103509
 10
128.0196709797626
 20
92.62940059994838
 10
128.0302215845303
 20
92.65125542411019
 10
128.0386405364981
 20
92.67422990428814
 10
128.0448094105102
 20
92.69818408348024
 10
128.0486097814112
 20
92.72298877060771
 10
128.0499016921992
 20
92.74853630643824
 10
128.0499016921992
 20
92.74853630643824
 10
128.0486097814112
 20
92.77408384226874
 10
128.0448094105102
 20
92.79888852939621
 10
128.0386405364981
 20
92.82284270858833
 10
128.0302108186071
 20
92.84580642284305
 10
128.0196709797626
 20
92.86767201292807
 10
128.0071286791968
 20
92.88828875591813
 10
127.9927238739118
 20
92.90754899258091
 10
127.97656422314
 20
92.92531276591438
 10
127.9588004498065
 20
92.94147241668624
 10
127.9395402131437
 20
92.9558772219712
 10
127.9189127042304
 20
92.96841952253695
 10
127.8970471141454
 20
92.97897012730472
 10
127.8740833998907
 20
92.98738907927246
 10
127.8501292206986
 20
92.99355795328464
 10
127.8253137676479
 20
92.99735832418568
 10
127.7997769977406
 20
92.99865023497355
 10
127.7997769977406
 20
92.99865023497355
 10
127.7742294619101
 20
92.99734755826245
 10
127.7494247747826
 20
92.99356871920787
 10
127.7254813615137
 20
92.98738907927246
 10
127.7025068813358
 20
92.97897012730472
 10
127.6806412912508
 20
92.96841952253695
 10
127.6600137823374
 20
92.9558772219712
 10
127.6407535456747
 20
92.94147241668624
 10
127.6229897723412
 20
92.92531276591438
 10
127.6068408874926
 20
92.90754899258091
 10
127.5924253162844
 20
92.88828875591813
 10
127.5798830157186
 20
92.86767201292807
 10
127.5693324109509
 20
92.84580642284305
 10
127.5609134589831
 20
92.82284270858833
 10
127.5547445849709
 20
92.79888852939621
 10
127.5509442140699
 20
92.7740730763455
 10
127.549652303282
 20
92.74853630643824
 10
127.549652303282
 20
92.74853630643824
 10
127.5509442140699
 20
92.72299953653095
 10
127.5547338190477
 20
92.69818408348024
 10
127.5609134589831
 20
92.67422990428814
 10
127.5693431768741
 20
92.65126619003341
 10
127.5798830157186
 20
92.62940059994838
 10
127.5924253162844
 20
92.60877309103509
 10
127.6068408874926
 20
92.58951285437232
 10
127.6229897723412
 20
92.57174908103883
 10
127.6407643115979
 20
92.55558943026699
 10
127.6600245482607
 20
92.54118462498204
 10
127.6806412912508
 20
92.52864232441627
 10
127.7025068813358
 20
92.51809171964851
 10
127.7254705955905
 20
92.50967276768077
 10
127.7494247747826
 20
92.5035038936686
 10
127.7742402278333
 20
92.49970352276756
 10
127.7997769977406
 20
92.49841161197966
  0
HATCH
  5
7F
330
1F
100
AcDbEntity
  8
ISS138金台
  6
Continuous
 62
   250
420
  2367521
370
    13
100
AcDbHatch
 10
0.0
 20
0.0
 30
0.0
210
0.0
220
0.0
230
1.0
  2
SOLID
 70
     1
 71
     0
 91
        1
 92
        3
 72
     0
 73
     1
 93
       67
 10
133.2237460155375
 20
106.0366139063505
 10
133.2492827854447
 20
106.0379058171384
 10
133.2740982384955
 20
106.041684656193
 10
133.2980524176876
 20
106.0478427642819
 10
133.3210161319423
 20
106.0562401844032
 10
133.3428709561041
 20
106.0667584914012
 10
133.3635092309406
 20
106.0792684941973
 10
133.3827694676034
 20
106.0936517676358
 10
133.4005332409369
 20
106.1097683547147
 10
133.4166928917087
 20
106.1275105962017
 10
133.4310976969937
 20
106.1467277691716
 10
133.4436399975594
 20
106.1673337462384
 10
133.4541906023272
 20
106.1891562726305
 10
133.4626095542949
 20
106.212109220962
 10
133.4687784283071
 20
106.2360418683077
 10
133.4725787992082
 20
106.2608465554351
 10
133.473870709996
 20
106.2863833253424
 10
133.473870709996
 20
106.2863833253424
 10
133.4725787992082
 20
106.3119846907891
 10
133.4687784283071
 20
106.3368432075327
 10
133.4626095542949
 20
106.3608189185713
 10
133.4541906023272
 20
106.3838041646725
 10
133.4436399975594
 20
106.4056697547575
 10
133.4310976969937
 20
106.4262864977475
 10
133.4166821257855
 20
106.4455359684871
 10
133.4005332409369
 20
106.4632997418206
 10
133.3827694676034
 20
106.4794270948227
 10
133.3634984650174
 20
106.4938211341844
 10
133.3428817220273
 20
106.5063419029037
 10
133.3210161319423
 20
106.5168602099018
 10
133.2980524176876
 20
106.5252683959463
 10
133.2740982384955
 20
106.5314265040353
 10
133.2492827854447
 20
106.5352053430898
 10
133.2237460155375
 20
106.5364972538777
 10
133.2237460155375
 20
106.5364972538777
 10
133.1981984797069
 20
106.5351945771666
 10
133.1734045585027
 20
106.5314265040353
 10
133.1494503793106
 20
106.5252683959463
 10
133.1264758991327
 20
106.516870975825
 10
133.1046103090476
 20
106.5063419029037
 10
133.0839828001343
 20
106.4938211341844
 10
133.0647225634715
 20
106.479437860746
 10
133.0469587901381
 20
106.4632997418206
 10
133.0308099052895
 20
106.4455467344103
 10
133.0163943340813
 20
106.4262864977475
 10
133.0038520335155
 20
106.4056697547575
 10
132.9933014287478
 20
106.3838041646725
 10
132.98488247678
 20
106.3608189185713
 10
132.9787136027678
 20
106.3368324416094
 10
132.9749132318668
 20
106.3119846907891
 10
132.9736213210789
 20
106.2863833253424
 10
132.9736213210789
 20
106.2863833253424
 10
132.9749132318668
 20
106.2608465554351
 10
132.9787136027678
 20
106.2360418683077
 10
132.9848932427032
 20
106.212109220962
 10
132.9933014287478
 20
106.1891562726305
 10
133.0038412675923
 20
106.1673229803152
 10
133.0163943340813
 20
106.1467385350948
 10
133.0307991393663
 20
106.1274998302785
 10
133.0469587901381
 20
106.1097683547147
 10
133.0647333293948
 20
106.0936517676358
 10
133.0839935660576
 20
106.0792684941973
 10
133.1046103090476
 20
106.0667584914012
 10
133.1264758991327
 20
106.0562401844032
 10
133.1494396133874
 20
106.0478427642819
 10
133.1733937925795
 20
106.041684656193
 10
133.1982092456302
 20
106.0379058171384
 97
        0
 75
     1
 76
     1
 98
        0
  0
LWPOLYLINE
  5
80
330
1F
100
AcDbEntity
  8
ISS138金台
  6
Continuous
 62
   250
420
  2367521
370
    13
100
AcDbPolyline
 90
       68
 70
     0
 43
0.0
 10
133.2237460155375
 20
106.0366139063505
 10
133.2492827854447
 20
106.0379058171384
 10
133.2740982384955
 20
106.041684656193
 10
133.2980524176876
 20
106.0478427642819
 10
133.3210161319423
 20
106.0562401844032
 10
133.3428709561041
 20
106.0667584914012
 10
133.3635092309406
 20
106.0792684941973
 10
133.3827694676034
 20
106.0936517676358
 10
133.4005332409369
 20
106.1097683547147
 10
133.4166928917087
 20
106.1275105962017
 10
133.4310976969937
 20
106.1467277691716
 10
133.4436399975594
 20
106.1673337462384
 10
133.4541906023272
 20
106.1891562726305
 10
133.4626095542949
 20
106.212109220962
 10
133.4687784283071
 20
106.2360418683077
 10
133.4725787992082
 20
106.2608465554351
 10
133.473870709996
 20
106.2863833253424
 10
133.473870709996
 20
106.2863833253424
 10
133.4725787992082
 20
106.3119846907891
 10
133.4687784283071
 20
106.3368432075327
 10
133.4626095542949
 20
106.3608189185713
 10
133.4541906023272
 20
106.3838041646725
 10
133.4436399975594
 20
106.4056697547575
 10
133.4310976969937
 20
106.4262864977475
 10
133.4166821257855
 20
106.4455359684871
 10
133.4005332409369
 20
106.4632997418206
 10
133.3827694676034
 20
106.4794270948227
 10
133.3634984650174
 20
106.4938211341844
 10
133.3428817220273
 20
106.5063419029037
 10
133.3210161319423
 20
106.5168602099018
 10
133.2980524176876
 20
106.5252683959463
 10
133.2740982384955
 20
106.5314265040353
 10
133.2492827854447
 20
106.5352053430898
 10
133.2237460155375
 20
106.5364972538777
 10
133.2237460155375
 20
106.5364972538777
 10
133.1981984797069
 20
106.5351945771666
 10
133.1734045585027
 20
106.5314265040353
 10
133.1494503793106
 20
106.5252683959463
 10
133.1264758991327
 20
106.516870975825
 10
133.1046103090476
 20
106.5063419029037
 10
133.0839828001343
 20
106.4938211341844
 10
133.0647225634715
 20
106.479437860746
 10
133.0469587901381
 20
106.4632997418206
 10
133.0308099052895
 20
106.4455467344103
 10
133.0163943340813
 20
106.4262864977475
 10
133.0038520335155
 20
106.4056697547575
 10
132.9933014287478
 20
106.3838041646725
 10
132.98488247678
 20
106.3608189185713
 10
132.9787136027678
 20
106.3368324416094
 10
132.9749132318668
 20
106.3119846907891
 10
132.9736213210789
 20
106.2863833253424
 10
132.9736213210789
 20
106.2863833253424
 10
132.9749132318668
 20
106.2608465554351
 10
132.9787136027678
 20
106.2360418683077
 10
132.9848932427032
 20
106.212109220962
 10
132.9933014287478
 20
106.1891562726305
 10
133.0038412675923
 20
106.1673229803152
 10
133.0163943340813
 20
106.1467385350948
 10
133.0307991393663
 20
106.1274998302785
 10
133.0469587901381
 20
106.1097683547147
 10
133.0647333293948
 20
106.0936517676358
 10
133.0839935660576
 20
106.0792684941973
 10
133.1046103090476
 20
106.0667584914012
 10
133.1264758991327
 20
106.0562401844032
 10
133.1494396133874
 20
106.0478427642819
 10
133.1733937925795
 20
106.041684656193
 10
133.1982092456302
 20
106.0379058171384
 10
133.2237460155375
 20
106.0366139063505
  0
HATCH
  5
81
330
1F
100
AcDbEntity
  8
ISS138金台
  6
Continuous
 62
   250
420
  2367521
370
    13
100
AcDbHatch
 10
0.0
 20
0.0
 30
0.0
210
0.0
220
0.0
230
1.0
  2
SOLID
 70
     1
 71
     0
 91
        1
 92
        3
 72
     0
 73
     1
 93
       67
 10
133.2237460155375
 20
102.9053559001275
 10
133.2492827854447
 20
102.9066478109154
 10
133.2740982384955
 20
102.9104374158932
 10
133.2980524176876
 20
102.9166062899054
 10
133.3210161319423
 20
102.9250467737196
 10
133.3428709561041
 20
102.9355866125641
 10
133.3635092309406
 20
102.9481181472066
 10
133.3827694676034
 20
102.9625337184148
 10
133.4005332409369
 20
102.9786933691867
 10
133.4166928917087
 20
102.9964571425201
 10
133.4310976969937
 20
103.0157173791829
 10
133.4436399975594
 20
103.0363448880962
 10
133.4541906023272
 20
103.058199712258
 10
133.4626095542949
 20
103.081174192436
 10
133.4687784283071
 20
103.1051283716281
 10
133.4725787992082
 20
103.1299330587556
 10
133.473870709996
 20
103.1554805945861
 10
133.473870709996
 20
103.1554805945861
 10
133.4725787992082
 20
103.1810819600327
 10
133.4687784283071
 20
103.2059404767763
 10
133.4626095542949
 20
103.2299161878149
 10
133.4541906023272
 20
103.2529014339161
 10
133.4436399975594
 20
103.2747670240012
 10
133.4310976969937
 20
103.2953837669912
 10
133.4166821257855
 20
103.3146332377307
 10
133.4005332409369
 20
103.3323970110642
 10
133.3827694676034
 20
103.3485243640664
 10
133.3634984650174
 20
103.3629184034281
 10
133.3428817220273
 20
103.3754391721474
 10
133.3210161319423
 20
103.3859574791455
 10
133.2980524176876
 20
103.39436566519
 10
133.2740982384955
 20
103.4005237732789
 10
133.2492827854447
 20
103.4043026123335
 10
133.2237460155375
 20
103.4055945231214
 10
133.2237460155375
 20
103.4055945231214
 10
133.1981984797069
 20
103.4042918464103
 10
133.1734045585027
 20
103.4005237732789
 10
133.1494503793106
 20
103.39436566519
 10
133.1264758991327
 20
103.3859682450687
 10
133.1046103090476
 20
103.3754391721474
 10
133.0839828001343
 20
103.3629184034281
 10
133.0647225634715
 20
103.3485351299896
 10
133.0469587901381
 20
103.3323970110642
 10
133.0308099052895
 20
103.314644003654
 10
133.0163943340813
 20
103.2953837669912
 10
133.0038520335155
 20
103.2747670240012
 10
132.9933014287478
 20
103.2529014339161
 10
132.98488247678
 20
103.2299161878149
 10
132.9787136027678
 20
103.2059297108531
 10
132.9749132318668
 20
103.1810819600327
 10
132.9736213210789
 20
103.1554805945861
 10
132.9736213210789
 20
103.1554805945861
 10
132.9749132318668
 20
103.1299438246788
 10
132.9787136027678
 20
103.1051283716281
 10
132.9848932427032
 20
103.081174192436
 10
132.9933014287478
 20
103.0582104781812
 10
133.0038412675923
 20
103.036334122173
 10
133.0163943340813
 20
103.0157173791829
 10
133.0307991393663
 20
102.9964571425201
 10
133.0469587901381
 20
102.9786933691867
 10
133.0647333293948
 20
102.9625337184148
 10
133.0839935660576
 20
102.9481289131298
 10
133.1046103090476
 20
102.9355866125641
 10
133.1264758991327
 20
102.9250360077963
 10
133.1494396133874
 20
102.9166170558286
 10
133.1733937925795
 20
102.9104481818164
 10
133.1982092456302
 20
102.9066478109154
 97
        0
 75
     1
 76
     1
 98
        0
  0
LWPOLYLINE
  5
82
330
1F
100
AcDbEntity
  8
ISS138金台
  6
Continuous
 62
   250
420
  2367521
370
    13
100
AcDbPolyline
 90
       68
 70
     0
 43
0.0
 10
133.2237460155375
 20
102.9053559001275
 10
133.2492827854447
 20
102.9066478109154
 10
133.2740982384955
 20
102.9104374158932
 10
133.2980524176876
 20
102.9166062899054
 10
133.3210161319423
 20
102.9250467737196
 10
133.3428709561041
 20
102.9355866125641
 10
133.3635092309406
 20
102.9481181472066
 10
133.3827694676034
 20
102.9625337184148
 10
133.4005332409369
 20
102.9786933691867
 10
133.4166928917087
 20
102.9964571425201
 10
133.4310976969937
 20
103.0157173791829
 10
133.4436399975594
 20
103.0363448880962
 10
133.4541906023272
 20
103.058199712258
 10
133.4626095542949
 20
103.081174192436
 10
133.4687784283071
 20
103.1051283716281
 10
133.4725787992082
 20
103.1299330587556
 10
133.473870709996
 20
103.1554805945861
 10
133.473870709996
 20
103.1554805945861
 10
133.4725787992082
 20
103.1810819600327
 10
133.4687784283071
 20
103.2059404767763
 10
133.4626095542949
 20
103.2299161878149
 10
133.4541906023272
 20
103.2529014339161
 10
133.4436399975594
 20
103.2747670240012
 10
133.4310976969937
 20
103.2953837669912
 10
133.4166821257855
 20
103.3146332377307
 10
133.4005332409369
 20
103.3323970110642
 10
133.3827694676034
 20
103.3485243640664
 10
133.3634984650174
 20
103.3629184034281
 10
133.3428817220273
 20
103.3754391721474
 10
133.3210161319423
 20
103.3859574791455
 10
133.2980524176876
 20
103.39436566519
 10
133.2740982384955
 20
103.4005237732789
 10
133.2492827854447
 20
103.4043026123335
 10
133.2237460155375
 20
103.4055945231214
 10
133.2237460155375
 20
103.4055945231214
 10
133.1981984797069
 20
103.4042918464103
 10
133.1734045585027
 20
103.4005237732789
 10
133.1494503793106
 20
103.39436566519
 10
133.1264758991327
 20
103.3859682450687
 10
133.1046103090476
 20
103.3754391721474
 10
133.0839828001343
 20
103.3629184034281
 10
133.0647225634715
 20
103.3485351299896
 10
133.0469587901381
 20
103.3323970110642
 10
133.0308099052895
 20
103.314644003654
 10
133.0163943340813
 20
103.2953837669912
 10
133.0038520335155
 20
103.2747670240012
 10
132.9933014287478
 20
103.2529014339161
 10
132.98488247678
 20
103.2299161878149
 10
132.9787136027678
 20
103.2059297108531
 10
132.9749132318668
 20
103.1810819600327
 10
132.9736213210789
 20
103.1554805945861
 10
132.9736213210789
 20
103.1554805945861
 10
132.9749132318668
 20
103.1299438246788
 10
132.9787136027678
 20
103.1051283716281
 10
132.9848932427032
 20
103.081174192436
 10
132.9933014287478
 20
103.0582104781812
 10
133.0038412675923
 20
103.036334122173
 10
133.0163943340813
 20
103.0157173791829
 10
133.0307991393663
 20
102.9964571425201
 10
133.0469587901381
 20
102.9786933691867
 10
133.0647333293948
 20
102.9625337184148
 10
133.0839935660576
 20
102.9481289131298
 10
133.1046103090476
 20
102.9355866125641
 10
133.1264758991327
 20
102.9250360077963
 10
133.1494396133874
 20
102.9166170558286
 10
133.1733937925795
 20
102.9104481818164
 10
133.1982092456302
 20
102.9066478109154
 10
133.2237460155375
 20
102.9053559001275
  0
HATCH
  5
83
330
1F
100
AcDbEntity
  8
ISS138金台
  6
Continuous
 62
   250
420
  2367521
370
    13
100
AcDbHatch
 10
0.0
 20
0.0
 30
0.0
210
0.0
220
0.0
230
1.0
  2
SOLID
 70
     1
 71
     0
 91
        1
 92
        3
 72
     0
 73
     1
 93
       67
 10
117.7235726372156
 20
111.4826100030809
 10
117.7491094071229
 20
111.4839019138688
 10
117.7739248601736
 20
111.4876807529233
 10
117.7978682734425
 20
111.4938496269355
 10
117.8208427536204
 20
111.5022470470568
 10
117.8427083437055
 20
111.5127653540549
 10
117.8633358526188
 20
111.5252645909277
 10
117.8825853233583
 20
111.5396478643662
 10
117.900359862615
 20
111.5557644514451
 10
117.9165087474636
 20
111.5735066929321
 10
117.9309243186718
 20
111.5927346318252
 10
117.9434666192376
 20
111.6133190770456
 10
117.9540172240053
 20
111.6351523693609
 10
117.9624361759731
 20
111.6581053176924
 10
117.9686050499852
 20
111.682037965038
 10
117.9724054208863
 20
111.7068426521655
 10
117.9736973316742
 20
111.7323794220728
 10
117.9736973316742
 20
111.7323794220728
 10
117.9724054208863
 20
111.7579700215962
 10
117.9686050499852
 20
111.7828393042631
 10
117.9624254100498
 20
111.8068150153017
 10
117.9540172240053
 20
111.8298110273261
 10
117.9434666192376
 20
111.8516766174111
 10
117.930935084595
 20
111.8722825944779
 10
117.9165087474636
 20
111.8915428311407
 10
117.900359862615
 20
111.909295838551
 10
117.8825853233583
 20
111.9254339574763
 10
117.8633250866955
 20
111.9398172309148
 10
117.8427083437055
 20
111.9523379996341
 10
117.8208427536204
 20
111.9628563066322
 10
117.7978682734425
 20
111.9712644926767
 10
117.7739248601736
 20
111.9774226007656
 10
117.7491094071229
 20
111.9812014398202
 10
117.7235726372156
 20
111.9824933506081
 10
117.7235726372156
 20
111.9824933506081
 10
117.6980358673083
 20
111.9812122057435
 10
117.6732311801809
 20
111.9774118348424
 10
117.6492770009888
 20
111.9712644926767
 10
117.6263025208108
 20
111.9628670725554
 10
117.604447696649
 20
111.9523379996341
 10
117.5838201877357
 20
111.9398172309148
 10
117.5645491851497
 20
111.9254231915531
 10
117.5467854118162
 20
111.909295838551
 10
117.5306257610444
 20
111.8915428311407
 10
117.5162209557594
 20
111.8722933604012
 10
117.5036786551937
 20
111.8516658514879
 10
117.4931280504259
 20
111.8298002614029
 10
117.4847090984582
 20
111.8068150153017
 10
117.478540224446
 20
111.7828285383399
 10
117.4747398535449
 20
111.7579807875194
 10
117.473447942757
 20
111.7323794220728
 10
117.473447942757
 20
111.7323794220728
 10
117.4747398535449
 20
111.7068426521655
 10
117.478540224446
 20
111.682037965038
 10
117.4847198643814
 20
111.6581053176924
 10
117.4931280504259
 20
111.6351523693609
 10
117.5036786551937
 20
111.6133298429688
 10
117.5162209557594
 20
111.5927346318252
 10
117.5306257610444
 20
111.5735066929321
 10
117.5467854118162
 20
111.5557644514451
 10
117.5645491851497
 20
111.5396478643662
 10
117.5838201877357
 20
111.5252645909277
 10
117.6044369307258
 20
111.5127545881316
 10
117.6263025208108
 20
111.5022362811336
 10
117.6492662350655
 20
111.4938388610123
 10
117.6732204142576
 20
111.4876807529233
 10
117.6980358673083
 20
111.4839019138688
 97
        0
 75
     1
 76
     1
 98
        0
  0
LWPOLYLINE
  5
84
330
1F
100
AcDbEntity
  8
ISS138金台
  6
Continuous
 62
   250
420
  2367521
370
    13
100
AcDbPolyline
 90
       68
 70
     0
 43
0.0
 10
117.7235726372156
 20
111.4826100030809
 10
117.7491094071229
 20
111.4839019138688
 10
117.7739248601736
 20
111.4876807529233
 10
117.7978682734425
 20
111.4938496269355
 10
117.8208427536204
 20
111.5022470470568
 10
117.8427083437055
 20
111.5127653540549
 10
117.8633358526188
 20
111.5252645909277
 10
117.8825853233583
 20
111.5396478643662
 10
117.900359862615
 20
111.5557644514451
 10
117.9165087474636
 20
111.5735066929321
 10
117.9309243186718
 20
111.5927346318252
 10
117.9434666192376
 20
111.6133190770456
 10
117.9540172240053
 20
111.6351523693609
 10
117.9624361759731
 20
111.6581053176924
 10
117.9686050499852
 20
111.682037965038
 10
117.9724054208863
 20
111.7068426521655
 10
117.9736973316742
 20
111.7323794220728
 10
117.9736973316742
 20
111.7323794220728
 10
117.9724054208863
 20
111.7579700215962
 10
117.9686050499852
 20
111.7828393042631
 10
117.9624254100498
 20
111.8068150153017
 10
117.9540172240053
 20
111.8298110273261
 10
117.9434666192376
 20
111.8516766174111
 10
117.930935084595
 20
111.8722825944779
 10
117.9165087474636
 20
111.8915428311407
 10
117.900359862615
 20
111.909295838551
 10
117.8825853233583
 20
111.9254339574763
 10
117.8633250866955
 20
111.9398172309148
 10
117.8427083437055
 20
111.9523379996341
 10
117.8208427536204
 20
111.9628563066322
 10
117.7978682734425
 20
111.9712644926767
 10
117.7739248601736
 20
111.9774226007656
 10
117.7491094071229
 20
111.9812014398202
 10
117.7235726372156
 20
111.9824933506081
 10
117.7235726372156
 20
111.9824933506081
 10
117.6980358673083
 20
111.9812122057435
 10
117.6732311801809
 20
111.9774118348424
 10
117.6492770009888
 20
111.9712644926767
 10
117.6263025208108
 20
111.9628670725554
 10
117.604447696649
 20
111.9523379996341
 10
117.5838201877357
 20
111.9398172309148
 10
117.5645491851497
 20
111.9254231915531
 10
117.5467854118162
 20
111.909295838551
 10
117.5306257610444
 20
111.8915428311407
 10
117.5162209557594
 20
111.8722933604012
 10
117.5036786551937
 20
111.8516658514879
 10
117.4931280504259
 20
111.8298002614029
 10
117.4847090984582
 20
111.8068150153017
 10
117.478540224446
 20
111.7828285383399
 10
117.4747398535449
 20
111.7579807875194
 10
117.473447942757
 20
111.7323794220728
 10
117.473447942757
 20
111.7323794220728
 10
117.4747398535449
 20
111.7068426521655
 10
117.478540224446
 20
111.682037965038
 10
117.4847198643814
 20
111.6581053176924
 10
117.4931280504259
 20
111.6351523693609
 10
117.5036786551937
 20
111.6133298429688
 10
117.5162209557594
 20
111.5927346318252
 10
117.5306257610444
 20
111.5735066929321
 10
117.5467854118162
 20
111.5557644514451
 10
117.5645491851497
 20
111.5396478643662
 10
117.5838201877357
 20
111.5252645909277
 10
117.6044369307258
 20
111.5127545881316
 10
117.6263025208108
 20
111.5022362811336
 10
117.6492662350655
 20
111.4938388610123
 10
117.6732204142576
 20
111.4876807529233
 10
117.6980358673083
 20
111.4839019138688
 10
117.7235726372156
 20
111.4826100030809
  0
HATCH
  5
85
330
1F
100
AcDbEntity
  8
ISS138金台
  6
Continuous
 62
   250
420
  2367521
370
    13
100
AcDbHatch
 10
0.0
 20
0.0
 30
0.0
210
0.0
220
0.0
230
1.0
  2
SOLID
 70
     1
 71
     0
 91
        1
 92
        3
 72
     0
 73
     1
 93
       67
 10
127.7997769977406
 20
111.4826100030809
 10
127.8253137676479
 20
111.4839019138688
 10
127.8501184547753
 20
111.4876807529233
 10
127.8740833998907
 20
111.4938496269355
 10
127.8970471141454
 20
111.5022470470568
 10
127.9189019383072
 20
111.5127653540549
 10
127.9395402131437
 20
111.5252645909277
 10
127.9587896838833
 20
111.5396478643662
 10
127.97656422314
 20
111.5557644514451
 10
127.9927238739118
 20
111.5735066929321
 10
128.0071286791968
 20
111.5927346318252
 10
128.0196709797626
 20
111.6133190770456
 10
128.0302215845303
 20
111.6351523693609
 10
128.0386405364981
 20
111.6581053176924
 10
128.0448094105102
 20
111.682037965038
 10
128.0486097814112
 20
111.7068426521655
 10
128.0499016921992
 20
111.7323794220728
 10
128.0499016921992
 20
111.7323794220728
 10
128.0486097814112
 20
111.7579700215962
 10
128.0448094105102
 20
111.7828393042631
 10
128.0386405364981
 20
111.8068150153017
 10
128.0302108186071
 20
111.8298110273261
 10
128.0196709797626
 20
111.8516766174111
 10
128.0071286791968
 20
111.8722825944779
 10
127.9927238739118
 20
111.8915428311407
 10
127.97656422314
 20
111.909295838551
 10
127.9588004498065
 20
111.9254339574763
 10
127.9395402131437
 20
111.9398172309148
 10
127.9189127042304
 20
111.9523379996341
 10
127.8970471141454
 20
111.9628563066322
 10
127.8740833998907
 20
111.9712644926767
 10
127.8501292206986
 20
111.9774226007656
 10
127.8253137676479
 20
111.9812014398202
 10
127.7997769977406
 20
111.9824933506081
 10
127.7997769977406
 20
111.9824933506081
 10
127.7742294619101
 20
111.9812122057435
 10
127.7494247747826
 20
111.9774118348424
 10
127.7254813615137
 20
111.9712644926767
 10
127.7025068813358
 20
111.9628670725554
 10
127.6806412912508
 20
111.9523379996341
 10
127.6600137823374
 20
111.9398172309148
 10
127.6407535456747
 20
111.9254231915531
 10
127.6229897723412
 20
111.909295838551
 10
127.6068408874926
 20
111.8915428311407
 10
127.5924253162844
 20
111.8722933604012
 10
127.5798830157186
 20
111.8516658514879
 10
127.5693324109509
 20
111.8298002614029
 10
127.5609134589831
 20
111.8068150153017
 10
127.5547445849709
 20
111.7828285383399
 10
127.5509442140699
 20
111.7579807875194
 10
127.549652303282
 20
111.7323794220728
 10
127.549652303282
 20
111.7323794220728
 10
127.5509442140699
 20
111.7068426521655
 10
127.5547338190477
 20
111.682037965038
 10
127.5609134589831
 20
111.6581053176924
 10
127.5693431768741
 20
111.6351523693609
 10
127.5798830157186
 20
111.6133298429688
 10
127.5924253162844
 20
111.5927346318252
 10
127.6068408874926
 20
111.5735066929321
 10
127.6229897723412
 20
111.5557644514451
 10
127.6407643115979
 20
111.5396478643662
 10
127.6600245482607
 20
111.5252645909277
 10
127.6806412912508
 20
111.5127545881316
 10
127.7025068813358
 20
111.5022362811336
 10
127.7254705955905
 20
111.4938388610123
 10
127.7494247747826
 20
111.4876807529233
 10
127.7742402278333
 20
111.4839019138688
 97
        0
 75
     1
 76
     1
 98
        0
  0
LWPOLYLINE
  5
86
330
1F
100
AcDbEntity
  8
ISS138金台
  6
Continuous
 62
   250
420
  2367521
370
    13
100
AcDbPolyline
 90
       68
 70
     0
 43
0.0
 10
127.7997769977406
 20
111.4826100030809
 10
127.8253137676479
 20
111.4839019138688
 10
127.8501184547753
 20
111.4876807529233
 10
127.8740833998907
 20
111.4938496269355
 10
127.8970471141454
 20
111.5022470470568
 10
127.9189019383072
 20
111.5127653540549
 10
127.9395402131437
 20
111.5252645909277
 10
127.9587896838833
 20
111.5396478643662
 10
127.97656422314
 20
111.5557644514451
 10
127.9927238739118
 20
111.5735066929321
 10
128.0071286791968
 20
111.5927346318252
 10
128.0196709797626
 20
111.6133190770456
 10
128.0302215845303
 20
111.6351523693609
 10
128.0386405364981
 20
111.6581053176924
 10
128.0448094105102
 20
111.682037965038
 10
128.0486097814112
 20
111.7068426521655
 10
128.0499016921992
 20
111.7323794220728
 10
128.0499016921992
 20
111.7323794220728
 10
128.0486097814112
 20
111.7579700215962
 10
128.0448094105102
 20
111.7828393042631
 10
128.0386405364981
 20
111.8068150153017
 10
128.0302108186071
 20
111.8298110273261
 10
128.0196709797626
 20
111.8516766174111
 10
128.0071286791968
 20
111.8722825944779
 10
127.9927238739118
 20
111.8915428311407
 10
127.97656422314
 20
111.909295838551
 10
127.9588004498065
 20
111.9254339574763
 10
127.9395402131437
 20
111.9398172309148
 10
127.9189127042304
 20
111.9523379996341
 10
127.8970471141454
 20
111.9628563066322
 10
127.8740833998907
 20
111.9712644926767
 10
127.8501292206986
 20
111.9774226007656
 10
127.8253137676479
 20
111.9812014398202
 10
127.7997769977406
 20
111.9824933506081
 10
127.7997769977406
 20
111.9824933506081
 10
127.7742294619101
 20
111.9812122057435
 10
127.7494247747826
 20
111.9774118348424
 10
127.7254813615137
 20
111.9712644926767
 10
127.7025068813358
 20
111.9628670725554
 10
127.6806412912508
 20
111.9523379996341
 10
127.6600137823374
 20
111.9398172309148
 10
127.6407535456747
 20
111.9254231915531
 10
127.6229897723412
 20
111.909295838551
 10
127.6068408874926
 20
111.8915428311407
 10
127.5924253162844
 20
111.8722933604012
 10
127.5798830157186
 20
111.8516658514879
 10
127.5693324109509
 20
111.8298002614029
 10
127.5609134589831
 20
111.8068150153017
 10
127.5547445849709
 20
111.7828285383399
 10
127.5509442140699
 20
111.7579807875194
 10
127.549652303282
 20
111.7323794220728
 10
127.549652303282
 20
111.7323794220728
 10
127.5509442140699
 20
111.7068426521655
 10
127.5547338190477
 20
111.682037965038
 10
127.5609134589831
 20
111.6581053176924
 10
127.5693431768741
 20
111.6351523693609
 10
127.5798830157186
 20
111.6133298429688
 10
127.5924253162844
 20
111.5927346318252
 10
127.6068408874926
 20
111.5735066929321
 10
127.6229897723412
 20
111.5557644514451
 10
127.6407643115979
 20
111.5396478643662
 10
127.6600245482607
 20
111.5252645909277
 10
127.6806412912508
 20
111.5127545881316
 10
127.7025068813358
 20
111.5022362811336
 10
127.7254705955905
 20
111.4938388610123
 10
127.7494247747826
 20
111.4876807529233
 10
127.7742402278333
 20
111.4839019138688
 10
127.7997769977406
 20
111.4826100030809
  0
TEXT
  5
87
330
1F
100
AcDbEntity
  8
ISS138金台
  6
Continuous
 62
   250
420
  2367521
100
AcDbText
 10
120.8107226559554
 20
112.2627766688813
 30
0.0
 40
2.150533301035563
  1
10
 41
0.9978761672973631
  7
MS Gothic
100
AcDbText
  0
TEXT
  5
88
330
1F
100
AcDbEntity
  8
ISS138金台
  6
Continuous
 62
   250
420
  2367521
100
AcDbText
 10
132.561563102441
 20
103.9492197993477
 30
0.0
 40
2.150533301035563
  1
3
 50
90.00000250447816
 41
0.8120040893554685
  7
MS Gothic
100
AcDbText
  0
TEXT
  5
89
330
1F
100
AcDbEntity
  8
ISS138金台
  6
Continuous
 62
   250
420
  2367521
100
AcDbText
 10
117.8513749119075
 20
93.52128525113153
 30
0.0
 40
2.150533301035563
  1
14
 41
1.012501716613769
  7
MS Gothic
100
AcDbText
  0
TEXT
  5
8A
330
1F
100
AcDbEntity
  8
ISS138金台
  6
Continuous
 62
   250
420
  2367521
100
AcDbText
 10
121.4045494496087
 20
93.52128525113153
 30
0.0
 40
2.150533301035563
  1
. 5
 41
0.5871692101160685
  7
MS Gothic
100
AcDbText
  0
LINE
  5
8B
330
1F
100
AcDbEntity
  8
ISS138金台
  6
UserDefined01
 62
   140
420
    44526
370
    13
100
AcDbLine
 10
122.7285965183465
 20
98.22416022390422
 30
0.0
 11
127.7338034201724
 21
98.22416022390422
 31
0.0
  0
TEXT
  5
8C
330
1F
100
AcDbEntity
  8
ISS138金台
  6
Continuous
 62
   140
420
    44526
100
AcDbText
 10
124.5060719758637
 20
99.01332410094106
 30
0.0
 40
1.881716638406118
  1
5
 41
1.010001046316964
  7
MS Gothic
100
AcDbText
  0
HATCH
  5
8D
330
1F
100
AcDbEntity
  8
ISS138金台
  6
Continuous
 62
   140
420
    44526
370
    13
100
AcDbHatch
 10
0.0
 20
0.0
 30
0.0
210
0.0
220
0.0
230
1.0
  2
SOLID
 70
     1
 71
     0
 91
        1
 92
        3
 72
     0
 73
     1
 93
        3
 10
121.8624887602224
 20
108.7776933227845
 10
123.594628915008
 20
108.7769827718512
 10
122.7292640055869
 20
107.2783877897463
 97
        0
 75
     1
 76
     1
 98
        0
  0
LWPOLYLINE
  5
8E
330
1F
100
AcDbEntity
  8
ISS138金台
  6
Continuous
 62
   140
420
    44526
370
    13
100
AcDbPolyline
 90
        4
 70
     0
 43
0.0
 10
121.8624887602224
 20
108.7776933227845
 10
123.594628915008
 20
108.7769827718512
 10
122.7292640055869
 20
107.2783877897463
 10
121.8624887602224
 20
108.7776933227845
  0
ENDSEC
  0
SECTION
  2
OBJECTS
  0
DICTIONARY
  5
C
330
0
100
AcDbDictionary
281
     1
  3
ACAD_DETAILVIEWSTYLE
350
96
  3
ACAD_GROUP
350
D
  3
ACAD_LAYOUT
350
1A
  3
ACAD_MATERIAL
350
43
  3
ACAD_MLEADERSTYLE
350
5B
  3
ACAD_MLINESTYLE
350
17
  3
ACAD_PLOTSETTINGS
350
19
  3
ACAD_PLOTSTYLENAME
350
E
  3
ACAD_SCALELIST
350
47
  3
ACAD_SECTIONVIEWSTYLE
350
97
  3
ACAD_TABLESTYLE
350
59
  3
ACAD_VISUALSTYLE
350
2A
  3
ACDB_RECOMPOSE_DATA
350
93
  3
AcDbVariableDictionary
350
8F
  0
SUN
  5
5D
330
29
100
AcDbSun
 90
        1
290
     0
 63
     7
421
 16777215
 40
1.0
291
     1
 91
  2455826
 92
 54000000
292
     0
 70
     2
 71
   256
280
     1
  0
DICTIONARY
  5
96
102
{ACAD_REACTORS
330
C
102
}
330
C
100
AcDbDictionary
281
     1
  0
DICTIONARY
  5
D
102
{ACAD_REACTORS
330
C
102
}
330
C
100
AcDbDictionary
281
     1
  0
DICTIONARY
  5
1A
102
{ACAD_REACTORS
330
C
102
}
330
C
100
AcDbDictionary
281
     1
  3
Layout1
350
1E
  3
Layout2
350
26
  3
Model
350
22
  0
DICTIONARY
  5
43
102
{ACAD_REACTORS
330
C
102
}
330
C
100
AcDbDictionary
281
     1
  3
ByBlock
350
45
  3
ByLayer
350
44
  3
Global
350
46
  0
DICTIONARY
  5
5B
102
{ACAD_REACTORS
330
C
102
}
330
C
100
AcDbDictionary
281
     1
  3
Standard
350
5C
  0
DICTIONARY
  5
17
102
{ACAD_REACTORS
330
C
102
}
330
C
100
AcDbDictionary
281
     1
  3
Standard
350
18
  0
DICTIONARY
  5
19
102
{ACAD_REACTORS
330
C
102
}
330
C
100
AcDbDictionary
281
     1
  0
ACDBDICTIONARYWDFLT
  5
E
102
{ACAD_REACTORS
330
C
102
}
330
C
100
AcDbDictionary
281
     1
  3
Normal
350
F
100
AcDbDictionaryWithDefault
340
F
  0
DICTIONARY
  5
47
102
{ACAD_REACTORS
330
C
102
}
330
C
100
AcDbDictionary
281
     1
  3
A0
350
48
  3
A1
350
49
  3
A2
350
4A
  3
A3
350
4B
  3
A4
350
4C
  3
A5
350
4D
  3
A6
350
4E
  3
A7
350
4F
  3
A8
350
50
  3
A9
350
51
  3
B0
350
52
  3
B1
350
53
  3
B2
350
54
  3
B3
350
55
  3
B4
350
56
  3
B5
350
57
  3
B6
350
58
  0
DICTIONARY
  5
97
102
{ACAD_REACTORS
330
C
102
}
330
C
100
AcDbDictionary
281
     1
  0
DICTIONARY
  5
59
102
{ACAD_REACTORS
330
C
102
}
330
C
100
AcDbDictionary
281
     1
  3
Standard
350
5A
  0
DICTIONARY
  5
2A
102
{ACAD_REACTORS
330
C
102
}
330
C
100
AcDbDictionary
281
     1
  3
2dWireframe
350
2F
  3
Basic
350
32
  3
Brighten
350
36
  3
ColorChange
350
3A
  3
Conceptual
350
34
  3
Dim
350
35
  3
EdgeColorOff
350
3D
  3
Facepattern
350
39
  3
Flat
350
2B
  3
FlatWithEdges
350
2C
  3
Gouraud
350
2D
  3
GouraudWithEdges
350
2E
  3
Hidden
350
31
  3
JitterOff
350
3B
  3
Linepattern
350
38
  3
OverhangOff
350
3C
  3
Realistic
350
33
  3
Shaded
350
42
  3
Shaded with edges
350
41
  3
Shades of Gray
350
3E
  3
Sketchy
350
3F
  3
Thicken
350
37
  3
Wireframe
350
30
  3
X-Ray
350
40
  0
XRECORD
  5
93
102
{ACAD_REACTORS
330
C
102
}
330
C
100
AcDbXrecord
280
     1
 90
        1
330
5A
  0
DICTIONARY
  5
8F
102
{ACAD_REACTORS
330
C
102
}
330
C
100
AcDbDictionary
281
     1
  3
CANNOSCALE
350
90
  3
CENTEREXE
350
98
  3
CENTERLTYPEFILE
350
99
  3
CMLEADERSTYLE
350
95
  3
CTABLESTYLE
350
94
  0
LAYOUT
  5
1E
102
{ACAD_REACTORS
330
1A
102
}
330
1A
100
AcDbPlotSettings
  1

  2
none_device
  4

  6

 40
0.0
 41
0.0
 42
0.0
 43
0.0
 44
0.0
 45
0.0
 46
0.0
 47
0.0
 48
0.0
 49
0.0
140
0.0
141
0.0
142
1.0
143
1.0
 70
   688
 72
     1
 73
     0
 74
     5
  7

 75
    16
 76
     0
 77
     5
 78
   300
147
1.0
148
0.0
149
0.0
100
AcDbLayout
  1
Layout1
 70
     1
 71
     1
 10
0.0
 20
0.0
 11
420.0
 21
297.0
 12
0.0
 22
0.0
 32
0.0
 14
1.000000000000000E+20
 24
1.000000000000000E+20
 34
1.000000000000000E+20
 15
-1.000000000000000E+20
 25
-1.000000000000000E+20
 35
-1.000000000000000E+20
146
0.0
 13
0.0
 23
0.0
 33
0.0
 16
1.0
 26
0.0
 36
0.0
 17
0.0
 27
1.0
 37
0.0
 76
     0
330
1B
  0
LAYOUT
  5
26
102
{ACAD_REACTORS
330
1A
102
}
330
1A
100
AcDbPlotSettings
  1

  2
none_device
  4

  6

 40
0.0
 41
0.0
 42
0.0
 43
0.0
 44
0.0
 45
0.0
 46
0.0
 47
0.0
 48
0.0
 49
0.0
140
0.0
141
0.0
142
1.0
143
1.0
 70
   688
 72
     1
 73
     0
 74
     5
  7

 75
    16
 76
     0
 77
     5
 78
   300
147
1.0
148
0.0
149
0.0
100
AcDbLayout
  1
Layout2
 70
     1
 71
     2
 10
0.0
 20
0.0
 11
0.0
 21
0.0
 12
0.0
 22
0.0
 32
0.0
 14
0.0
 24
0.0
 34
0.0
 15
0.0
 25
0.0
 35
0.0
146
0.0
 13
0.0
 23
0.0
 33
0.0
 16
1.0
 26
0.0
 36
0.0
 17
0.0
 27
1.0
 37
0.0
 76
     0
330
23
  0
LAYOUT
  5
22
102
{ACAD_REACTORS
330
1A
102
}
330
1A
100
AcDbPlotSettings
  1

  2
none_device
  4
Letter_(8.50_x_11.00_Inches)
  6

 40
6.35
 41
6.35
 42
6.35000508
 43
6.35000508
 44
215.9
 45
279.4
 46
0.0
 47
0.0
 48
0.0
 49
0.0
140
0.0
141
0.0
142
1.0
143
1.0
 70
  1712
 72
     1
 73
     0
 74
     0
  7

 75
     0
 76
     0
 77
     5
 78
   300
147
1.0
148
0.0
149
0.0
100
AcDbLayout
  1
Model
 70
     1
 71
     0
 10
0.0
 20
0.0
 11
302.9997823349792
 21
216.0016055409748
 12
0.0
 22
0.0
 32
0.0
 14
0.0
 24
0.0
 34
0.0
 15
302.9997823349792
 25
216.0016055409748
 35
0.0
146
0.0
 13
0.0
 23
0.0
 33
0.0
 16
1.0
 26
0.0
 36
0.0
 17
0.0
 27
1.0
 37
0.0
 76
     0
330
1F
331
29
  0
MATERIAL
  5
45
102
{ACAD_REACTORS
330
43
102
}
330
43
100
AcDbMaterial
  1
ByBlock
 72
     1
 94
      127
  0
MATERIAL
  5
44
102
{ACAD_REACTORS
330
43
102
}
330
43
100
AcDbMaterial
  1
ByLayer
 72
     1
 94
      127
  0
MATERIAL
  5
46
102
{ACAD_REACTORS
330
43
102
}
330
43
100
AcDbMaterial
  1
Global
 72
     1
 94
      127
  0
MLEADERSTYLE
  5
5C
102
{ACAD_REACTORS
330
5B
102
}
330
5B
100
AcDbMLeaderStyle
179
     2
170
     2
171
     1
172
     0
 90
        2
 40
0.0
 41
0.0
173
     1
 91
-1056964608
340
14
 92
       -2
290
     1
 42
2.0
291
     1
 43
8.0
  3
Standard
341
0
 44
4.0
300

342
11
174
     1
178
     6
175
     1
176
     0
 93
-1056964608
 45
4.0
292
     0
297
     0
 46
4.0
343
0
 94
-1056964608
 47
1.0
 49
1.0
140
1.0
293
     1
141
0.0
294
     1
177
     0
142
1.0
295
     0
296
     0
143
3.75
271
     0
272
     9
273
     9
298
     0
  0
MLINESTYLE
  5
18
102
{ACAD_REACTORS
330
17
102
}
330
17
100
AcDbMlineStyle
  2
Standard
 70
     0
  3

 62
   256
 51
90.0
 52
90.0
 71
     2
 49
0.5
 62
   256
  6
BYLAYER
 49
-0.5
 62
   256
  6
BYLAYER
  0
ACDBPLACEHOLDER
  5
F
102
{ACAD_REACTORS
330
E
102
}
330
E
  0
SCALE
  5
48
102
{ACAD_REACTORS
330
47
102
}
330
47
100
AcDbScale
 70
     0
300
1:1
140
1.0
141
1.0
290
     1
  0
SCALE
  5
49
102
{ACAD_REACTORS
330
47
102
}
330
47
100
AcDbScale
 70
     0
300
1:2
140
1.0
141
2.0
290
     0
  0
SCALE
  5
4A
102
{ACAD_REACTORS
330
47
102
}
330
47
100
AcDbScale
 70
     0
300
1:4
140
1.0
141
4.0
290
     0
  0
SCALE
  5
4B
102
{ACAD_REACTORS
330
47
102
}
330
47
100
AcDbScale
 70
     0
300
1:5
140
1.0
141
5.0
290
     0
  0
SCALE
  5
4C
102
{ACAD_REACTORS
330
47
102
}
330
47
100
AcDbScale
 70
     0
300
1:8
140
1.0
141
8.0
290
     0
  0
SCALE
  5
4D
102
{ACAD_REACTORS
330
47
102
}
330
47
100
AcDbScale
 70
     0
300
1:10
140
1.0
141
10.0
290
     0
  0
SCALE
  5
4E
102
{ACAD_REACTORS
330
47
102
}
330
47
100
AcDbScale
 70
     0
300
1:16
140
1.0
141
16.0
290
     0
  0
SCALE
  5
4F
102
{ACAD_REACTORS
330
47
102
}
330
47
100
AcDbScale
 70
     0
300
1:20
140
1.0
141
20.0
290
     0
  0
SCALE
  5
50
102
{ACAD_REACTORS
330
47
102
}
330
47
100
AcDbScale
 70
     0
300
1:30
140
1.0
141
30.0
290
     0
  0
SCALE
  5
51
102
{ACAD_REACTORS
330
47
102
}
330
47
100
AcDbScale
 70
     0
300
1:40
140
1.0
141
40.0
290
     0
  0
SCALE
  5
52
102
{ACAD_REACTORS
330
47
102
}
330
47
100
AcDbScale
 70
     0
300
1:50
140
1.0
141
50.0
290
     0
  0
SCALE
  5
53
102
{ACAD_REACTORS
330
47
102
}
330
47
100
AcDbScale
 70
     0
300
1:100
140
1.0
141
100.0
290
     0
  0
SCALE
  5
54
102
{ACAD_REACTORS
330
47
102
}
330
47
100
AcDbScale
 70
     0
300
2:1
140
2.0
141
1.0
290
     0
  0
SCALE
  5
55
102
{ACAD_REACTORS
330
47
102
}
330
47
100
AcDbScale
 70
     0
300
4:1
140
4.0
141
1.0
290
     0
  0
SCALE
  5
56
102
{ACAD_REACTORS
330
47
102
}
330
47
100
AcDbScale
 70
     0
300
8:1
140
8.0
141
1.0
290
     0
  0
SCALE
  5
57
102
{ACAD_REACTORS
330
47
102
}
330
47
100
AcDbScale
 70
     0
300
10:1
140
10.0
141
1.0
290
     0
  0
SCALE
  5
58
102
{ACAD_REACTORS
330
47
102
}
330
47
100
AcDbScale
 70
     0
300
100:1
140
100.0
141
1.0
290
     0
  0
TABLESTYLE
  5
5A
102
{ACAD_REACTORS
330
59
102
}
102
{ACAD_XDICTIONARY
360
91
102
}
330
59
100
AcDbTableStyle
  3
Standard
 70
     0
 71
     0
 40
0.06
 41
0.06
280
     0
281
     0
  7
Standard
140
4.5
170
     2
 62
     0
 63
   257
283
     0
 90
        4
 91
        0
  1

274
    -2
284
     1
 64
     0
275
    -2
285
     1
 65
     0
276
    -2
286
     1
 66
     0
277
    -2
287
     1
 67
     0
278
    -2
288
     1
 68
     0
279
    -2
289
     1
 69
     0
  7
Standard
140
6.0
170
     5
 62
     0
 63
   257
283
     0
 90
        4
 91
        0
  1

274
    -2
284
     1
 64
     0
275
    -2
285
     1
 65
     0
276
    -2
286
     1
 66
     0
277
    -2
287
     1
 67
     0
278
    -2
288
     1
 68
     0
279
    -2
289
     1
 69
     0
  7
Standard
140
4.5
170
     5
 62
     0
 63
   257
283
     0
 90
        4
 91
        0
  1

274
    -2
284
     1
 64
     0
275
    -2
285
     1
 65
     0
276
    -2
286
     1
 66
     0
277
    -2
287
     1
 67
     0
278
    -2
288
     1
 68
     0
279
    -2
289
     1
 69
     0
  0
VISUALSTYLE
  5
2F
102
{ACAD_REACTORS
330
2A
102
}
330
2A
100
AcDbVisualStyle
  2
2dWireframe
 70
     4
177
     3
291
     0
 70
    58
 90
        0
176
     1
 90
        2
176
     1
 90
        0
176
     1
 90
        0
176
     1
 40
0.6
176
     1
 40
30.0
176
     1
 62
     7
420
 16777215
176
     1
 90
        1
176
     1
 90
        4
176
     1
 62
     7
176
     1
 62
   257
176
     1
 90
        1
176
     1
 90
        1
176
     1
 40
1.0
176
     1
 90
        0
176
     1
 62
   257
176
     1
 40
1.0
176
     1
 90
        1
176
     1
 90
        6
176
     1
 90
        2
176
     1
 62
     7
176
     1
 90
        5
176
     1
 90
        0
176
     1
 90
        0
176
     1
290
     0
176
     1
 90
        1
176
     1
 40
0.0
176
     1
 90
        0
176
     1
290
     1
176
     1
290
     1
176
     1
290
     0
176
     1
290
     0
176
     1
290
     0
176
     1
290
     0
176
     1
290
     0
176
     1
290
     0
176
     1
290
     0
176
     1
 90
       50
176
     1
 40
0.0
176
     1
 40
1.0
176
     1
 90
        0
176
     1
 62
    18
420
        0
176
     1
 90
       50
176
     1
 90
        3
176
     1
 62
     5
420
      255
176
     1
290
     0
176
     1
 90
       50
176
     1
 90
       50
176
     1
 90
       50
176
     1
290
     0
176
     1
 90
       50
176
     1
 62
   256
176
     0
 40
1.0
176
     0
 90
        2
176
     1
  1
strokes_ogs.tif
176
     1
290
     0
176
     1
 40
1.0
176
     1
 40
1.0
176
     1
  0
VISUALSTYLE
  5
32
102
{ACAD_REACTORS
330
2A
102
}
330
2A
100
AcDbVisualStyle
  2
Basic
 70
     7
177
     3
291
     1
 70
    58
 90
        1
176
     1
 90
        0
176
     1
 90
        1
176
     1
 90
        0
176
     1
 40
0.6
176
     1
 40
30.0
176
     1
 62
     7
420
 16777215
176
     1
 90
        0
176
     1
 90
        4
176
     1
 62
     7
176
     1
 62
   257
176
     1
 90
        1
176
     1
 90
        1
176
     1
 40
1.0
176
     1
 90
        8
176
     1
 62
     7
176
     1
 40
1.0
176
     1
 90
        1
176
     1
 90
        6
176
     1
 90
        2
176
     1
 62
     7
176
     1
 90
        5
176
     1
 90
        0
176
     1
 90
        0
176
     1
290
     0
176
     1
 90
        1
176
     1
 40
0.0
176
     1
 90
        0
176
     1
290
     0
176
     1
290
     1
176
     1
290
     1
176
     1
290
     0
176
     1
290
     0
176
     1
290
     0
176
     1
290
     0
176
     1
290
     0
176
     1
290
     0
176
     1
 90
       50
176
     1
 40
0.0
176
     1
 40
1.0
176
     1
 90
        0
176
     1
 62
    18
420
        0
176
     1
 90
       50
176
     1
 90
        3
176
     1
 62
     5
420
      255
176
     1
290
     0
176
     1
 90
       50
176
     1
 90
       50
176
     1
 90
       50
176
     1
290
     0
176
     1
 90
       50
176
     1
 62
   256
176
     0
 40
1.0
176
     0
 90
        2
176
     1
  1
strokes_ogs.tif
176
     1
290
     0
176
     1
 40
1.0
176
     1
 40
1.0
176
     1
  0
VISUALSTYLE
  5
36
102
{ACAD_REACTORS
330
2A
102
}
330
2A
100
AcDbVisualStyle
  2
Brighten
 70
    12
177
     3
291
     1
 70
    58
 90
        2
176
     1
 90
        2
176
     1
 90
        0
176
     1
 90
        0
176
     1
 40
0.6
176
     1
 40
30.0
176
     1
 62
     7
420
 16777215
176
     1
 90
        1
176
     1
 90
        4
176
     1
 62
     7
176
     1
 62
   257
176
     1
 90
        1
176
     1
 90
        1
176
     1
 40
1.0
176
     1
 90
        8
176
     1
 62
     7
176
     1
 40
1.0
176
     1
 90
        1
176
     1
 90
        6
176
     1
 90
        2
176
     1
 62
     7
176
     1
 90
        5
176
     1
 90
        0
176
     1
 90
        0
176
     1
290
     0
176
     1
 90
        1
176
     1
 40
50.0
176
     1
 90
        0
176
     1
290
     0
176
     1
290
     1
176
     1
290
     1
176
     1
290
     0
176
     1
290
     0
176
     1
290
     0
176
     1
290
     0
176
     1
290
     0
176
     1
290
     0
176
     1
 90
       50
176
     1
 40
0.0
176
     1
 40
1.0
176
     1
 90
        0
176
     1
 62
    18
420
        0
176
     1
 90
       50
176
     1
 90
        3
176
     1
 62
     5
420
      255
176
     1
290
     0
176
     1
 90
       50
176
     1
 90
       50
176
     1
 90
       50
176
     1
290
     0
176
     1
 90
       50
176
     1
 62
   256
176
     0
 40
1.0
176
     0
 90
        2
176
     1
  1
strokes_ogs.tif
176
     1
290
     0
176
     1
 40
1.0
176
     1
 40
1.0
176
     1
  0
VISUALSTYLE
  5
3A
102
{ACAD_REACTORS
330
2A
102
}
330
2A
100
AcDbVisualStyle
  2
ColorChange
 70
    16
177
     3
291
     1
 70
    58
 90
        2
176
     1
 90
        2
176
     1
 90
        3
176
     1
 90
        0
176
     1
 40
0.6
176
     1
 40
30.0
176
     1
 62
     8
420
  8421504
176
     1
 90
        1
176
     1
 90
        4
176
     1
 62
     7
176
     1
 62
   257
176
     1
 90
        1
176
     1
 90
        1
176
     1
 40
1.0
176
     1
 90
        8
176
     1
 62
     8
420
  8421504
176
     1
 40
1.0
176
     1
 90
        1
176
     1
 90
        6
176
     1
 90
        2
176
     1
 62
     7
176
     1
 90
        5
176
     1
 90
        0
176
     1
 90
        0
176
     1
290
     0
176
     1
 90
        1
176
     1
 40
0.0
176
     1
 90
        0
176
     1
290
     0
176
     1
290
     1
176
     1
290
     1
176
     1
290
     0
176
     1
290
     0
176
     1
290
     0
176
     1
290
     0
176
     1
290
     0
176
     1
290
     0
176
     1
 90
       50
176
     1
 40
0.0
176
     1
 40
1.0
176
     1
 90
        0
176
     1
 62
    18
420
        0
176
     1
 90
       50
176
     1
 90
        3
176
     1
 62
     5
420
      255
176
     1
290
     0
176
     1
 90
       50
176
     1
 90
       50
176
     1
 90
       50
176
     1
290
     0
176
     1
 90
       50
176
     1
 62
   256
176
     0
 40
1.0
176
     0
 90
        2
176
     1
  1
strokes_ogs.tif
176
     1
290
     0
176
     1
 40
1.0
176
     1
 40
1.0
176
     1
  0
VISUALSTYLE
  5
34
102
{ACAD_REACTORS
330
2A
102
}
330
2A
100
AcDbVisualStyle
  2
Conceptual
 70
     9
177
     3
291
     0
 70
    58
 90
        3
176
     1
 90
        2
176
     1
 90
        0
176
     1
 90
        0
176
     1
 40
0.6
176
     1
 40
30.0
176
     1
 62
     7
420
 16777215
176
     1
 90
        2
176
     1
 90
        2
176
     1
 62
     7
176
     1
 62
   257
176
     1
 90
        1
176
     1
 90
        1
176
     1
 40
179.0
176
     1
 90
        8
176
     1
 62
     7
176
     1
 40
1.0
176
     1
 90
        1
176
     1
 90
        6
176
     1
 90
        2
176
     1
 62
     7
176
     1
 90
        3
176
     1
 90
        0
176
     1
 90
        0
176
     1
290
     0
176
     1
 90
        1
176
     1
 40
0.0
176
     1
 90
        0
176
     1
290
     0
176
     1
290
     1
176
     1
290
     1
176
     1
290
     0
176
     1
290
     0
176
     1
290
     0
176
     1
290
     0
176
     1
290
     0
176
     1
290
     0
176
     1
 90
       50
176
     1
 40
0.0
176
     1
 40
1.0
176
     1
 90
        0
176
     1
 62
    18
420
        0
176
     1
 90
       50
176
     1
 90
        3
176
     1
 62
     5
420
      255
176
     1
290
     0
176
     1
 90
       50
176
     1
 90
       50
176
     1
 90
       50
176
     1
290
     0
176
     1
 90
       50
176
     1
 62
   256
176
     0
 40
1.0
176
     0
 90
        2
176
     1
  1
strokes_ogs.tif
176
     1
290
     0
176
     1
 40
1.0
176
     1
 40
1.0
176
     1
  0
VISUALSTYLE
  5
35
102
{ACAD_REACTORS
330
2A
102
}
330
2A
100
AcDbVisualStyle
  2
Dim
 70
    11
177
     3
291
     1
 70
    58
 90
        2
176
     1
 90
        2
176
     1
 90
        0
176
     1
 90
        0
176
     1
 40
0.6
176
     1
 40
30.0
176
     1
 62
     7
420
 16777215
176
     1
 90
        1
176
     1
 90
        4
176
     1
 62
     7
176
     1
 62
   257
176
     1
 90
        1
176
     1
 90
        1
176
     1
 40
1.0
176
     1
 90
        8
176
     1
 62
     7
176
     1
 40
1.0
176
     1
 90
        1
176
     1
 90
        6
176
     1
 90
        2
176
     1
 62
     7
176
     1
 90
        5
176
     1
 90
        0
176
     1
 90
        0
176
     1
290
     0
176
     1
 90
        1
176
     1
 40
-50.0
176
     1
 90
        0
176
     1
290
     0
176
     1
290
     1
176
     1
290
     1
176
     1
290
     0
176
     1
290
     0
176
     1
290
     0
176
     1
290
     0
176
     1
290
     0
176
     1
290
     0
176
     1
 90
       50
176
     1
 40
0.0
176
     1
 40
1.0
176
     1
 90
        0
176
     1
 62
    18
420
        0
176
     1
 90
       50
176
     1
 90
        3
176
     1
 62
     5
420
      255
176
     1
290
     0
176
     1
 90
       50
176
     1
 90
       50
176
     1
 90
       50
176
     1
290
     0
176
     1
 90
       50
176
     1
 62
   256
176
     0
 40
1.0
176
     0
 90
        2
176
     1
  1
strokes_ogs.tif
176
     1
290
     0
176
     1
 40
1.0
176
     1
 40
1.0
176
     1
  0
VISUALSTYLE
  5
3D
102
{ACAD_REACTORS
330
2A
102
}
330
2A
100
AcDbVisualStyle
  2
EdgeColorOff
 70
    22
177
     3
291
     1
 70
    58
 90
        2
176
     0
 90
        2
176
     0
 90
        0
176
     0
 90
        0
176
     0
 40
0.6
176
     0
 40
30.0
176
     0
 62
     7
420
 16777215
176
     0
 90
        1
176
     0
 90
        4
176
     0
 62
     7
176
     0
 62
   257
176
     0
 90
        1
176
     0
 90
        1
176
     0
 40
1.0
176
     0
 90
        8
176
     2
 62
     7
176
     0
 40
1.0
176
     0
 90
        1
176
     0
 90
        6
176
     0
 90
        2
176
     0
 62
     7
176
     0
 90
        5
176
     0
 90
        0
176
     0
 90
        0
176
     0
290
     0
176
     0
 90
        1
176
     0
 40
0.0
176
     0
 90
        0
176
     0
290
     0
176
     0
290
     1
176
     0
290
     1
176
     0
290
     0
176
     0
290
     0
176
     0
290
     0
176
     0
290
     0
176
     0
290
     0
176
     0
290
     0
176
     0
 90
       50
176
     0
 40
0.0
176
     0
 40
1.0
176
     0
 90
        0
176
     0
 62
    18
420
        0
176
     0
 90
       50
176
     0
 90
        3
176
     0
 62
     5
420
      255
176
     0
290
     0
176
     0
 90
       50
176
     0
 90
       50
176
     0
 90
       50
176
     0
290
     0
176
     0
 90
       50
176
     0
 62
   256
176
     0
 40
1.0
176
     0
 90
        2
176
     0
  1
strokes_ogs.tif
176
     0
290
     0
176
     0
 40
1.0
176
     0
 40
1.0
176
     0
  0
VISUALSTYLE
  5
39
102
{ACAD_REACTORS
330
2A
102
}
330
2A
100
AcDbVisualStyle
  2
Facepattern
 70
    15
177
     3
291
     1
 70
    58
 90
        2
176
     1
 90
        2
176
     1
 90
        0
176
     1
 90
        0
176
     1
 40
0.6
176
     1
 40
30.0
176
     1
 62
     7
420
 16777215
176
     1
 90
        1
176
     1
 90
        4
176
     1
 62
     7
176
     1
 62
   257
176
     1
 90
        1
176
     1
 90
        1
176
     1
 40
1.0
176
     1
 90
        8
176
     1
 62
     7
176
     1
 40
1.0
176
     1
 90
        1
176
     1
 90
        6
176
     1
 90
        2
176
     1
 62
     7
176
     1
 90
        5
176
     1
 90
        0
176
     1
 90
        0
176
     1
290
     0
176
     1
 90
        1
176
     1
 40
0.0
176
     1
 90
        0
176
     1
290
     0
176
     1
290
     1
176
     1
290
     1
176
     1
290
     0
176
     1
290
     0
176
     1
290
     0
176
     1
290
     0
176
     1
290
     0
176
     1
290
     0
176
     1
 90
       50
176
     1
 40
0.0
176
     1
 40
1.0
176
     1
 90
        0
176
     1
 62
    18
420
        0
176
     1
 90
       50
176
     1
 90
        3
176
     1
 62
     5
420
      255
176
     1
290
     0
176
     1
 90
       50
176
     1
 90
       50
176
     1
 90
       50
176
     1
290
     0
176
     1
 90
       50
176
     1
 62
   256
176
     0
 40
1.0
176
     0
 90
        2
176
     1
  1
strokes_ogs.tif
176
     1
290
     0
176
     1
 40
1.0
176
     1
 40
1.0
176
     1
  0
VISUALSTYLE
  5
2B
102
{ACAD_REACTORS
330
2A
102
}
330
2A
100
AcDbVisualStyle
  2
Flat
 70
     0
177
     3
291
     1
 70
    58
 90
        2
176
     1
 90
        1
176
     1
 90
        1
176
     1
 90
        2
176
     1
 40
0.6
176
     1
 40
30.0
176
     1
 62
     7
420
 16777215
176
     1
 90
        0
176
     1
 90
        0
176
     1
 62
     7
176
     1
 62
   257
176
     1
 90
        1
176
     1
 90
        1
176
     1
 40
1.0
176
     1
 90
        8
176
     1
 62
     7
176
     1
 40
1.0
176
     1
 90
        1
176
     1
 90
        6
176
     1
 90
        2
176
     1
 62
     7
176
     1
 90
        5
176
     1
 90
        0
176
     1
 90
        0
176
     1
290
     0
176
     1
 90
       13
176
     1
 40
0.0
176
     1
 90
        0
176
     1
290
     0
176
     1
290
     1
176
     1
290
     1
176
     1
290
     0
176
     1
290
     0
176
     1
290
     0
176
     1
290
     0
176
     1
290
     0
176
     1
290
     0
176
     1
 90
       50
176
     1
 40
0.0
176
     1
 40
1.0
176
     1
 90
        0
176
     1
 62
    18
420
        0
176
     1
 90
       50
176
     1
 90
        3
176
     1
 62
     5
420
      255
176
     1
290
     0
176
     1
 90
       50
176
     1
 90
       50
176
     1
 90
       50
176
     1
290
     0
176
     1
 90
       50
176
     1
 62
   256
176
     0
 40
1.0
176
     0
 90
        2
176
     1
  1
strokes_ogs.tif
176
     1
290
     0
176
     1
 40
1.0
176
     1
 40
1.0
176
     1
  0
VISUALSTYLE
  5
2C
102
{ACAD_REACTORS
330
2A
102
}
330
2A
100
AcDbVisualStyle
  2
FlatWithEdges
 70
     1
177
     3
291
     1
 70
    58
 90
        2
176
     1
 90
        1
176
     1
 90
        1
176
     1
 90
        2
176
     1
 40
0.6
176
     1
 40
30.0
176
     1
 62
     7
420
 16777215
176
     1
 90
        1
176
     1
 90
        0
176
     1
 62
     7
176
     1
 62
   257
176
     1
 90
        1
176
     1
 90
        1
176
     1
 40
1.0
176
     1
 90
        0
176
     1
 62
   257
176
     1
 40
1.0
176
     1
 90
        1
176
     1
 90
        6
176
     1
 90
        2
176
     1
 62
     7
176
     1
 90
        5
176
     1
 90
        0
176
     1
 90
        0
176
     1
290
     0
176
     1
 90
       13
176
     1
 40
0.0
176
     1
 90
        0
176
     1
290
     0
176
     1
290
     1
176
     1
290
     1
176
     1
290
     0
176
     1
290
     0
176
     1
290
     0
176
     1
290
     0
176
     1
290
     0
176
     1
290
     0
176
     1
 90
       50
176
     1
 40
0.0
176
     1
 40
1.0
176
     1
 90
        0
176
     1
 62
    18
420
        0
176
     1
 90
       50
176
     1
 90
        3
176
     1
 62
     5
420
      255
176
     1
290
     0
176
     1
 90
       50
176
     1
 90
       50
176
     1
 90
       50
176
     1
290
     0
176
     1
 90
       50
176
     1
 62
   256
176
     0
 40
1.0
176
     0
 90
        2
176
     1
  1
strokes_ogs.tif
176
     1
290
     0
176
     1
 40
1.0
176
     1
 40
1.0
176
     1
  0
VISUALSTYLE
  5
2D
102
{ACAD_REACTORS
330
2A
102
}
330
2A
100
AcDbVisualStyle
  2
Gouraud
 70
     2
177
     3
291
     1
 70
    58
 90
        2
176
     1
 90
        2
176
     1
 90
        1
176
     1
 90
        2
176
     1
 40
0.6
176
     1
 40
30.0
176
     1
 62
     7
420
 16777215
176
     1
 90
        0
176
     1
 90
        0
176
     1
 62
     7
176
     1
 62
   257
176
     1
 90
        1
176
     1
 90
        1
176
     1
 40
1.0
176
     1
 90
        0
176
     1
 62
     7
176
     1
 40
1.0
176
     1
 90
        1
176
     1
 90
        6
176
     1
 90
        2
176
     1
 62
     7
176
     1
 90
        5
176
     1
 90
        0
176
     1
 90
        0
176
     1
290
     0
176
     1
 90
       13
176
     1
 40
0.0
176
     1
 90
        0
176
     1
290
     0
176
     1
290
     1
176
     1
290
     1
176
     1
290
     0
176
     1
290
     0
176
     1
290
     0
176
     1
290
     0
176
     1
290
     0
176
     1
290
     0
176
     1
 90
       50
176
     1
 40
0.0
176
     1
 40
1.0
176
     1
 90
        0
176
     1
 62
    18
420
        0
176
     1
 90
       50
176
     1
 90
        3
176
     1
 62
     5
420
      255
176
     1
290
     0
176
     1
 90
       50
176
     1
 90
       50
176
     1
 90
       50
176
     1
290
     0
176
     1
 90
       50
176
     1
 62
   256
176
     0
 40
1.0
176
     0
 90
        2
176
     1
  1
strokes_ogs.tif
176
     1
290
     0
176
     1
 40
1.0
176
     1
 40
1.0
176
     1
  0
VISUALSTYLE
  5
2E
102
{ACAD_REACTORS
330
2A
102
}
330
2A
100
AcDbVisualStyle
  2
GouraudWithEdges
 70
     3
177
     3
291
     1
 70
    58
 90
        2
176
     1
 90
        2
176
     1
 90
        1
176
     1
 90
        2
176
     1
 40
0.6
176
     1
 40
30.0
176
     1
 62
     7
420
 16777215
176
     1
 90
        1
176
     1
 90
        0
176
     1
 62
     7
176
     1
 62
   257
176
     1
 90
        1
176
     1
 90
        1
176
     1
 40
1.0
176
     1
 90
        0
176
     1
 62
   257
176
     1
 40
1.0
176
     1
 90
        1
176
     1
 90
        6
176
     1
 90
        2
176
     1
 62
     7
176
     1
 90
        5
176
     1
 90
        0
176
     1
 90
        0
176
     1
290
     0
176
     1
 90
       13
176
     1
 40
0.0
176
     1
 90
        0
176
     1
290
     0
176
     1
290
     1
176
     1
290
     1
176
     1
290
     0
176
     1
290
     0
176
     1
290
     0
176
     1
290
     0
176
     1
290
     0
176
     1
290
     0
176
     1
 90
       50
176
     1
 40
0.0
176
     1
 40
1.0
176
     1
 90
        0
176
     1
 62
    18
420
        0
176
     1
 90
       50
176
     1
 90
        3
176
     1
 62
     5
420
      255
176
     1
290
     0
176
     1
 90
       50
176
     1
 90
       50
176
     1
 90
       50
176
     1
290
     0
176
     1
 90
       50
176
     1
 62
   256
176
     0
 40
1.0
176
     0
 90
        2
176
     1
  1
strokes_ogs.tif
176
     1
290
     0
176
     1
 40
1.0
176
     1
 40
1.0
176
     1
  0
VISUALSTYLE
  5
31
102
{ACAD_REACTORS
330
2A
102
}
330
2A
100
AcDbVisualStyle
  2
Hidden
 70
     6
177
     3
291
     0
 70
    58
 90
        1
176
     1
 90
        2
176
     1
 90
        2
176
     1
 90
        0
176
     1
 40
0.6
176
     1
 40
30.0
176
     1
 62
     7
420
 16777215
176
     1
 90
        2
176
     1
 90
        2
176
     1
 62
     7
176
     1
 62
   257
176
     1
 90
        2
176
     1
 90
        1
176
     1
 40
40.0
176
     1
 90
        0
176
     1
 62
   257
176
     1
 40
1.0
176
     1
 90
        1
176
     1
 90
        6
176
     1
 90
        2
176
     1
 62
     7
176
     1
 90
        3
176
     1
 90
        0
176
     1
 90
        0
176
     1
290
     0
176
     1
 90
        1
176
     1
 40
0.0
176
     1
 90
        0
176
     1
290
     0
176
     1
290
     1
176
     1
290
     1
176
     1
290
     0
176
     1
290
     0
176
     1
290
     0
176
     1
290
     0
176
     1
290
     0
176
     1
290
     0
176
     1
 90
       50
176
     1
 40
0.0
176
     1
 40
1.0
176
     1
 90
        0
176
     1
 62
    18
420
        0
176
     1
 90
       50
176
     1
 90
        3
176
     1
 62
     5
420
      255
176
     1
290
     0
176
     1
 90
       50
176
     1
 90
       50
176
     1
 90
       50
176
     1
290
     0
176
     1
 90
       50
176
     1
 62
   256
176
     0
 40
1.0
176
     0
 90
        2
176
     1
  1
strokes_ogs.tif
176
     1
290
     0
176
     1
 40
1.0
176
     1
 40
1.0
176
     1
  0
VISUALSTYLE
  5
3B
102
{ACAD_REACTORS
330
2A
102
}
330
2A
100
AcDbVisualStyle
  2
JitterOff
 70
    20
177
     3
291
     1
 70
    58
 90
        2
176
     0
 90
        2
176
     0
 90
        0
176
     0
 90
        0
176
     0
 40
0.6
176
     0
 40
30.0
176
     0
 62
     7
420
 16777215
176
     0
 90
        1
176
     0
 90
        4
176
     0
 62
     7
176
     0
 62
   257
176
     0
 90
        1
176
     0
 90
        1
176
     0
 40
1.0
176
     0
 90
       10
176
     2
 62
     7
176
     0
 40
1.0
176
     0
 90
        1
176
     0
 90
        6
176
     0
 90
        2
176
     0
 62
     7
176
     0
 90
        5
176
     0
 90
        0
176
     0
 90
        0
176
     0
290
     0
176
     0
 90
        1
176
     0
 40
0.0
176
     0
 90
        0
176
     0
290
     0
176
     0
290
     1
176
     0
290
     1
176
     0
290
     0
176
     0
290
     0
176
     0
290
     0
176
     0
290
     0
176
     0
290
     0
176
     0
290
     0
176
     0
 90
       50
176
     0
 40
0.0
176
     0
 40
1.0
176
     0
 90
        0
176
     0
 62
    18
420
        0
176
     0
 90
       50
176
     0
 90
        3
176
     0
 62
     5
420
      255
176
     0
290
     0
176
     0
 90
       50
176
     0
 90
       50
176
     0
 90
       50
176
     0
290
     0
176
     0
 90
       50
176
     0
 62
   256
176
     0
 40
1.0
176
     0
 90
        2
176
     0
  1
strokes_ogs.tif
176
     0
290
     0
176
     0
 40
1.0
176
     0
 40
1.0
176
     0
  0
VISUALSTYLE
  5
38
102
{ACAD_REACTORS
330
2A
102
}
330
2A
100
AcDbVisualStyle
  2
Linepattern
 70
    14
177
     3
291
     1
 70
    58
 90
        2
176
     1
 90
        2
176
     1
 90
        0
176
     1
 90
        0
176
     1
 40
0.6
176
     1
 40
30.0
176
     1
 62
     7
420
 16777215
176
     1
 90
        1
176
     1
 90
        4
176
     1
 62
     7
176
     1
 62
   257
176
     1
 90
        7
176
     1
 90
        7
176
     1
 40
1.0
176
     1
 90
        8
176
     1
 62
     7
176
     1
 40
1.0
176
     1
 90
        1
176
     1
 90
        6
176
     1
 90
        2
176
     1
 62
     7
176
     1
 90
        5
176
     1
 90
        0
176
     1
 90
        0
176
     1
290
     0
176
     1
 90
        1
176
     1
 40
0.0
176
     1
 90
        0
176
     1
290
     0
176
     1
290
     1
176
     1
290
     1
176
     1
290
     0
176
     1
290
     0
176
     1
290
     0
176
     1
290
     0
176
     1
290
     0
176
     1
290
     0
176
     1
 90
       50
176
     1
 40
0.0
176
     1
 40
1.0
176
     1
 90
        0
176
     1
 62
    18
420
        0
176
     1
 90
       50
176
     1
 90
        3
176
     1
 62
     5
420
      255
176
     1
290
     0
176
     1
 90
       50
176
     1
 90
       50
176
     1
 90
       50
176
     1
290
     0
176
     1
 90
       50
176
     1
 62
   256
176
     0
 40
1.0
176
     0
 90
        2
176
     1
  1
strokes_ogs.tif
176
     1
290
     0
176
     1
 40
1.0
176
     1
 40
1.0
176
     1
  0
VISUALSTYLE
  5
3C
102
{ACAD_REACTORS
330
2A
102
}
330
2A
100
AcDbVisualStyle
  2
OverhangOff
 70
    21
177
     3
291
     1
 70
    58
 90
        2
176
     0
 90
        2
176
     0
 90
        0
176
     0
 90
        0
176
     0
 40
0.6
176
     0
 40
30.0
176
     0
 62
     7
420
 16777215
176
     0
 90
        1
176
     0
 90
        4
176
     0
 62
     7
176
     0
 62
   257
176
     0
 90
        1
176
     0
 90
        1
176
     0
 40
1.0
176
     0
 90
        9
176
     2
 62
     7
176
     0
 40
1.0
176
     0
 90
        1
176
     0
 90
        6
176
     0
 90
        2
176
     0
 62
     7
176
     0
 90
        5
176
     0
 90
        0
176
     0
 90
        0
176
     0
290
     0
176
     0
 90
        1
176
     0
 40
0.0
176
     0
 90
        0
176
     0
290
     0
176
     0
290
     1
176
     0
290
     1
176
     0
290
     0
176
     0
290
     0
176
     0
290
     0
176
     0
290
     0
176
     0
290
     0
176
     0
290
     0
176
     0
 90
       50
176
     0
 40
0.0
176
     0
 40
1.0
176
     0
 90
        0
176
     0
 62
    18
420
        0
176
     0
 90
       50
176
     0
 90
        3
176
     0
 62
     5
420
      255
176
     0
290
     0
176
     0
 90
       50
176
     0
 90
       50
176
     0
 90
       50
176
     0
290
     0
176
     0
 90
       50
176
     0
 62
   256
176
     0
 40
1.0
176
     0
 90
        2
176
     0
  1
strokes_ogs.tif
176
     0
290
     0
176
     0
 40
1.0
176
     0
 40
1.0
176
     0
  0
VISUALSTYLE
  5
33
102
{ACAD_REACTORS
330
2A
102
}
330
2A
100
AcDbVisualStyle
  2
Realistic
 70
     8
177
     3
291
     0
 70
    58
 90
        2
176
     1
 90
        3
176
     1
 90
        0
176
     1
 90
        2
176
     1
 40
0.6
176
     1
 40
30.0
176
     1
 62
     7
420
 16777215
176
     1
 90
        0
176
     1
 90
        0
176
     1
 62
     7
176
     1
 62
   257
176
     1
 90
        1
176
     1
 90
        1
176
     1
 40
1.0
176
     1
 90
        8
176
     1
 62
   257
176
     1
 40
1.0
176
     1
 90
        1
176
     1
 90
        6
176
     1
 90
        2
176
     1
 62
     7
176
     1
 90
        3
176
     1
 90
        0
176
     1
 90
        0
176
     1
290
     0
176
     1
 90
       13
176
     1
 40
0.0
176
     1
 90
        0
176
     1
290
     0
176
     1
290
     1
176
     1
290
     1
176
     1
290
     0
176
     1
290
     0
176
     1
290
     0
176
     1
290
     0
176
     1
290
     0
176
     1
290
     0
176
     1
 90
       50
176
     1
 40
0.0
176
     1
 40
1.0
176
     1
 90
        0
176
     1
 62
    18
420
        0
176
     1
 90
       50
176
     1
 90
        3
176
     1
 62
     5
420
      255
176
     1
290
     0
176
     1
 90
       50
176
     1
 90
       50
176
     1
 90
       50
176
     1
290
     0
176
     1
 90
       50
176
     1
 62
   256
176
     0
 40
1.0
176
     0
 90
        2
176
     1
  1
strokes_ogs.tif
176
     1
290
     0
176
     1
 40
1.0
176
     1
 40
1.0
176
     1
  0
VISUALSTYLE
  5
42
102
{ACAD_REACTORS
330
2A
102
}
330
2A
100
AcDbVisualStyle
  2
Shaded
 70
    27
177
     3
291
     0
 70
    58
 90
        2
176
     1
 90
        2
176
     1
 90
        1
176
     1
 90
        2
176
     1
 40
0.6
176
     1
 40
30.0
176
     1
 62
     7
420
 16777215
176
     1
 90
        0
176
     1
 90
        4
176
     1
 62
     7
176
     1
 62
   257
176
     1
 90
        1
176
     1
 90
        1
176
     1
 40
1.0
176
     1
 90
        8
176
     1
 62
   257
176
     1
 40
1.0
176
     1
 90
        1
176
     1
 90
        6
176
     1
 90
        2
176
     1
 62
     8
420
  7895160
176
     1
 90
        3
176
     1
 90
        0
176
     1
 90
        0
176
     1
290
     0
176
     1
 90
        5
176
     1
 40
0.0
176
     1
 90
        0
176
     1
290
     0
176
     1
290
     1
176
     1
290
     1
176
     1
290
     0
176
     1
290
     0
176
     1
290
     0
176
     1
290
     0
176
     1
290
     0
176
     1
290
     0
176
     1
 90
       50
176
     1
 40
0.0
176
     1
 40
1.0
176
     1
 90
        0
176
     1
 62
    18
420
        0
176
     1
 90
       50
176
     1
 90
        3
176
     1
 62
     5
420
      255
176
     1
290
     0
176
     1
 90
       50
176
     1
 90
       50
176
     1
 90
       50
176
     1
290
     0
176
     1
 90
       50
176
     1
 62
   256
176
     0
 40
1.0
176
     0
 90
        2
176
     1
  1
strokes_ogs.tif
176
     1
290
     0
176
     1
 40
1.0
176
     1
 40
1.0
176
     1
  0
VISUALSTYLE
  5
41
102
{ACAD_REACTORS
330
2A
102
}
330
2A
100
AcDbVisualStyle
  2
Shaded with edges
 70
    26
177
     3
291
     0
 70
    58
 90
        2
176
     1
 90
        2
176
     1
 90
        1
176
     1
 90
        2
176
     1
 40
0.6
176
     1
 40
30.0
176
     1
 62
     7
420
 16777215
176
     1
 90
        1
176
     1
 90
       10
176
     1
 62
     7
176
     1
 62
   257
176
     1
 90
        2
176
     1
 90
        1
176
     1
 40
1.0
176
     1
 90
        8
176
     1
 62
   257
176
     1
 40
1.0
176
     1
 90
        1
176
     1
 90
        6
176
     1
 90
        2
176
     1
 62
     7
176
     1
 90
        3
176
     1
 90
        0
176
     1
 90
        0
176
     1
290
     0
176
     1
 90
        5
176
     1
 40
0.0
176
     1
 90
        0
176
     1
290
     0
176
     1
290
     1
176
     1
290
     1
176
     1
290
     0
176
     1
290
     0
176
     1
290
     0
176
     1
290
     0
176
     1
290
     0
176
     1
290
     0
176
     1
 90
       50
176
     1
 40
0.0
176
     1
 40
1.0
176
     1
 90
        0
176
     1
 62
    18
420
        0
176
     1
 90
       50
176
     1
 90
        3
176
     1
 62
     5
420
      255
176
     1
290
     0
176
     1
 90
       50
176
     1
 90
       50
176
     1
 90
       50
176
     1
290
     0
176
     1
 90
       50
176
     1
 62
   256
176
     0
 40
1.0
176
     0
 90
        2
176
     1
  1
strokes_ogs.tif
176
     1
290
     0
176
     1
 40
1.0
176
     1
 40
1.0
176
     1
  0
VISUALSTYLE
  5
3E
102
{ACAD_REACTORS
330
2A
102
}
330
2A
100
AcDbVisualStyle
  2
Shades of Gray
 70
    23
177
     3
291
     0
 70
    58
 90
        2
176
     1
 90
        2
176
     1
 90
        3
176
     1
 90
        0
176
     1
 40
0.6
176
     1
 40
30.0
176
     1
 62
     7
420
 16777215
176
     1
 90
        2
176
     1
 90
        2
176
     1
 62
     7
176
     1
 62
     7
176
     1
 90
        1
176
     1
 90
        1
176
     1
 40
40.0
176
     1
 90
        8
176
     1
 62
     7
176
     1
 40
1.0
176
     1
 90
        1
176
     1
 90
        6
176
     1
 90
        2
176
     1
 62
     7
176
     1
 90
        3
176
     1
 90
        0
176
     1
 90
        0
176
     1
290
     0
176
     1
 90
        1
176
     1
 40
0.0
176
     1
 90
        0
176
     1
290
     0
176
     1
290
     1
176
     1
290
     1
176
     1
290
     0
176
     1
290
     0
176
     1
290
     0
176
     1
290
     0
176
     1
290
     0
176
     1
290
     0
176
     1
 90
       50
176
     1
 40
0.0
176
     1
 40
1.0
176
     1
 90
        0
176
     1
 62
    18
420
        0
176
     1
 90
       50
176
     1
 90
        3
176
     1
 62
     5
420
      255
176
     1
290
     0
176
     1
 90
       50
176
     1
 90
       50
176
     1
 90
       50
176
     1
290
     0
176
     1
 90
       50
176
     1
 62
   256
176
     0
 40
1.0
176
     0
 90
        2
176
     1
  1
strokes_ogs.tif
176
     1
290
     0
176
     1
 40
1.0
176
     1
 40
1.0
176
     1
  0
VISUALSTYLE
  5
3F
102
{ACAD_REACTORS
330
2A
102
}
330
2A
100
AcDbVisualStyle
  2
Sketchy
 70
    24
177
     3
291
     0
 70
    58
 90
        1
176
     1
 90
        2
176
     1
 90
        2
176
     1
 90
        0
176
     1
 40
0.6
176
     1
 40
30.0
176
     1
 62
     7
420
 16777215
176
     1
 90
        2
176
     1
 90
        2
176
     1
 62
     7
176
     1
 62
     7
176
     1
 90
        1
176
     1
 90
        1
176
     1
 40
40.0
176
     1
 90
       11
176
     1
 62
     7
176
     1
 40
1.0
176
     1
 90
        1
176
     1
 90
        6
176
     1
 90
        2
176
     1
 62
     7
176
     1
 90
        6
176
     1
 90
        0
176
     1
 90
        0
176
     1
290
     0
176
     1
 90
        1
176
     1
 40
0.0
176
     1
 90
        0
176
     1
290
     0
176
     1
290
     1
176
     1
290
     1
176
     1
290
     0
176
     1
290
     0
176
     1
290
     0
176
     1
290
     0
176
     1
290
     0
176
     1
290
     0
176
     1
 90
       50
176
     1
 40
0.0
176
     1
 40
1.0
176
     1
 90
        0
176
     1
 62
    18
420
        0
176
     1
 90
       50
176
     1
 90
        3
176
     1
 62
     5
420
      255
176
     1
290
     0
176
     1
 90
       50
176
     1
 90
       50
176
     1
 90
       50
176
     1
290
     0
176
     1
 90
       50
176
     1
 62
   256
176
     0
 40
1.0
176
     0
 90
        2
176
     1
  1
strokes_ogs.tif
176
     1
290
     0
176
     1
 40
1.0
176
     1
 40
1.0
176
     1
  0
VISUALSTYLE
  5
37
102
{ACAD_REACTORS
330
2A
102
}
330
2A
100
AcDbVisualStyle
  2
Thicken
 70
    13
177
     3
291
     1
 70
    58
 90
        2
176
     1
 90
        2
176
     1
 90
        0
176
     1
 90
        0
176
     1
 40
0.6
176
     1
 40
30.0
176
     1
 62
     7
420
 16777215
176
     1
 90
        1
176
     1
 90
        4
176
     1
 62
     7
176
     1
 62
   257
176
     1
 90
        1
176
     1
 90
        1
176
     1
 40
1.0
176
     1
 90
       12
176
     1
 62
     7
176
     1
 40
1.0
176
     1
 90
        1
176
     1
 90
        6
176
     1
 90
        2
176
     1
 62
     7
176
     1
 90
        5
176
     1
 90
        0
176
     1
 90
        0
176
     1
290
     0
176
     1
 90
        1
176
     1
 40
0.0
176
     1
 90
        0
176
     1
290
     0
176
     1
290
     1
176
     1
290
     1
176
     1
290
     0
176
     1
290
     0
176
     1
290
     0
176
     1
290
     0
176
     1
290
     0
176
     1
290
     0
176
     1
 90
       50
176
     1
 40
0.0
176
     1
 40
1.0
176
     1
 90
        0
176
     1
 62
    18
420
        0
176
     1
 90
       50
176
     1
 90
        3
176
     1
 62
     5
420
      255
176
     1
290
     0
176
     1
 90
       50
176
     1
 90
       50
176
     1
 90
       50
176
     1
290
     0
176
     1
 90
       50
176
     1
 62
   256
176
     0
 40
1.0
176
     0
 90
        2
176
     1
  1
strokes_ogs.tif
176
     1
290
     0
176
     1
 40
1.0
176
     1
 40
1.0
176
     1
  0
VISUALSTYLE
  5
30
102
{ACAD_REACTORS
330
2A
102
}
330
2A
100
AcDbVisualStyle
  2
Wireframe
 70
     5
177
     3
291
     0
 70
    58
 90
        0
176
     1
 90
        2
176
     1
 90
        0
176
     1
 90
        0
176
     1
 40
0.6
176
     1
 40
30.0
176
     1
 62
     7
420
 16777215
176
     1
 90
        1
176
     1
 90
        4
176
     1
 62
     7
176
     1
 62
   257
176
     1
 90
        1
176
     1
 90
        1
176
     1
 40
1.0
176
     1
 90
        0
176
     1
 62
   257
176
     1
 40
1.0
176
     1
 90
        1
176
     1
 90
        6
176
     1
 90
        2
176
     1
 62
     7
176
     1
 90
        3
176
     1
 90
        0
176
     1
 90
        0
176
     1
290
     0
176
     1
 90
        1
176
     1
 40
0.0
176
     1
 90
        0
176
     1
290
     0
176
     1
290
     1
176
     1
290
     1
176
     1
290
     0
176
     1
290
     0
176
     1
290
     0
176
     1
290
     0
176
     1
290
     0
176
     1
290
     0
176
     1
 90
       50
176
     1
 40
0.0
176
     1
 40
1.0
176
     1
 90
        0
176
     1
 62
    18
420
        0
176
     1
 90
       50
176
     1
 90
        3
176
     1
 62
     5
420
      255
176
     1
290
     0
176
     1
 90
       50
176
     1
 90
       50
176
     1
 90
       50
176
     1
290
     0
176
     1
 90
       50
176
     1
 62
   256
176
     0
 40
1.0
176
     0
 90
        2
176
     1
  1
strokes_ogs.tif
176
     1
290
     0
176
     1
 40
1.0
176
     1
 40
1.0
176
     1
  0
VISUALSTYLE
  5
40
102
{ACAD_REACTORS
330
2A
102
}
330
2A
100
AcDbVisualStyle
  2
X-Ray
 70
    25
177
     3
291
     0
 70
    58
 90
        2
176
     1
 90
        2
176
     1
 90
        1
176
     1
 90
        1
176
     1
 40
0.5
176
     1
 40
30.0
176
     1
 62
     7
420
 16777215
176
     1
 90
        1
176
     1
 90
        0
176
     1
 62
     7
176
     1
 62
   257
176
     1
 90
        1
176
     1
 90
        1
176
     1
 40
1.0
176
     1
 90
        8
176
     1
 62
     7
176
     1
 40
1.0
176
     1
 90
        1
176
     1
 90
        6
176
     1
 90
        2
176
     1
 62
     7
176
     1
 90
        3
176
     1
 90
        0
176
     1
 90
        0
176
     1
290
     0
176
     1
 90
       13
176
     1
 40
0.0
176
     1
 90
        0
176
     1
290
     0
176
     1
290
     1
176
     1
290
     1
176
     1
290
     0
176
     1
290
     0
176
     1
290
     0
176
     1
290
     0
176
     1
290
     0
176
     1
290
     0
176
     1
 90
       50
176
     1
 40
0.0
176
     1
 40
1.0
176
     1
 90
        0
176
     1
 62
    18
420
        0
176
     1
 90
       50
176
     1
 90
        3
176
     1
 62
     5
420
      255
176
     1
290
     0
176
     1
 90
       50
176
     1
 90
       50
176
     1
 90
       50
176
     1
290
     0
176
     1
 90
       50
176
     1
 62
   256
176
     0
 40
1.0
176
     0
 90
        2
176
     1
  1
strokes_ogs.tif
176
     1
290
     0
176
     1
 40
1.0
176
     1
 40
1.0
176
     1
  0
DICTIONARYVAR
  5
90
102
{ACAD_REACTORS
330
8F
102
}
330
8F
100
DictionaryVariables
280
     0
  1
1:1
  0
DICTIONARYVAR
  5
98
102
{ACAD_REACTORS
330
8F
102
}
330
8F
100
DictionaryVariables
280
     0
  1
3.500000
  0
DICTIONARYVAR
  5
99
102
{ACAD_REACTORS
330
8F
102
}
330
8F
100
DictionaryVariables
280
     0
  1
acadiso.lin
  0
DICTIONARYVAR
  5
95
102
{ACAD_REACTORS
330
8F
102
}
330
8F
100
DictionaryVariables
280
     0
  1
Standard
  0
DICTIONARYVAR
  5
94
102
{ACAD_REACTORS
330
8F
102
}
330
8F
100
DictionaryVariables
280
     0
  1
Standard
  0
DICTIONARY
  5
91
330
5A
100
AcDbDictionary
280
     1
281
     1
  3
ACAD_ROUNDTRIP_2008_TABLESTYLE_CELLSTYLEMAP
360
92
  0
CELLSTYLEMAP
  5
92
102
{ACAD_REACTORS
330
91
102
}
330
91
100
AcDbCellStyleMap
 90
        3
300
CELLSTYLE
  1
TABLEFORMAT_BEGIN
 90
        5
170
     1
 91
        0
 92
    32768
 62
   257
 93
        1
300
CONTENTFORMAT
  1
CONTENTFORMAT_BEGIN
 90
        0
 91
        0
 92
        4
 93
        0
300

 40
0.0
140
1.0
 94
        5
 62
     0
340
11
144
6.0
309
CONTENTFORMAT_END
171
     1
301
MARGIN
  1
CELLMARGIN_BEGIN
 40
1.5
 40
1.5
 40
1.5
 40
1.5
 40
1.5
 40
1.5
309
CELLMARGIN_END
 94
        6
 95
        1
302
GRIDFORMAT
  1
GRIDFORMAT_BEGIN
 90
        0
 91
        1
 62
     0
 92
       -2
340
14
 93
        0
 40
0.045
309
GRIDFORMAT_END
 95
        2
302
GRIDFORMAT
  1
GRIDFORMAT_BEGIN
 90
        0
 91
        1
 62
     0
 92
       -2
340
14
 93
        0
 40
0.045
309
GRIDFORMAT_END
 95
        4
302
GRIDFORMAT
  1
GRIDFORMAT_BEGIN
 90
        0
 91
        1
 62
     0
 92
       -2
340
14
 93
        0
 40
0.045
309
GRIDFORMAT_END
 95
        8
302
GRIDFORMAT
  1
GRIDFORMAT_BEGIN
 90
        0
 91
        1
 62
     0
 92
       -2
340
14
 93
        0
 40
0.045
309
GRIDFORMAT_END
 95
       16
302
GRIDFORMAT
  1
GRIDFORMAT_BEGIN
 90
        0
 91
        1
 62
     0
 92
       -2
340
14
 93
        0
 40
0.045
309
GRIDFORMAT_END
 95
       32
302
GRIDFORMAT
  1
GRIDFORMAT_BEGIN
 90
        0
 91
        1
 62
     0
 92
       -2
340
14
 93
        0
 40
0.045
309
GRIDFORMAT_END
309
TABLEFORMAT_END
  1
CELLSTYLE_BEGIN
 90
        1
 91
        1
300
_TITLE
309
CELLSTYLE_END
300
CELLSTYLE
  1
TABLEFORMAT_BEGIN
 90
        5
170
     1
 91
        0
 92
        0
 62
   257
 93
        1
300
CONTENTFORMAT
  1
CONTENTFORMAT_BEGIN
 90
        0
 91
        0
 92
        4
 93
        0
300

 40
0.0
140
1.0
 94
        5
 62
     0
340
11
144
4.5
309
CONTENTFORMAT_END
171
     1
301
MARGIN
  1
CELLMARGIN_BEGIN
 40
1.5
 40
1.5
 40
1.5
 40
1.5
 40
1.5
 40
1.5
309
CELLMARGIN_END
 94
        6
 95
        1
302
GRIDFORMAT
  1
GRIDFORMAT_BEGIN
 90
        0
 91
        1
 62
     0
 92
       -2
340
14
 93
        0
 40
0.045
309
GRIDFORMAT_END
 95
        2
302
GRIDFORMAT
  1
GRIDFORMAT_BEGIN
 90
        0
 91
        1
 62
     0
 92
       -2
340
14
 93
        0
 40
0.045
309
GRIDFORMAT_END
 95
        4
302
GRIDFORMAT
  1
GRIDFORMAT_BEGIN
 90
        0
 91
        1
 62
     0
 92
       -2
340
14
 93
        0
 40
0.045
309
GRIDFORMAT_END
 95
        8
302
GRIDFORMAT
  1
GRIDFORMAT_BEGIN
 90
        0
 91
        1
 62
     0
 92
       -2
340
14
 93
        0
 40
0.045
309
GRIDFORMAT_END
 95
       16
302
GRIDFORMAT
  1
GRIDFORMAT_BEGIN
 90
        0
 91
        1
 62
     0
 92
       -2
340
14
 93
        0
 40
0.045
309
GRIDFORMAT_END
 95
       32
302
GRIDFORMAT
  1
GRIDFORMAT_BEGIN
 90
        0
 91
        1
 62
     0
 92
       -2
340
14
 93
        0
 40
0.045
309
GRIDFORMAT_END
309
TABLEFORMAT_END
  1
CELLSTYLE_BEGIN
 90
        2
 91
        1
300
_HEADER
309
CELLSTYLE_END
300
CELLSTYLE
  1
TABLEFORMAT_BEGIN
 90
        5
170
     1
 91
        0
 92
        0
 62
   257
 93
        1
300
CONTENTFORMAT
  1
CONTENTFORMAT_BEGIN
 90
        0
 91
        0
 92
        4
 93
        0
300

 40
0.0
140
1.0
 94
        2
 62
     0
340
11
144
4.5
309
CONTENTFORMAT_END
171
     1
301
MARGIN
  1
CELLMARGIN_BEGIN
 40
1.5
 40
1.5
 40
1.5
 40
1.5
 40
1.5
 40
1.5
309
CELLMARGIN_END
 94
        6
 95
        1
302
GRIDFORMAT
  1
GRIDFORMAT_BEGIN
 90
        0
 91
        1
 62
     0
 92
       -2
340
14
 93
        0
 40
0.045
309
GRIDFORMAT_END
 95
        2
302
GRIDFORMAT
  1
GRIDFORMAT_BEGIN
 90
        0
 91
        1
 62
     0
 92
       -2
340
14
 93
        0
 40
0.045
309
GRIDFORMAT_END
 95
        4
302
GRIDFORMAT
  1
GRIDFORMAT_BEGIN
 90
        0
 91
        1
 62
     0
 92
       -2
340
14
 93
        0
 40
0.045
309
GRIDFORMAT_END
 95
        8
302
GRIDFORMAT
  1
GRIDFORMAT_BEGIN
 90
        0
 91
        1
 62
     0
 92
       -2
340
14
 93
        0
 40
0.045
309
GRIDFORMAT_END
 95
       16
302
GRIDFORMAT
  1
GRIDFORMAT_BEGIN
 90
        0
 91
        1
 62
     0
 92
       -2
340
14
 93
        0
 40
0.045
309
GRIDFORMAT_END
 95
       32
302
GRIDFORMAT
  1
GRIDFORMAT_BEGIN
 90
        0
 91
        1
 62
     0
 92
       -2
340
14
 93
        0
 40
0.045
309
GRIDFORMAT_END
309
TABLEFORMAT_END
  1
CELLSTYLE_BEGIN
 90
        3
 91
        2
300
_DATA
309
CELLSTYLE_END
  0
ENDSEC
  0
EOF
