  0
SECTION
  2
HEADER
  9
$ACADVER
  1
AC1027
  9
$ACADMAINTVER
 70
   105
  9
$DWGCODEPAGE
  3
ANSI_932
  9
$LASTSAVEDBY
  1
a.yasuda
  9
$REQUIREDVERSIONS
160
                 0
  9
$INSBASE
 10
0.0
 20
0.0
 30
0.0
  9
$EXTMIN
 10
0.0
 20
0.0
 30
0.0
  9
$EXTMAX
 10
302.9997823349792
 20
216.0016055409748
 30
0.0
  9
$LIMMIN
 10
0.0
 20
0.0
  9
$LIMMAX
 10
302.9997823349792
 20
216.0016055409748
  9
$ORTHOMODE
 70
     0
  9
$REGENMODE
 70
     1
  9
$FILLMODE
 70
     1
  9
$QTEXTMODE
 70
     0
  9
$MIRRTEXT
 70
     1
  9
$LTSCALE
 40
1.0
  9
$ATTMODE
 70
     1
  9
$TEXTSIZE
 40
2.5
  9
$TRACEWID
 40
1.0
  9
$TEXTSTYLE
  7
Standard
  9
$CLAYER
  8
0
  9
$CELTYPE
  6
ByLayer
  9
$CECOLOR
 62
   256
  9
$CELTSCALE
 40
1.0
  9
$DISPSILH
 70
     0
  9
$DIMSCALE
 40
1.0
  9
$DIMASZ
 40
2.5
  9
$DIMEXO
 40
0.625
  9
$DIMDLI
 40
3.75
  9
$DIMRND
 40
0.0
  9
$DIMDLE
 40
0.0
  9
$DIMEXE
 40
1.25
  9
$DIMTP
 40
0.0
  9
$DIMTM
 40
0.0
  9
$DIMTXT
 40
2.5
  9
$DIMCEN
 40
2.5
  9
$DIMTSZ
 40
0.0
  9
$DIMTOL
 70
     0
  9
$DIMLIM
 70
     0
  9
$DIMTIH
 70
     0
  9
$DIMTOH
 70
     0
  9
$DIMSE1
 70
     0
  9
$DIMSE2
 70
     0
  9
$DIMTAD
 70
     1
  9
$DIMZIN
 70
     8
  9
$DIMBLK
  1

  9
$DIMASO
 70
     1
  9
$DIMSHO
 70
     1
  9
$DIMPOST
  1

  9
$DIMAPOST
  1

  9
$DIMALT
 70
     0
  9
$DIMALTD
 70
     3
  9
$DIMALTF
 40
0.03937007874016
  9
$DIMLFAC
 40
1.0
  9
$DIMTOFL
 70
     1
  9
$DIMTVP
 40
0.0
  9
$DIMTIX
 70
     0
  9
$DIMSOXD
 70
     0
  9
$DIMSAH
 70
     0
  9
$DIMBLK1
  1

  9
$DIMBLK2
  1

  9
$DIMSTYLE
  2
ISO-25
  9
$DIMCLRD
 70
     0
  9
$DIMCLRE
 70
     0
  9
$DIMCLRT
 70
     0
  9
$DIMTFAC
 40
1.0
  9
$DIMGAP
 40
0.625
  9
$DIMJUST
 70
     0
  9
$DIMSD1
 70
     0
  9
$DIMSD2
 70
     0
  9
$DIMTOLJ
 70
     0
  9
$DIMTZIN
 70
     8
  9
$DIMALTZ
 70
     0
  9
$DIMALTTZ
 70
     0
  9
$DIMUPT
 70
     0
  9
$DIMDEC
 70
     2
  9
$DIMTDEC
 70
     2
  9
$DIMALTU
 70
     2
  9
$DIMALTTD
 70
     3
  9
$DIMTXSTY
  7
Standard
  9
$DIMAUNIT
 70
     0
  9
$DIMADEC
 70
     0
  9
$DIMALTRND
 40
0.0
  9
$DIMAZIN
 70
     0
  9
$DIMDSEP
 70
    44
  9
$DIMATFIT
 70
     3
  9
$DIMFRAC
 70
     0
  9
$DIMLDRBLK
  1

  9
$DIMLUNIT
 70
     2
  9
$DIMLWD
 70
    -2
  9
$DIMLWE
 70
    -2
  9
$DIMTMOVE
 70
     0
  9
$DIMFXL
 40
1.0
  9
$DIMFXLON
 70
     0
  9
$DIMJOGANG
 40
0.7853981633974483
  9
$DIMTFILL
 70
     0
  9
$DIMTFILLCLR
 70
     0
  9
$DIMARCSYM
 70
     0
  9
$DIMLTYPE
  6

  9
$DIMLTEX1
  6

  9
$DIMLTEX2
  6

  9
$DIMTXTDIRECTION
 70
     0
  9
$LUNITS
 70
     2
  9
$LUPREC
 70
     4
  9
$SKETCHINC
 40
1.0
  9
$FILLETRAD
 40
0.0
  9
$AUNITS
 70
     0
  9
$AUPREC
 70
     0
  9
$MENU
  1
.
  9
$ELEVATION
 40
0.0
  9
$PELEVATION
 40
0.0
  9
$THICKNESS
 40
0.0
  9
$LIMCHECK
 70
     0
  9
$CHAMFERA
 40
0.0
  9
$CHAMFERB
 40
0.0
  9
$CHAMFERC
 40
0.0
  9
$CHAMFERD
 40
0.0
  9
$SKPOLY
 70
     0
  9
$TDCREATE
 40
2459866.620518819
  9
$TDUCREATE
 40
2459866.245518819
  9
$TDUPDATE
 40
2459866.620518866
  9
$TDUUPDATE
 40
2459866.245518866
  9
$TDINDWG
 40
0.0000000116
  9
$TDUSRTIMER
 40
0.0000000116
  9
$USRTIMER
 70
     1
  9
$ANGBASE
 50
0.0
  9
$ANGDIR
 70
     0
  9
$PDMODE
 70
     0
  9
$PDSIZE
 40
0.0
  9
$PLINEWID
 40
0.0
  9
$SPLFRAME
 70
     0
  9
$SPLINETYPE
 70
     6
  9
$SPLINESEGS
 70
     8
  9
$HANDSEED
  5
A1
  9
$SURFTAB1
 70
     6
  9
$SURFTAB2
 70
     6
  9
$SURFTYPE
 70
     6
  9
$SURFU
 70
     6
  9
$SURFV
 70
     6
  9
$UCSBASE
  2

  9
$UCSNAME
  2

  9
$UCSORG
 10
0.0
 20
0.0
 30
0.0
  9
$UCSXDIR
 10
1.0
 20
0.0
 30
0.0
  9
$UCSYDIR
 10
0.0
 20
1.0
 30
0.0
  9
$UCSORTHOREF
  2

  9
$UCSORTHOVIEW
 70
     0
  9
$UCSORGTOP
 10
0.0
 20
0.0
 30
0.0
  9
$UCSORGBOTTOM
 10
0.0
 20
0.0
 30
0.0
  9
$UCSORGLEFT
 10
0.0
 20
0.0
 30
0.0
  9
$UCSORGRIGHT
 10
0.0
 20
0.0
 30
0.0
  9
$UCSORGFRONT
 10
0.0
 20
0.0
 30
0.0
  9
$UCSORGBACK
 10
0.0
 20
0.0
 30
0.0
  9
$PUCSBASE
  2

  9
$PUCSNAME
  2

  9
$PUCSORG
 10
0.0
 20
0.0
 30
0.0
  9
$PUCSXDIR
 10
1.0
 20
0.0
 30
0.0
  9
$PUCSYDIR
 10
0.0
 20
1.0
 30
0.0
  9
$PUCSORTHOREF
  2

  9
$PUCSORTHOVIEW
 70
     0
  9
$PUCSORGTOP
 10
0.0
 20
0.0
 30
0.0
  9
$PUCSORGBOTTOM
 10
0.0
 20
0.0
 30
0.0
  9
$PUCSORGLEFT
 10
0.0
 20
0.0
 30
0.0
  9
$PUCSORGRIGHT
 10
0.0
 20
0.0
 30
0.0
  9
$PUCSORGFRONT
 10
0.0
 20
0.0
 30
0.0
  9
$PUCSORGBACK
 10
0.0
 20
0.0
 30
0.0
  9
$USERI1
 70
     0
  9
$USERI2
 70
     0
  9
$USERI3
 70
     0
  9
$USERI4
 70
     0
  9
$USERI5
 70
     0
  9
$USERR1
 40
0.0
  9
$USERR2
 40
0.0
  9
$USERR3
 40
0.0
  9
$USERR4
 40
0.0
  9
$USERR5
 40
0.0
  9
$WORLDVIEW
 70
     1
  9
$SHADEDGE
 70
     3
  9
$SHADEDIF
 70
    70
  9
$TILEMODE
 70
     1
  9
$MAXACTVP
 70
    64
  9
$PINSBASE
 10
0.0
 20
0.0
 30
0.0
  9
$PLIMCHECK
 70
     0
  9
$PEXTMIN
 10
1.000000000000000E+20
 20
1.000000000000000E+20
 30
1.000000000000000E+20
  9
$PEXTMAX
 10
-1.000000000000000E+20
 20
-1.000000000000000E+20
 30
-1.000000000000000E+20
  9
$PLIMMIN
 10
0.0
 20
0.0
  9
$PLIMMAX
 10
420.0
 20
297.0
  9
$UNITMODE
 70
     0
  9
$VISRETAIN
 70
     1
  9
$PLINEGEN
 70
     0
  9
$PSLTSCALE
 70
     1
  9
$TREEDEPTH
 70
  3020
  9
$CMLSTYLE
  2
Standard
  9
$CMLJUST
 70
     0
  9
$CMLSCALE
 40
20.0
  9
$PROXYGRAPHICS
 70
     1
  9
$MEASUREMENT
 70
     1
  9
$CELWEIGHT
370
    -1
  9
$ENDCAPS
280
     0
  9
$JOINSTYLE
280
     0
  9
$LWDISPLAY
290
     0
  9
$INSUNITS
 70
     4
  9
$HYPERLINKBASE
  1

  9
$STYLESHEET
  1

  9
$XEDIT
290
     1
  9
$CEPSNTYPE
380
     0
  9
$PSTYLEMODE
290
     1
  9
$FINGERPRINTGUID
  2
{616ccf50-9f10-4c4e-92c5-1cecc6671770}
  9
$VERSIONGUID
  2
{FAEB1C32-E019-11D5-929B-00C0DF256EC4}
  9
$EXTNAMES
290
     1
  9
$PSVPSCALE
 40
0.0
  9
$OLESTARTUP
290
     0
  9
$SORTENTS
280
   127
  9
$INDEXCTL
280
     0
  9
$HIDETEXT
280
     1
  9
$XCLIPFRAME
280
     2
  9
$HALOGAP
280
     0
  9
$OBSCOLOR
 70
   257
  9
$OBSLTYPE
280
     0
  9
$INTERSECTIONDISPLAY
280
     0
  9
$INTERSECTIONCOLOR
 70
   257
  9
$DIMASSOC
280
     2
  9
$PROJECTNAME
  1

  9
$CAMERADISPLAY
290
     0
  9
$LENSLENGTH
 40
50.0
  9
$CAMERAHEIGHT
 40
0.0
  9
$STEPSPERSEC
 40
2.0
  9
$STEPSIZE
 40
6.0
  9
$3DDWFPREC
 40
2.0
  9
$PSOLWIDTH
 40
5.0
  9
$PSOLHEIGHT
 40
80.0
  9
$LOFTANG1
 40
1.570796326794897
  9
$LOFTANG2
 40
1.570796326794897
  9
$LOFTMAG1
 40
0.0
  9
$LOFTMAG2
 40
0.0
  9
$LOFTPARAM
 70
     7
  9
$LOFTNORMALS
280
     1
  9
$LATITUDE
 40
37.795
  9
$LONGITUDE
 40
-122.394
  9
$NORTHDIRECTION
 40
0.0
  9
$TIMEZONE
 70
 -8000
  9
$LIGHTGLYPHDISPLAY
280
     1
  9
$TILEMODELIGHTSYNCH
280
     1
  9
$CMATERIAL
347
44
  9
$SOLIDHIST
280
     0
  9
$SHOWHIST
280
     1
  9
$DWFFRAME
280
     2
  9
$DGNFRAME
280
     2
  9
$REALWORLDSCALE
290
     1
  9
$INTERFERECOLOR
 62
   256
  9
$CSHADOW
280
     0
  9
$SHADOWPLANELOCATION
 40
0.0
  0
ENDSEC
  0
SECTION
  2
CLASSES
  0
CLASS
  1
ACDBDICTIONARYWDFLT
  2
AcDbDictionaryWithDefault
  3
ObjectDBX Classes
 90
        0
 91
        3
280
     0
281
     0
  0
CLASS
  1
VISUALSTYLE
  2
AcDbVisualStyle
  3
ObjectDBX Classes
 90
     4095
 91
        3
280
     0
281
     0
  0
CLASS
  1
MATERIAL
  2
AcDbMaterial
  3
ObjectDBX Classes
 90
     1153
 91
        3
280
     0
281
     0
  0
CLASS
  1
SCALE
  2
AcDbScale
  3
ObjectDBX Classes
 90
     1153
 91
        3
280
     0
281
     0
  0
CLASS
  1
TABLESTYLE
  2
AcDbTableStyle
  3
ObjectDBX Classes
 90
     4095
 91
        3
280
     0
281
     0
  0
CLASS
  1
MLEADERSTYLE
  2
AcDbMLeaderStyle
  3
ACDB_MLEADERSTYLE_CLASS
 90
     4095
 91
        3
280
     0
281
     0
  0
CLASS
  1
SUN
  2
AcDbSun
  3
SCENEOE
 90
     1153
 91
        3
280
     0
281
     0
  0
CLASS
  1
DICTIONARYVAR
  2
AcDbDictionaryVar
  3
ObjectDBX Classes
 90
        0
 91
        3
280
     0
281
     0
  0
CLASS
  1
CELLSTYLEMAP
  2
AcDbCellStyleMap
  3
ObjectDBX Classes
 90
     1152
 91
        3
280
     0
281
     0
  0
ENDSEC
  0
SECTION
  2
TABLES
  0
TABLE
  2
VPORT
  5
8
330
0
100
AcDbSymbolTable
 70
     1
  0
VPORT
  5
29
330
8
100
AcDbSymbolTableRecord
100
AcDbViewportTableRecord
  2
*Active
 70
     0
 10
0.0
 20
0.0
 11
1.0
 21
1.0
 12
151.4998911674896
 22
108.0008027704874
 13
0.0
 23
0.0
 14
10.0
 24
10.0
 15
10.0
 25
10.0
 16
0.0
 26
0.0
 36
1.0
 17
0.0
 27
0.0
 37
0.0
 40
237.6017660950723
 41
1.402766343222857
 42
50.0
 43
0.0
 44
0.0
 50
0.0
 51
0.0
 71
     0
 72
 10000
 73
     1
 74
     3
 75
     0
 76
     0
 77
     0
 78
     0
281
     0
 65
     1
110
0.0
120
0.0
130
0.0
111
1.0
121
0.0
131
0.0
112
0.0
122
1.0
132
0.0
 79
     0
146
0.0
348
2F
 60
     3
 61
     5
292
     1
282
     1
141
0.0
142
0.0
 63
   250
361
5D
  0
ENDTAB
  0
TABLE
  2
LTYPE
  5
5
330
0
100
AcDbSymbolTable
 70
     2
  0
LTYPE
  5
14
330
5
100
AcDbSymbolTableRecord
100
AcDbLinetypeTableRecord
  2
ByBlock
 70
     0
  3

 72
    65
 73
     0
 40
0.0
  0
LTYPE
  5
15
330
5
100
AcDbSymbolTableRecord
100
AcDbLinetypeTableRecord
  2
ByLayer
 70
     0
  3

 72
    65
 73
     0
 40
0.0
  0
LTYPE
  5
16
330
5
100
AcDbSymbolTableRecord
100
AcDbLinetypeTableRecord
  2
Continuous
 70
     0
  3
Solid line
 72
    65
 73
     0
 40
0.0
  0
LTYPE
  5
5F
330
5
100
AcDbSymbolTableRecord
100
AcDbLinetypeTableRecord
  2
UserDefined01
 70
     0
  3
----------------                
 72
    65
 73
     2
 40
0.7055555449591743
 49
0.3527777724795871
 74
     0
 49
-0.3527777724795871
 74
     0
  0
ENDTAB
  0
TABLE
  2
LAYER
  5
2
330
0
100
AcDbSymbolTable
 70
     3
  0
LAYER
  5
10
330
2
100
AcDbSymbolTableRecord
100
AcDbLayerTableRecord
  2
0
 70
     0
 62
     7
  6
Continuous
370
    -3
390
F
347
46
348
0
  0
LAYER
  5
60
330
2
100
AcDbSymbolTableRecord
100
AcDbLayerTableRecord
  2
外枠
 70
     0
 62
     7
  6
Continuous
370
    -3
390
F
347
46
348
0
  0
LAYER
  5
61
330
2
100
AcDbSymbolTableRecord
100
AcDbLayerTableRecord
  2
ISS138金台
 70
     0
 62
     7
  6
Continuous
370
    -3
390
F
347
46
348
0
  0
ENDTAB
  0
TABLE
  2
STYLE
  5
3
330
0
100
AcDbSymbolTable
 70
     2
  0
STYLE
  5
11
330
3
100
AcDbSymbolTableRecord
100
AcDbTextStyleTableRecord
  2
Standard
 70
     0
 40
0.0
 41
1.0
 50
0.0
 71
     0
 42
2.5
  3

  4

  0
STYLE
  5
5E
330
3
100
AcDbSymbolTableRecord
100
AcDbTextStyleTableRecord
  2
MS Gothic
 70
     0
 40
1.0
 41
1.0
 50
0.0
 71
     0
 42
2.5
  3
msgothic.ttc
  4

1001
ACAD
1000
MS Gothic
1071
    32817
  0
ENDTAB
  0
TABLE
  2
VIEW
  5
6
330
0
100
AcDbSymbolTable
 70
     0
  0
ENDTAB
  0
TABLE
  2
UCS
  5
7
330
0
100
AcDbSymbolTable
 70
     0
  0
ENDTAB
  0
TABLE
  2
APPID
  5
9
330
0
100
AcDbSymbolTable
 70
     1
  0
APPID
  5
12
330
9
100
AcDbSymbolTableRecord
100
AcDbRegAppTableRecord
  2
ACAD
 70
     0
  0
ENDTAB
  0
TABLE
  2
DIMSTYLE
  5
A
330
0
100
AcDbSymbolTable
 70
     1
100
AcDbDimStyleTable
  0
DIMSTYLE
105
27
330
A
100
AcDbSymbolTableRecord
100
AcDbDimStyleTableRecord
  2
ISO-25
 70
     0
 41
2.5
 42
0.625
 43
3.75
 44
1.25
 73
     0
 74
     0
 77
     1
 78
     8
140
2.5
141
2.5
143
0.03937007874016
147
0.625
171
     3
172
     1
178
     0
271
     2
272
     2
274
     3
278
    44
283
     0
284
     8
340
11
  0
ENDTAB
  0
TABLE
  2
BLOCK_RECORD
  5
1
330
0
100
AcDbSymbolTable
 70
     1
  0
BLOCK_RECORD
  5
1F
330
1
100
AcDbSymbolTableRecord
100
AcDbBlockTableRecord
  2
*Model_Space
340
22
 70
     0
280
     1
281
     0
  0
BLOCK_RECORD
  5
1B
330
1
100
AcDbSymbolTableRecord
100
AcDbBlockTableRecord
  2
*Paper_Space
340
1E
 70
     0
280
     1
281
     0
  0
BLOCK_RECORD
  5
23
330
1
100
AcDbSymbolTableRecord
100
AcDbBlockTableRecord
  2
*Paper_Space0
340
26
 70
     0
280
     1
281
     0
  0
ENDTAB
  0
ENDSEC
  0
SECTION
  2
BLOCKS
  0
BLOCK
  5
20
330
1F
100
AcDbEntity
  8
0
100
AcDbBlockBegin
  2
*Model_Space
 70
     0
 10
0.0
 20
0.0
 30
0.0
  3
*Model_Space
  1

  0
ENDBLK
  5
21
330
1F
100
AcDbEntity
  8
0
100
AcDbBlockEnd
  0
BLOCK
  5
1C
330
1B
100
AcDbEntity
 67
     1
  8
0
100
AcDbBlockBegin
  2
*Paper_Space
 70
     0
 10
0.0
 20
0.0
 30
0.0
  3
*Paper_Space
  1

  0
ENDBLK
  5
1D
330
1B
100
AcDbEntity
 67
     1
  8
0
100
AcDbBlockEnd
  0
BLOCK
  5
24
330
23
100
AcDbEntity
  8
0
100
AcDbBlockBegin
  2
*Paper_Space0
 70
     0
 10
0.0
 20
0.0
 30
0.0
  3
*Paper_Space0
  1

  0
ENDBLK
  5
25
330
23
100
AcDbEntity
  8
0
100
AcDbBlockEnd
  0
ENDSEC
  0
SECTION
  2
ENTITIES
  0
LWPOLYLINE
  5
62
330
1F
100
AcDbEntity
  8
外枠
  6
Continuous
 62
   250
420
  2367521
370
   100
100
AcDbPolyline
 90
        5
 70
     0
 43
0.0
 10
281.9999662644599
 20
13.29407825637392
 10
20.99981607051935
 20
13.29407825637392
 10
20.99981607051935
 20
193.0018900389566
 10
281.9999662644599
 20
193.0018900389566
 10
281.9999662644599
 20
13.29407825637392
  0
LINE
  5
63
330
1F
100
AcDbEntity
  8
外枠
  6
Continuous
 62
   250
420
  2367521
370
    25
100
AcDbLine
 10
223.3097080177524
 20
174.0786160074276
 30
0.0
 11
281.9999232007669
 21
174.0786160074276
 31
0.0
  0
LINE
  5
64
330
1F
100
AcDbEntity
  8
外枠
  6
Continuous
 62
   250
420
  2367521
370
    25
100
AcDbLine
 10
223.3097080177524
 20
50.37109023844297
 30
0.0
 11
281.9999232007669
 21
50.37109023844297
 31
0.0
  0
LINE
  5
65
330
1F
100
AcDbEntity
  8
外枠
  6
Continuous
 62
   250
420
  2367521
370
    25
100
AcDbLine
 10
223.3097080177524
 20
36.25997933925949
 30
0.0
 11
281.9999232007669
 21
36.25997933925949
 31
0.0
  0
LINE
  5
66
330
1F
100
AcDbEntity
  8
外枠
  6
Continuous
 62
   250
420
  2367521
370
    50
100
AcDbLine
 10
223.0158413772006
 20
193.3637327187979
 30
0.0
 11
223.0158413772006
 21
13.29396655992039
 31
0.0
  0
TEXT
  5
67
330
1F
100
AcDbEntity
  8
外枠
  6
Continuous
 62
   250
420
  2367521
100
AcDbText
 10
224.7190965599536
 20
186.6888051931772
 30
0.0
 40
2.688166626294454
  1
品名：
 41
0.974166170756022
  7
MS Gothic
100
AcDbText
  0
TEXT
  5
68
330
1F
100
AcDbEntity
  8
外枠
  6
Continuous
 62
   250
420
  2367521
100
AcDbText
 10
224.7190965599536
 20
168.1080059455944
 30
0.0
 40
2.688166626294454
  1
仕様：
 41
0.9978878657023111
  7
MS Gothic
100
AcDbText
  0
TEXT
  5
69
330
1F
100
AcDbEntity
  8
外枠
  6
Continuous
 62
   250
420
  2367521
100
AcDbText
 10
224.7190965599536
 20
44.16660664327048
 30
0.0
 40
2.688166626294454
  1
縮尺：
 41
0.9939999262491861
  7
MS Gothic
100
AcDbText
  0
TEXT
  5
6A
330
1F
100
AcDbEntity
  8
外枠
  6
Continuous
 62
   250
420
  2367521
100
AcDbText
 10
250.2379519709696
 20
40.59738467878129
 30
0.0
 40
2.150533301035563
  1
1/1
 41
1.000003814697266
  7
MS Gothic
100
AcDbText
  0
TEXT
  5
6B
330
1F
100
AcDbEntity
  8
外枠
  6
Continuous
 62
   250
420
  2367521
100
AcDbText
 10
226.1633020978884
 20
24.25683874973963
 30
0.0
 40
2.553758294979732
  1
ヤスダインテリアサプライ株式会社
 41
1.0194908945184
  7
MS Gothic
100
AcDbText
  0
TEXT
  5
6C
330
1F
100
AcDbEntity
  8
外枠
  6
Continuous
 62
   250
420
  2367521
100
AcDbText
 10
227.7635273953072
 20
161.7763665048245
 30
0.0
 40
2.150533301035563
  1
材質
 41
1.028502464294433
  7
MS Gothic
100
AcDbText
  0
TEXT
  5
6D
330
1F
100
AcDbEntity
  8
外枠
  6
Continuous
 62
   250
420
  2367521
100
AcDbText
 10
232.7757967427735
 20
156.199681315683
 30
0.0
 40
2.016124969720841
  1
 ステンレスSUS304（18.8CR）/HL仕上
 41
1.066277118757659
  7
MS Gothic
100
AcDbText
  0
TEXT
  5
6E
330
1F
100
AcDbEntity
  8
外枠
  6
Continuous
 62
   250
420
  2367521
100
AcDbText
 10
232.7757967427735
 20
181.9845273775436
 30
0.0
 40
2.688166626294454
  1
スロープバー　XS-05
 41
1.018795294510691
  7
MS Gothic
100
AcDbText
  0
HATCH
  5
6F
330
1F
100
AcDbEntity
  8
ISS138金台
  6
Continuous
 62
     7
420
 16777215
370
    50
100
AcDbHatch
 10
0.0
 20
0.0
 30
0.0
210
0.0
220
0.0
230
1.0
  2
SOLID
 70
     1
 71
     0
 91
        1
 92
        3
 72
     0
 73
     1
 93
        5
 10
113.7721988969174
 20
103.4159190435013
 10
113.7721988969174
 20
105.6662876790021
 10
118.6422934621765
 20
108.2348647074832
 10
128.5221919784817
 20
108.1685358544483
 10
128.5221919784817
 20
103.4159190435013
 97
        0
 75
     1
 76
     1
 98
        0
  0
LWPOLYLINE
  5
70
330
1F
100
AcDbEntity
  8
ISS138金台
  6
Continuous
 62
     7
420
 16777215
370
    50
100
AcDbPolyline
 90
        6
 70
     0
 43
0.0
 10
113.7721988969174
 20
103.4159190435013
 10
113.7721988969174
 20
105.6662876790021
 10
118.6422934621765
 20
108.2348647074832
 10
128.5221919784817
 20
108.1685358544483
 10
128.5221919784817
 20
103.4159190435013
 10
113.7721988969174
 20
103.4159190435013
  0
LWPOLYLINE
  5
71
330
1F
100
AcDbEntity
  8
ISS138金台
  6
Continuous
 62
   250
420
  2367521
370
    25
100
AcDbPolyline
 90
        6
 70
     0
 43
0.0
 10
113.7721988969174
 20
103.4159190435013
 10
113.7721988969174
 20
105.6662876790021
 10
118.6422934621765
 20
108.2348647074832
 10
128.5221919784817
 20
108.1685358544483
 10
128.5221919784817
 20
103.4159190435013
 10
113.7721988969174
 20
103.4159190435013
  0
LINE
  5
72
330
1F
100
AcDbEntity
  8
ISS138金台
  6
Continuous
 62
   250
420
  2367521
370
    13
100
AcDbLine
 10
118.512660980535
 20
114.569910744746
 30
0.0
 11
118.512660980535
 21
109.5647038429201
 31
0.0
  0
LINE
  5
73
330
1F
100
AcDbEntity
  8
ISS138金台
  6
Continuous
 62
   250
420
  2367521
370
    13
100
AcDbLine
 10
128.589048361755
 20
114.569910744746
 30
0.0
 11
128.589048361755
 21
109.5647038429201
 31
0.0
  0
LINE
  5
74
330
1F
100
AcDbEntity
  8
ISS138金台
  6
Continuous
 62
   250
420
  2367521
370
    13
100
AcDbLine
 10
118.512660980535
 20
114.0848305416633
 30
0.0
 11
128.589048361755
 21
114.0848305416633
 31
0.0
  0
LINE
  5
75
330
1F
100
AcDbEntity
  8
ISS138金台
  6
Continuous
 62
   250
420
  2367521
370
    13
100
AcDbLine
 10
129.3090733075385
 20
108.2498831703924
 30
0.0
 11
134.3142802093644
 21
108.2498831703924
 31
0.0
  0
LINE
  5
76
330
1F
100
AcDbEntity
  8
ISS138金台
  6
Continuous
 62
   250
420
  2367521
370
    13
100
AcDbLine
 10
129.3090733075385
 20
103.4159190435013
 30
0.0
 11
134.3142802093644
 21
103.4159190435013
 31
0.0
  0
LINE
  5
77
330
1F
100
AcDbEntity
  8
ISS138金台
  6
Continuous
 62
   250
420
  2367521
370
    13
100
AcDbLine
 10
133.8069899066533
 20
108.2498831703924
 30
0.0
 11
133.8069899066533
 21
103.415768320576
 31
0.0
  0
LINE
  5
78
330
1F
100
AcDbEntity
  8
ISS138金台
  6
Continuous
 62
   250
420
  2367521
370
    13
100
AcDbLine
 10
114.3382388427078
 20
102.0757553876845
 30
0.0
 11
114.3382388427078
 21
92.08756244958445
 31
0.0
  0
LINE
  5
79
330
1F
100
AcDbEntity
  8
ISS138金台
  6
Continuous
 62
   250
420
  2367521
370
    13
100
AcDbLine
 10
128.4712260978995
 20
102.0757553876845
 30
0.0
 11
128.4712260978995
 21
92.08756244958445
 31
0.0
  0
LINE
  5
7A
330
1F
100
AcDbEntity
  8
ISS138金台
  6
Continuous
 62
   250
420
  2367521
370
    13
100
AcDbLine
 10
114.3382388427078
 20
92.5948527522956
 30
0.0
 11
128.4712260978995
 21
92.5948527522956
 31
0.0
  0
HATCH
  5
7B
330
1F
100
AcDbEntity
  8
ISS138金台
  6
Continuous
 62
   250
420
  2367521
370
    13
100
AcDbHatch
 10
0.0
 20
0.0
 30
0.0
210
0.0
220
0.0
230
1.0
  2
SOLID
 70
     1
 71
     0
 91
        1
 92
        3
 72
     0
 73
     1
 93
       67
 10
114.3382388427078
 20
92.34473882376025
 10
114.3637863785383
 20
92.34603073454815
 10
114.3885695338193
 20
92.34983110544918
 10
114.4125021811649
 20
92.35599997946136
 10
114.4354551294964
 20
92.36442969735234
 10
114.4572884218117
 20
92.37496953619686
 10
114.4778836329553
 20
92.38751183676263
 10
114.4971115718484
 20
92.40191664204758
 10
114.5148430474122
 20
92.41806552689619
 10
114.5309704004143
 20
92.4358400661529
 10
114.5453429079296
 20
92.45510030281568
 10
114.5578636766489
 20
92.47572781172897
 10
114.568381983647
 20
92.49758263589078
 10
114.5767794037682
 20
92.52055711606873
 10
114.5829375118572
 20
92.54451129526083
 10
114.5867163509117
 20
92.56932674831154
 10
114.5880082616996
 20
92.59486351821883
 10
114.5880082616996
 20
92.59486351821883
 10
114.586727116835
 20
92.62040028812609
 10
114.5829375118572
 20
92.6452157411768
 10
114.576768637845
 20
92.66915915444568
 10
114.5683712177237
 20
92.69214440054688
 10
114.5578529107257
 20
92.71399922470866
 10
114.5453429079296
 20
92.73461596769872
 10
114.5309704004143
 20
92.7538762043615
 10
114.5148430474122
 20
92.77163997769497
 10
114.4971115718484
 20
92.78779962846683
 10
114.4778836329553
 20
92.8022044337518
 10
114.4572884218117
 20
92.81474673431754
 10
114.4354551294964
 20
92.82529733908531
 10
114.4125129470881
 20
92.83371629105305
 10
114.3885695338193
 20
92.83988516506523
 10
114.363775612615
 20
92.84368553596627
 10
114.3382388427078
 20
92.84497744675414
 10
114.3382388427078
 20
92.84497744675414
 10
114.3127020728005
 20
92.84368553596627
 10
114.2879081515962
 20
92.83988516506523
 10
114.2639539724041
 20
92.83370552512983
 10
114.2410225559191
 20
92.82529733908531
 10
114.2191892636038
 20
92.81474673431754
 10
114.1985940524602
 20
92.8022044337518
 10
114.1793661135671
 20
92.78779962846683
 10
114.1616346380033
 20
92.77163997769497
 10
114.1455072850012
 20
92.7538762043615
 10
114.1311347774859
 20
92.73461596769872
 10
114.1186140087666
 20
92.71398845878542
 10
114.1080957017685
 20
92.69213363462364
 10
114.0996982816472
 20
92.66916992036892
 10
114.0935401735583
 20
92.6452157411768
 10
114.0897613345037
 20
92.62040028812609
 10
114.0884694237159
 20
92.59486351821883
 10
114.0884694237159
 20
92.59486351821883
 10
114.0897613345037
 20
92.5693159823883
 10
114.0935401735583
 20
92.54451129526083
 10
114.099687515724
 20
92.52055711606873
 10
114.1081064676918
 20
92.49758263589078
 10
114.1186140087666
 20
92.47572781172897
 10
114.1311240115626
 20
92.45510030281568
 10
114.1455072850012
 20
92.4358400661529
 10
114.1616346380033
 20
92.41806552689619
 10
114.1793661135671
 20
92.40191664204758
 10
114.1985940524602
 20
92.38750107083939
 10
114.2191892636038
 20
92.37496953619686
 10
114.2410225559191
 20
92.3644189314291
 10
114.2639647383273
 20
92.35599997946136
 10
114.2879081515962
 20
92.34983110544918
 10
114.3127020728005
 20
92.34603073454815
 97
        0
 75
     1
 76
     1
 98
        0
  0
LWPOLYLINE
  5
7C
330
1F
100
AcDbEntity
  8
ISS138金台
  6
Continuous
 62
   250
420
  2367521
370
    13
100
AcDbPolyline
 90
       68
 70
     0
 43
0.0
 10
114.3382388427078
 20
92.34473882376025
 10
114.3637863785383
 20
92.34603073454815
 10
114.3885695338193
 20
92.34983110544918
 10
114.4125021811649
 20
92.35599997946136
 10
114.4354551294964
 20
92.36442969735234
 10
114.4572884218117
 20
92.37496953619686
 10
114.4778836329553
 20
92.38751183676263
 10
114.4971115718484
 20
92.40191664204758
 10
114.5148430474122
 20
92.41806552689619
 10
114.5309704004143
 20
92.4358400661529
 10
114.5453429079296
 20
92.45510030281568
 10
114.5578636766489
 20
92.47572781172897
 10
114.568381983647
 20
92.49758263589078
 10
114.5767794037682
 20
92.52055711606873
 10
114.5829375118572
 20
92.54451129526083
 10
114.5867163509117
 20
92.56932674831154
 10
114.5880082616996
 20
92.59486351821883
 10
114.5880082616996
 20
92.59486351821883
 10
114.586727116835
 20
92.62040028812609
 10
114.5829375118572
 20
92.6452157411768
 10
114.576768637845
 20
92.66915915444568
 10
114.5683712177237
 20
92.69214440054688
 10
114.5578529107257
 20
92.71399922470866
 10
114.5453429079296
 20
92.73461596769872
 10
114.5309704004143
 20
92.7538762043615
 10
114.5148430474122
 20
92.77163997769497
 10
114.4971115718484
 20
92.78779962846683
 10
114.4778836329553
 20
92.8022044337518
 10
114.4572884218117
 20
92.81474673431754
 10
114.4354551294964
 20
92.82529733908531
 10
114.4125129470881
 20
92.83371629105305
 10
114.3885695338193
 20
92.83988516506523
 10
114.363775612615
 20
92.84368553596627
 10
114.3382388427078
 20
92.84497744675414
 10
114.3382388427078
 20
92.84497744675414
 10
114.3127020728005
 20
92.84368553596627
 10
114.2879081515962
 20
92.83988516506523
 10
114.2639539724041
 20
92.83370552512983
 10
114.2410225559191
 20
92.82529733908531
 10
114.2191892636038
 20
92.81474673431754
 10
114.1985940524602
 20
92.8022044337518
 10
114.1793661135671
 20
92.78779962846683
 10
114.1616346380033
 20
92.77163997769497
 10
114.1455072850012
 20
92.7538762043615
 10
114.1311347774859
 20
92.73461596769872
 10
114.1186140087666
 20
92.71398845878542
 10
114.1080957017685
 20
92.69213363462364
 10
114.0996982816472
 20
92.66916992036892
 10
114.0935401735583
 20
92.6452157411768
 10
114.0897613345037
 20
92.62040028812609
 10
114.0884694237159
 20
92.59486351821883
 10
114.0884694237159
 20
92.59486351821883
 10
114.0897613345037
 20
92.5693159823883
 10
114.0935401735583
 20
92.54451129526083
 10
114.099687515724
 20
92.52055711606873
 10
114.1081064676918
 20
92.49758263589078
 10
114.1186140087666
 20
92.47572781172897
 10
114.1311240115626
 20
92.45510030281568
 10
114.1455072850012
 20
92.4358400661529
 10
114.1616346380033
 20
92.41806552689619
 10
114.1793661135671
 20
92.40191664204758
 10
114.1985940524602
 20
92.38750107083939
 10
114.2191892636038
 20
92.37496953619686
 10
114.2410225559191
 20
92.3644189314291
 10
114.2639647383273
 20
92.35599997946136
 10
114.2879081515962
 20
92.34983110544918
 10
114.3127020728005
 20
92.34603073454815
 10
114.3382388427078
 20
92.34473882376025
  0
HATCH
  5
7D
330
1F
100
AcDbEntity
  8
ISS138金台
  6
Continuous
 62
   250
420
  2367521
370
    13
100
AcDbHatch
 10
0.0
 20
0.0
 30
0.0
210
0.0
220
0.0
230
1.0
  2
SOLID
 70
     1
 71
     0
 91
        1
 92
        3
 72
     0
 73
     1
 93
       67
 10
128.4712260978995
 20
92.34473882376025
 10
128.49677363373
 20
92.34603073454815
 10
128.5215783208575
 20
92.34983110544918
 10
128.5455217341263
 20
92.35599997946136
 10
128.5684962143043
 20
92.36442969735234
 10
128.5903510384661
 20
92.37496953619686
 10
128.6109893133026
 20
92.38751183676263
 10
128.6302387840422
 20
92.40191664204758
 10
128.6480133232989
 20
92.41806552689619
 10
128.6641729740707
 20
92.4358400661529
 10
128.6785777793557
 20
92.45510030281568
 10
128.6911200799215
 20
92.47572781172897
 10
128.7016706846892
 20
92.49758263589078
 10
128.710089636657
 20
92.52055711606873
 10
128.7162585106691
 20
92.54451129526083
 10
128.7200588815702
 20
92.56932674831154
 10
128.7213507923581
 20
92.59486351821883
 10
128.7213507923581
 20
92.59486351821883
 10
128.7200481156469
 20
92.62040028812609
 10
128.7162692765924
 20
92.6452157411768
 10
128.710089636657
 20
92.66915915444568
 10
128.701659918766
 20
92.69214440054688
 10
128.6911093139982
 20
92.71399922470866
 10
128.6785777793557
 20
92.73461596769872
 10
128.6641729740707
 20
92.7538762043615
 10
128.6480133232989
 20
92.77163997769497
 10
128.6302495499654
 20
92.78779962846683
 10
128.6109785473794
 20
92.8022044337518
 10
128.5903618043893
 20
92.81474673431754
 10
128.5684962143043
 20
92.82529733908531
 10
128.5455325000496
 20
92.83371629105305
 10
128.5215783208575
 20
92.83988516506523
 10
128.4967628678068
 20
92.84368553596627
 10
128.4712260978995
 20
92.84497744675414
 10
128.4712260978995
 20
92.84497744675414
 10
128.4456893279922
 20
92.84368553596627
 10
128.4208846408648
 20
92.83988516506523
 10
128.3969304616726
 20
92.83370552512983
 10
128.3739559814947
 20
92.82529733908531
 10
128.3520903914097
 20
92.81474673431754
 10
128.3314628824963
 20
92.8022044337518
 10
128.3122026458336
 20
92.78779962846683
 10
128.2944388725001
 20
92.77163997769497
 10
128.2782899876515
 20
92.7538762043615
 10
128.2638744164433
 20
92.73461596769872
 10
128.2513321158775
 20
92.71398845878542
 10
128.2407815111098
 20
92.69213363462364
 10
128.232362559142
 20
92.66916992036892
 10
128.2261936851299
 20
92.6452157411768
 10
128.2223933142288
 20
92.62040028812609
 10
128.2211014034409
 20
92.59486351821883
 10
128.2211014034409
 20
92.59486351821883
 10
128.222404080152
 20
92.5693159823883
 10
128.2261936851299
 20
92.54451129526083
 10
128.2323733250653
 20
92.52055711606873
 10
128.240792277033
 20
92.49758263589078
 10
128.2513213499543
 20
92.47572781172897
 10
128.2638744164433
 20
92.45510030281568
 10
128.2782899876515
 20
92.4358400661529
 10
128.2944388725001
 20
92.41806552689619
 10
128.3122134117568
 20
92.40191664204758
 10
128.3314628824963
 20
92.38750107083939
 10
128.3520903914097
 20
92.37496953619686
 10
128.3739559814947
 20
92.3644189314291
 10
128.3969196957494
 20
92.35599997946136
 10
128.4208738749415
 20
92.34983110544918
 10
128.4456893279922
 20
92.34603073454815
 97
        0
 75
     1
 76
     1
 98
        0
  0
LWPOLYLINE
  5
7E
330
1F
100
AcDbEntity
  8
ISS138金台
  6
Continuous
 62
   250
420
  2367521
370
    13
100
AcDbPolyline
 90
       68
 70
     0
 43
0.0
 10
128.4712260978995
 20
92.34473882376025
 10
128.49677363373
 20
92.34603073454815
 10
128.5215783208575
 20
92.34983110544918
 10
128.5455217341263
 20
92.35599997946136
 10
128.5684962143043
 20
92.36442969735234
 10
128.5903510384661
 20
92.37496953619686
 10
128.6109893133026
 20
92.38751183676263
 10
128.6302387840422
 20
92.40191664204758
 10
128.6480133232989
 20
92.41806552689619
 10
128.6641729740707
 20
92.4358400661529
 10
128.6785777793557
 20
92.45510030281568
 10
128.6911200799215
 20
92.47572781172897
 10
128.7016706846892
 20
92.49758263589078
 10
128.710089636657
 20
92.52055711606873
 10
128.7162585106691
 20
92.54451129526083
 10
128.7200588815702
 20
92.56932674831154
 10
128.7213507923581
 20
92.59486351821883
 10
128.7213507923581
 20
92.59486351821883
 10
128.7200481156469
 20
92.62040028812609
 10
128.7162692765924
 20
92.6452157411768
 10
128.710089636657
 20
92.66915915444568
 10
128.701659918766
 20
92.69214440054688
 10
128.6911093139982
 20
92.71399922470866
 10
128.6785777793557
 20
92.73461596769872
 10
128.6641729740707
 20
92.7538762043615
 10
128.6480133232989
 20
92.77163997769497
 10
128.6302495499654
 20
92.78779962846683
 10
128.6109785473794
 20
92.8022044337518
 10
128.5903618043893
 20
92.81474673431754
 10
128.5684962143043
 20
92.82529733908531
 10
128.5455325000496
 20
92.83371629105305
 10
128.5215783208575
 20
92.83988516506523
 10
128.4967628678068
 20
92.84368553596627
 10
128.4712260978995
 20
92.84497744675414
 10
128.4712260978995
 20
92.84497744675414
 10
128.4456893279922
 20
92.84368553596627
 10
128.4208846408648
 20
92.83988516506523
 10
128.3969304616726
 20
92.83370552512983
 10
128.3739559814947
 20
92.82529733908531
 10
128.3520903914097
 20
92.81474673431754
 10
128.3314628824963
 20
92.8022044337518
 10
128.3122026458336
 20
92.78779962846683
 10
128.2944388725001
 20
92.77163997769497
 10
128.2782899876515
 20
92.7538762043615
 10
128.2638744164433
 20
92.73461596769872
 10
128.2513321158775
 20
92.71398845878542
 10
128.2407815111098
 20
92.69213363462364
 10
128.232362559142
 20
92.66916992036892
 10
128.2261936851299
 20
92.6452157411768
 10
128.2223933142288
 20
92.62040028812609
 10
128.2211014034409
 20
92.59486351821883
 10
128.2211014034409
 20
92.59486351821883
 10
128.222404080152
 20
92.5693159823883
 10
128.2261936851299
 20
92.54451129526083
 10
128.2323733250653
 20
92.52055711606873
 10
128.240792277033
 20
92.49758263589078
 10
128.2513213499543
 20
92.47572781172897
 10
128.2638744164433
 20
92.45510030281568
 10
128.2782899876515
 20
92.4358400661529
 10
128.2944388725001
 20
92.41806552689619
 10
128.3122134117568
 20
92.40191664204758
 10
128.3314628824963
 20
92.38750107083939
 10
128.3520903914097
 20
92.37496953619686
 10
128.3739559814947
 20
92.3644189314291
 10
128.3969196957494
 20
92.35599997946136
 10
128.4208738749415
 20
92.34983110544918
 10
128.4456893279922
 20
92.34603073454815
 10
128.4712260978995
 20
92.34473882376025
  0
HATCH
  5
7F
330
1F
100
AcDbEntity
  8
ISS138金台
  6
Continuous
 62
   250
420
  2367521
370
    13
100
AcDbHatch
 10
0.0
 20
0.0
 30
0.0
210
0.0
220
0.0
230
1.0
  2
SOLID
 70
     1
 71
     0
 91
        1
 92
        3
 72
     0
 73
     1
 93
       67
 10
133.8069899066533
 20
107.9997800077803
 10
133.8325374424838
 20
108.0010719185682
 10
133.8573421296112
 20
108.0048507576228
 10
133.8812855428801
 20
108.0110088657117
 10
133.904260023058
 20
108.0194170517562
 10
133.9261148472198
 20
108.0299353587543
 10
133.9467423561331
 20
108.0424561274736
 10
133.9660025927959
 20
108.0568501668353
 10
133.9837771320526
 20
108.0729775198375
 10
133.9999367828245
 20
108.0907305272477
 10
134.0143415881095
 20
108.1099907639105
 10
134.0268838886752
 20
108.1306075069006
 10
134.037434493443
 20
108.1524838629088
 10
134.0458534454107
 20
108.17546910901
 10
134.0520223194229
 20
108.1994555859718
 10
134.0558226903239
 20
108.2243033367922
 10
134.0571146011118
 20
108.2499047022389
 10
134.0571146011118
 20
108.2499047022389
 10
134.0558119244007
 20
108.2754414721462
 10
134.0520330853461
 20
108.3002353933504
 10
134.0458534454107
 20
108.3241788066193
 10
134.0374237275198
 20
108.3471209890275
 10
134.026873122752
 20
108.3689542813429
 10
134.0143415881095
 20
108.3895387265632
 10
133.9999367828245
 20
108.4087666654563
 10
133.9837771320526
 20
108.4265089069433
 10
133.9660133587192
 20
108.4426254940223
 10
133.9467423561331
 20
108.4570087674607
 10
133.9261256131431
 20
108.4695187702568
 10
133.904260023058
 20
108.4800370772549
 10
133.8812963088033
 20
108.4884344973761
 10
133.8573421296112
 20
108.4945926054651
 10
133.8325266765605
 20
108.4983714445197
 10
133.8069899066533
 20
108.4996633553076
 10
133.8069899066533
 20
108.4996633553076
 10
133.781453136746
 20
108.4983822104429
 10
133.7566484496185
 20
108.4945818395419
 10
133.7326942704264
 20
108.4884452632994
 10
133.7097197902484
 20
108.4800263113316
 10
133.6878542001634
 20
108.4695187702568
 10
133.6672266912501
 20
108.4570087674607
 10
133.6479664545873
 20
108.4426362599455
 10
133.6302026812538
 20
108.4265089069433
 10
133.6140537964052
 20
108.4087666654563
 10
133.5996382251971
 20
108.3895494924865
 10
133.5870959246313
 20
108.3689542813429
 10
133.5765453198635
 20
108.3471209890275
 10
133.5681263678958
 20
108.3241680406961
 10
133.5619574938836
 20
108.3002353933504
 10
133.5581571229825
 20
108.2754414721462
 10
133.5568652121947
 20
108.2499047022389
 10
133.5568652121947
 20
108.2499047022389
 10
133.5581678889058
 20
108.2243033367922
 10
133.5619574938836
 20
108.1994555859718
 10
133.568137133819
 20
108.1754583430868
 10
133.5765560857868
 20
108.1524730969856
 10
133.587085158708
 20
108.1306075069006
 10
133.5996274592738
 20
108.1099907639105
 10
133.6140537964052
 20
108.090741293171
 10
133.6302026812538
 20
108.0729775198375
 10
133.6479772205105
 20
108.0568394009121
 10
133.6672266912501
 20
108.0424561274736
 10
133.6878542001634
 20
108.0299353587543
 10
133.7097197902484
 20
108.0194170517562
 10
133.7326835045031
 20
108.0110088657117
 10
133.7566376836953
 20
108.0048507576228
 10
133.781453136746
 20
108.0010719185682
 97
        0
 75
     1
 76
     1
 98
        0
  0
LWPOLYLINE
  5
80
330
1F
100
AcDbEntity
  8
ISS138金台
  6
Continuous
 62
   250
420
  2367521
370
    13
100
AcDbPolyline
 90
       68
 70
     0
 43
0.0
 10
133.8069899066533
 20
107.9997800077803
 10
133.8325374424838
 20
108.0010719185682
 10
133.8573421296112
 20
108.0048507576228
 10
133.8812855428801
 20
108.0110088657117
 10
133.904260023058
 20
108.0194170517562
 10
133.9261148472198
 20
108.0299353587543
 10
133.9467423561331
 20
108.0424561274736
 10
133.9660025927959
 20
108.0568501668353
 10
133.9837771320526
 20
108.0729775198375
 10
133.9999367828245
 20
108.0907305272477
 10
134.0143415881095
 20
108.1099907639105
 10
134.0268838886752
 20
108.1306075069006
 10
134.037434493443
 20
108.1524838629088
 10
134.0458534454107
 20
108.17546910901
 10
134.0520223194229
 20
108.1994555859718
 10
134.0558226903239
 20
108.2243033367922
 10
134.0571146011118
 20
108.2499047022389
 10
134.0571146011118
 20
108.2499047022389
 10
134.0558119244007
 20
108.2754414721462
 10
134.0520330853461
 20
108.3002353933504
 10
134.0458534454107
 20
108.3241788066193
 10
134.0374237275198
 20
108.3471209890275
 10
134.026873122752
 20
108.3689542813429
 10
134.0143415881095
 20
108.3895387265632
 10
133.9999367828245
 20
108.4087666654563
 10
133.9837771320526
 20
108.4265089069433
 10
133.9660133587192
 20
108.4426254940223
 10
133.9467423561331
 20
108.4570087674607
 10
133.9261256131431
 20
108.4695187702568
 10
133.904260023058
 20
108.4800370772549
 10
133.8812963088033
 20
108.4884344973761
 10
133.8573421296112
 20
108.4945926054651
 10
133.8325266765605
 20
108.4983714445197
 10
133.8069899066533
 20
108.4996633553076
 10
133.8069899066533
 20
108.4996633553076
 10
133.781453136746
 20
108.4983822104429
 10
133.7566484496185
 20
108.4945818395419
 10
133.7326942704264
 20
108.4884452632994
 10
133.7097197902484
 20
108.4800263113316
 10
133.6878542001634
 20
108.4695187702568
 10
133.6672266912501
 20
108.4570087674607
 10
133.6479664545873
 20
108.4426362599455
 10
133.6302026812538
 20
108.4265089069433
 10
133.6140537964052
 20
108.4087666654563
 10
133.5996382251971
 20
108.3895494924865
 10
133.5870959246313
 20
108.3689542813429
 10
133.5765453198635
 20
108.3471209890275
 10
133.5681263678958
 20
108.3241680406961
 10
133.5619574938836
 20
108.3002353933504
 10
133.5581571229825
 20
108.2754414721462
 10
133.5568652121947
 20
108.2499047022389
 10
133.5568652121947
 20
108.2499047022389
 10
133.5581678889058
 20
108.2243033367922
 10
133.5619574938836
 20
108.1994555859718
 10
133.568137133819
 20
108.1754583430868
 10
133.5765560857868
 20
108.1524730969856
 10
133.587085158708
 20
108.1306075069006
 10
133.5996274592738
 20
108.1099907639105
 10
133.6140537964052
 20
108.090741293171
 10
133.6302026812538
 20
108.0729775198375
 10
133.6479772205105
 20
108.0568394009121
 10
133.6672266912501
 20
108.0424561274736
 10
133.6878542001634
 20
108.0299353587543
 10
133.7097197902484
 20
108.0194170517562
 10
133.7326835045031
 20
108.0110088657117
 10
133.7566376836953
 20
108.0048507576228
 10
133.781453136746
 20
108.0010719185682
 10
133.8069899066533
 20
107.9997800077803
  0
HATCH
  5
81
330
1F
100
AcDbEntity
  8
ISS138金台
  6
Continuous
 62
   250
420
  2367521
370
    13
100
AcDbHatch
 10
0.0
 20
0.0
 30
0.0
210
0.0
220
0.0
230
1.0
  2
SOLID
 70
     1
 71
     0
 91
        1
 92
        3
 72
     0
 73
     1
 93
       67
 10
133.8069899066533
 20
103.1657943490427
 10
133.8325374424838
 20
103.1670862598306
 10
133.8573421296112
 20
103.1708543329619
 10
133.8812855428801
 20
103.1770016751276
 10
133.904260023058
 20
103.1853883293257
 10
133.9261148472198
 20
103.195874338554
 10
133.9467423561331
 20
103.2083843413501
 10
133.9660025927959
 20
103.2227460829421
 10
133.9837771320526
 20
103.238862670021
 10
133.9999367828245
 20
103.2566049115081
 10
134.0143415881095
 20
103.2758436163244
 10
134.0268838886752
 20
103.2964711252377
 10
134.037434493443
 20
103.3183474812459
 10
134.0458534454107
 20
103.3413542591936
 10
134.0520223194229
 20
103.3653622680019
 10
134.0558226903239
 20
103.3902638484384
 10
134.0571146011118
 20
103.4159190435013
 10
134.0571146011118
 20
103.4159190435013
 10
134.0558119244007
 20
103.4414558134085
 10
134.0520330853461
 20
103.4662389686895
 10
134.0458534454107
 20
103.490160850112
 10
134.0374237275198
 20
103.5130707347505
 10
134.026873122752
 20
103.5348824952194
 10
134.0143415881095
 20
103.5554561745165
 10
133.9999367828245
 20
103.5746518156399
 10
133.9837771320526
 20
103.592350993434
 10
133.9660133587192
 20
103.6084352827432
 10
133.9467423561331
 20
103.6227754924888
 10
133.9261256131431
 20
103.6352639634384
 10
133.904260023058
 20
103.6457499726667
 10
133.8812963088033
 20
103.6541258609416
 10
133.8573421296112
 20
103.660262437184
 10
133.8325266765605
 20
103.6640412762386
 10
133.8069899066533
 20
103.6653224211033
 10
133.8069899066533
 20
103.6653224211033
 10
133.781453136746
 20
103.6640412762386
 10
133.7566484496185
 20
103.660262437184
 10
133.7326942704264
 20
103.6541258609416
 10
133.7097197902484
 20
103.6457499726667
 10
133.6878542001634
 20
103.6352531975151
 10
133.6672266912501
 20
103.6227754924888
 10
133.6479664545873
 20
103.6084352827432
 10
133.6302026812538
 20
103.5923402275108
 10
133.6140537964052
 20
103.5746410497167
 10
133.5996382251971
 20
103.5554454085933
 10
133.5870959246313
 20
103.5348824952194
 10
133.5765453198635
 20
103.5130815006738
 10
133.5681263678958
 20
103.4901500841887
 10
133.5619574938836
 20
103.4662389686895
 10
133.5581571229825
 20
103.4414558134085
 10
133.5568652121947
 20
103.4159190435013
 10
133.5568652121947
 20
103.4159190435013
 10
133.5581678889058
 20
103.3902746143617
 10
133.5619574938836
 20
103.3653622680019
 10
133.568137133819
 20
103.3413542591936
 10
133.5765560857868
 20
103.3183474812459
 10
133.587085158708
 20
103.2964603593145
 10
133.5996274592738
 20
103.2758543822476
 10
133.6140537964052
 20
103.2566049115081
 10
133.6302026812538
 20
103.238862670021
 10
133.6479772205105
 20
103.2227460829421
 10
133.6672266912501
 20
103.2083843413501
 10
133.6878542001634
 20
103.195874338554
 10
133.7097197902484
 20
103.1853883293257
 10
133.7326835045031
 20
103.1770016751276
 10
133.7566376836953
 20
103.1708543329619
 10
133.781453136746
 20
103.1670754939074
 97
        0
 75
     1
 76
     1
 98
        0
  0
LWPOLYLINE
  5
82
330
1F
100
AcDbEntity
  8
ISS138金台
  6
Continuous
 62
   250
420
  2367521
370
    13
100
AcDbPolyline
 90
       68
 70
     0
 43
0.0
 10
133.8069899066533
 20
103.1657943490427
 10
133.8325374424838
 20
103.1670862598306
 10
133.8573421296112
 20
103.1708543329619
 10
133.8812855428801
 20
103.1770016751276
 10
133.904260023058
 20
103.1853883293257
 10
133.9261148472198
 20
103.195874338554
 10
133.9467423561331
 20
103.2083843413501
 10
133.9660025927959
 20
103.2227460829421
 10
133.9837771320526
 20
103.238862670021
 10
133.9999367828245
 20
103.2566049115081
 10
134.0143415881095
 20
103.2758436163244
 10
134.0268838886752
 20
103.2964711252377
 10
134.037434493443
 20
103.3183474812459
 10
134.0458534454107
 20
103.3413542591936
 10
134.0520223194229
 20
103.3653622680019
 10
134.0558226903239
 20
103.3902638484384
 10
134.0571146011118
 20
103.4159190435013
 10
134.0571146011118
 20
103.4159190435013
 10
134.0558119244007
 20
103.4414558134085
 10
134.0520330853461
 20
103.4662389686895
 10
134.0458534454107
 20
103.490160850112
 10
134.0374237275198
 20
103.5130707347505
 10
134.026873122752
 20
103.5348824952194
 10
134.0143415881095
 20
103.5554561745165
 10
133.9999367828245
 20
103.5746518156399
 10
133.9837771320526
 20
103.592350993434
 10
133.9660133587192
 20
103.6084352827432
 10
133.9467423561331
 20
103.6227754924888
 10
133.9261256131431
 20
103.6352639634384
 10
133.904260023058
 20
103.6457499726667
 10
133.8812963088033
 20
103.6541258609416
 10
133.8573421296112
 20
103.660262437184
 10
133.8325266765605
 20
103.6640412762386
 10
133.8069899066533
 20
103.6653224211033
 10
133.8069899066533
 20
103.6653224211033
 10
133.781453136746
 20
103.6640412762386
 10
133.7566484496185
 20
103.660262437184
 10
133.7326942704264
 20
103.6541258609416
 10
133.7097197902484
 20
103.6457499726667
 10
133.6878542001634
 20
103.6352531975151
 10
133.6672266912501
 20
103.6227754924888
 10
133.6479664545873
 20
103.6084352827432
 10
133.6302026812538
 20
103.5923402275108
 10
133.6140537964052
 20
103.5746410497167
 10
133.5996382251971
 20
103.5554454085933
 10
133.5870959246313
 20
103.5348824952194
 10
133.5765453198635
 20
103.5130815006738
 10
133.5681263678958
 20
103.4901500841887
 10
133.5619574938836
 20
103.4662389686895
 10
133.5581571229825
 20
103.4414558134085
 10
133.5568652121947
 20
103.4159190435013
 10
133.5568652121947
 20
103.4159190435013
 10
133.5581678889058
 20
103.3902746143617
 10
133.5619574938836
 20
103.3653622680019
 10
133.568137133819
 20
103.3413542591936
 10
133.5765560857868
 20
103.3183474812459
 10
133.587085158708
 20
103.2964603593145
 10
133.5996274592738
 20
103.2758543822476
 10
133.6140537964052
 20
103.2566049115081
 10
133.6302026812538
 20
103.238862670021
 10
133.6479772205105
 20
103.2227460829421
 10
133.6672266912501
 20
103.2083843413501
 10
133.6878542001634
 20
103.195874338554
 10
133.7097197902484
 20
103.1853883293257
 10
133.7326835045031
 20
103.1770016751276
 10
133.7566376836953
 20
103.1708543329619
 10
133.781453136746
 20
103.1670754939074
 10
133.8069899066533
 20
103.1657943490427
  0
HATCH
  5
83
330
1F
100
AcDbEntity
  8
ISS138金台
  6
Continuous
 62
   250
420
  2367521
370
    13
100
AcDbHatch
 10
0.0
 20
0.0
 30
0.0
210
0.0
220
0.0
230
1.0
  2
SOLID
 70
     1
 71
     0
 91
        1
 92
        3
 72
     0
 73
     1
 93
       67
 10
118.512660980535
 20
113.8348996338229
 10
118.5381977504423
 20
113.8361807786876
 10
118.5630024375698
 20
113.8399703836654
 10
118.5869350849155
 20
113.8461284917543
 10
118.6098772673237
 20
113.8545259118756
 10
118.6316997937158
 20
113.8650442188737
 10
118.6523057707826
 20
113.8775542216697
 10
118.6715337096757
 20
113.8919374951082
 10
118.6892651852395
 20
113.9080540821871
 10
118.7053925382416
 20
113.9257855577509
 10
118.7197758116802
 20
113.9450242625672
 10
118.732275048553
 20
113.9656194737108
 10
118.742793355551
 20
113.9874527660262
 10
118.7512015415955
 20
114.0103949484344
 10
118.7573596496845
 20
114.0343275957801
 10
118.761138488739
 20
114.0591322829075
 10
118.7624303995269
 20
114.0846690528148
 10
118.7624303995269
 20
114.0846690528148
 10
118.7611492546623
 20
114.1102704182615
 10
118.7573596496845
 20
114.1351181690819
 10
118.7511907756723
 20
114.1591046460437
 10
118.7428041214743
 20
114.1820791262217
 10
118.732275048553
 20
114.2039662481532
 10
118.7197758116802
 20
114.22457222522
 10
118.7053925382416
 20
114.2438324618827
 10
118.6892651852395
 20
114.261585469293
 10
118.6715337096757
 20
114.2777235882184
 10
118.6523057707826
 20
114.2921068616569
 10
118.631710559639
 20
114.3046276303762
 10
118.6098772673237
 20
114.3151459373742
 10
118.5869350849155
 20
114.3235541234187
 10
118.5629916716466
 20
114.3297122315077
 10
118.5381977504423
 20
114.3334910705623
 10
118.512660980535
 20
114.3347829813501
 10
118.512660980535
 20
114.3347829813501
 10
118.4871242106278
 20
114.333480304639
 10
118.4623302894235
 20
114.3297014655844
 10
118.4383761102314
 20
114.3235541234187
 10
118.4154446937464
 20
114.3151459373742
 10
118.3936006355078
 20
114.3046276303762
 10
118.3730161902875
 20
114.2921068616569
 10
118.3537882513944
 20
114.2777235882184
 10
118.3360567758306
 20
114.261585469293
 10
118.3199294228285
 20
114.2438216959595
 10
118.30554614939
 20
114.22457222522
 10
118.2930361465939
 20
114.2039554822299
 10
118.2825286055191
 20
114.1820898921449
 10
118.2741204194746
 20
114.1591046460437
 10
118.2679623113856
 20
114.1351181690819
 10
118.2641834723311
 20
114.1102704182615
 10
118.2628915615432
 20
114.0846690528148
 10
118.2628915615432
 20
114.0846690528148
 10
118.2641834723311
 20
114.0591215169843
 10
118.2679623113856
 20
114.0343383617033
 10
118.2741204194746
 20
114.0103949484344
 10
118.2825178395958
 20
113.9874527660262
 10
118.2930361465939
 20
113.9656194737108
 10
118.3055569153132
 20
113.9450242625672
 10
118.3199294228285
 20
113.9257855577509
 10
118.3360567758306
 20
113.9080540821871
 10
118.3537882513944
 20
113.8919374951082
 10
118.3730161902875
 20
113.8775542216697
 10
118.3936114014311
 20
113.8650442188737
 10
118.4154446937464
 20
113.8545259118756
 10
118.4383976420779
 20
113.8461284917543
 10
118.4623302894235
 20
113.8399703836654
 10
118.4871242106278
 20
113.8361915446108
 97
        0
 75
     1
 76
     1
 98
        0
  0
LWPOLYLINE
  5
84
330
1F
100
AcDbEntity
  8
ISS138金台
  6
Continuous
 62
   250
420
  2367521
370
    13
100
AcDbPolyline
 90
       68
 70
     0
 43
0.0
 10
118.512660980535
 20
113.8348996338229
 10
118.5381977504423
 20
113.8361807786876
 10
118.5630024375698
 20
113.8399703836654
 10
118.5869350849155
 20
113.8461284917543
 10
118.6098772673237
 20
113.8545259118756
 10
118.6316997937158
 20
113.8650442188737
 10
118.6523057707826
 20
113.8775542216697
 10
118.6715337096757
 20
113.8919374951082
 10
118.6892651852395
 20
113.9080540821871
 10
118.7053925382416
 20
113.9257855577509
 10
118.7197758116802
 20
113.9450242625672
 10
118.732275048553
 20
113.9656194737108
 10
118.742793355551
 20
113.9874527660262
 10
118.7512015415955
 20
114.0103949484344
 10
118.7573596496845
 20
114.0343275957801
 10
118.761138488739
 20
114.0591322829075
 10
118.7624303995269
 20
114.0846690528148
 10
118.7624303995269
 20
114.0846690528148
 10
118.7611492546623
 20
114.1102704182615
 10
118.7573596496845
 20
114.1351181690819
 10
118.7511907756723
 20
114.1591046460437
 10
118.7428041214743
 20
114.1820791262217
 10
118.732275048553
 20
114.2039662481532
 10
118.7197758116802
 20
114.22457222522
 10
118.7053925382416
 20
114.2438324618827
 10
118.6892651852395
 20
114.261585469293
 10
118.6715337096757
 20
114.2777235882184
 10
118.6523057707826
 20
114.2921068616569
 10
118.631710559639
 20
114.3046276303762
 10
118.6098772673237
 20
114.3151459373742
 10
118.5869350849155
 20
114.3235541234187
 10
118.5629916716466
 20
114.3297122315077
 10
118.5381977504423
 20
114.3334910705623
 10
118.512660980535
 20
114.3347829813501
 10
118.512660980535
 20
114.3347829813501
 10
118.4871242106278
 20
114.333480304639
 10
118.4623302894235
 20
114.3297014655844
 10
118.4383761102314
 20
114.3235541234187
 10
118.4154446937464
 20
114.3151459373742
 10
118.3936006355078
 20
114.3046276303762
 10
118.3730161902875
 20
114.2921068616569
 10
118.3537882513944
 20
114.2777235882184
 10
118.3360567758306
 20
114.261585469293
 10
118.3199294228285
 20
114.2438216959595
 10
118.30554614939
 20
114.22457222522
 10
118.2930361465939
 20
114.2039554822299
 10
118.2825286055191
 20
114.1820898921449
 10
118.2741204194746
 20
114.1591046460437
 10
118.2679623113856
 20
114.1351181690819
 10
118.2641834723311
 20
114.1102704182615
 10
118.2628915615432
 20
114.0846690528148
 10
118.2628915615432
 20
114.0846690528148
 10
118.2641834723311
 20
114.0591215169843
 10
118.2679623113856
 20
114.0343383617033
 10
118.2741204194746
 20
114.0103949484344
 10
118.2825178395958
 20
113.9874527660262
 10
118.2930361465939
 20
113.9656194737108
 10
118.3055569153132
 20
113.9450242625672
 10
118.3199294228285
 20
113.9257855577509
 10
118.3360567758306
 20
113.9080540821871
 10
118.3537882513944
 20
113.8919374951082
 10
118.3730161902875
 20
113.8775542216697
 10
118.3936114014311
 20
113.8650442188737
 10
118.4154446937464
 20
113.8545259118756
 10
118.4383976420779
 20
113.8461284917543
 10
118.4623302894235
 20
113.8399703836654
 10
118.4871242106278
 20
113.8361915446108
 10
118.512660980535
 20
113.8348996338229
  0
HATCH
  5
85
330
1F
100
AcDbEntity
  8
ISS138金台
  6
Continuous
 62
   250
420
  2367521
370
    13
100
AcDbHatch
 10
0.0
 20
0.0
 30
0.0
210
0.0
220
0.0
230
1.0
  2
SOLID
 70
     1
 71
     0
 91
        1
 92
        3
 72
     0
 73
     1
 93
       67
 10
128.589048361755
 20
113.8348996338229
 10
128.6145958975855
 20
113.8361807786876
 10
128.639400584713
 20
113.8399703836654
 10
128.6633439979818
 20
113.8461284917543
 10
128.6863184781598
 20
113.8545259118756
 10
128.7081840682448
 20
113.8650442188737
 10
128.7288115771581
 20
113.8775542216697
 10
128.7480718138209
 20
113.8919374951082
 10
128.7658355871544
 20
113.9080540821871
 10
128.7819952379262
 20
113.9257855577509
 10
128.7964000432112
 20
113.9450242625672
 10
128.8089423437769
 20
113.9656194737108
 10
128.8194929485447
 20
113.9874527660262
 10
128.8279119005124
 20
114.0103949484344
 10
128.8340807745246
 20
114.0343275957801
 10
128.8378811454257
 20
114.0591322829075
 10
128.8391730562136
 20
114.0846690528148
 10
128.8391730562136
 20
114.0846690528148
 10
128.8378703795024
 20
114.1102704182615
 10
128.8340807745246
 20
114.1351181690819
 10
128.8279119005124
 20
114.1591046460437
 10
128.8194821826215
 20
114.1820791262217
 10
128.8089423437769
 20
114.2039662481532
 10
128.7964108091344
 20
114.22457222522
 10
128.781984472003
 20
114.2438324618827
 10
128.7658355871544
 20
114.261585469293
 10
128.7480718138209
 20
114.2777235882184
 10
128.7288008112349
 20
114.2921068616569
 10
128.7081840682448
 20
114.3046276303762
 10
128.6863184781598
 20
114.3151459373742
 10
128.6633547639051
 20
114.3235541234187
 10
128.639400584713
 20
114.3297122315077
 10
128.6145851316622
 20
114.3334910705623
 10
128.589048361755
 20
114.3347829813501
 10
128.589048361755
 20
114.3347829813501
 10
128.5635008259245
 20
114.333480304639
 10
128.538696138797
 20
114.3297014655844
 10
128.5147419596049
 20
114.3235541234187
 10
128.4917782453502
 20
114.3151459373742
 10
128.4699126552651
 20
114.3046276303762
 10
128.4492959122751
 20
114.2921068616569
 10
128.4300356756123
 20
114.2777235882184
 10
128.4122611363556
 20
114.261585469293
 10
128.396112251507
 20
114.2438216959595
 10
128.3816966802988
 20
114.22457222522
 10
128.369154379733
 20
114.2039554822299
 10
128.3586037749653
 20
114.1820898921449
 10
128.3501848229975
 20
114.1591046460437
 10
128.3440159489853
 20
114.1351181690819
 10
128.3402155780843
 20
114.1102704182615
 10
128.3389236672964
 20
114.0846690528148
 10
128.3389236672964
 20
114.0846690528148
 10
128.3402155780843
 20
114.0591215169843
 10
128.3440051830621
 20
114.0343383617033
 10
128.3501848229975
 20
114.0103949484344
 10
128.3586145408885
 20
113.9874527660262
 10
128.3691436138098
 20
113.9656194737108
 10
128.3816966802988
 20
113.9450242625672
 10
128.396112251507
 20
113.9257855577509
 10
128.4122611363556
 20
113.9080540821871
 10
128.4300356756123
 20
113.8919374951082
 10
128.4492959122751
 20
113.8775542216697
 10
128.4699126552651
 20
113.8650442188737
 10
128.4917782453502
 20
113.8545259118756
 10
128.5147419596049
 20
113.8461284917543
 10
128.538696138797
 20
113.8399703836654
 10
128.5635115918477
 20
113.8361915446108
 97
        0
 75
     1
 76
     1
 98
        0
  0
LWPOLYLINE
  5
86
330
1F
100
AcDbEntity
  8
ISS138金台
  6
Continuous
 62
   250
420
  2367521
370
    13
100
AcDbPolyline
 90
       68
 70
     0
 43
0.0
 10
128.589048361755
 20
113.8348996338229
 10
128.6145958975855
 20
113.8361807786876
 10
128.639400584713
 20
113.8399703836654
 10
128.6633439979818
 20
113.8461284917543
 10
128.6863184781598
 20
113.8545259118756
 10
128.7081840682448
 20
113.8650442188737
 10
128.7288115771581
 20
113.8775542216697
 10
128.7480718138209
 20
113.8919374951082
 10
128.7658355871544
 20
113.9080540821871
 10
128.7819952379262
 20
113.9257855577509
 10
128.7964000432112
 20
113.9450242625672
 10
128.8089423437769
 20
113.9656194737108
 10
128.8194929485447
 20
113.9874527660262
 10
128.8279119005124
 20
114.0103949484344
 10
128.8340807745246
 20
114.0343275957801
 10
128.8378811454257
 20
114.0591322829075
 10
128.8391730562136
 20
114.0846690528148
 10
128.8391730562136
 20
114.0846690528148
 10
128.8378703795024
 20
114.1102704182615
 10
128.8340807745246
 20
114.1351181690819
 10
128.8279119005124
 20
114.1591046460437
 10
128.8194821826215
 20
114.1820791262217
 10
128.8089423437769
 20
114.2039662481532
 10
128.7964108091344
 20
114.22457222522
 10
128.781984472003
 20
114.2438324618827
 10
128.7658355871544
 20
114.261585469293
 10
128.7480718138209
 20
114.2777235882184
 10
128.7288008112349
 20
114.2921068616569
 10
128.7081840682448
 20
114.3046276303762
 10
128.6863184781598
 20
114.3151459373742
 10
128.6633547639051
 20
114.3235541234187
 10
128.639400584713
 20
114.3297122315077
 10
128.6145851316622
 20
114.3334910705623
 10
128.589048361755
 20
114.3347829813501
 10
128.589048361755
 20
114.3347829813501
 10
128.5635008259245
 20
114.333480304639
 10
128.538696138797
 20
114.3297014655844
 10
128.5147419596049
 20
114.3235541234187
 10
128.4917782453502
 20
114.3151459373742
 10
128.4699126552651
 20
114.3046276303762
 10
128.4492959122751
 20
114.2921068616569
 10
128.4300356756123
 20
114.2777235882184
 10
128.4122611363556
 20
114.261585469293
 10
128.396112251507
 20
114.2438216959595
 10
128.3816966802988
 20
114.22457222522
 10
128.369154379733
 20
114.2039554822299
 10
128.3586037749653
 20
114.1820898921449
 10
128.3501848229975
 20
114.1591046460437
 10
128.3440159489853
 20
114.1351181690819
 10
128.3402155780843
 20
114.1102704182615
 10
128.3389236672964
 20
114.0846690528148
 10
128.3389236672964
 20
114.0846690528148
 10
128.3402155780843
 20
114.0591215169843
 10
128.3440051830621
 20
114.0343383617033
 10
128.3501848229975
 20
114.0103949484344
 10
128.3586145408885
 20
113.9874527660262
 10
128.3691436138098
 20
113.9656194737108
 10
128.3816966802988
 20
113.9450242625672
 10
128.396112251507
 20
113.9257855577509
 10
128.4122611363556
 20
113.9080540821871
 10
128.4300356756123
 20
113.8919374951082
 10
128.4492959122751
 20
113.8775542216697
 10
128.4699126552651
 20
113.8650442188737
 10
128.4917782453502
 20
113.8545259118756
 10
128.5147419596049
 20
113.8461284917543
 10
128.538696138797
 20
113.8399703836654
 10
128.5635115918477
 20
113.8361915446108
 10
128.589048361755
 20
113.8348996338229
  0
TEXT
  5
87
330
1F
100
AcDbEntity
  8
ISS138金台
  6
Continuous
 62
   250
420
  2367521
100
AcDbText
 10
121.5998217651981
 20
114.6150662996234
 30
0.0
 40
2.150533301035563
  1
10
 41
1.09912633895874
  7
MS Gothic
100
AcDbText
  0
TEXT
  5
88
330
1F
100
AcDbEntity
  8
ISS138金台
  6
Continuous
 62
   250
420
  2367521
100
AcDbText
 10
133.1448285254033
 20
105.0598970355424
 30
0.0
 40
2.150533301035563
  1
5
 50
90.00000250447816
 41
0.8079986572265625
  7
MS Gothic
100
AcDbText
  0
LINE
  5
89
330
1F
100
AcDbEntity
  8
ISS138金台
  6
Continuous
 62
   250
420
  2367521
370
    13
100
AcDbLine
 10
112.6222260409243
 20
103.4159190435013
 30
0.0
 11
107.6170191390985
 21
103.4159190435013
 31
0.0
  0
LINE
  5
8A
330
1F
100
AcDbEntity
  8
ISS138金台
  6
Continuous
 62
   250
420
  2367521
370
    13
100
AcDbLine
 10
112.6222260409243
 20
105.5670258667993
 30
0.0
 11
107.6170191390985
 21
105.5670258667993
 31
0.0
  0
LINE
  5
8B
330
1F
100
AcDbEntity
  8
ISS138金台
  6
Continuous
 62
   250
420
  2367521
370
    13
100
AcDbLine
 10
108.1244816965813
 20
103.4152192584912
 30
0.0
 11
108.1244816965813
 21
105.5671658238013
 31
0.0
  0
HATCH
  5
8C
330
1F
100
AcDbEntity
  8
ISS138金台
  6
Continuous
 62
   250
420
  2367521
370
    13
100
AcDbHatch
 10
0.0
 20
0.0
 30
0.0
210
0.0
220
0.0
230
1.0
  2
SOLID
 70
     1
 71
     0
 91
        1
 92
        3
 72
     0
 73
     1
 93
       67
 10
108.1242986758864
 20
103.6653224211033
 10
108.0987619059791
 20
103.6640412762386
 10
108.0739464529284
 20
103.660262437184
 10
108.0499922737363
 20
103.6541258609416
 10
108.0270285594816
 20
103.6457392067435
 10
108.0051629693965
 20
103.6352531975151
 10
107.9845462264065
 20
103.6227754924888
 10
107.9652859897437
 20
103.6084352827432
 10
107.947511450487
 20
103.5923402275108
 10
107.9313517997151
 20
103.5746302837934
 10
107.9169469944302
 20
103.5554346426701
 10
107.9044046938644
 20
103.5348824952194
 10
107.8938540890966
 20
103.5130707347505
 10
107.8854351371289
 20
103.4901500841887
 10
107.8792662631167
 20
103.4662282027663
 10
107.8754658922157
 20
103.4414450474853
 10
107.8741739814278
 20
103.415908277578
 10
107.8741739814278
 20
103.415908277578
 10
107.8754658922157
 20
103.3902638484384
 10
107.8792662631167
 20
103.3653515020786
 10
107.8854351371289
 20
103.3413434932704
 10
107.8938540890966
 20
103.3183259493995
 10
107.9044046938644
 20
103.2964603593145
 10
107.9169469944302
 20
103.2758436163244
 10
107.9313625656384
 20
103.2565941455848
 10
107.947511450487
 20
103.238862670021
 10
107.9652752238205
 20
103.2227460829421
 10
107.9845462264065
 20
103.2083735754269
 10
108.0051629693965
 20
103.195874338554
 10
108.0270285594816
 20
103.1853775634024
 10
108.0499922737363
 20
103.1770016751276
 10
108.0739464529284
 20
103.1708543329619
 10
108.0987619059791
 20
103.1670754939074
 10
108.1242986758864
 20
103.1657943490427
 10
108.1242986758864
 20
103.1657943490427
 10
108.1498354457936
 20
103.1670862598306
 10
108.1746508988443
 20
103.1708543329619
 10
108.1986050780365
 20
103.1770016751276
 10
108.2215687922912
 20
103.1853883293257
 10
108.243423616453
 20
103.195874338554
 10
108.2640618912895
 20
103.2083735754269
 10
108.2833113620291
 20
103.2227460829421
 10
108.3010859012858
 20
103.238862670021
 10
108.3172347861344
 20
103.2565941455848
 10
108.3316503573426
 20
103.2758436163244
 10
108.3441926579083
 20
103.2964603593145
 10
108.3547432626761
 20
103.3183367153227
 10
108.3631622146438
 20
103.3413434932704
 10
108.369331088656
 20
103.3653515020786
 10
108.373131459557
 20
103.3902530825152
 10
108.3744233703449
 20
103.415908277578
 10
108.3744233703449
 20
103.415908277578
 10
108.373131459557
 20
103.4414450474853
 10
108.3693418545792
 20
103.4662282027663
 10
108.3631622146438
 20
103.4901500841887
 10
108.3547324967528
 20
103.5130599688273
 10
108.3441926579083
 20
103.5348717292961
 10
108.3316611232658
 20
103.5554454085933
 10
108.3172455520576
 20
103.5746410497167
 10
108.3010859012858
 20
103.5923402275108
 10
108.2833113620291
 20
103.60842451682
 10
108.2640618912895
 20
103.6227754924888
 10
108.243423616453
 20
103.6352531975151
 10
108.2215687922912
 20
103.6457499726667
 10
108.1985943121132
 20
103.6541258609416
 10
108.1746508988443
 20
103.660262437184
 10
108.1498354457936
 20
103.6640412762386
 97
        0
 75
     1
 76
     1
 98
        0
  0
LWPOLYLINE
  5
8D
330
1F
100
AcDbEntity
  8
ISS138金台
  6
Continuous
 62
   250
420
  2367521
370
    13
100
AcDbPolyline
 90
       68
 70
     0
 43
0.0
 10
108.1242986758864
 20
103.6653224211033
 10
108.0987619059791
 20
103.6640412762386
 10
108.0739464529284
 20
103.660262437184
 10
108.0499922737363
 20
103.6541258609416
 10
108.0270285594816
 20
103.6457392067435
 10
108.0051629693965
 20
103.6352531975151
 10
107.9845462264065
 20
103.6227754924888
 10
107.9652859897437
 20
103.6084352827432
 10
107.947511450487
 20
103.5923402275108
 10
107.9313517997151
 20
103.5746302837934
 10
107.9169469944302
 20
103.5554346426701
 10
107.9044046938644
 20
103.5348824952194
 10
107.8938540890966
 20
103.5130707347505
 10
107.8854351371289
 20
103.4901500841887
 10
107.8792662631167
 20
103.4662282027663
 10
107.8754658922157
 20
103.4414450474853
 10
107.8741739814278
 20
103.415908277578
 10
107.8741739814278
 20
103.415908277578
 10
107.8754658922157
 20
103.3902638484384
 10
107.8792662631167
 20
103.3653515020786
 10
107.8854351371289
 20
103.3413434932704
 10
107.8938540890966
 20
103.3183259493995
 10
107.9044046938644
 20
103.2964603593145
 10
107.9169469944302
 20
103.2758436163244
 10
107.9313625656384
 20
103.2565941455848
 10
107.947511450487
 20
103.238862670021
 10
107.9652752238205
 20
103.2227460829421
 10
107.9845462264065
 20
103.2083735754269
 10
108.0051629693965
 20
103.195874338554
 10
108.0270285594816
 20
103.1853775634024
 10
108.0499922737363
 20
103.1770016751276
 10
108.0739464529284
 20
103.1708543329619
 10
108.0987619059791
 20
103.1670754939074
 10
108.1242986758864
 20
103.1657943490427
 10
108.1242986758864
 20
103.1657943490427
 10
108.1498354457936
 20
103.1670862598306
 10
108.1746508988443
 20
103.1708543329619
 10
108.1986050780365
 20
103.1770016751276
 10
108.2215687922912
 20
103.1853883293257
 10
108.243423616453
 20
103.195874338554
 10
108.2640618912895
 20
103.2083735754269
 10
108.2833113620291
 20
103.2227460829421
 10
108.3010859012858
 20
103.238862670021
 10
108.3172347861344
 20
103.2565941455848
 10
108.3316503573426
 20
103.2758436163244
 10
108.3441926579083
 20
103.2964603593145
 10
108.3547432626761
 20
103.3183367153227
 10
108.3631622146438
 20
103.3413434932704
 10
108.369331088656
 20
103.3653515020786
 10
108.373131459557
 20
103.3902530825152
 10
108.3744233703449
 20
103.415908277578
 10
108.3744233703449
 20
103.415908277578
 10
108.373131459557
 20
103.4414450474853
 10
108.3693418545792
 20
103.4662282027663
 10
108.3631622146438
 20
103.4901500841887
 10
108.3547324967528
 20
103.5130599688273
 10
108.3441926579083
 20
103.5348717292961
 10
108.3316611232658
 20
103.5554454085933
 10
108.3172455520576
 20
103.5746410497167
 10
108.3010859012858
 20
103.5923402275108
 10
108.2833113620291
 20
103.60842451682
 10
108.2640618912895
 20
103.6227754924888
 10
108.243423616453
 20
103.6352531975151
 10
108.2215687922912
 20
103.6457499726667
 10
108.1985943121132
 20
103.6541258609416
 10
108.1746508988443
 20
103.660262437184
 10
108.1498354457936
 20
103.6640412762386
 10
108.1242986758864
 20
103.6653224211033
  0
HATCH
  5
8E
330
1F
100
AcDbEntity
  8
ISS138金台
  6
Continuous
 62
   250
420
  2367521
370
    13
100
AcDbHatch
 10
0.0
 20
0.0
 30
0.0
210
0.0
220
0.0
230
1.0
  2
SOLID
 70
     1
 71
     0
 91
        1
 92
        3
 72
     0
 73
     1
 93
       67
 10
108.1242986758864
 20
105.8171290294114
 10
108.0987619059791
 20
105.8158371186235
 10
108.0739464529284
 20
105.8120475136457
 10
108.0499922737363
 20
105.8058678737103
 10
108.0270285594816
 20
105.7974381558193
 10
108.0051629693965
 20
105.7868983169748
 10
107.9845462264065
 20
105.774356016409
 10
107.9652859897437
 20
105.7599404452008
 10
107.947511450487
 20
105.7438023262754
 10
107.9313517997151
 20
105.7260277870187
 10
107.9169469944302
 20
105.7067675503559
 10
107.9044046938644
 20
105.6861400414426
 10
107.8938540890966
 20
105.6642852172808
 10
107.8854351371289
 20
105.6413107371029
 10
107.8792662631167
 20
105.6173565579108
 10
107.8754658922157
 20
105.5925411048601
 10
107.8741739814278
 20
105.5670043349528
 10
107.8741739814278
 20
105.5670043349528
 10
107.8754658922157
 20
105.5414567991223
 10
107.8792662631167
 20
105.5166521119948
 10
107.8854351371289
 20
105.4926979328027
 10
107.8938540890966
 20
105.469734218548
 10
107.9044046938644
 20
105.4478793943862
 10
107.9169469944302
 20
105.4272518854729
 10
107.9313625656384
 20
105.4079916488101
 10
107.947511450487
 20
105.3902278754766
 10
107.9652752238205
 20
105.3740682247048
 10
107.9845462264065
 20
105.3596634194198
 10
108.0051629693965
 20
105.3471211188541
 10
108.0270285594816
 20
105.3365705140863
 10
108.0499922737363
 20
105.3281515621186
 10
108.0739464529284
 20
105.3219826881064
 10
108.0987619059791
 20
105.3181823172054
 10
108.1242986758864
 20
105.3168904064175
 10
108.1242986758864
 20
105.3168904064175
 10
108.1498354457936
 20
105.3181823172054
 10
108.1746508988443
 20
105.3219826881064
 10
108.1986050780365
 20
105.3281515621186
 10
108.2215687922912
 20
105.3365705140863
 10
108.243423616453
 20
105.3471211188541
 10
108.2640618912895
 20
105.3596526534966
 10
108.2833113620291
 20
105.3740574587816
 10
108.3010859012858
 20
105.3902278754766
 10
108.3172347861344
 20
105.4079916488101
 10
108.3316503573426
 20
105.4272518854729
 10
108.3441926579083
 20
105.4478793943862
 10
108.3547432626761
 20
105.469734218548
 10
108.3631622146438
 20
105.4927086987259
 10
108.369331088656
 20
105.5166521119948
 10
108.373131459557
 20
105.5414675650455
 10
108.3744233703449
 20
105.5670043349528
 10
108.3744233703449
 20
105.5670043349528
 10
108.373131459557
 20
105.5925411048601
 10
108.3693418545792
 20
105.6173565579108
 10
108.3631622146438
 20
105.6413107371029
 10
108.3547324967528
 20
105.6642744513576
 10
108.3441926579083
 20
105.6861400414426
 10
108.3316611232658
 20
105.7067675503559
 10
108.3172455520576
 20
105.7260277870187
 10
108.3010859012858
 20
105.7438023262754
 10
108.2833113620291
 20
105.759951211124
 10
108.2640618912895
 20
105.7743667823322
 10
108.243423616453
 20
105.7868983169748
 10
108.2215687922912
 20
105.7974489217425
 10
108.1985943121132
 20
105.8058678737103
 10
108.1746508988443
 20
105.8120367477224
 10
108.1498354457936
 20
105.8158371186235
 97
        0
 75
     1
 76
     1
 98
        0
  0
LWPOLYLINE
  5
8F
330
1F
100
AcDbEntity
  8
ISS138金台
  6
Continuous
 62
   250
420
  2367521
370
    13
100
AcDbPolyline
 90
       68
 70
     0
 43
0.0
 10
108.1242986758864
 20
105.8171290294114
 10
108.0987619059791
 20
105.8158371186235
 10
108.0739464529284
 20
105.8120475136457
 10
108.0499922737363
 20
105.8058678737103
 10
108.0270285594816
 20
105.7974381558193
 10
108.0051629693965
 20
105.7868983169748
 10
107.9845462264065
 20
105.774356016409
 10
107.9652859897437
 20
105.7599404452008
 10
107.947511450487
 20
105.7438023262754
 10
107.9313517997151
 20
105.7260277870187
 10
107.9169469944302
 20
105.7067675503559
 10
107.9044046938644
 20
105.6861400414426
 10
107.8938540890966
 20
105.6642852172808
 10
107.8854351371289
 20
105.6413107371029
 10
107.8792662631167
 20
105.6173565579108
 10
107.8754658922157
 20
105.5925411048601
 10
107.8741739814278
 20
105.5670043349528
 10
107.8741739814278
 20
105.5670043349528
 10
107.8754658922157
 20
105.5414567991223
 10
107.8792662631167
 20
105.5166521119948
 10
107.8854351371289
 20
105.4926979328027
 10
107.8938540890966
 20
105.469734218548
 10
107.9044046938644
 20
105.4478793943862
 10
107.9169469944302
 20
105.4272518854729
 10
107.9313625656384
 20
105.4079916488101
 10
107.947511450487
 20
105.3902278754766
 10
107.9652752238205
 20
105.3740682247048
 10
107.9845462264065
 20
105.3596634194198
 10
108.0051629693965
 20
105.3471211188541
 10
108.0270285594816
 20
105.3365705140863
 10
108.0499922737363
 20
105.3281515621186
 10
108.0739464529284
 20
105.3219826881064
 10
108.0987619059791
 20
105.3181823172054
 10
108.1242986758864
 20
105.3168904064175
 10
108.1242986758864
 20
105.3168904064175
 10
108.1498354457936
 20
105.3181823172054
 10
108.1746508988443
 20
105.3219826881064
 10
108.1986050780365
 20
105.3281515621186
 10
108.2215687922912
 20
105.3365705140863
 10
108.243423616453
 20
105.3471211188541
 10
108.2640618912895
 20
105.3596526534966
 10
108.2833113620291
 20
105.3740574587816
 10
108.3010859012858
 20
105.3902278754766
 10
108.3172347861344
 20
105.4079916488101
 10
108.3316503573426
 20
105.4272518854729
 10
108.3441926579083
 20
105.4478793943862
 10
108.3547432626761
 20
105.469734218548
 10
108.3631622146438
 20
105.4927086987259
 10
108.369331088656
 20
105.5166521119948
 10
108.373131459557
 20
105.5414675650455
 10
108.3744233703449
 20
105.5670043349528
 10
108.3744233703449
 20
105.5670043349528
 10
108.373131459557
 20
105.5925411048601
 10
108.3693418545792
 20
105.6173565579108
 10
108.3631622146438
 20
105.6413107371029
 10
108.3547324967528
 20
105.6642744513576
 10
108.3441926579083
 20
105.6861400414426
 10
108.3316611232658
 20
105.7067675503559
 10
108.3172455520576
 20
105.7260277870187
 10
108.3010859012858
 20
105.7438023262754
 10
108.2833113620291
 20
105.759951211124
 10
108.2640618912895
 20
105.7743667823322
 10
108.243423616453
 20
105.7868983169748
 10
108.2215687922912
 20
105.7974489217425
 10
108.1985943121132
 20
105.8058678737103
 10
108.1746508988443
 20
105.8120367477224
 10
108.1498354457936
 20
105.8158371186235
 10
108.1242986758864
 20
105.8171290294114
  0
TEXT
  5
90
330
1F
100
AcDbEntity
  8
ISS138金台
  6
Continuous
 62
   250
420
  2367521
100
AcDbText
 10
106.217790355588
 20
102.0757553702903
 30
0.0
 40
2.150533301035563
  1
2.5
 50
90.00000250447816
 41
1.07800038655599
  7
MS Gothic
100
AcDbText
  0
TEXT
  5
91
330
1F
100
AcDbEntity
  8
ISS138金台
  6
Continuous
 62
   250
420
  2367521
100
AcDbText
 10
119.4536887984335
 20
93.36761246291212
 30
0.0
 40
2.150533301035563
  1
15
 41
1.112623214721679
  7
MS Gothic
100
AcDbText
  0
TEXT
  5
92
330
1F
100
AcDbEntity
  8
ISS138金台
  6
Continuous
 62
   140
420
    44526
100
AcDbText
 10
125.0703032465511
 20
98.85966207864487
 30
0.0
 40
1.881716638406118
  1
5
 41
1.010001046316964
  7
MS Gothic
100
AcDbText
  0
LINE
  5
93
330
1F
100
AcDbEntity
  8
ISS138金台
  6
UserDefined01
 62
   140
420
    44526
370
    13
100
AcDbLine
 10
123.3111729222219
 20
97.87962914862065
 30
0.0
 11
128.3110937557406
 21
97.87962914862065
 31
0.0
  0
HATCH
  5
94
330
1F
100
AcDbEntity
  8
ISS138金台
  6
Continuous
 62
   140
420
    44526
370
    13
100
AcDbHatch
 10
0.0
 20
0.0
 30
0.0
210
0.0
220
0.0
230
1.0
  2
SOLID
 70
     1
 71
     0
 91
        1
 92
        3
 72
     0
 73
     1
 93
        3
 10
122.4016461957015
 20
111.1300152512962
 10
124.1337863504871
 20
111.1293047003629
 10
123.268421441066
 20
109.6310649937247
 97
        0
 75
     1
 76
     1
 98
        0
  0
LWPOLYLINE
  5
95
330
1F
100
AcDbEntity
  8
ISS138金台
  6
Continuous
 62
   140
420
    44526
370
    13
100
AcDbPolyline
 90
        4
 70
     0
 43
0.0
 10
122.4016461957015
 20
111.1300152512962
 10
124.1337863504871
 20
111.1293047003629
 10
123.268421441066
 20
109.6310649937247
 10
122.4016461957015
 20
111.1300152512962
  0
ENDSEC
  0
SECTION
  2
OBJECTS
  0
DICTIONARY
  5
C
330
0
100
AcDbDictionary
281
     1
  3
ACAD_DETAILVIEWSTYLE
350
9D
  3
ACAD_GROUP
350
D
  3
ACAD_LAYOUT
350
1A
  3
ACAD_MATERIAL
350
43
  3
ACAD_MLEADERSTYLE
350
5B
  3
ACAD_MLINESTYLE
350
17
  3
ACAD_PLOTSETTINGS
350
19
  3
ACAD_PLOTSTYLENAME
350
E
  3
ACAD_SCALELIST
350
47
  3
ACAD_SECTIONVIEWSTYLE
350
9E
  3
ACAD_TABLESTYLE
350
59
  3
ACAD_VISUALSTYLE
350
2A
  3
ACDB_RECOMPOSE_DATA
350
9A
  3
AcDbVariableDictionary
350
96
  0
SUN
  5
5D
330
29
100
AcDbSun
 90
        1
290
     0
 63
     7
421
 16777215
 40
1.0
291
     1
 91
  2455826
 92
 54000000
292
     0
 70
     2
 71
   256
280
     1
  0
DICTIONARY
  5
9D
102
{ACAD_REACTORS
330
C
102
}
330
C
100
AcDbDictionary
281
     1
  0
DICTIONARY
  5
D
102
{ACAD_REACTORS
330
C
102
}
330
C
100
AcDbDictionary
281
     1
  0
DICTIONARY
  5
1A
102
{ACAD_REACTORS
330
C
102
}
330
C
100
AcDbDictionary
281
     1
  3
Layout1
350
1E
  3
Layout2
350
26
  3
Model
350
22
  0
DICTIONARY
  5
43
102
{ACAD_REACTORS
330
C
102
}
330
C
100
AcDbDictionary
281
     1
  3
ByBlock
350
45
  3
ByLayer
350
44
  3
Global
350
46
  0
DICTIONARY
  5
5B
102
{ACAD_REACTORS
330
C
102
}
330
C
100
AcDbDictionary
281
     1
  3
Standard
350
5C
  0
DICTIONARY
  5
17
102
{ACAD_REACTORS
330
C
102
}
330
C
100
AcDbDictionary
281
     1
  3
Standard
350
18
  0
DICTIONARY
  5
19
102
{ACAD_REACTORS
330
C
102
}
330
C
100
AcDbDictionary
281
     1
  0
ACDBDICTIONARYWDFLT
  5
E
102
{ACAD_REACTORS
330
C
102
}
330
C
100
AcDbDictionary
281
     1
  3
Normal
350
F
100
AcDbDictionaryWithDefault
340
F
  0
DICTIONARY
  5
47
102
{ACAD_REACTORS
330
C
102
}
330
C
100
AcDbDictionary
281
     1
  3
A0
350
48
  3
A1
350
49
  3
A2
350
4A
  3
A3
350
4B
  3
A4
350
4C
  3
A5
350
4D
  3
A6
350
4E
  3
A7
350
4F
  3
A8
350
50
  3
A9
350
51
  3
B0
350
52
  3
B1
350
53
  3
B2
350
54
  3
B3
350
55
  3
B4
350
56
  3
B5
350
57
  3
B6
350
58
  0
DICTIONARY
  5
9E
102
{ACAD_REACTORS
330
C
102
}
330
C
100
AcDbDictionary
281
     1
  0
DICTIONARY
  5
59
102
{ACAD_REACTORS
330
C
102
}
330
C
100
AcDbDictionary
281
     1
  3
Standard
350
5A
  0
DICTIONARY
  5
2A
102
{ACAD_REACTORS
330
C
102
}
330
C
100
AcDbDictionary
281
     1
  3
2dWireframe
350
2F
  3
Basic
350
32
  3
Brighten
350
36
  3
ColorChange
350
3A
  3
Conceptual
350
34
  3
Dim
350
35
  3
EdgeColorOff
350
3D
  3
Facepattern
350
39
  3
Flat
350
2B
  3
FlatWithEdges
350
2C
  3
Gouraud
350
2D
  3
GouraudWithEdges
350
2E
  3
Hidden
350
31
  3
JitterOff
350
3B
  3
Linepattern
350
38
  3
OverhangOff
350
3C
  3
Realistic
350
33
  3
Shaded
350
42
  3
Shaded with edges
350
41
  3
Shades of Gray
350
3E
  3
Sketchy
350
3F
  3
Thicken
350
37
  3
Wireframe
350
30
  3
X-Ray
350
40
  0
XRECORD
  5
9A
102
{ACAD_REACTORS
330
C
102
}
330
C
100
AcDbXrecord
280
     1
 90
        1
330
5A
  0
DICTIONARY
  5
96
102
{ACAD_REACTORS
330
C
102
}
330
C
100
AcDbDictionary
281
     1
  3
CANNOSCALE
350
97
  3
CENTEREXE
350
9F
  3
CENTERLTYPEFILE
350
A0
  3
CMLEADERSTYLE
350
9C
  3
CTABLESTYLE
350
9B
  0
LAYOUT
  5
1E
102
{ACAD_REACTORS
330
1A
102
}
330
1A
100
AcDbPlotSettings
  1

  2
none_device
  4

  6

 40
0.0
 41
0.0
 42
0.0
 43
0.0
 44
0.0
 45
0.0
 46
0.0
 47
0.0
 48
0.0
 49
0.0
140
0.0
141
0.0
142
1.0
143
1.0
 70
   688
 72
     1
 73
     0
 74
     5
  7

 75
    16
 76
     0
 77
     5
 78
   300
147
1.0
148
0.0
149
0.0
100
AcDbLayout
  1
Layout1
 70
     1
 71
     1
 10
0.0
 20
0.0
 11
420.0
 21
297.0
 12
0.0
 22
0.0
 32
0.0
 14
1.000000000000000E+20
 24
1.000000000000000E+20
 34
1.000000000000000E+20
 15
-1.000000000000000E+20
 25
-1.000000000000000E+20
 35
-1.000000000000000E+20
146
0.0
 13
0.0
 23
0.0
 33
0.0
 16
1.0
 26
0.0
 36
0.0
 17
0.0
 27
1.0
 37
0.0
 76
     0
330
1B
  0
LAYOUT
  5
26
102
{ACAD_REACTORS
330
1A
102
}
330
1A
100
AcDbPlotSettings
  1

  2
none_device
  4

  6

 40
0.0
 41
0.0
 42
0.0
 43
0.0
 44
0.0
 45
0.0
 46
0.0
 47
0.0
 48
0.0
 49
0.0
140
0.0
141
0.0
142
1.0
143
1.0
 70
   688
 72
     1
 73
     0
 74
     5
  7

 75
    16
 76
     0
 77
     5
 78
   300
147
1.0
148
0.0
149
0.0
100
AcDbLayout
  1
Layout2
 70
     1
 71
     2
 10
0.0
 20
0.0
 11
0.0
 21
0.0
 12
0.0
 22
0.0
 32
0.0
 14
0.0
 24
0.0
 34
0.0
 15
0.0
 25
0.0
 35
0.0
146
0.0
 13
0.0
 23
0.0
 33
0.0
 16
1.0
 26
0.0
 36
0.0
 17
0.0
 27
1.0
 37
0.0
 76
     0
330
23
  0
LAYOUT
  5
22
102
{ACAD_REACTORS
330
1A
102
}
330
1A
100
AcDbPlotSettings
  1

  2
none_device
  4
Letter_(8.50_x_11.00_Inches)
  6

 40
6.35
 41
6.35
 42
6.35000508
 43
6.35000508
 44
215.9
 45
279.4
 46
0.0
 47
0.0
 48
0.0
 49
0.0
140
0.0
141
0.0
142
1.0
143
1.0
 70
  1712
 72
     1
 73
     0
 74
     0
  7

 75
     0
 76
     0
 77
     5
 78
   300
147
1.0
148
0.0
149
0.0
100
AcDbLayout
  1
Model
 70
     1
 71
     0
 10
0.0
 20
0.0
 11
302.9997823349792
 21
216.0016055409748
 12
0.0
 22
0.0
 32
0.0
 14
0.0
 24
0.0
 34
0.0
 15
302.9997823349792
 25
216.0016055409748
 35
0.0
146
0.0
 13
0.0
 23
0.0
 33
0.0
 16
1.0
 26
0.0
 36
0.0
 17
0.0
 27
1.0
 37
0.0
 76
     0
330
1F
331
29
  0
MATERIAL
  5
45
102
{ACAD_REACTORS
330
43
102
}
330
43
100
AcDbMaterial
  1
ByBlock
 72
     1
 94
      127
  0
MATERIAL
  5
44
102
{ACAD_REACTORS
330
43
102
}
330
43
100
AcDbMaterial
  1
ByLayer
 72
     1
 94
      127
  0
MATERIAL
  5
46
102
{ACAD_REACTORS
330
43
102
}
330
43
100
AcDbMaterial
  1
Global
 72
     1
 94
      127
  0
MLEADERSTYLE
  5
5C
102
{ACAD_REACTORS
330
5B
102
}
330
5B
100
AcDbMLeaderStyle
179
     2
170
     2
171
     1
172
     0
 90
        2
 40
0.0
 41
0.0
173
     1
 91
-1056964608
340
14
 92
       -2
290
     1
 42
2.0
291
     1
 43
8.0
  3
Standard
341
0
 44
4.0
300

342
11
174
     1
178
     6
175
     1
176
     0
 93
-1056964608
 45
4.0
292
     0
297
     0
 46
4.0
343
0
 94
-1056964608
 47
1.0
 49
1.0
140
1.0
293
     1
141
0.0
294
     1
177
     0
142
1.0
295
     0
296
     0
143
3.75
271
     0
272
     9
273
     9
298
     0
  0
MLINESTYLE
  5
18
102
{ACAD_REACTORS
330
17
102
}
330
17
100
AcDbMlineStyle
  2
Standard
 70
     0
  3

 62
   256
 51
90.0
 52
90.0
 71
     2
 49
0.5
 62
   256
  6
BYLAYER
 49
-0.5
 62
   256
  6
BYLAYER
  0
ACDBPLACEHOLDER
  5
F
102
{ACAD_REACTORS
330
E
102
}
330
E
  0
SCALE
  5
48
102
{ACAD_REACTORS
330
47
102
}
330
47
100
AcDbScale
 70
     0
300
1:1
140
1.0
141
1.0
290
     1
  0
SCALE
  5
49
102
{ACAD_REACTORS
330
47
102
}
330
47
100
AcDbScale
 70
     0
300
1:2
140
1.0
141
2.0
290
     0
  0
SCALE
  5
4A
102
{ACAD_REACTORS
330
47
102
}
330
47
100
AcDbScale
 70
     0
300
1:4
140
1.0
141
4.0
290
     0
  0
SCALE
  5
4B
102
{ACAD_REACTORS
330
47
102
}
330
47
100
AcDbScale
 70
     0
300
1:5
140
1.0
141
5.0
290
     0
  0
SCALE
  5
4C
102
{ACAD_REACTORS
330
47
102
}
330
47
100
AcDbScale
 70
     0
300
1:8
140
1.0
141
8.0
290
     0
  0
SCALE
  5
4D
102
{ACAD_REACTORS
330
47
102
}
330
47
100
AcDbScale
 70
     0
300
1:10
140
1.0
141
10.0
290
     0
  0
SCALE
  5
4E
102
{ACAD_REACTORS
330
47
102
}
330
47
100
AcDbScale
 70
     0
300
1:16
140
1.0
141
16.0
290
     0
  0
SCALE
  5
4F
102
{ACAD_REACTORS
330
47
102
}
330
47
100
AcDbScale
 70
     0
300
1:20
140
1.0
141
20.0
290
     0
  0
SCALE
  5
50
102
{ACAD_REACTORS
330
47
102
}
330
47
100
AcDbScale
 70
     0
300
1:30
140
1.0
141
30.0
290
     0
  0
SCALE
  5
51
102
{ACAD_REACTORS
330
47
102
}
330
47
100
AcDbScale
 70
     0
300
1:40
140
1.0
141
40.0
290
     0
  0
SCALE
  5
52
102
{ACAD_REACTORS
330
47
102
}
330
47
100
AcDbScale
 70
     0
300
1:50
140
1.0
141
50.0
290
     0
  0
SCALE
  5
53
102
{ACAD_REACTORS
330
47
102
}
330
47
100
AcDbScale
 70
     0
300
1:100
140
1.0
141
100.0
290
     0
  0
SCALE
  5
54
102
{ACAD_REACTORS
330
47
102
}
330
47
100
AcDbScale
 70
     0
300
2:1
140
2.0
141
1.0
290
     0
  0
SCALE
  5
55
102
{ACAD_REACTORS
330
47
102
}
330
47
100
AcDbScale
 70
     0
300
4:1
140
4.0
141
1.0
290
     0
  0
SCALE
  5
56
102
{ACAD_REACTORS
330
47
102
}
330
47
100
AcDbScale
 70
     0
300
8:1
140
8.0
141
1.0
290
     0
  0
SCALE
  5
57
102
{ACAD_REACTORS
330
47
102
}
330
47
100
AcDbScale
 70
     0
300
10:1
140
10.0
141
1.0
290
     0
  0
SCALE
  5
58
102
{ACAD_REACTORS
330
47
102
}
330
47
100
AcDbScale
 70
     0
300
100:1
140
100.0
141
1.0
290
     0
  0
TABLESTYLE
  5
5A
102
{ACAD_REACTORS
330
59
102
}
102
{ACAD_XDICTIONARY
360
98
102
}
330
59
100
AcDbTableStyle
  3
Standard
 70
     0
 71
     0
 40
0.06
 41
0.06
280
     0
281
     0
  7
Standard
140
4.5
170
     2
 62
     0
 63
   257
283
     0
 90
        4
 91
        0
  1

274
    -2
284
     1
 64
     0
275
    -2
285
     1
 65
     0
276
    -2
286
     1
 66
     0
277
    -2
287
     1
 67
     0
278
    -2
288
     1
 68
     0
279
    -2
289
     1
 69
     0
  7
Standard
140
6.0
170
     5
 62
     0
 63
   257
283
     0
 90
        4
 91
        0
  1

274
    -2
284
     1
 64
     0
275
    -2
285
     1
 65
     0
276
    -2
286
     1
 66
     0
277
    -2
287
     1
 67
     0
278
    -2
288
     1
 68
     0
279
    -2
289
     1
 69
     0
  7
Standard
140
4.5
170
     5
 62
     0
 63
   257
283
     0
 90
        4
 91
        0
  1

274
    -2
284
     1
 64
     0
275
    -2
285
     1
 65
     0
276
    -2
286
     1
 66
     0
277
    -2
287
     1
 67
     0
278
    -2
288
     1
 68
     0
279
    -2
289
     1
 69
     0
  0
VISUALSTYLE
  5
2F
102
{ACAD_REACTORS
330
2A
102
}
330
2A
100
AcDbVisualStyle
  2
2dWireframe
 70
     4
177
     3
291
     0
 70
    58
 90
        0
176
     1
 90
        2
176
     1
 90
        0
176
     1
 90
        0
176
     1
 40
0.6
176
     1
 40
30.0
176
     1
 62
     7
420
 16777215
176
     1
 90
        1
176
     1
 90
        4
176
     1
 62
     7
176
     1
 62
   257
176
     1
 90
        1
176
     1
 90
        1
176
     1
 40
1.0
176
     1
 90
        0
176
     1
 62
   257
176
     1
 40
1.0
176
     1
 90
        1
176
     1
 90
        6
176
     1
 90
        2
176
     1
 62
     7
176
     1
 90
        5
176
     1
 90
        0
176
     1
 90
        0
176
     1
290
     0
176
     1
 90
        1
176
     1
 40
0.0
176
     1
 90
        0
176
     1
290
     1
176
     1
290
     1
176
     1
290
     0
176
     1
290
     0
176
     1
290
     0
176
     1
290
     0
176
     1
290
     0
176
     1
290
     0
176
     1
290
     0
176
     1
 90
       50
176
     1
 40
0.0
176
     1
 40
1.0
176
     1
 90
        0
176
     1
 62
    18
420
        0
176
     1
 90
       50
176
     1
 90
        3
176
     1
 62
     5
420
      255
176
     1
290
     0
176
     1
 90
       50
176
     1
 90
       50
176
     1
 90
       50
176
     1
290
     0
176
     1
 90
       50
176
     1
 62
   256
176
     0
 40
1.0
176
     0
 90
        2
176
     1
  1
strokes_ogs.tif
176
     1
290
     0
176
     1
 40
1.0
176
     1
 40
1.0
176
     1
  0
VISUALSTYLE
  5
32
102
{ACAD_REACTORS
330
2A
102
}
330
2A
100
AcDbVisualStyle
  2
Basic
 70
     7
177
     3
291
     1
 70
    58
 90
        1
176
     1
 90
        0
176
     1
 90
        1
176
     1
 90
        0
176
     1
 40
0.6
176
     1
 40
30.0
176
     1
 62
     7
420
 16777215
176
     1
 90
        0
176
     1
 90
        4
176
     1
 62
     7
176
     1
 62
   257
176
     1
 90
        1
176
     1
 90
        1
176
     1
 40
1.0
176
     1
 90
        8
176
     1
 62
     7
176
     1
 40
1.0
176
     1
 90
        1
176
     1
 90
        6
176
     1
 90
        2
176
     1
 62
     7
176
     1
 90
        5
176
     1
 90
        0
176
     1
 90
        0
176
     1
290
     0
176
     1
 90
        1
176
     1
 40
0.0
176
     1
 90
        0
176
     1
290
     0
176
     1
290
     1
176
     1
290
     1
176
     1
290
     0
176
     1
290
     0
176
     1
290
     0
176
     1
290
     0
176
     1
290
     0
176
     1
290
     0
176
     1
 90
       50
176
     1
 40
0.0
176
     1
 40
1.0
176
     1
 90
        0
176
     1
 62
    18
420
        0
176
     1
 90
       50
176
     1
 90
        3
176
     1
 62
     5
420
      255
176
     1
290
     0
176
     1
 90
       50
176
     1
 90
       50
176
     1
 90
       50
176
     1
290
     0
176
     1
 90
       50
176
     1
 62
   256
176
     0
 40
1.0
176
     0
 90
        2
176
     1
  1
strokes_ogs.tif
176
     1
290
     0
176
     1
 40
1.0
176
     1
 40
1.0
176
     1
  0
VISUALSTYLE
  5
36
102
{ACAD_REACTORS
330
2A
102
}
330
2A
100
AcDbVisualStyle
  2
Brighten
 70
    12
177
     3
291
     1
 70
    58
 90
        2
176
     1
 90
        2
176
     1
 90
        0
176
     1
 90
        0
176
     1
 40
0.6
176
     1
 40
30.0
176
     1
 62
     7
420
 16777215
176
     1
 90
        1
176
     1
 90
        4
176
     1
 62
     7
176
     1
 62
   257
176
     1
 90
        1
176
     1
 90
        1
176
     1
 40
1.0
176
     1
 90
        8
176
     1
 62
     7
176
     1
 40
1.0
176
     1
 90
        1
176
     1
 90
        6
176
     1
 90
        2
176
     1
 62
     7
176
     1
 90
        5
176
     1
 90
        0
176
     1
 90
        0
176
     1
290
     0
176
     1
 90
        1
176
     1
 40
50.0
176
     1
 90
        0
176
     1
290
     0
176
     1
290
     1
176
     1
290
     1
176
     1
290
     0
176
     1
290
     0
176
     1
290
     0
176
     1
290
     0
176
     1
290
     0
176
     1
290
     0
176
     1
 90
       50
176
     1
 40
0.0
176
     1
 40
1.0
176
     1
 90
        0
176
     1
 62
    18
420
        0
176
     1
 90
       50
176
     1
 90
        3
176
     1
 62
     5
420
      255
176
     1
290
     0
176
     1
 90
       50
176
     1
 90
       50
176
     1
 90
       50
176
     1
290
     0
176
     1
 90
       50
176
     1
 62
   256
176
     0
 40
1.0
176
     0
 90
        2
176
     1
  1
strokes_ogs.tif
176
     1
290
     0
176
     1
 40
1.0
176
     1
 40
1.0
176
     1
  0
VISUALSTYLE
  5
3A
102
{ACAD_REACTORS
330
2A
102
}
330
2A
100
AcDbVisualStyle
  2
ColorChange
 70
    16
177
     3
291
     1
 70
    58
 90
        2
176
     1
 90
        2
176
     1
 90
        3
176
     1
 90
        0
176
     1
 40
0.6
176
     1
 40
30.0
176
     1
 62
     8
420
  8421504
176
     1
 90
        1
176
     1
 90
        4
176
     1
 62
     7
176
     1
 62
   257
176
     1
 90
        1
176
     1
 90
        1
176
     1
 40
1.0
176
     1
 90
        8
176
     1
 62
     8
420
  8421504
176
     1
 40
1.0
176
     1
 90
        1
176
     1
 90
        6
176
     1
 90
        2
176
     1
 62
     7
176
     1
 90
        5
176
     1
 90
        0
176
     1
 90
        0
176
     1
290
     0
176
     1
 90
        1
176
     1
 40
0.0
176
     1
 90
        0
176
     1
290
     0
176
     1
290
     1
176
     1
290
     1
176
     1
290
     0
176
     1
290
     0
176
     1
290
     0
176
     1
290
     0
176
     1
290
     0
176
     1
290
     0
176
     1
 90
       50
176
     1
 40
0.0
176
     1
 40
1.0
176
     1
 90
        0
176
     1
 62
    18
420
        0
176
     1
 90
       50
176
     1
 90
        3
176
     1
 62
     5
420
      255
176
     1
290
     0
176
     1
 90
       50
176
     1
 90
       50
176
     1
 90
       50
176
     1
290
     0
176
     1
 90
       50
176
     1
 62
   256
176
     0
 40
1.0
176
     0
 90
        2
176
     1
  1
strokes_ogs.tif
176
     1
290
     0
176
     1
 40
1.0
176
     1
 40
1.0
176
     1
  0
VISUALSTYLE
  5
34
102
{ACAD_REACTORS
330
2A
102
}
330
2A
100
AcDbVisualStyle
  2
Conceptual
 70
     9
177
     3
291
     0
 70
    58
 90
        3
176
     1
 90
        2
176
     1
 90
        0
176
     1
 90
        0
176
     1
 40
0.6
176
     1
 40
30.0
176
     1
 62
     7
420
 16777215
176
     1
 90
        2
176
     1
 90
        2
176
     1
 62
     7
176
     1
 62
   257
176
     1
 90
        1
176
     1
 90
        1
176
     1
 40
179.0
176
     1
 90
        8
176
     1
 62
     7
176
     1
 40
1.0
176
     1
 90
        1
176
     1
 90
        6
176
     1
 90
        2
176
     1
 62
     7
176
     1
 90
        3
176
     1
 90
        0
176
     1
 90
        0
176
     1
290
     0
176
     1
 90
        1
176
     1
 40
0.0
176
     1
 90
        0
176
     1
290
     0
176
     1
290
     1
176
     1
290
     1
176
     1
290
     0
176
     1
290
     0
176
     1
290
     0
176
     1
290
     0
176
     1
290
     0
176
     1
290
     0
176
     1
 90
       50
176
     1
 40
0.0
176
     1
 40
1.0
176
     1
 90
        0
176
     1
 62
    18
420
        0
176
     1
 90
       50
176
     1
 90
        3
176
     1
 62
     5
420
      255
176
     1
290
     0
176
     1
 90
       50
176
     1
 90
       50
176
     1
 90
       50
176
     1
290
     0
176
     1
 90
       50
176
     1
 62
   256
176
     0
 40
1.0
176
     0
 90
        2
176
     1
  1
strokes_ogs.tif
176
     1
290
     0
176
     1
 40
1.0
176
     1
 40
1.0
176
     1
  0
VISUALSTYLE
  5
35
102
{ACAD_REACTORS
330
2A
102
}
330
2A
100
AcDbVisualStyle
  2
Dim
 70
    11
177
     3
291
     1
 70
    58
 90
        2
176
     1
 90
        2
176
     1
 90
        0
176
     1
 90
        0
176
     1
 40
0.6
176
     1
 40
30.0
176
     1
 62
     7
420
 16777215
176
     1
 90
        1
176
     1
 90
        4
176
     1
 62
     7
176
     1
 62
   257
176
     1
 90
        1
176
     1
 90
        1
176
     1
 40
1.0
176
     1
 90
        8
176
     1
 62
     7
176
     1
 40
1.0
176
     1
 90
        1
176
     1
 90
        6
176
     1
 90
        2
176
     1
 62
     7
176
     1
 90
        5
176
     1
 90
        0
176
     1
 90
        0
176
     1
290
     0
176
     1
 90
        1
176
     1
 40
-50.0
176
     1
 90
        0
176
     1
290
     0
176
     1
290
     1
176
     1
290
     1
176
     1
290
     0
176
     1
290
     0
176
     1
290
     0
176
     1
290
     0
176
     1
290
     0
176
     1
290
     0
176
     1
 90
       50
176
     1
 40
0.0
176
     1
 40
1.0
176
     1
 90
        0
176
     1
 62
    18
420
        0
176
     1
 90
       50
176
     1
 90
        3
176
     1
 62
     5
420
      255
176
     1
290
     0
176
     1
 90
       50
176
     1
 90
       50
176
     1
 90
       50
176
     1
290
     0
176
     1
 90
       50
176
     1
 62
   256
176
     0
 40
1.0
176
     0
 90
        2
176
     1
  1
strokes_ogs.tif
176
     1
290
     0
176
     1
 40
1.0
176
     1
 40
1.0
176
     1
  0
VISUALSTYLE
  5
3D
102
{ACAD_REACTORS
330
2A
102
}
330
2A
100
AcDbVisualStyle
  2
EdgeColorOff
 70
    22
177
     3
291
     1
 70
    58
 90
        2
176
     0
 90
        2
176
     0
 90
        0
176
     0
 90
        0
176
     0
 40
0.6
176
     0
 40
30.0
176
     0
 62
     7
420
 16777215
176
     0
 90
        1
176
     0
 90
        4
176
     0
 62
     7
176
     0
 62
   257
176
     0
 90
        1
176
     0
 90
        1
176
     0
 40
1.0
176
     0
 90
        8
176
     2
 62
     7
176
     0
 40
1.0
176
     0
 90
        1
176
     0
 90
        6
176
     0
 90
        2
176
     0
 62
     7
176
     0
 90
        5
176
     0
 90
        0
176
     0
 90
        0
176
     0
290
     0
176
     0
 90
        1
176
     0
 40
0.0
176
     0
 90
        0
176
     0
290
     0
176
     0
290
     1
176
     0
290
     1
176
     0
290
     0
176
     0
290
     0
176
     0
290
     0
176
     0
290
     0
176
     0
290
     0
176
     0
290
     0
176
     0
 90
       50
176
     0
 40
0.0
176
     0
 40
1.0
176
     0
 90
        0
176
     0
 62
    18
420
        0
176
     0
 90
       50
176
     0
 90
        3
176
     0
 62
     5
420
      255
176
     0
290
     0
176
     0
 90
       50
176
     0
 90
       50
176
     0
 90
       50
176
     0
290
     0
176
     0
 90
       50
176
     0
 62
   256
176
     0
 40
1.0
176
     0
 90
        2
176
     0
  1
strokes_ogs.tif
176
     0
290
     0
176
     0
 40
1.0
176
     0
 40
1.0
176
     0
  0
VISUALSTYLE
  5
39
102
{ACAD_REACTORS
330
2A
102
}
330
2A
100
AcDbVisualStyle
  2
Facepattern
 70
    15
177
     3
291
     1
 70
    58
 90
        2
176
     1
 90
        2
176
     1
 90
        0
176
     1
 90
        0
176
     1
 40
0.6
176
     1
 40
30.0
176
     1
 62
     7
420
 16777215
176
     1
 90
        1
176
     1
 90
        4
176
     1
 62
     7
176
     1
 62
   257
176
     1
 90
        1
176
     1
 90
        1
176
     1
 40
1.0
176
     1
 90
        8
176
     1
 62
     7
176
     1
 40
1.0
176
     1
 90
        1
176
     1
 90
        6
176
     1
 90
        2
176
     1
 62
     7
176
     1
 90
        5
176
     1
 90
        0
176
     1
 90
        0
176
     1
290
     0
176
     1
 90
        1
176
     1
 40
0.0
176
     1
 90
        0
176
     1
290
     0
176
     1
290
     1
176
     1
290
     1
176
     1
290
     0
176
     1
290
     0
176
     1
290
     0
176
     1
290
     0
176
     1
290
     0
176
     1
290
     0
176
     1
 90
       50
176
     1
 40
0.0
176
     1
 40
1.0
176
     1
 90
        0
176
     1
 62
    18
420
        0
176
     1
 90
       50
176
     1
 90
        3
176
     1
 62
     5
420
      255
176
     1
290
     0
176
     1
 90
       50
176
     1
 90
       50
176
     1
 90
       50
176
     1
290
     0
176
     1
 90
       50
176
     1
 62
   256
176
     0
 40
1.0
176
     0
 90
        2
176
     1
  1
strokes_ogs.tif
176
     1
290
     0
176
     1
 40
1.0
176
     1
 40
1.0
176
     1
  0
VISUALSTYLE
  5
2B
102
{ACAD_REACTORS
330
2A
102
}
330
2A
100
AcDbVisualStyle
  2
Flat
 70
     0
177
     3
291
     1
 70
    58
 90
        2
176
     1
 90
        1
176
     1
 90
        1
176
     1
 90
        2
176
     1
 40
0.6
176
     1
 40
30.0
176
     1
 62
     7
420
 16777215
176
     1
 90
        0
176
     1
 90
        0
176
     1
 62
     7
176
     1
 62
   257
176
     1
 90
        1
176
     1
 90
        1
176
     1
 40
1.0
176
     1
 90
        8
176
     1
 62
     7
176
     1
 40
1.0
176
     1
 90
        1
176
     1
 90
        6
176
     1
 90
        2
176
     1
 62
     7
176
     1
 90
        5
176
     1
 90
        0
176
     1
 90
        0
176
     1
290
     0
176
     1
 90
       13
176
     1
 40
0.0
176
     1
 90
        0
176
     1
290
     0
176
     1
290
     1
176
     1
290
     1
176
     1
290
     0
176
     1
290
     0
176
     1
290
     0
176
     1
290
     0
176
     1
290
     0
176
     1
290
     0
176
     1
 90
       50
176
     1
 40
0.0
176
     1
 40
1.0
176
     1
 90
        0
176
     1
 62
    18
420
        0
176
     1
 90
       50
176
     1
 90
        3
176
     1
 62
     5
420
      255
176
     1
290
     0
176
     1
 90
       50
176
     1
 90
       50
176
     1
 90
       50
176
     1
290
     0
176
     1
 90
       50
176
     1
 62
   256
176
     0
 40
1.0
176
     0
 90
        2
176
     1
  1
strokes_ogs.tif
176
     1
290
     0
176
     1
 40
1.0
176
     1
 40
1.0
176
     1
  0
VISUALSTYLE
  5
2C
102
{ACAD_REACTORS
330
2A
102
}
330
2A
100
AcDbVisualStyle
  2
FlatWithEdges
 70
     1
177
     3
291
     1
 70
    58
 90
        2
176
     1
 90
        1
176
     1
 90
        1
176
     1
 90
        2
176
     1
 40
0.6
176
     1
 40
30.0
176
     1
 62
     7
420
 16777215
176
     1
 90
        1
176
     1
 90
        0
176
     1
 62
     7
176
     1
 62
   257
176
     1
 90
        1
176
     1
 90
        1
176
     1
 40
1.0
176
     1
 90
        0
176
     1
 62
   257
176
     1
 40
1.0
176
     1
 90
        1
176
     1
 90
        6
176
     1
 90
        2
176
     1
 62
     7
176
     1
 90
        5
176
     1
 90
        0
176
     1
 90
        0
176
     1
290
     0
176
     1
 90
       13
176
     1
 40
0.0
176
     1
 90
        0
176
     1
290
     0
176
     1
290
     1
176
     1
290
     1
176
     1
290
     0
176
     1
290
     0
176
     1
290
     0
176
     1
290
     0
176
     1
290
     0
176
     1
290
     0
176
     1
 90
       50
176
     1
 40
0.0
176
     1
 40
1.0
176
     1
 90
        0
176
     1
 62
    18
420
        0
176
     1
 90
       50
176
     1
 90
        3
176
     1
 62
     5
420
      255
176
     1
290
     0
176
     1
 90
       50
176
     1
 90
       50
176
     1
 90
       50
176
     1
290
     0
176
     1
 90
       50
176
     1
 62
   256
176
     0
 40
1.0
176
     0
 90
        2
176
     1
  1
strokes_ogs.tif
176
     1
290
     0
176
     1
 40
1.0
176
     1
 40
1.0
176
     1
  0
VISUALSTYLE
  5
2D
102
{ACAD_REACTORS
330
2A
102
}
330
2A
100
AcDbVisualStyle
  2
Gouraud
 70
     2
177
     3
291
     1
 70
    58
 90
        2
176
     1
 90
        2
176
     1
 90
        1
176
     1
 90
        2
176
     1
 40
0.6
176
     1
 40
30.0
176
     1
 62
     7
420
 16777215
176
     1
 90
        0
176
     1
 90
        0
176
     1
 62
     7
176
     1
 62
   257
176
     1
 90
        1
176
     1
 90
        1
176
     1
 40
1.0
176
     1
 90
        0
176
     1
 62
     7
176
     1
 40
1.0
176
     1
 90
        1
176
     1
 90
        6
176
     1
 90
        2
176
     1
 62
     7
176
     1
 90
        5
176
     1
 90
        0
176
     1
 90
        0
176
     1
290
     0
176
     1
 90
       13
176
     1
 40
0.0
176
     1
 90
        0
176
     1
290
     0
176
     1
290
     1
176
     1
290
     1
176
     1
290
     0
176
     1
290
     0
176
     1
290
     0
176
     1
290
     0
176
     1
290
     0
176
     1
290
     0
176
     1
 90
       50
176
     1
 40
0.0
176
     1
 40
1.0
176
     1
 90
        0
176
     1
 62
    18
420
        0
176
     1
 90
       50
176
     1
 90
        3
176
     1
 62
     5
420
      255
176
     1
290
     0
176
     1
 90
       50
176
     1
 90
       50
176
     1
 90
       50
176
     1
290
     0
176
     1
 90
       50
176
     1
 62
   256
176
     0
 40
1.0
176
     0
 90
        2
176
     1
  1
strokes_ogs.tif
176
     1
290
     0
176
     1
 40
1.0
176
     1
 40
1.0
176
     1
  0
VISUALSTYLE
  5
2E
102
{ACAD_REACTORS
330
2A
102
}
330
2A
100
AcDbVisualStyle
  2
GouraudWithEdges
 70
     3
177
     3
291
     1
 70
    58
 90
        2
176
     1
 90
        2
176
     1
 90
        1
176
     1
 90
        2
176
     1
 40
0.6
176
     1
 40
30.0
176
     1
 62
     7
420
 16777215
176
     1
 90
        1
176
     1
 90
        0
176
     1
 62
     7
176
     1
 62
   257
176
     1
 90
        1
176
     1
 90
        1
176
     1
 40
1.0
176
     1
 90
        0
176
     1
 62
   257
176
     1
 40
1.0
176
     1
 90
        1
176
     1
 90
        6
176
     1
 90
        2
176
     1
 62
     7
176
     1
 90
        5
176
     1
 90
        0
176
     1
 90
        0
176
     1
290
     0
176
     1
 90
       13
176
     1
 40
0.0
176
     1
 90
        0
176
     1
290
     0
176
     1
290
     1
176
     1
290
     1
176
     1
290
     0
176
     1
290
     0
176
     1
290
     0
176
     1
290
     0
176
     1
290
     0
176
     1
290
     0
176
     1
 90
       50
176
     1
 40
0.0
176
     1
 40
1.0
176
     1
 90
        0
176
     1
 62
    18
420
        0
176
     1
 90
       50
176
     1
 90
        3
176
     1
 62
     5
420
      255
176
     1
290
     0
176
     1
 90
       50
176
     1
 90
       50
176
     1
 90
       50
176
     1
290
     0
176
     1
 90
       50
176
     1
 62
   256
176
     0
 40
1.0
176
     0
 90
        2
176
     1
  1
strokes_ogs.tif
176
     1
290
     0
176
     1
 40
1.0
176
     1
 40
1.0
176
     1
  0
VISUALSTYLE
  5
31
102
{ACAD_REACTORS
330
2A
102
}
330
2A
100
AcDbVisualStyle
  2
Hidden
 70
     6
177
     3
291
     0
 70
    58
 90
        1
176
     1
 90
        2
176
     1
 90
        2
176
     1
 90
        0
176
     1
 40
0.6
176
     1
 40
30.0
176
     1
 62
     7
420
 16777215
176
     1
 90
        2
176
     1
 90
        2
176
     1
 62
     7
176
     1
 62
   257
176
     1
 90
        2
176
     1
 90
        1
176
     1
 40
40.0
176
     1
 90
        0
176
     1
 62
   257
176
     1
 40
1.0
176
     1
 90
        1
176
     1
 90
        6
176
     1
 90
        2
176
     1
 62
     7
176
     1
 90
        3
176
     1
 90
        0
176
     1
 90
        0
176
     1
290
     0
176
     1
 90
        1
176
     1
 40
0.0
176
     1
 90
        0
176
     1
290
     0
176
     1
290
     1
176
     1
290
     1
176
     1
290
     0
176
     1
290
     0
176
     1
290
     0
176
     1
290
     0
176
     1
290
     0
176
     1
290
     0
176
     1
 90
       50
176
     1
 40
0.0
176
     1
 40
1.0
176
     1
 90
        0
176
     1
 62
    18
420
        0
176
     1
 90
       50
176
     1
 90
        3
176
     1
 62
     5
420
      255
176
     1
290
     0
176
     1
 90
       50
176
     1
 90
       50
176
     1
 90
       50
176
     1
290
     0
176
     1
 90
       50
176
     1
 62
   256
176
     0
 40
1.0
176
     0
 90
        2
176
     1
  1
strokes_ogs.tif
176
     1
290
     0
176
     1
 40
1.0
176
     1
 40
1.0
176
     1
  0
VISUALSTYLE
  5
3B
102
{ACAD_REACTORS
330
2A
102
}
330
2A
100
AcDbVisualStyle
  2
JitterOff
 70
    20
177
     3
291
     1
 70
    58
 90
        2
176
     0
 90
        2
176
     0
 90
        0
176
     0
 90
        0
176
     0
 40
0.6
176
     0
 40
30.0
176
     0
 62
     7
420
 16777215
176
     0
 90
        1
176
     0
 90
        4
176
     0
 62
     7
176
     0
 62
   257
176
     0
 90
        1
176
     0
 90
        1
176
     0
 40
1.0
176
     0
 90
       10
176
     2
 62
     7
176
     0
 40
1.0
176
     0
 90
        1
176
     0
 90
        6
176
     0
 90
        2
176
     0
 62
     7
176
     0
 90
        5
176
     0
 90
        0
176
     0
 90
        0
176
     0
290
     0
176
     0
 90
        1
176
     0
 40
0.0
176
     0
 90
        0
176
     0
290
     0
176
     0
290
     1
176
     0
290
     1
176
     0
290
     0
176
     0
290
     0
176
     0
290
     0
176
     0
290
     0
176
     0
290
     0
176
     0
290
     0
176
     0
 90
       50
176
     0
 40
0.0
176
     0
 40
1.0
176
     0
 90
        0
176
     0
 62
    18
420
        0
176
     0
 90
       50
176
     0
 90
        3
176
     0
 62
     5
420
      255
176
     0
290
     0
176
     0
 90
       50
176
     0
 90
       50
176
     0
 90
       50
176
     0
290
     0
176
     0
 90
       50
176
     0
 62
   256
176
     0
 40
1.0
176
     0
 90
        2
176
     0
  1
strokes_ogs.tif
176
     0
290
     0
176
     0
 40
1.0
176
     0
 40
1.0
176
     0
  0
VISUALSTYLE
  5
38
102
{ACAD_REACTORS
330
2A
102
}
330
2A
100
AcDbVisualStyle
  2
Linepattern
 70
    14
177
     3
291
     1
 70
    58
 90
        2
176
     1
 90
        2
176
     1
 90
        0
176
     1
 90
        0
176
     1
 40
0.6
176
     1
 40
30.0
176
     1
 62
     7
420
 16777215
176
     1
 90
        1
176
     1
 90
        4
176
     1
 62
     7
176
     1
 62
   257
176
     1
 90
        7
176
     1
 90
        7
176
     1
 40
1.0
176
     1
 90
        8
176
     1
 62
     7
176
     1
 40
1.0
176
     1
 90
        1
176
     1
 90
        6
176
     1
 90
        2
176
     1
 62
     7
176
     1
 90
        5
176
     1
 90
        0
176
     1
 90
        0
176
     1
290
     0
176
     1
 90
        1
176
     1
 40
0.0
176
     1
 90
        0
176
     1
290
     0
176
     1
290
     1
176
     1
290
     1
176
     1
290
     0
176
     1
290
     0
176
     1
290
     0
176
     1
290
     0
176
     1
290
     0
176
     1
290
     0
176
     1
 90
       50
176
     1
 40
0.0
176
     1
 40
1.0
176
     1
 90
        0
176
     1
 62
    18
420
        0
176
     1
 90
       50
176
     1
 90
        3
176
     1
 62
     5
420
      255
176
     1
290
     0
176
     1
 90
       50
176
     1
 90
       50
176
     1
 90
       50
176
     1
290
     0
176
     1
 90
       50
176
     1
 62
   256
176
     0
 40
1.0
176
     0
 90
        2
176
     1
  1
strokes_ogs.tif
176
     1
290
     0
176
     1
 40
1.0
176
     1
 40
1.0
176
     1
  0
VISUALSTYLE
  5
3C
102
{ACAD_REACTORS
330
2A
102
}
330
2A
100
AcDbVisualStyle
  2
OverhangOff
 70
    21
177
     3
291
     1
 70
    58
 90
        2
176
     0
 90
        2
176
     0
 90
        0
176
     0
 90
        0
176
     0
 40
0.6
176
     0
 40
30.0
176
     0
 62
     7
420
 16777215
176
     0
 90
        1
176
     0
 90
        4
176
     0
 62
     7
176
     0
 62
   257
176
     0
 90
        1
176
     0
 90
        1
176
     0
 40
1.0
176
     0
 90
        9
176
     2
 62
     7
176
     0
 40
1.0
176
     0
 90
        1
176
     0
 90
        6
176
     0
 90
        2
176
     0
 62
     7
176
     0
 90
        5
176
     0
 90
        0
176
     0
 90
        0
176
     0
290
     0
176
     0
 90
        1
176
     0
 40
0.0
176
     0
 90
        0
176
     0
290
     0
176
     0
290
     1
176
     0
290
     1
176
     0
290
     0
176
     0
290
     0
176
     0
290
     0
176
     0
290
     0
176
     0
290
     0
176
     0
290
     0
176
     0
 90
       50
176
     0
 40
0.0
176
     0
 40
1.0
176
     0
 90
        0
176
     0
 62
    18
420
        0
176
     0
 90
       50
176
     0
 90
        3
176
     0
 62
     5
420
      255
176
     0
290
     0
176
     0
 90
       50
176
     0
 90
       50
176
     0
 90
       50
176
     0
290
     0
176
     0
 90
       50
176
     0
 62
   256
176
     0
 40
1.0
176
     0
 90
        2
176
     0
  1
strokes_ogs.tif
176
     0
290
     0
176
     0
 40
1.0
176
     0
 40
1.0
176
     0
  0
VISUALSTYLE
  5
33
102
{ACAD_REACTORS
330
2A
102
}
330
2A
100
AcDbVisualStyle
  2
Realistic
 70
     8
177
     3
291
     0
 70
    58
 90
        2
176
     1
 90
        3
176
     1
 90
        0
176
     1
 90
        2
176
     1
 40
0.6
176
     1
 40
30.0
176
     1
 62
     7
420
 16777215
176
     1
 90
        0
176
     1
 90
        0
176
     1
 62
     7
176
     1
 62
   257
176
     1
 90
        1
176
     1
 90
        1
176
     1
 40
1.0
176
     1
 90
        8
176
     1
 62
   257
176
     1
 40
1.0
176
     1
 90
        1
176
     1
 90
        6
176
     1
 90
        2
176
     1
 62
     7
176
     1
 90
        3
176
     1
 90
        0
176
     1
 90
        0
176
     1
290
     0
176
     1
 90
       13
176
     1
 40
0.0
176
     1
 90
        0
176
     1
290
     0
176
     1
290
     1
176
     1
290
     1
176
     1
290
     0
176
     1
290
     0
176
     1
290
     0
176
     1
290
     0
176
     1
290
     0
176
     1
290
     0
176
     1
 90
       50
176
     1
 40
0.0
176
     1
 40
1.0
176
     1
 90
        0
176
     1
 62
    18
420
        0
176
     1
 90
       50
176
     1
 90
        3
176
     1
 62
     5
420
      255
176
     1
290
     0
176
     1
 90
       50
176
     1
 90
       50
176
     1
 90
       50
176
     1
290
     0
176
     1
 90
       50
176
     1
 62
   256
176
     0
 40
1.0
176
     0
 90
        2
176
     1
  1
strokes_ogs.tif
176
     1
290
     0
176
     1
 40
1.0
176
     1
 40
1.0
176
     1
  0
VISUALSTYLE
  5
42
102
{ACAD_REACTORS
330
2A
102
}
330
2A
100
AcDbVisualStyle
  2
Shaded
 70
    27
177
     3
291
     0
 70
    58
 90
        2
176
     1
 90
        2
176
     1
 90
        1
176
     1
 90
        2
176
     1
 40
0.6
176
     1
 40
30.0
176
     1
 62
     7
420
 16777215
176
     1
 90
        0
176
     1
 90
        4
176
     1
 62
     7
176
     1
 62
   257
176
     1
 90
        1
176
     1
 90
        1
176
     1
 40
1.0
176
     1
 90
        8
176
     1
 62
   257
176
     1
 40
1.0
176
     1
 90
        1
176
     1
 90
        6
176
     1
 90
        2
176
     1
 62
     8
420
  7895160
176
     1
 90
        3
176
     1
 90
        0
176
     1
 90
        0
176
     1
290
     0
176
     1
 90
        5
176
     1
 40
0.0
176
     1
 90
        0
176
     1
290
     0
176
     1
290
     1
176
     1
290
     1
176
     1
290
     0
176
     1
290
     0
176
     1
290
     0
176
     1
290
     0
176
     1
290
     0
176
     1
290
     0
176
     1
 90
       50
176
     1
 40
0.0
176
     1
 40
1.0
176
     1
 90
        0
176
     1
 62
    18
420
        0
176
     1
 90
       50
176
     1
 90
        3
176
     1
 62
     5
420
      255
176
     1
290
     0
176
     1
 90
       50
176
     1
 90
       50
176
     1
 90
       50
176
     1
290
     0
176
     1
 90
       50
176
     1
 62
   256
176
     0
 40
1.0
176
     0
 90
        2
176
     1
  1
strokes_ogs.tif
176
     1
290
     0
176
     1
 40
1.0
176
     1
 40
1.0
176
     1
  0
VISUALSTYLE
  5
41
102
{ACAD_REACTORS
330
2A
102
}
330
2A
100
AcDbVisualStyle
  2
Shaded with edges
 70
    26
177
     3
291
     0
 70
    58
 90
        2
176
     1
 90
        2
176
     1
 90
        1
176
     1
 90
        2
176
     1
 40
0.6
176
     1
 40
30.0
176
     1
 62
     7
420
 16777215
176
     1
 90
        1
176
     1
 90
       10
176
     1
 62
     7
176
     1
 62
   257
176
     1
 90
        2
176
     1
 90
        1
176
     1
 40
1.0
176
     1
 90
        8
176
     1
 62
   257
176
     1
 40
1.0
176
     1
 90
        1
176
     1
 90
        6
176
     1
 90
        2
176
     1
 62
     7
176
     1
 90
        3
176
     1
 90
        0
176
     1
 90
        0
176
     1
290
     0
176
     1
 90
        5
176
     1
 40
0.0
176
     1
 90
        0
176
     1
290
     0
176
     1
290
     1
176
     1
290
     1
176
     1
290
     0
176
     1
290
     0
176
     1
290
     0
176
     1
290
     0
176
     1
290
     0
176
     1
290
     0
176
     1
 90
       50
176
     1
 40
0.0
176
     1
 40
1.0
176
     1
 90
        0
176
     1
 62
    18
420
        0
176
     1
 90
       50
176
     1
 90
        3
176
     1
 62
     5
420
      255
176
     1
290
     0
176
     1
 90
       50
176
     1
 90
       50
176
     1
 90
       50
176
     1
290
     0
176
     1
 90
       50
176
     1
 62
   256
176
     0
 40
1.0
176
     0
 90
        2
176
     1
  1
strokes_ogs.tif
176
     1
290
     0
176
     1
 40
1.0
176
     1
 40
1.0
176
     1
  0
VISUALSTYLE
  5
3E
102
{ACAD_REACTORS
330
2A
102
}
330
2A
100
AcDbVisualStyle
  2
Shades of Gray
 70
    23
177
     3
291
     0
 70
    58
 90
        2
176
     1
 90
        2
176
     1
 90
        3
176
     1
 90
        0
176
     1
 40
0.6
176
     1
 40
30.0
176
     1
 62
     7
420
 16777215
176
     1
 90
        2
176
     1
 90
        2
176
     1
 62
     7
176
     1
 62
     7
176
     1
 90
        1
176
     1
 90
        1
176
     1
 40
40.0
176
     1
 90
        8
176
     1
 62
     7
176
     1
 40
1.0
176
     1
 90
        1
176
     1
 90
        6
176
     1
 90
        2
176
     1
 62
     7
176
     1
 90
        3
176
     1
 90
        0
176
     1
 90
        0
176
     1
290
     0
176
     1
 90
        1
176
     1
 40
0.0
176
     1
 90
        0
176
     1
290
     0
176
     1
290
     1
176
     1
290
     1
176
     1
290
     0
176
     1
290
     0
176
     1
290
     0
176
     1
290
     0
176
     1
290
     0
176
     1
290
     0
176
     1
 90
       50
176
     1
 40
0.0
176
     1
 40
1.0
176
     1
 90
        0
176
     1
 62
    18
420
        0
176
     1
 90
       50
176
     1
 90
        3
176
     1
 62
     5
420
      255
176
     1
290
     0
176
     1
 90
       50
176
     1
 90
       50
176
     1
 90
       50
176
     1
290
     0
176
     1
 90
       50
176
     1
 62
   256
176
     0
 40
1.0
176
     0
 90
        2
176
     1
  1
strokes_ogs.tif
176
     1
290
     0
176
     1
 40
1.0
176
     1
 40
1.0
176
     1
  0
VISUALSTYLE
  5
3F
102
{ACAD_REACTORS
330
2A
102
}
330
2A
100
AcDbVisualStyle
  2
Sketchy
 70
    24
177
     3
291
     0
 70
    58
 90
        1
176
     1
 90
        2
176
     1
 90
        2
176
     1
 90
        0
176
     1
 40
0.6
176
     1
 40
30.0
176
     1
 62
     7
420
 16777215
176
     1
 90
        2
176
     1
 90
        2
176
     1
 62
     7
176
     1
 62
     7
176
     1
 90
        1
176
     1
 90
        1
176
     1
 40
40.0
176
     1
 90
       11
176
     1
 62
     7
176
     1
 40
1.0
176
     1
 90
        1
176
     1
 90
        6
176
     1
 90
        2
176
     1
 62
     7
176
     1
 90
        6
176
     1
 90
        0
176
     1
 90
        0
176
     1
290
     0
176
     1
 90
        1
176
     1
 40
0.0
176
     1
 90
        0
176
     1
290
     0
176
     1
290
     1
176
     1
290
     1
176
     1
290
     0
176
     1
290
     0
176
     1
290
     0
176
     1
290
     0
176
     1
290
     0
176
     1
290
     0
176
     1
 90
       50
176
     1
 40
0.0
176
     1
 40
1.0
176
     1
 90
        0
176
     1
 62
    18
420
        0
176
     1
 90
       50
176
     1
 90
        3
176
     1
 62
     5
420
      255
176
     1
290
     0
176
     1
 90
       50
176
     1
 90
       50
176
     1
 90
       50
176
     1
290
     0
176
     1
 90
       50
176
     1
 62
   256
176
     0
 40
1.0
176
     0
 90
        2
176
     1
  1
strokes_ogs.tif
176
     1
290
     0
176
     1
 40
1.0
176
     1
 40
1.0
176
     1
  0
VISUALSTYLE
  5
37
102
{ACAD_REACTORS
330
2A
102
}
330
2A
100
AcDbVisualStyle
  2
Thicken
 70
    13
177
     3
291
     1
 70
    58
 90
        2
176
     1
 90
        2
176
     1
 90
        0
176
     1
 90
        0
176
     1
 40
0.6
176
     1
 40
30.0
176
     1
 62
     7
420
 16777215
176
     1
 90
        1
176
     1
 90
        4
176
     1
 62
     7
176
     1
 62
   257
176
     1
 90
        1
176
     1
 90
        1
176
     1
 40
1.0
176
     1
 90
       12
176
     1
 62
     7
176
     1
 40
1.0
176
     1
 90
        1
176
     1
 90
        6
176
     1
 90
        2
176
     1
 62
     7
176
     1
 90
        5
176
     1
 90
        0
176
     1
 90
        0
176
     1
290
     0
176
     1
 90
        1
176
     1
 40
0.0
176
     1
 90
        0
176
     1
290
     0
176
     1
290
     1
176
     1
290
     1
176
     1
290
     0
176
     1
290
     0
176
     1
290
     0
176
     1
290
     0
176
     1
290
     0
176
     1
290
     0
176
     1
 90
       50
176
     1
 40
0.0
176
     1
 40
1.0
176
     1
 90
        0
176
     1
 62
    18
420
        0
176
     1
 90
       50
176
     1
 90
        3
176
     1
 62
     5
420
      255
176
     1
290
     0
176
     1
 90
       50
176
     1
 90
       50
176
     1
 90
       50
176
     1
290
     0
176
     1
 90
       50
176
     1
 62
   256
176
     0
 40
1.0
176
     0
 90
        2
176
     1
  1
strokes_ogs.tif
176
     1
290
     0
176
     1
 40
1.0
176
     1
 40
1.0
176
     1
  0
VISUALSTYLE
  5
30
102
{ACAD_REACTORS
330
2A
102
}
330
2A
100
AcDbVisualStyle
  2
Wireframe
 70
     5
177
     3
291
     0
 70
    58
 90
        0
176
     1
 90
        2
176
     1
 90
        0
176
     1
 90
        0
176
     1
 40
0.6
176
     1
 40
30.0
176
     1
 62
     7
420
 16777215
176
     1
 90
        1
176
     1
 90
        4
176
     1
 62
     7
176
     1
 62
   257
176
     1
 90
        1
176
     1
 90
        1
176
     1
 40
1.0
176
     1
 90
        0
176
     1
 62
   257
176
     1
 40
1.0
176
     1
 90
        1
176
     1
 90
        6
176
     1
 90
        2
176
     1
 62
     7
176
     1
 90
        3
176
     1
 90
        0
176
     1
 90
        0
176
     1
290
     0
176
     1
 90
        1
176
     1
 40
0.0
176
     1
 90
        0
176
     1
290
     0
176
     1
290
     1
176
     1
290
     1
176
     1
290
     0
176
     1
290
     0
176
     1
290
     0
176
     1
290
     0
176
     1
290
     0
176
     1
290
     0
176
     1
 90
       50
176
     1
 40
0.0
176
     1
 40
1.0
176
     1
 90
        0
176
     1
 62
    18
420
        0
176
     1
 90
       50
176
     1
 90
        3
176
     1
 62
     5
420
      255
176
     1
290
     0
176
     1
 90
       50
176
     1
 90
       50
176
     1
 90
       50
176
     1
290
     0
176
     1
 90
       50
176
     1
 62
   256
176
     0
 40
1.0
176
     0
 90
        2
176
     1
  1
strokes_ogs.tif
176
     1
290
     0
176
     1
 40
1.0
176
     1
 40
1.0
176
     1
  0
VISUALSTYLE
  5
40
102
{ACAD_REACTORS
330
2A
102
}
330
2A
100
AcDbVisualStyle
  2
X-Ray
 70
    25
177
     3
291
     0
 70
    58
 90
        2
176
     1
 90
        2
176
     1
 90
        1
176
     1
 90
        1
176
     1
 40
0.5
176
     1
 40
30.0
176
     1
 62
     7
420
 16777215
176
     1
 90
        1
176
     1
 90
        0
176
     1
 62
     7
176
     1
 62
   257
176
     1
 90
        1
176
     1
 90
        1
176
     1
 40
1.0
176
     1
 90
        8
176
     1
 62
     7
176
     1
 40
1.0
176
     1
 90
        1
176
     1
 90
        6
176
     1
 90
        2
176
     1
 62
     7
176
     1
 90
        3
176
     1
 90
        0
176
     1
 90
        0
176
     1
290
     0
176
     1
 90
       13
176
     1
 40
0.0
176
     1
 90
        0
176
     1
290
     0
176
     1
290
     1
176
     1
290
     1
176
     1
290
     0
176
     1
290
     0
176
     1
290
     0
176
     1
290
     0
176
     1
290
     0
176
     1
290
     0
176
     1
 90
       50
176
     1
 40
0.0
176
     1
 40
1.0
176
     1
 90
        0
176
     1
 62
    18
420
        0
176
     1
 90
       50
176
     1
 90
        3
176
     1
 62
     5
420
      255
176
     1
290
     0
176
     1
 90
       50
176
     1
 90
       50
176
     1
 90
       50
176
     1
290
     0
176
     1
 90
       50
176
     1
 62
   256
176
     0
 40
1.0
176
     0
 90
        2
176
     1
  1
strokes_ogs.tif
176
     1
290
     0
176
     1
 40
1.0
176
     1
 40
1.0
176
     1
  0
DICTIONARYVAR
  5
97
102
{ACAD_REACTORS
330
96
102
}
330
96
100
DictionaryVariables
280
     0
  1
1:1
  0
DICTIONARYVAR
  5
9F
102
{ACAD_REACTORS
330
96
102
}
330
96
100
DictionaryVariables
280
     0
  1
3.500000
  0
DICTIONARYVAR
  5
A0
102
{ACAD_REACTORS
330
96
102
}
330
96
100
DictionaryVariables
280
     0
  1
acadiso.lin
  0
DICTIONARYVAR
  5
9C
102
{ACAD_REACTORS
330
96
102
}
330
96
100
DictionaryVariables
280
     0
  1
Standard
  0
DICTIONARYVAR
  5
9B
102
{ACAD_REACTORS
330
96
102
}
330
96
100
DictionaryVariables
280
     0
  1
Standard
  0
DICTIONARY
  5
98
330
5A
100
AcDbDictionary
280
     1
281
     1
  3
ACAD_ROUNDTRIP_2008_TABLESTYLE_CELLSTYLEMAP
360
99
  0
CELLSTYLEMAP
  5
99
102
{ACAD_REACTORS
330
98
102
}
330
98
100
AcDbCellStyleMap
 90
        3
300
CELLSTYLE
  1
TABLEFORMAT_BEGIN
 90
        5
170
     1
 91
        0
 92
    32768
 62
   257
 93
        1
300
CONTENTFORMAT
  1
CONTENTFORMAT_BEGIN
 90
        0
 91
        0
 92
        4
 93
        0
300

 40
0.0
140
1.0
 94
        5
 62
     0
340
11
144
6.0
309
CONTENTFORMAT_END
171
     1
301
MARGIN
  1
CELLMARGIN_BEGIN
 40
1.5
 40
1.5
 40
1.5
 40
1.5
 40
1.5
 40
1.5
309
CELLMARGIN_END
 94
        6
 95
        1
302
GRIDFORMAT
  1
GRIDFORMAT_BEGIN
 90
        0
 91
        1
 62
     0
 92
       -2
340
14
 93
        0
 40
0.045
309
GRIDFORMAT_END
 95
        2
302
GRIDFORMAT
  1
GRIDFORMAT_BEGIN
 90
        0
 91
        1
 62
     0
 92
       -2
340
14
 93
        0
 40
0.045
309
GRIDFORMAT_END
 95
        4
302
GRIDFORMAT
  1
GRIDFORMAT_BEGIN
 90
        0
 91
        1
 62
     0
 92
       -2
340
14
 93
        0
 40
0.045
309
GRIDFORMAT_END
 95
        8
302
GRIDFORMAT
  1
GRIDFORMAT_BEGIN
 90
        0
 91
        1
 62
     0
 92
       -2
340
14
 93
        0
 40
0.045
309
GRIDFORMAT_END
 95
       16
302
GRIDFORMAT
  1
GRIDFORMAT_BEGIN
 90
        0
 91
        1
 62
     0
 92
       -2
340
14
 93
        0
 40
0.045
309
GRIDFORMAT_END
 95
       32
302
GRIDFORMAT
  1
GRIDFORMAT_BEGIN
 90
        0
 91
        1
 62
     0
 92
       -2
340
14
 93
        0
 40
0.045
309
GRIDFORMAT_END
309
TABLEFORMAT_END
  1
CELLSTYLE_BEGIN
 90
        1
 91
        1
300
_TITLE
309
CELLSTYLE_END
300
CELLSTYLE
  1
TABLEFORMAT_BEGIN
 90
        5
170
     1
 91
        0
 92
        0
 62
   257
 93
        1
300
CONTENTFORMAT
  1
CONTENTFORMAT_BEGIN
 90
        0
 91
        0
 92
        4
 93
        0
300

 40
0.0
140
1.0
 94
        5
 62
     0
340
11
144
4.5
309
CONTENTFORMAT_END
171
     1
301
MARGIN
  1
CELLMARGIN_BEGIN
 40
1.5
 40
1.5
 40
1.5
 40
1.5
 40
1.5
 40
1.5
309
CELLMARGIN_END
 94
        6
 95
        1
302
GRIDFORMAT
  1
GRIDFORMAT_BEGIN
 90
        0
 91
        1
 62
     0
 92
       -2
340
14
 93
        0
 40
0.045
309
GRIDFORMAT_END
 95
        2
302
GRIDFORMAT
  1
GRIDFORMAT_BEGIN
 90
        0
 91
        1
 62
     0
 92
       -2
340
14
 93
        0
 40
0.045
309
GRIDFORMAT_END
 95
        4
302
GRIDFORMAT
  1
GRIDFORMAT_BEGIN
 90
        0
 91
        1
 62
     0
 92
       -2
340
14
 93
        0
 40
0.045
309
GRIDFORMAT_END
 95
        8
302
GRIDFORMAT
  1
GRIDFORMAT_BEGIN
 90
        0
 91
        1
 62
     0
 92
       -2
340
14
 93
        0
 40
0.045
309
GRIDFORMAT_END
 95
       16
302
GRIDFORMAT
  1
GRIDFORMAT_BEGIN
 90
        0
 91
        1
 62
     0
 92
       -2
340
14
 93
        0
 40
0.045
309
GRIDFORMAT_END
 95
       32
302
GRIDFORMAT
  1
GRIDFORMAT_BEGIN
 90
        0
 91
        1
 62
     0
 92
       -2
340
14
 93
        0
 40
0.045
309
GRIDFORMAT_END
309
TABLEFORMAT_END
  1
CELLSTYLE_BEGIN
 90
        2
 91
        1
300
_HEADER
309
CELLSTYLE_END
300
CELLSTYLE
  1
TABLEFORMAT_BEGIN
 90
        5
170
     1
 91
        0
 92
        0
 62
   257
 93
        1
300
CONTENTFORMAT
  1
CONTENTFORMAT_BEGIN
 90
        0
 91
        0
 92
        4
 93
        0
300

 40
0.0
140
1.0
 94
        2
 62
     0
340
11
144
4.5
309
CONTENTFORMAT_END
171
     1
301
MARGIN
  1
CELLMARGIN_BEGIN
 40
1.5
 40
1.5
 40
1.5
 40
1.5
 40
1.5
 40
1.5
309
CELLMARGIN_END
 94
        6
 95
        1
302
GRIDFORMAT
  1
GRIDFORMAT_BEGIN
 90
        0
 91
        1
 62
     0
 92
       -2
340
14
 93
        0
 40
0.045
309
GRIDFORMAT_END
 95
        2
302
GRIDFORMAT
  1
GRIDFORMAT_BEGIN
 90
        0
 91
        1
 62
     0
 92
       -2
340
14
 93
        0
 40
0.045
309
GRIDFORMAT_END
 95
        4
302
GRIDFORMAT
  1
GRIDFORMAT_BEGIN
 90
        0
 91
        1
 62
     0
 92
       -2
340
14
 93
        0
 40
0.045
309
GRIDFORMAT_END
 95
        8
302
GRIDFORMAT
  1
GRIDFORMAT_BEGIN
 90
        0
 91
        1
 62
     0
 92
       -2
340
14
 93
        0
 40
0.045
309
GRIDFORMAT_END
 95
       16
302
GRIDFORMAT
  1
GRIDFORMAT_BEGIN
 90
        0
 91
        1
 62
     0
 92
       -2
340
14
 93
        0
 40
0.045
309
GRIDFORMAT_END
 95
       32
302
GRIDFORMAT
  1
GRIDFORMAT_BEGIN
 90
        0
 91
        1
 62
     0
 92
       -2
340
14
 93
        0
 40
0.045
309
GRIDFORMAT_END
309
TABLEFORMAT_END
  1
CELLSTYLE_BEGIN
 90
        3
 91
        2
300
_DATA
309
CELLSTYLE_END
  0
ENDSEC
  0
EOF
