  0
SECTION
  2
HEADER
  9
$ACADVER
  1
AC1027
  9
$ACADMAINTVER
 70
   105
  9
$DWGCODEPAGE
  3
ANSI_932
  9
$LASTSAVEDBY
  1
a.yasuda
  9
$REQUIREDVERSIONS
160
                 0
  9
$INSBASE
 10
0.0
 20
0.0
 30
0.0
  9
$EXTMIN
 10
0.0
 20
0.0
 30
0.0
  9
$EXTMAX
 10
302.9997823349792
 20
216.0016055409748
 30
0.0
  9
$LIMMIN
 10
0.0
 20
0.0
  9
$LIMMAX
 10
302.9997823349792
 20
216.0016055409748
  9
$ORTHOMODE
 70
     0
  9
$REGENMODE
 70
     1
  9
$FILLMODE
 70
     1
  9
$QTEXTMODE
 70
     0
  9
$MIRRTEXT
 70
     1
  9
$LTSCALE
 40
1.0
  9
$ATTMODE
 70
     1
  9
$TEXTSIZE
 40
2.5
  9
$TRACEWID
 40
1.0
  9
$TEXTSTYLE
  7
Standard
  9
$CLAYER
  8
0
  9
$CELTYPE
  6
ByLayer
  9
$CECOLOR
 62
   256
  9
$CELTSCALE
 40
1.0
  9
$DISPSILH
 70
     0
  9
$DIMSCALE
 40
1.0
  9
$DIMASZ
 40
2.5
  9
$DIMEXO
 40
0.625
  9
$DIMDLI
 40
3.75
  9
$DIMRND
 40
0.0
  9
$DIMDLE
 40
0.0
  9
$DIMEXE
 40
1.25
  9
$DIMTP
 40
0.0
  9
$DIMTM
 40
0.0
  9
$DIMTXT
 40
2.5
  9
$DIMCEN
 40
2.5
  9
$DIMTSZ
 40
0.0
  9
$DIMTOL
 70
     0
  9
$DIMLIM
 70
     0
  9
$DIMTIH
 70
     0
  9
$DIMTOH
 70
     0
  9
$DIMSE1
 70
     0
  9
$DIMSE2
 70
     0
  9
$DIMTAD
 70
     1
  9
$DIMZIN
 70
     8
  9
$DIMBLK
  1

  9
$DIMASO
 70
     1
  9
$DIMSHO
 70
     1
  9
$DIMPOST
  1

  9
$DIMAPOST
  1

  9
$DIMALT
 70
     0
  9
$DIMALTD
 70
     3
  9
$DIMALTF
 40
0.03937007874016
  9
$DIMLFAC
 40
1.0
  9
$DIMTOFL
 70
     1
  9
$DIMTVP
 40
0.0
  9
$DIMTIX
 70
     0
  9
$DIMSOXD
 70
     0
  9
$DIMSAH
 70
     0
  9
$DIMBLK1
  1

  9
$DIMBLK2
  1

  9
$DIMSTYLE
  2
ISO-25
  9
$DIMCLRD
 70
     0
  9
$DIMCLRE
 70
     0
  9
$DIMCLRT
 70
     0
  9
$DIMTFAC
 40
1.0
  9
$DIMGAP
 40
0.625
  9
$DIMJUST
 70
     0
  9
$DIMSD1
 70
     0
  9
$DIMSD2
 70
     0
  9
$DIMTOLJ
 70
     0
  9
$DIMTZIN
 70
     8
  9
$DIMALTZ
 70
     0
  9
$DIMALTTZ
 70
     0
  9
$DIMUPT
 70
     0
  9
$DIMDEC
 70
     2
  9
$DIMTDEC
 70
     2
  9
$DIMALTU
 70
     2
  9
$DIMALTTD
 70
     3
  9
$DIMTXSTY
  7
Standard
  9
$DIMAUNIT
 70
     0
  9
$DIMADEC
 70
     0
  9
$DIMALTRND
 40
0.0
  9
$DIMAZIN
 70
     0
  9
$DIMDSEP
 70
    44
  9
$DIMATFIT
 70
     3
  9
$DIMFRAC
 70
     0
  9
$DIMLDRBLK
  1

  9
$DIMLUNIT
 70
     2
  9
$DIMLWD
 70
    -2
  9
$DIMLWE
 70
    -2
  9
$DIMTMOVE
 70
     0
  9
$DIMFXL
 40
1.0
  9
$DIMFXLON
 70
     0
  9
$DIMJOGANG
 40
0.7853981633974483
  9
$DIMTFILL
 70
     0
  9
$DIMTFILLCLR
 70
     0
  9
$DIMARCSYM
 70
     0
  9
$DIMLTYPE
  6

  9
$DIMLTEX1
  6

  9
$DIMLTEX2
  6

  9
$DIMTXTDIRECTION
 70
     0
  9
$LUNITS
 70
     2
  9
$LUPREC
 70
     4
  9
$SKETCHINC
 40
1.0
  9
$FILLETRAD
 40
0.0
  9
$AUNITS
 70
     0
  9
$AUPREC
 70
     0
  9
$MENU
  1
.
  9
$ELEVATION
 40
0.0
  9
$PELEVATION
 40
0.0
  9
$THICKNESS
 40
0.0
  9
$LIMCHECK
 70
     0
  9
$CHAMFERA
 40
0.0
  9
$CHAMFERB
 40
0.0
  9
$CHAMFERC
 40
0.0
  9
$CHAMFERD
 40
0.0
  9
$SKPOLY
 70
     0
  9
$TDCREATE
 40
2459866.620519873
  9
$TDUCREATE
 40
2459866.245519873
  9
$TDUPDATE
 40
2459866.620519919
  9
$TDUUPDATE
 40
2459866.245519919
  9
$TDINDWG
 40
0.0000000116
  9
$TDUSRTIMER
 40
0.0000000116
  9
$USRTIMER
 70
     1
  9
$ANGBASE
 50
0.0
  9
$ANGDIR
 70
     0
  9
$PDMODE
 70
     0
  9
$PDSIZE
 40
0.0
  9
$PLINEWID
 40
0.0
  9
$SPLFRAME
 70
     0
  9
$SPLINETYPE
 70
     6
  9
$SPLINESEGS
 70
     8
  9
$HANDSEED
  5
A1
  9
$SURFTAB1
 70
     6
  9
$SURFTAB2
 70
     6
  9
$SURFTYPE
 70
     6
  9
$SURFU
 70
     6
  9
$SURFV
 70
     6
  9
$UCSBASE
  2

  9
$UCSNAME
  2

  9
$UCSORG
 10
0.0
 20
0.0
 30
0.0
  9
$UCSXDIR
 10
1.0
 20
0.0
 30
0.0
  9
$UCSYDIR
 10
0.0
 20
1.0
 30
0.0
  9
$UCSORTHOREF
  2

  9
$UCSORTHOVIEW
 70
     0
  9
$UCSORGTOP
 10
0.0
 20
0.0
 30
0.0
  9
$UCSORGBOTTOM
 10
0.0
 20
0.0
 30
0.0
  9
$UCSORGLEFT
 10
0.0
 20
0.0
 30
0.0
  9
$UCSORGRIGHT
 10
0.0
 20
0.0
 30
0.0
  9
$UCSORGFRONT
 10
0.0
 20
0.0
 30
0.0
  9
$UCSORGBACK
 10
0.0
 20
0.0
 30
0.0
  9
$PUCSBASE
  2

  9
$PUCSNAME
  2

  9
$PUCSORG
 10
0.0
 20
0.0
 30
0.0
  9
$PUCSXDIR
 10
1.0
 20
0.0
 30
0.0
  9
$PUCSYDIR
 10
0.0
 20
1.0
 30
0.0
  9
$PUCSORTHOREF
  2

  9
$PUCSORTHOVIEW
 70
     0
  9
$PUCSORGTOP
 10
0.0
 20
0.0
 30
0.0
  9
$PUCSORGBOTTOM
 10
0.0
 20
0.0
 30
0.0
  9
$PUCSORGLEFT
 10
0.0
 20
0.0
 30
0.0
  9
$PUCSORGRIGHT
 10
0.0
 20
0.0
 30
0.0
  9
$PUCSORGFRONT
 10
0.0
 20
0.0
 30
0.0
  9
$PUCSORGBACK
 10
0.0
 20
0.0
 30
0.0
  9
$USERI1
 70
     0
  9
$USERI2
 70
     0
  9
$USERI3
 70
     0
  9
$USERI4
 70
     0
  9
$USERI5
 70
     0
  9
$USERR1
 40
0.0
  9
$USERR2
 40
0.0
  9
$USERR3
 40
0.0
  9
$USERR4
 40
0.0
  9
$USERR5
 40
0.0
  9
$WORLDVIEW
 70
     1
  9
$SHADEDGE
 70
     3
  9
$SHADEDIF
 70
    70
  9
$TILEMODE
 70
     1
  9
$MAXACTVP
 70
    64
  9
$PINSBASE
 10
0.0
 20
0.0
 30
0.0
  9
$PLIMCHECK
 70
     0
  9
$PEXTMIN
 10
1.000000000000000E+20
 20
1.000000000000000E+20
 30
1.000000000000000E+20
  9
$PEXTMAX
 10
-1.000000000000000E+20
 20
-1.000000000000000E+20
 30
-1.000000000000000E+20
  9
$PLIMMIN
 10
0.0
 20
0.0
  9
$PLIMMAX
 10
420.0
 20
297.0
  9
$UNITMODE
 70
     0
  9
$VISRETAIN
 70
     1
  9
$PLINEGEN
 70
     0
  9
$PSLTSCALE
 70
     1
  9
$TREEDEPTH
 70
  3020
  9
$CMLSTYLE
  2
Standard
  9
$CMLJUST
 70
     0
  9
$CMLSCALE
 40
20.0
  9
$PROXYGRAPHICS
 70
     1
  9
$MEASUREMENT
 70
     1
  9
$CELWEIGHT
370
    -1
  9
$ENDCAPS
280
     0
  9
$JOINSTYLE
280
     0
  9
$LWDISPLAY
290
     0
  9
$INSUNITS
 70
     4
  9
$HYPERLINKBASE
  1

  9
$STYLESHEET
  1

  9
$XEDIT
290
     1
  9
$CEPSNTYPE
380
     0
  9
$PSTYLEMODE
290
     1
  9
$FINGERPRINTGUID
  2
{d35965d3-c1a5-4a9a-a0ae-3812398223c7}
  9
$VERSIONGUID
  2
{FAEB1C32-E019-11D5-929B-00C0DF256EC4}
  9
$EXTNAMES
290
     1
  9
$PSVPSCALE
 40
0.0
  9
$OLESTARTUP
290
     0
  9
$SORTENTS
280
   127
  9
$INDEXCTL
280
     0
  9
$HIDETEXT
280
     1
  9
$XCLIPFRAME
280
     2
  9
$HALOGAP
280
     0
  9
$OBSCOLOR
 70
   257
  9
$OBSLTYPE
280
     0
  9
$INTERSECTIONDISPLAY
280
     0
  9
$INTERSECTIONCOLOR
 70
   257
  9
$DIMASSOC
280
     2
  9
$PROJECTNAME
  1

  9
$CAMERADISPLAY
290
     0
  9
$LENSLENGTH
 40
50.0
  9
$CAMERAHEIGHT
 40
0.0
  9
$STEPSPERSEC
 40
2.0
  9
$STEPSIZE
 40
6.0
  9
$3DDWFPREC
 40
2.0
  9
$PSOLWIDTH
 40
5.0
  9
$PSOLHEIGHT
 40
80.0
  9
$LOFTANG1
 40
1.570796326794897
  9
$LOFTANG2
 40
1.570796326794897
  9
$LOFTMAG1
 40
0.0
  9
$LOFTMAG2
 40
0.0
  9
$LOFTPARAM
 70
     7
  9
$LOFTNORMALS
280
     1
  9
$LATITUDE
 40
37.795
  9
$LONGITUDE
 40
-122.394
  9
$NORTHDIRECTION
 40
0.0
  9
$TIMEZONE
 70
 -8000
  9
$LIGHTGLYPHDISPLAY
280
     1
  9
$TILEMODELIGHTSYNCH
280
     1
  9
$CMATERIAL
347
44
  9
$SOLIDHIST
280
     0
  9
$SHOWHIST
280
     1
  9
$DWFFRAME
280
     2
  9
$DGNFRAME
280
     2
  9
$REALWORLDSCALE
290
     1
  9
$INTERFERECOLOR
 62
   256
  9
$CSHADOW
280
     0
  9
$SHADOWPLANELOCATION
 40
0.0
  0
ENDSEC
  0
SECTION
  2
CLASSES
  0
CLASS
  1
ACDBDICTIONARYWDFLT
  2
AcDbDictionaryWithDefault
  3
ObjectDBX Classes
 90
        0
 91
        3
280
     0
281
     0
  0
CLASS
  1
VISUALSTYLE
  2
AcDbVisualStyle
  3
ObjectDBX Classes
 90
     4095
 91
        3
280
     0
281
     0
  0
CLASS
  1
MATERIAL
  2
AcDbMaterial
  3
ObjectDBX Classes
 90
     1153
 91
        3
280
     0
281
     0
  0
CLASS
  1
SCALE
  2
AcDbScale
  3
ObjectDBX Classes
 90
     1153
 91
        3
280
     0
281
     0
  0
CLASS
  1
TABLESTYLE
  2
AcDbTableStyle
  3
ObjectDBX Classes
 90
     4095
 91
        3
280
     0
281
     0
  0
CLASS
  1
MLEADERSTYLE
  2
AcDbMLeaderStyle
  3
ACDB_MLEADERSTYLE_CLASS
 90
     4095
 91
        3
280
     0
281
     0
  0
CLASS
  1
SUN
  2
AcDbSun
  3
SCENEOE
 90
     1153
 91
        3
280
     0
281
     0
  0
CLASS
  1
DICTIONARYVAR
  2
AcDbDictionaryVar
  3
ObjectDBX Classes
 90
        0
 91
        3
280
     0
281
     0
  0
CLASS
  1
CELLSTYLEMAP
  2
AcDbCellStyleMap
  3
ObjectDBX Classes
 90
     1152
 91
        3
280
     0
281
     0
  0
ENDSEC
  0
SECTION
  2
TABLES
  0
TABLE
  2
VPORT
  5
8
330
0
100
AcDbSymbolTable
 70
     1
  0
VPORT
  5
29
330
8
100
AcDbSymbolTableRecord
100
AcDbViewportTableRecord
  2
*Active
 70
     0
 10
0.0
 20
0.0
 11
1.0
 21
1.0
 12
151.4998911674896
 22
108.0008027704874
 13
0.0
 23
0.0
 14
10.0
 24
10.0
 15
10.0
 25
10.0
 16
0.0
 26
0.0
 36
1.0
 17
0.0
 27
0.0
 37
0.0
 40
237.6017660950723
 41
1.402766343222857
 42
50.0
 43
0.0
 44
0.0
 50
0.0
 51
0.0
 71
     0
 72
 10000
 73
     1
 74
     3
 75
     0
 76
     0
 77
     0
 78
     0
281
     0
 65
     1
110
0.0
120
0.0
130
0.0
111
1.0
121
0.0
131
0.0
112
0.0
122
1.0
132
0.0
 79
     0
146
0.0
348
2F
 60
     3
 61
     5
292
     1
282
     1
141
0.0
142
0.0
 63
   250
361
5D
  0
ENDTAB
  0
TABLE
  2
LTYPE
  5
5
330
0
100
AcDbSymbolTable
 70
     2
  0
LTYPE
  5
14
330
5
100
AcDbSymbolTableRecord
100
AcDbLinetypeTableRecord
  2
ByBlock
 70
     0
  3

 72
    65
 73
     0
 40
0.0
  0
LTYPE
  5
15
330
5
100
AcDbSymbolTableRecord
100
AcDbLinetypeTableRecord
  2
ByLayer
 70
     0
  3

 72
    65
 73
     0
 40
0.0
  0
LTYPE
  5
16
330
5
100
AcDbSymbolTableRecord
100
AcDbLinetypeTableRecord
  2
Continuous
 70
     0
  3
Solid line
 72
    65
 73
     0
 40
0.0
  0
LTYPE
  5
5F
330
5
100
AcDbSymbolTableRecord
100
AcDbLinetypeTableRecord
  2
UserDefined01
 70
     0
  3
----------------                
 72
    65
 73
     2
 40
0.7055555449591743
 49
0.3527777724795871
 74
     0
 49
-0.3527777724795871
 74
     0
  0
ENDTAB
  0
TABLE
  2
LAYER
  5
2
330
0
100
AcDbSymbolTable
 70
     3
  0
LAYER
  5
10
330
2
100
AcDbSymbolTableRecord
100
AcDbLayerTableRecord
  2
0
 70
     0
 62
     7
  6
Continuous
370
    -3
390
F
347
46
348
0
  0
LAYER
  5
60
330
2
100
AcDbSymbolTableRecord
100
AcDbLayerTableRecord
  2
外枠
 70
     0
 62
     7
  6
Continuous
370
    -3
390
F
347
46
348
0
  0
LAYER
  5
61
330
2
100
AcDbSymbolTableRecord
100
AcDbLayerTableRecord
  2
ISS138金台
 70
     0
 62
     7
  6
Continuous
370
    -3
390
F
347
46
348
0
  0
ENDTAB
  0
TABLE
  2
STYLE
  5
3
330
0
100
AcDbSymbolTable
 70
     2
  0
STYLE
  5
11
330
3
100
AcDbSymbolTableRecord
100
AcDbTextStyleTableRecord
  2
Standard
 70
     0
 40
0.0
 41
1.0
 50
0.0
 71
     0
 42
2.5
  3

  4

  0
STYLE
  5
5E
330
3
100
AcDbSymbolTableRecord
100
AcDbTextStyleTableRecord
  2
MS Gothic
 70
     0
 40
1.0
 41
1.0
 50
0.0
 71
     0
 42
2.5
  3
msgothic.ttc
  4

1001
ACAD
1000
MS Gothic
1071
    32817
  0
ENDTAB
  0
TABLE
  2
VIEW
  5
6
330
0
100
AcDbSymbolTable
 70
     0
  0
ENDTAB
  0
TABLE
  2
UCS
  5
7
330
0
100
AcDbSymbolTable
 70
     0
  0
ENDTAB
  0
TABLE
  2
APPID
  5
9
330
0
100
AcDbSymbolTable
 70
     1
  0
APPID
  5
12
330
9
100
AcDbSymbolTableRecord
100
AcDbRegAppTableRecord
  2
ACAD
 70
     0
  0
ENDTAB
  0
TABLE
  2
DIMSTYLE
  5
A
330
0
100
AcDbSymbolTable
 70
     1
100
AcDbDimStyleTable
  0
DIMSTYLE
105
27
330
A
100
AcDbSymbolTableRecord
100
AcDbDimStyleTableRecord
  2
ISO-25
 70
     0
 41
2.5
 42
0.625
 43
3.75
 44
1.25
 73
     0
 74
     0
 77
     1
 78
     8
140
2.5
141
2.5
143
0.03937007874016
147
0.625
171
     3
172
     1
178
     0
271
     2
272
     2
274
     3
278
    44
283
     0
284
     8
340
11
  0
ENDTAB
  0
TABLE
  2
BLOCK_RECORD
  5
1
330
0
100
AcDbSymbolTable
 70
     1
  0
BLOCK_RECORD
  5
1F
330
1
100
AcDbSymbolTableRecord
100
AcDbBlockTableRecord
  2
*Model_Space
340
22
 70
     0
280
     1
281
     0
  0
BLOCK_RECORD
  5
1B
330
1
100
AcDbSymbolTableRecord
100
AcDbBlockTableRecord
  2
*Paper_Space
340
1E
 70
     0
280
     1
281
     0
  0
BLOCK_RECORD
  5
23
330
1
100
AcDbSymbolTableRecord
100
AcDbBlockTableRecord
  2
*Paper_Space0
340
26
 70
     0
280
     1
281
     0
  0
ENDTAB
  0
ENDSEC
  0
SECTION
  2
BLOCKS
  0
BLOCK
  5
20
330
1F
100
AcDbEntity
  8
0
100
AcDbBlockBegin
  2
*Model_Space
 70
     0
 10
0.0
 20
0.0
 30
0.0
  3
*Model_Space
  1

  0
ENDBLK
  5
21
330
1F
100
AcDbEntity
  8
0
100
AcDbBlockEnd
  0
BLOCK
  5
1C
330
1B
100
AcDbEntity
 67
     1
  8
0
100
AcDbBlockBegin
  2
*Paper_Space
 70
     0
 10
0.0
 20
0.0
 30
0.0
  3
*Paper_Space
  1

  0
ENDBLK
  5
1D
330
1B
100
AcDbEntity
 67
     1
  8
0
100
AcDbBlockEnd
  0
BLOCK
  5
24
330
23
100
AcDbEntity
  8
0
100
AcDbBlockBegin
  2
*Paper_Space0
 70
     0
 10
0.0
 20
0.0
 30
0.0
  3
*Paper_Space0
  1

  0
ENDBLK
  5
25
330
23
100
AcDbEntity
  8
0
100
AcDbBlockEnd
  0
ENDSEC
  0
SECTION
  2
ENTITIES
  0
LWPOLYLINE
  5
62
330
1F
100
AcDbEntity
  8
外枠
  6
Continuous
 62
   250
420
  2367521
370
   100
100
AcDbPolyline
 90
        5
 70
     0
 43
0.0
 10
281.9999662644599
 20
13.29407825637392
 10
20.99981607051935
 20
13.29407825637392
 10
20.99981607051935
 20
193.0018900389566
 10
281.9999662644599
 20
193.0018900389566
 10
281.9999662644599
 20
13.29407825637392
  0
LINE
  5
63
330
1F
100
AcDbEntity
  8
外枠
  6
Continuous
 62
   250
420
  2367521
370
    25
100
AcDbLine
 10
223.3097080177524
 20
174.0786160074276
 30
0.0
 11
281.9999232007669
 21
174.0786160074276
 31
0.0
  0
LINE
  5
64
330
1F
100
AcDbEntity
  8
外枠
  6
Continuous
 62
   250
420
  2367521
370
    25
100
AcDbLine
 10
223.3097080177524
 20
50.37109023844297
 30
0.0
 11
281.9999232007669
 21
50.37109023844297
 31
0.0
  0
LINE
  5
65
330
1F
100
AcDbEntity
  8
外枠
  6
Continuous
 62
   250
420
  2367521
370
    25
100
AcDbLine
 10
223.3097080177524
 20
36.25997933925949
 30
0.0
 11
281.9999232007669
 21
36.25997933925949
 31
0.0
  0
LINE
  5
66
330
1F
100
AcDbEntity
  8
外枠
  6
Continuous
 62
   250
420
  2367521
370
    50
100
AcDbLine
 10
223.0158413772006
 20
193.3637327187979
 30
0.0
 11
223.0158413772006
 21
13.29396655992039
 31
0.0
  0
TEXT
  5
67
330
1F
100
AcDbEntity
  8
外枠
  6
Continuous
 62
   250
420
  2367521
100
AcDbText
 10
224.7190965599536
 20
186.6888051931772
 30
0.0
 40
2.688166626294454
  1
品名：
 41
0.974166170756022
  7
MS Gothic
100
AcDbText
  0
TEXT
  5
68
330
1F
100
AcDbEntity
  8
外枠
  6
Continuous
 62
   250
420
  2367521
100
AcDbText
 10
224.7190965599536
 20
168.1080059455944
 30
0.0
 40
2.688166626294454
  1
仕様：
 41
0.9978878657023111
  7
MS Gothic
100
AcDbText
  0
TEXT
  5
69
330
1F
100
AcDbEntity
  8
外枠
  6
Continuous
 62
   250
420
  2367521
100
AcDbText
 10
224.7190965599536
 20
44.16660664327048
 30
0.0
 40
2.688166626294454
  1
縮尺：
 41
0.9939999262491861
  7
MS Gothic
100
AcDbText
  0
TEXT
  5
6A
330
1F
100
AcDbEntity
  8
外枠
  6
Continuous
 62
   250
420
  2367521
100
AcDbText
 10
250.2379519709696
 20
40.59738467878129
 30
0.0
 40
2.150533301035563
  1
1/1
 41
1.000003814697266
  7
MS Gothic
100
AcDbText
  0
TEXT
  5
6B
330
1F
100
AcDbEntity
  8
外枠
  6
Continuous
 62
   250
420
  2367521
100
AcDbText
 10
226.1633020978884
 20
24.25683874973963
 30
0.0
 40
2.553758294979732
  1
ヤスダインテリアサプライ株式会社
 41
1.0194908945184
  7
MS Gothic
100
AcDbText
  0
TEXT
  5
6C
330
1F
100
AcDbEntity
  8
外枠
  6
Continuous
 62
   250
420
  2367521
100
AcDbText
 10
227.7635273953072
 20
161.7763665048245
 30
0.0
 40
2.150533301035563
  1
材質
 41
1.028502464294433
  7
MS Gothic
100
AcDbText
  0
TEXT
  5
6D
330
1F
100
AcDbEntity
  8
外枠
  6
Continuous
 62
   250
420
  2367521
100
AcDbText
 10
232.7757967427735
 20
156.199681315683
 30
0.0
 40
2.016124969720841
  1
 ステンレスSUS304（18.8CR）/HL仕上
 41
1.066277118757659
  7
MS Gothic
100
AcDbText
  0
TEXT
  5
6E
330
1F
100
AcDbEntity
  8
外枠
  6
Continuous
 62
   250
420
  2367521
100
AcDbText
 10
232.7757967427735
 20
181.9845273775436
 30
0.0
 40
2.688166626294454
  1
スロープバー　XS-06
 41
1.022449935109992
  7
MS Gothic
100
AcDbText
  0
HATCH
  5
6F
330
1F
100
AcDbEntity
  8
ISS138金台
  6
Continuous
 62
     7
420
 16777215
370
    50
100
AcDbHatch
 10
0.0
 20
0.0
 30
0.0
210
0.0
220
0.0
230
1.0
  2
SOLID
 70
     1
 71
     0
 91
        1
 92
        3
 72
     0
 73
     1
 93
        5
 10
112.7664032848528
 20
103.3904253372869
 10
112.7738102400367
 20
105.3970211730363
 10
120.7480003872034
 20
109.894937772151
 10
130.7580696813117
 20
109.894937772151
 10
130.7580696813117
 20
103.3904253372869
 97
        0
 75
     1
 76
     1
 98
        0
  0
LWPOLYLINE
  5
70
330
1F
100
AcDbEntity
  8
ISS138金台
  6
Continuous
 62
     7
420
 16777215
370
    50
100
AcDbPolyline
 90
        6
 70
     0
 43
0.0
 10
112.7664032848528
 20
103.3904253372869
 10
112.7738102400367
 20
105.3970211730363
 10
120.7480003872034
 20
109.894937772151
 10
130.7580696813117
 20
109.894937772151
 10
130.7580696813117
 20
103.3904253372869
 10
112.7664032848528
 20
103.3904253372869
  0
LWPOLYLINE
  5
71
330
1F
100
AcDbEntity
  8
ISS138金台
  6
Continuous
 62
   250
420
  2367521
370
    25
100
AcDbPolyline
 90
        6
 70
     0
 43
0.0
 10
112.7664032848528
 20
103.3904253372869
 10
112.7738102400367
 20
105.3970211730363
 10
120.7480003872034
 20
109.894937772151
 10
130.7580696813117
 20
109.894937772151
 10
130.7580696813117
 20
103.3904253372869
 10
112.7664032848528
 20
103.3904253372869
  0
LINE
  5
72
330
1F
100
AcDbEntity
  8
ISS138金台
  6
Continuous
 62
   250
420
  2367521
370
    13
100
AcDbLine
 10
120.7480003872034
 20
114.1503196526861
 30
0.0
 11
120.7480003872034
 21
110.9090016132581
 31
0.0
  0
LINE
  5
73
330
1F
100
AcDbEntity
  8
ISS138金台
  6
Continuous
 62
   250
420
  2367521
370
    13
100
AcDbLine
 10
130.8242155136516
 20
113.9151918892902
 30
0.0
 11
130.8242155136516
 21
110.9091738680298
 31
0.0
  0
LINE
  5
74
330
1F
100
AcDbEntity
  8
ISS138金台
  6
Continuous
 62
   250
420
  2367521
370
    13
100
AcDbLine
 10
120.7480003872034
 20
113.6652502155266
 30
0.0
 11
130.8243877684233
 21
113.6652502155266
 31
0.0
  0
LINE
  5
75
330
1F
100
AcDbEntity
  8
ISS138金台
  6
Continuous
 62
   250
420
  2367521
370
    13
100
AcDbLine
 10
131.7722950112673
 20
109.961083604491
 30
0.0
 11
135.1088699394556
 21
109.961083604491
 31
0.0
  0
LINE
  5
76
330
1F
100
AcDbEntity
  8
ISS138金台
  6
Continuous
 62
   250
420
  2367521
370
    13
100
AcDbLine
 10
131.7722950112673
 20
103.3242579731005
 30
0.0
 11
135.1088699394556
 21
103.3242579731005
 31
0.0
  0
LINE
  5
77
330
1F
100
AcDbEntity
  8
ISS138金台
  6
Continuous
 62
   250
420
  2367521
370
    13
100
AcDbLine
 10
134.1535557414277
 20
109.961083604491
 30
0.0
 11
134.1535557414277
 21
103.324279504947
 31
0.0
  0
LINE
  5
78
330
1F
100
AcDbEntity
  8
ISS138金台
  6
Continuous
 62
   250
420
  2367521
370
    13
100
AcDbLine
 10
112.7002574525128
 20
102.3982378521881
 30
0.0
 11
112.7002574525128
 21
97.15807544173812
 31
0.0
  0
LINE
  5
79
330
1F
100
AcDbEntity
  8
ISS138金台
  6
Continuous
 62
   250
420
  2367521
370
    13
100
AcDbLine
 10
130.8242155136516
 20
102.3982378521881
 30
0.0
 11
130.8242155136516
 21
97.15807544173812
 31
0.0
  0
LINE
  5
7A
330
1F
100
AcDbEntity
  8
ISS138金台
  6
Continuous
 62
   250
420
  2367521
370
    13
100
AcDbLine
 10
112.7002574525128
 20
97.8341646548102
 30
0.0
 11
130.8242155136516
 21
97.8341646548102
 31
0.0
  0
HATCH
  5
7B
330
1F
100
AcDbEntity
  8
ISS138金台
  6
Continuous
 62
   250
420
  2367521
370
    13
100
AcDbHatch
 10
0.0
 20
0.0
 30
0.0
210
0.0
220
0.0
230
1.0
  2
SOLID
 70
     1
 71
     0
 91
        1
 92
        3
 72
     0
 73
     1
 93
       67
 10
112.7002574525128
 20
97.58406149219809
 10
112.7257942224201
 20
97.58535340298599
 10
112.7506096754708
 20
97.58915377388702
 10
112.7745530887397
 20
97.5953226478992
 10
112.7975275689177
 20
97.60375236579017
 10
112.8193823930794
 20
97.61428143871146
 10
112.8400099019927
 20
97.62683450520045
 10
112.8592701386555
 20
97.64123931048542
 10
112.8770446779122
 20
97.65739896125726
 10
112.8932043286841
 20
97.67516273459074
 10
112.907609133969
 20
97.69442297125352
 10
112.9201514345348
 20
97.71505048016681
 10
112.9307020393026
 20
97.7369053043286
 10
112.9391209912703
 20
97.75987978450657
 10
112.9452898652825
 20
97.78383396369867
 10
112.9490902361835
 20
97.80864941674938
 10
112.9503821469714
 20
97.83418618665665
 10
112.9503821469714
 20
97.83418618665665
 10
112.9490902361835
 20
97.85972295656393
 10
112.9452898652825
 20
97.8845276436914
 10
112.9391209912703
 20
97.90848182288352
 10
112.9307020393026
 20
97.93145630306148
 10
112.9201514345348
 20
97.95331112722326
 10
112.907609133969
 20
97.97393863613655
 10
112.8932043286841
 20
97.99319887279934
 10
112.8770446779122
 20
98.01096264613281
 10
112.8592809045788
 20
98.02712229690465
 10
112.8400099019927
 20
98.04152710218963
 10
112.8193931590027
 20
98.05406940275537
 10
112.7975275689177
 20
98.06462000752313
 10
112.7745638546629
 20
98.07303895949089
 10
112.7506096754708
 20
98.07920783350306
 10
112.7257942224201
 20
98.0830082044041
 10
112.7002574525128
 20
98.08430011519198
 10
112.7002574525128
 20
98.08430011519198
 10
112.6747099166823
 20
98.0830082044041
 10
112.6499052295549
 20
98.0792185994263
 10
112.6259510503627
 20
98.07303895949089
 10
112.602987336108
 20
98.06462000752313
 10
112.581121746023
 20
98.05406940275537
 10
112.5605050030329
 20
98.04152710218963
 10
112.5412447663702
 20
98.02712229690465
 10
112.5234702271134
 20
98.01096264613281
 10
112.5073213422648
 20
97.99319887279934
 10
112.4929057710566
 20
97.97393863613655
 10
112.4803634704909
 20
97.95331112722326
 10
112.4698128657231
 20
97.93145630306148
 10
112.4613939137554
 20
97.90849258880675
 10
112.4552250397432
 20
97.88453840961463
 10
112.4514246688422
 20
97.85972295656393
 10
112.4501327580543
 20
97.83418618665665
 10
112.4501327580543
 20
97.83418618665665
 10
112.4514354347654
 20
97.80864941674938
 10
112.4552250397432
 20
97.78382319777543
 10
112.4614046796786
 20
97.75987978450657
 10
112.4698128657231
 20
97.73691607025184
 10
112.4803634704909
 20
97.71505048016681
 10
112.4929057710566
 20
97.69442297125352
 10
112.5073213422648
 20
97.67516273459074
 10
112.5234702271134
 20
97.65739896125726
 10
112.5412447663702
 20
97.64123931048542
 10
112.5605050030329
 20
97.62682373927723
 10
112.581121746023
 20
97.6142922046347
 10
112.602987336108
 20
97.60374159986694
 10
112.6259510503627
 20
97.5953226478992
 10
112.6499052295549
 20
97.58915377388702
 10
112.6747206826056
 20
97.58535340298599
 97
        0
 75
     1
 76
     1
 98
        0
  0
LWPOLYLINE
  5
7C
330
1F
100
AcDbEntity
  8
ISS138金台
  6
Continuous
 62
   250
420
  2367521
370
    13
100
AcDbPolyline
 90
       68
 70
     0
 43
0.0
 10
112.7002574525128
 20
97.58406149219809
 10
112.7257942224201
 20
97.58535340298599
 10
112.7506096754708
 20
97.58915377388702
 10
112.7745530887397
 20
97.5953226478992
 10
112.7975275689177
 20
97.60375236579017
 10
112.8193823930794
 20
97.61428143871146
 10
112.8400099019927
 20
97.62683450520045
 10
112.8592701386555
 20
97.64123931048542
 10
112.8770446779122
 20
97.65739896125726
 10
112.8932043286841
 20
97.67516273459074
 10
112.907609133969
 20
97.69442297125352
 10
112.9201514345348
 20
97.71505048016681
 10
112.9307020393026
 20
97.7369053043286
 10
112.9391209912703
 20
97.75987978450657
 10
112.9452898652825
 20
97.78383396369867
 10
112.9490902361835
 20
97.80864941674938
 10
112.9503821469714
 20
97.83418618665665
 10
112.9503821469714
 20
97.83418618665665
 10
112.9490902361835
 20
97.85972295656393
 10
112.9452898652825
 20
97.8845276436914
 10
112.9391209912703
 20
97.90848182288352
 10
112.9307020393026
 20
97.93145630306148
 10
112.9201514345348
 20
97.95331112722326
 10
112.907609133969
 20
97.97393863613655
 10
112.8932043286841
 20
97.99319887279934
 10
112.8770446779122
 20
98.01096264613281
 10
112.8592809045788
 20
98.02712229690465
 10
112.8400099019927
 20
98.04152710218963
 10
112.8193931590027
 20
98.05406940275537
 10
112.7975275689177
 20
98.06462000752313
 10
112.7745638546629
 20
98.07303895949089
 10
112.7506096754708
 20
98.07920783350306
 10
112.7257942224201
 20
98.0830082044041
 10
112.7002574525128
 20
98.08430011519198
 10
112.7002574525128
 20
98.08430011519198
 10
112.6747099166823
 20
98.0830082044041
 10
112.6499052295549
 20
98.0792185994263
 10
112.6259510503627
 20
98.07303895949089
 10
112.602987336108
 20
98.06462000752313
 10
112.581121746023
 20
98.05406940275537
 10
112.5605050030329
 20
98.04152710218963
 10
112.5412447663702
 20
98.02712229690465
 10
112.5234702271134
 20
98.01096264613281
 10
112.5073213422648
 20
97.99319887279934
 10
112.4929057710566
 20
97.97393863613655
 10
112.4803634704909
 20
97.95331112722326
 10
112.4698128657231
 20
97.93145630306148
 10
112.4613939137554
 20
97.90849258880675
 10
112.4552250397432
 20
97.88453840961463
 10
112.4514246688422
 20
97.85972295656393
 10
112.4501327580543
 20
97.83418618665665
 10
112.4501327580543
 20
97.83418618665665
 10
112.4514354347654
 20
97.80864941674938
 10
112.4552250397432
 20
97.78382319777543
 10
112.4614046796786
 20
97.75987978450657
 10
112.4698128657231
 20
97.73691607025184
 10
112.4803634704909
 20
97.71505048016681
 10
112.4929057710566
 20
97.69442297125352
 10
112.5073213422648
 20
97.67516273459074
 10
112.5234702271134
 20
97.65739896125726
 10
112.5412447663702
 20
97.64123931048542
 10
112.5605050030329
 20
97.62682373927723
 10
112.581121746023
 20
97.6142922046347
 10
112.602987336108
 20
97.60374159986694
 10
112.6259510503627
 20
97.5953226478992
 10
112.6499052295549
 20
97.58915377388702
 10
112.6747206826056
 20
97.58535340298599
 10
112.7002574525128
 20
97.58406149219809
  0
HATCH
  5
7D
330
1F
100
AcDbEntity
  8
ISS138金台
  6
Continuous
 62
   250
420
  2367521
370
    13
100
AcDbHatch
 10
0.0
 20
0.0
 30
0.0
210
0.0
220
0.0
230
1.0
  2
SOLID
 70
     1
 71
     0
 91
        1
 92
        3
 72
     0
 73
     1
 93
       67
 10
130.8242155136516
 20
97.58406149219809
 10
130.8497522835589
 20
97.58535340298599
 10
130.8745677366096
 20
97.58915377388702
 10
130.8985111498785
 20
97.5953226478992
 10
130.9214856300565
 20
97.60375236579017
 10
130.9433404542182
 20
97.61428143871146
 10
130.9639679631316
 20
97.62683450520045
 10
130.9832281997943
 20
97.64123931048542
 10
131.001002739051
 20
97.65739896125726
 10
131.0171623898229
 20
97.67516273459074
 10
131.0315779610311
 20
97.69442297125352
 10
131.0441094956736
 20
97.71505048016681
 10
131.0546601004414
 20
97.7369053043286
 10
131.0630790524091
 20
97.75987978450657
 10
131.0692479264213
 20
97.78383396369867
 10
131.0730482973223
 20
97.80864941674938
 10
131.0743402081102
 20
97.83418618665665
 10
131.0743402081102
 20
97.83418618665665
 10
131.0730482973223
 20
97.85972295656393
 10
131.0692479264213
 20
97.8845276436914
 10
131.0630790524091
 20
97.90848182288352
 10
131.0546601004414
 20
97.93145630306148
 10
131.0441094956736
 20
97.95331112722326
 10
131.0315671951078
 20
97.97393863613655
 10
131.0171623898229
 20
97.99319887279934
 10
131.001002739051
 20
98.01096264613281
 10
130.9832389657175
 20
98.02712229690465
 10
130.9639679631316
 20
98.04152710218963
 10
130.9433512201415
 20
98.05406940275537
 10
130.9214856300565
 20
98.06462000752313
 10
130.8985219158017
 20
98.07303895949089
 10
130.8745677366096
 20
98.07920783350306
 10
130.8497522835589
 20
98.0830082044041
 10
130.8242155136516
 20
98.08430011519198
 10
130.8242155136516
 20
98.08430011519198
 10
130.7986679778211
 20
98.0830082044041
 10
130.7738632906937
 20
98.0792185994263
 10
130.7499091115016
 20
98.07303895949089
 10
130.7269453972468
 20
98.06462000752313
 10
130.7050690412386
 20
98.05406940275537
 10
130.6844630641717
 20
98.04152710218963
 10
130.6652028275089
 20
98.02712229690465
 10
130.6474282882522
 20
98.01096264613281
 10
130.6312794034036
 20
97.99319887279934
 10
130.6168638321954
 20
97.97393863613655
 10
130.6043215316297
 20
97.95331112722326
 10
130.5937709268619
 20
97.93145630306148
 10
130.5853519748942
 20
97.90849258880675
 10
130.579183100882
 20
97.88453840961463
 10
130.575382729981
 20
97.85972295656393
 10
130.5740908191931
 20
97.83418618665665
 10
130.5740908191931
 20
97.83418618665665
 10
130.5753934959042
 20
97.80864941674938
 10
130.579183100882
 20
97.78382319777543
 10
130.5853627408174
 20
97.75987978450657
 10
130.5937709268619
 20
97.73691607025184
 10
130.6043107657064
 20
97.71505048016681
 10
130.6168638321954
 20
97.69442297125352
 10
130.6312794034036
 20
97.67516273459074
 10
130.6474282882522
 20
97.65739896125726
 10
130.6652028275089
 20
97.64123931048542
 10
130.6844522982485
 20
97.62682373927723
 10
130.7050798071618
 20
97.6142922046347
 10
130.7269453972468
 20
97.60374159986694
 10
130.7499091115016
 20
97.5953226478992
 10
130.7738632906937
 20
97.58915377388702
 10
130.7986787437443
 20
97.58535340298599
 97
        0
 75
     1
 76
     1
 98
        0
  0
LWPOLYLINE
  5
7E
330
1F
100
AcDbEntity
  8
ISS138金台
  6
Continuous
 62
   250
420
  2367521
370
    13
100
AcDbPolyline
 90
       68
 70
     0
 43
0.0
 10
130.8242155136516
 20
97.58406149219809
 10
130.8497522835589
 20
97.58535340298599
 10
130.8745677366096
 20
97.58915377388702
 10
130.8985111498785
 20
97.5953226478992
 10
130.9214856300565
 20
97.60375236579017
 10
130.9433404542182
 20
97.61428143871146
 10
130.9639679631316
 20
97.62683450520045
 10
130.9832281997943
 20
97.64123931048542
 10
131.001002739051
 20
97.65739896125726
 10
131.0171623898229
 20
97.67516273459074
 10
131.0315779610311
 20
97.69442297125352
 10
131.0441094956736
 20
97.71505048016681
 10
131.0546601004414
 20
97.7369053043286
 10
131.0630790524091
 20
97.75987978450657
 10
131.0692479264213
 20
97.78383396369867
 10
131.0730482973223
 20
97.80864941674938
 10
131.0743402081102
 20
97.83418618665665
 10
131.0743402081102
 20
97.83418618665665
 10
131.0730482973223
 20
97.85972295656393
 10
131.0692479264213
 20
97.8845276436914
 10
131.0630790524091
 20
97.90848182288352
 10
131.0546601004414
 20
97.93145630306148
 10
131.0441094956736
 20
97.95331112722326
 10
131.0315671951078
 20
97.97393863613655
 10
131.0171623898229
 20
97.99319887279934
 10
131.001002739051
 20
98.01096264613281
 10
130.9832389657175
 20
98.02712229690465
 10
130.9639679631316
 20
98.04152710218963
 10
130.9433512201415
 20
98.05406940275537
 10
130.9214856300565
 20
98.06462000752313
 10
130.8985219158017
 20
98.07303895949089
 10
130.8745677366096
 20
98.07920783350306
 10
130.8497522835589
 20
98.0830082044041
 10
130.8242155136516
 20
98.08430011519198
 10
130.8242155136516
 20
98.08430011519198
 10
130.7986679778211
 20
98.0830082044041
 10
130.7738632906937
 20
98.0792185994263
 10
130.7499091115016
 20
98.07303895949089
 10
130.7269453972468
 20
98.06462000752313
 10
130.7050690412386
 20
98.05406940275537
 10
130.6844630641717
 20
98.04152710218963
 10
130.6652028275089
 20
98.02712229690465
 10
130.6474282882522
 20
98.01096264613281
 10
130.6312794034036
 20
97.99319887279934
 10
130.6168638321954
 20
97.97393863613655
 10
130.6043215316297
 20
97.95331112722326
 10
130.5937709268619
 20
97.93145630306148
 10
130.5853519748942
 20
97.90849258880675
 10
130.579183100882
 20
97.88453840961463
 10
130.575382729981
 20
97.85972295656393
 10
130.5740908191931
 20
97.83418618665665
 10
130.5740908191931
 20
97.83418618665665
 10
130.5753934959042
 20
97.80864941674938
 10
130.579183100882
 20
97.78382319777543
 10
130.5853627408174
 20
97.75987978450657
 10
130.5937709268619
 20
97.73691607025184
 10
130.6043107657064
 20
97.71505048016681
 10
130.6168638321954
 20
97.69442297125352
 10
130.6312794034036
 20
97.67516273459074
 10
130.6474282882522
 20
97.65739896125726
 10
130.6652028275089
 20
97.64123931048542
 10
130.6844522982485
 20
97.62682373927723
 10
130.7050798071618
 20
97.6142922046347
 10
130.7269453972468
 20
97.60374159986694
 10
130.7499091115016
 20
97.5953226478992
 10
130.7738632906937
 20
97.58915377388702
 10
130.7986787437443
 20
97.58535340298599
 10
130.8242155136516
 20
97.58406149219809
  0
HATCH
  5
7F
330
1F
100
AcDbEntity
  8
ISS138金台
  6
Continuous
 62
   250
420
  2367521
370
    13
100
AcDbHatch
 10
0.0
 20
0.0
 30
0.0
210
0.0
220
0.0
230
1.0
  2
SOLID
 70
     1
 71
     0
 91
        1
 92
        3
 72
     0
 73
     1
 93
       67
 10
134.1535557414277
 20
109.7111419307273
 10
134.179092511335
 20
109.7124338415152
 10
134.2039079643857
 20
109.716223446493
 10
134.2278513776546
 20
109.7223600227355
 10
134.2508258578326
 20
109.7307789747032
 10
134.2726914479176
 20
109.7412865157781
 10
134.2933081909076
 20
109.7537965185741
 10
134.3125684275704
 20
109.7681690260894
 10
134.3303429668271
 20
109.7842963790915
 10
134.346502617599
 20
109.8020386205786
 10
134.3609181888071
 20
109.8212665594717
 10
134.3734497234497
 20
109.8418617706153
 10
134.3840003282174
 20
109.8636842970073
 10
134.3924192801852
 20
109.8866372453388
 10
134.3985881541974
 20
109.9105698926845
 10
134.4023885250984
 20
109.9353745798119
 10
134.4036804358863
 20
109.9609113497192
 10
134.4036804358863
 20
109.9609113497192
 10
134.4023885250984
 20
109.9865019492427
 10
134.3985881541974
 20
110.0113604659863
 10
134.3924192801852
 20
110.0353361770249
 10
134.3840003282174
 20
110.0583429549725
 10
134.3734497234497
 20
110.0801977791343
 10
134.3609074228839
 20
110.1008252880476
 10
134.3464918516758
 20
110.1200747587872
 10
134.3303429668271
 20
110.1378277661974
 10
134.3125684275704
 20
110.1539658851228
 10
134.2933081909076
 20
110.1683491585613
 10
134.2726914479176
 20
110.1808699272806
 10
134.2508258578326
 20
110.1913882342786
 10
134.2278621435778
 20
110.1997964203232
 10
134.2039079643857
 20
110.2059437624889
 10
134.179092511335
 20
110.2097333674667
 10
134.1535557414277
 20
110.2110252782546
 10
134.1535557414277
 20
110.2110252782546
 10
134.1280297374437
 20
110.2097441333899
 10
134.1032035184697
 20
110.2059545284121
 10
134.0792493392776
 20
110.1997964203232
 10
134.0562856250229
 20
110.1913990002019
 10
134.0344200349379
 20
110.1808699272806
 10
134.0138032919478
 20
110.1683491585613
 10
133.994543055285
 20
110.1539551191996
 10
133.9767685160284
 20
110.1378277661974
 10
133.9606196311797
 20
110.1200747587872
 10
133.9462040599715
 20
110.1008252880476
 10
133.9336617594058
 20
110.0801977791343
 10
133.923111154638
 20
110.0583321890493
 10
133.9146922026703
 20
110.0353469429481
 10
133.9085233286581
 20
110.0113604659863
 10
133.9047229577571
 20
109.9865127151659
 10
133.9034310469692
 20
109.9609113497192
 10
133.9034310469692
 20
109.9609113497192
 10
133.9047121918338
 20
109.9353745798119
 10
133.9085233286581
 20
109.9105806586077
 10
133.9146922026703
 20
109.8866264794156
 10
133.923111154638
 20
109.8636842970073
 10
133.9336617594058
 20
109.841851004692
 10
133.9462040599715
 20
109.8212665594717
 10
133.9606196311797
 20
109.8020386205786
 10
133.9767685160284
 20
109.7842963790915
 10
133.994543055285
 20
109.7681797920126
 10
134.0137925260246
 20
109.7537965185741
 10
134.0344200349379
 20
109.7412865157781
 10
134.0562856250229
 20
109.73076820878
 10
134.0792493392776
 20
109.7223707886587
 10
134.1032035184697
 20
109.7162126805698
 10
134.1280189715205
 20
109.7124338415152
 97
        0
 75
     1
 76
     1
 98
        0
  0
LWPOLYLINE
  5
80
330
1F
100
AcDbEntity
  8
ISS138金台
  6
Continuous
 62
   250
420
  2367521
370
    13
100
AcDbPolyline
 90
       68
 70
     0
 43
0.0
 10
134.1535557414277
 20
109.7111419307273
 10
134.179092511335
 20
109.7124338415152
 10
134.2039079643857
 20
109.716223446493
 10
134.2278513776546
 20
109.7223600227355
 10
134.2508258578326
 20
109.7307789747032
 10
134.2726914479176
 20
109.7412865157781
 10
134.2933081909076
 20
109.7537965185741
 10
134.3125684275704
 20
109.7681690260894
 10
134.3303429668271
 20
109.7842963790915
 10
134.346502617599
 20
109.8020386205786
 10
134.3609181888071
 20
109.8212665594717
 10
134.3734497234497
 20
109.8418617706153
 10
134.3840003282174
 20
109.8636842970073
 10
134.3924192801852
 20
109.8866372453388
 10
134.3985881541974
 20
109.9105698926845
 10
134.4023885250984
 20
109.9353745798119
 10
134.4036804358863
 20
109.9609113497192
 10
134.4036804358863
 20
109.9609113497192
 10
134.4023885250984
 20
109.9865019492427
 10
134.3985881541974
 20
110.0113604659863
 10
134.3924192801852
 20
110.0353361770249
 10
134.3840003282174
 20
110.0583429549725
 10
134.3734497234497
 20
110.0801977791343
 10
134.3609074228839
 20
110.1008252880476
 10
134.3464918516758
 20
110.1200747587872
 10
134.3303429668271
 20
110.1378277661974
 10
134.3125684275704
 20
110.1539658851228
 10
134.2933081909076
 20
110.1683491585613
 10
134.2726914479176
 20
110.1808699272806
 10
134.2508258578326
 20
110.1913882342786
 10
134.2278621435778
 20
110.1997964203232
 10
134.2039079643857
 20
110.2059437624889
 10
134.179092511335
 20
110.2097333674667
 10
134.1535557414277
 20
110.2110252782546
 10
134.1535557414277
 20
110.2110252782546
 10
134.1280297374437
 20
110.2097441333899
 10
134.1032035184697
 20
110.2059545284121
 10
134.0792493392776
 20
110.1997964203232
 10
134.0562856250229
 20
110.1913990002019
 10
134.0344200349379
 20
110.1808699272806
 10
134.0138032919478
 20
110.1683491585613
 10
133.994543055285
 20
110.1539551191996
 10
133.9767685160284
 20
110.1378277661974
 10
133.9606196311797
 20
110.1200747587872
 10
133.9462040599715
 20
110.1008252880476
 10
133.9336617594058
 20
110.0801977791343
 10
133.923111154638
 20
110.0583321890493
 10
133.9146922026703
 20
110.0353469429481
 10
133.9085233286581
 20
110.0113604659863
 10
133.9047229577571
 20
109.9865127151659
 10
133.9034310469692
 20
109.9609113497192
 10
133.9034310469692
 20
109.9609113497192
 10
133.9047121918338
 20
109.9353745798119
 10
133.9085233286581
 20
109.9105806586077
 10
133.9146922026703
 20
109.8866264794156
 10
133.923111154638
 20
109.8636842970073
 10
133.9336617594058
 20
109.841851004692
 10
133.9462040599715
 20
109.8212665594717
 10
133.9606196311797
 20
109.8020386205786
 10
133.9767685160284
 20
109.7842963790915
 10
133.994543055285
 20
109.7681797920126
 10
134.0137925260246
 20
109.7537965185741
 10
134.0344200349379
 20
109.7412865157781
 10
134.0562856250229
 20
109.73076820878
 10
134.0792493392776
 20
109.7223707886587
 10
134.1032035184697
 20
109.7162126805698
 10
134.1280189715205
 20
109.7124338415152
 10
134.1535557414277
 20
109.7111419307273
  0
HATCH
  5
81
330
1F
100
AcDbEntity
  8
ISS138金台
  6
Continuous
 62
   250
420
  2367521
370
    13
100
AcDbHatch
 10
0.0
 20
0.0
 30
0.0
210
0.0
220
0.0
230
1.0
  2
SOLID
 70
     1
 71
     0
 91
        1
 92
        3
 72
     0
 73
     1
 93
       67
 10
134.1535557414277
 20
103.0745100859551
 10
134.179092511335
 20
103.075801996743
 10
134.2039079643857
 20
103.0795916017208
 10
134.2278513776546
 20
103.0857389438865
 10
134.2508258578326
 20
103.094147129931
 10
134.2726914479176
 20
103.1046654369291
 10
134.2933081909076
 20
103.1171646738019
 10
134.3125684275704
 20
103.1315479472404
 10
134.3303429668271
 20
103.1476645343193
 10
134.346502617599
 20
103.1654067758063
 10
134.3609181888071
 20
103.1846347146994
 10
134.3734497234497
 20
103.205229925843
 10
134.3840003282174
 20
103.2270524522351
 10
134.3924192801852
 20
103.2500054005666
 10
134.3985881541974
 20
103.2739380479122
 10
134.4023885250984
 20
103.2987427350397
 10
134.4036804358863
 20
103.324279504947
 10
134.4036804358863
 20
103.324279504947
 10
134.4023885250984
 20
103.3498808703937
 10
134.3985881541974
 20
103.3747286212141
 10
134.3924192801852
 20
103.3987150981759
 10
134.3840003282174
 20
103.4217111102003
 10
134.3734497234497
 20
103.4435659343621
 10
134.3609074228839
 20
103.4641934432754
 10
134.3464918516758
 20
103.4834321480917
 10
134.3303429668271
 20
103.5011959214252
 10
134.3125684275704
 20
103.5173340403505
 10
134.2933081909076
 20
103.5317173137891
 10
134.2726914479176
 20
103.5442380825083
 10
134.2508258578326
 20
103.5547563895064
 10
134.2278621435778
 20
103.5631645755509
 10
134.2039079643857
 20
103.5693119177166
 10
134.179092511335
 20
103.5731015226944
 10
134.1535557414277
 20
103.5743934334823
 10
134.1535557414277
 20
103.5743934334823
 10
134.1280297374437
 20
103.5731015226944
 10
134.1032035184697
 20
103.5693226836399
 10
134.0792493392776
 20
103.5631645755509
 10
134.0562856250229
 20
103.5547671554296
 10
134.0344200349379
 20
103.5442380825083
 10
134.0138032919478
 20
103.5317173137891
 10
133.994543055285
 20
103.5173340403505
 10
133.9767685160284
 20
103.5011959214252
 10
133.9606196311797
 20
103.4834429140149
 10
133.9462040599715
 20
103.4641934432754
 10
133.9336617594058
 20
103.4435659343621
 10
133.923111154638
 20
103.4217003442771
 10
133.9146922026703
 20
103.3987150981759
 10
133.9085233286581
 20
103.3747286212141
 10
133.9047229577571
 20
103.3498808703937
 10
133.9034310469692
 20
103.324279504947
 10
133.9034310469692
 20
103.324279504947
 10
133.9047121918338
 20
103.2987427350397
 10
133.9085233286581
 20
103.2739488138355
 10
133.9146922026703
 20
103.2500054005666
 10
133.923111154638
 20
103.2270632181583
 10
133.9336617594058
 20
103.205229925843
 10
133.9462040599715
 20
103.1846347146994
 10
133.9606196311797
 20
103.1654067758063
 10
133.9767685160284
 20
103.1476645343193
 10
133.994543055285
 20
103.1315479472404
 10
134.0137925260246
 20
103.1171646738019
 10
134.0344200349379
 20
103.1046546710058
 10
134.0562856250229
 20
103.0941363640078
 10
134.0792493392776
 20
103.0857389438865
 10
134.1032035184697
 20
103.0795808357976
 10
134.1280189715205
 20
103.075801996743
 97
        0
 75
     1
 76
     1
 98
        0
  0
LWPOLYLINE
  5
82
330
1F
100
AcDbEntity
  8
ISS138金台
  6
Continuous
 62
   250
420
  2367521
370
    13
100
AcDbPolyline
 90
       68
 70
     0
 43
0.0
 10
134.1535557414277
 20
103.0745100859551
 10
134.179092511335
 20
103.075801996743
 10
134.2039079643857
 20
103.0795916017208
 10
134.2278513776546
 20
103.0857389438865
 10
134.2508258578326
 20
103.094147129931
 10
134.2726914479176
 20
103.1046654369291
 10
134.2933081909076
 20
103.1171646738019
 10
134.3125684275704
 20
103.1315479472404
 10
134.3303429668271
 20
103.1476645343193
 10
134.346502617599
 20
103.1654067758063
 10
134.3609181888071
 20
103.1846347146994
 10
134.3734497234497
 20
103.205229925843
 10
134.3840003282174
 20
103.2270524522351
 10
134.3924192801852
 20
103.2500054005666
 10
134.3985881541974
 20
103.2739380479122
 10
134.4023885250984
 20
103.2987427350397
 10
134.4036804358863
 20
103.324279504947
 10
134.4036804358863
 20
103.324279504947
 10
134.4023885250984
 20
103.3498808703937
 10
134.3985881541974
 20
103.3747286212141
 10
134.3924192801852
 20
103.3987150981759
 10
134.3840003282174
 20
103.4217111102003
 10
134.3734497234497
 20
103.4435659343621
 10
134.3609074228839
 20
103.4641934432754
 10
134.3464918516758
 20
103.4834321480917
 10
134.3303429668271
 20
103.5011959214252
 10
134.3125684275704
 20
103.5173340403505
 10
134.2933081909076
 20
103.5317173137891
 10
134.2726914479176
 20
103.5442380825083
 10
134.2508258578326
 20
103.5547563895064
 10
134.2278621435778
 20
103.5631645755509
 10
134.2039079643857
 20
103.5693119177166
 10
134.179092511335
 20
103.5731015226944
 10
134.1535557414277
 20
103.5743934334823
 10
134.1535557414277
 20
103.5743934334823
 10
134.1280297374437
 20
103.5731015226944
 10
134.1032035184697
 20
103.5693226836399
 10
134.0792493392776
 20
103.5631645755509
 10
134.0562856250229
 20
103.5547671554296
 10
134.0344200349379
 20
103.5442380825083
 10
134.0138032919478
 20
103.5317173137891
 10
133.994543055285
 20
103.5173340403505
 10
133.9767685160284
 20
103.5011959214252
 10
133.9606196311797
 20
103.4834429140149
 10
133.9462040599715
 20
103.4641934432754
 10
133.9336617594058
 20
103.4435659343621
 10
133.923111154638
 20
103.4217003442771
 10
133.9146922026703
 20
103.3987150981759
 10
133.9085233286581
 20
103.3747286212141
 10
133.9047229577571
 20
103.3498808703937
 10
133.9034310469692
 20
103.324279504947
 10
133.9034310469692
 20
103.324279504947
 10
133.9047121918338
 20
103.2987427350397
 10
133.9085233286581
 20
103.2739488138355
 10
133.9146922026703
 20
103.2500054005666
 10
133.923111154638
 20
103.2270632181583
 10
133.9336617594058
 20
103.205229925843
 10
133.9462040599715
 20
103.1846347146994
 10
133.9606196311797
 20
103.1654067758063
 10
133.9767685160284
 20
103.1476645343193
 10
133.994543055285
 20
103.1315479472404
 10
134.0137925260246
 20
103.1171646738019
 10
134.0344200349379
 20
103.1046546710058
 10
134.0562856250229
 20
103.0941363640078
 10
134.0792493392776
 20
103.0857389438865
 10
134.1032035184697
 20
103.0795808357976
 10
134.1280189715205
 20
103.075801996743
 10
134.1535557414277
 20
103.0745100859551
  0
HATCH
  5
83
330
1F
100
AcDbEntity
  8
ISS138金台
  6
Continuous
 62
   250
420
  2367521
370
    13
100
AcDbHatch
 10
0.0
 20
0.0
 30
0.0
210
0.0
220
0.0
230
1.0
  2
SOLID
 70
     1
 71
     0
 91
        1
 92
        3
 72
     0
 73
     1
 93
       67
 10
120.7480003872034
 20
113.415308541763
 10
120.7735371571107
 20
113.4166004525509
 10
120.7983526101614
 20
113.4203900575287
 10
120.8222960234303
 20
113.4265266337712
 10
120.8452705036082
 20
113.4349455857389
 10
120.8671360936933
 20
113.4454531268137
 10
120.8877528366833
 20
113.4579631296098
 10
120.9070130733461
 20
113.4723356371251
 10
120.9247876126028
 20
113.4884629901272
 10
120.9409472633747
 20
113.5062052316142
 10
120.9553628345829
 20
113.5254331705073
 10
120.9678943692254
 20
113.5460283816509
 10
120.9784449739931
 20
113.567850908043
 10
120.9868639259609
 20
113.5908038563745
 10
120.9930327999731
 20
113.6147365037202
 10
120.9968331708741
 20
113.6395411908476
 10
120.998125081662
 20
113.6650779607549
 10
120.998125081662
 20
113.6650779607549
 10
120.9968331708741
 20
113.6906685602783
 10
120.9930327999731
 20
113.715527077022
 10
120.9868639259609
 20
113.7395027880605
 10
120.9784449739931
 20
113.7625095660082
 10
120.9678943692254
 20
113.78436439017
 10
120.9553520686596
 20
113.8049918990833
 10
120.9409364974514
 20
113.8242413698228
 10
120.9247876126028
 20
113.8419943772331
 10
120.9070130733461
 20
113.8581324961585
 10
120.8877528366833
 20
113.8725157695969
 10
120.8671360936933
 20
113.8850365383162
 10
120.8452705036082
 20
113.8955548453143
 10
120.8223067893535
 20
113.9039630313588
 10
120.7983526101614
 20
113.9101103735245
 10
120.7735371571107
 20
113.9138999785023
 10
120.7480003872034
 20
113.9151918892902
 10
120.7480003872034
 20
113.9151918892902
 10
120.7224743832194
 20
113.9139107444256
 10
120.6976481642454
 20
113.9101211394478
 10
120.6736939850533
 20
113.9039630313588
 10
120.6507302707986
 20
113.8955656112375
 10
120.6288646807136
 20
113.8850365383162
 10
120.6082479377235
 20
113.8725157695969
 10
120.5889877010607
 20
113.8581217302352
 10
120.571213161804
 20
113.8419943772331
 10
120.5550642769554
 20
113.8242413698228
 10
120.5406487057472
 20
113.8049918990833
 10
120.5281064051815
 20
113.78436439017
 10
120.5175558004137
 20
113.762498800085
 10
120.509136848446
 20
113.7395135539838
 10
120.5029679744338
 20
113.715527077022
 10
120.4991676035327
 20
113.6906793262016
 10
120.4978756927449
 20
113.6650779607549
 10
120.4978756927449
 20
113.6650779607549
 10
120.4991568376095
 20
113.6395411908476
 10
120.5029679744338
 20
113.6147472696434
 10
120.509136848446
 20
113.5907930904513
 10
120.5175558004137
 20
113.567850908043
 10
120.5281064051815
 20
113.5460176157277
 10
120.5406487057472
 20
113.5254331705073
 10
120.5550535110322
 20
113.5062052316142
 10
120.571213161804
 20
113.4884629901272
 10
120.5889877010607
 20
113.4723464030483
 10
120.6082371718003
 20
113.4579631296098
 10
120.6288646807136
 20
113.4454531268137
 10
120.6507302707986
 20
113.4349348198157
 10
120.6736939850533
 20
113.4265373996944
 10
120.6976481642454
 20
113.4203792916055
 10
120.7224636172962
 20
113.4166004525509
 97
        0
 75
     1
 76
     1
 98
        0
  0
LWPOLYLINE
  5
84
330
1F
100
AcDbEntity
  8
ISS138金台
  6
Continuous
 62
   250
420
  2367521
370
    13
100
AcDbPolyline
 90
       68
 70
     0
 43
0.0
 10
120.7480003872034
 20
113.415308541763
 10
120.7735371571107
 20
113.4166004525509
 10
120.7983526101614
 20
113.4203900575287
 10
120.8222960234303
 20
113.4265266337712
 10
120.8452705036082
 20
113.4349455857389
 10
120.8671360936933
 20
113.4454531268137
 10
120.8877528366833
 20
113.4579631296098
 10
120.9070130733461
 20
113.4723356371251
 10
120.9247876126028
 20
113.4884629901272
 10
120.9409472633747
 20
113.5062052316142
 10
120.9553628345829
 20
113.5254331705073
 10
120.9678943692254
 20
113.5460283816509
 10
120.9784449739931
 20
113.567850908043
 10
120.9868639259609
 20
113.5908038563745
 10
120.9930327999731
 20
113.6147365037202
 10
120.9968331708741
 20
113.6395411908476
 10
120.998125081662
 20
113.6650779607549
 10
120.998125081662
 20
113.6650779607549
 10
120.9968331708741
 20
113.6906685602783
 10
120.9930327999731
 20
113.715527077022
 10
120.9868639259609
 20
113.7395027880605
 10
120.9784449739931
 20
113.7625095660082
 10
120.9678943692254
 20
113.78436439017
 10
120.9553520686596
 20
113.8049918990833
 10
120.9409364974514
 20
113.8242413698228
 10
120.9247876126028
 20
113.8419943772331
 10
120.9070130733461
 20
113.8581324961585
 10
120.8877528366833
 20
113.8725157695969
 10
120.8671360936933
 20
113.8850365383162
 10
120.8452705036082
 20
113.8955548453143
 10
120.8223067893535
 20
113.9039630313588
 10
120.7983526101614
 20
113.9101103735245
 10
120.7735371571107
 20
113.9138999785023
 10
120.7480003872034
 20
113.9151918892902
 10
120.7480003872034
 20
113.9151918892902
 10
120.7224743832194
 20
113.9139107444256
 10
120.6976481642454
 20
113.9101211394478
 10
120.6736939850533
 20
113.9039630313588
 10
120.6507302707986
 20
113.8955656112375
 10
120.6288646807136
 20
113.8850365383162
 10
120.6082479377235
 20
113.8725157695969
 10
120.5889877010607
 20
113.8581217302352
 10
120.571213161804
 20
113.8419943772331
 10
120.5550642769554
 20
113.8242413698228
 10
120.5406487057472
 20
113.8049918990833
 10
120.5281064051815
 20
113.78436439017
 10
120.5175558004137
 20
113.762498800085
 10
120.509136848446
 20
113.7395135539838
 10
120.5029679744338
 20
113.715527077022
 10
120.4991676035327
 20
113.6906793262016
 10
120.4978756927449
 20
113.6650779607549
 10
120.4978756927449
 20
113.6650779607549
 10
120.4991568376095
 20
113.6395411908476
 10
120.5029679744338
 20
113.6147472696434
 10
120.509136848446
 20
113.5907930904513
 10
120.5175558004137
 20
113.567850908043
 10
120.5281064051815
 20
113.5460176157277
 10
120.5406487057472
 20
113.5254331705073
 10
120.5550535110322
 20
113.5062052316142
 10
120.571213161804
 20
113.4884629901272
 10
120.5889877010607
 20
113.4723464030483
 10
120.6082371718003
 20
113.4579631296098
 10
120.6288646807136
 20
113.4454531268137
 10
120.6507302707986
 20
113.4349348198157
 10
120.6736939850533
 20
113.4265373996944
 10
120.6976481642454
 20
113.4203792916055
 10
120.7224636172962
 20
113.4166004525509
 10
120.7480003872034
 20
113.415308541763
  0
HATCH
  5
85
330
1F
100
AcDbEntity
  8
ISS138金台
  6
Continuous
 62
   250
420
  2367521
370
    13
100
AcDbHatch
 10
0.0
 20
0.0
 30
0.0
210
0.0
220
0.0
230
1.0
  2
SOLID
 70
     1
 71
     0
 91
        1
 92
        3
 72
     0
 73
     1
 93
       67
 10
130.8242155136516
 20
113.415308541763
 10
130.8497522835589
 20
113.4166004525509
 10
130.8745677366096
 20
113.4203900575287
 10
130.8985111498785
 20
113.4265266337712
 10
130.9214856300565
 20
113.4349455857389
 10
130.9433404542182
 20
113.4454531268137
 10
130.9639679631316
 20
113.4579631296098
 10
130.9832281997943
 20
113.4723356371251
 10
131.001002739051
 20
113.4884629901272
 10
131.0171623898229
 20
113.5062052316142
 10
131.0315779610311
 20
113.5254331705073
 10
131.0441094956736
 20
113.5460283816509
 10
131.0546601004414
 20
113.567850908043
 10
131.0630790524091
 20
113.5908038563745
 10
131.0692479264213
 20
113.6147365037202
 10
131.0730482973223
 20
113.6395411908476
 10
131.0743402081102
 20
113.6650779607549
 10
131.0743402081102
 20
113.6650779607549
 10
131.0730482973223
 20
113.6906685602783
 10
131.0692479264213
 20
113.715527077022
 10
131.0630790524091
 20
113.7395027880605
 10
131.0546601004414
 20
113.7625095660082
 10
131.0441094956736
 20
113.78436439017
 10
131.0315671951078
 20
113.8049918990833
 10
131.0171623898229
 20
113.8242413698228
 10
131.001002739051
 20
113.8419943772331
 10
130.9832389657175
 20
113.8581324961585
 10
130.9639679631316
 20
113.8725157695969
 10
130.9433512201415
 20
113.8850365383162
 10
130.9214856300565
 20
113.8955548453143
 10
130.8985219158017
 20
113.9039630313588
 10
130.8745677366096
 20
113.9101103735245
 10
130.8497522835589
 20
113.9138999785023
 10
130.8242155136516
 20
113.9151918892902
 10
130.8242155136516
 20
113.9151918892902
 10
130.7986679778211
 20
113.9139107444256
 10
130.7738632906937
 20
113.9101211394478
 10
130.7499091115016
 20
113.9039630313588
 10
130.7269453972468
 20
113.8955656112375
 10
130.7050690412386
 20
113.8850365383162
 10
130.6844630641717
 20
113.8725157695969
 10
130.6652028275089
 20
113.8581217302352
 10
130.6474282882522
 20
113.8419943772331
 10
130.6312794034036
 20
113.8242413698228
 10
130.6168638321954
 20
113.8049918990833
 10
130.6043215316297
 20
113.78436439017
 10
130.5937709268619
 20
113.762498800085
 10
130.5853519748942
 20
113.7395135539838
 10
130.579183100882
 20
113.715527077022
 10
130.575382729981
 20
113.6906793262016
 10
130.5740908191931
 20
113.6650779607549
 10
130.5740908191931
 20
113.6650779607549
 10
130.5753934959042
 20
113.6395411908476
 10
130.579183100882
 20
113.6147472696434
 10
130.5853627408174
 20
113.5907930904513
 10
130.5937709268619
 20
113.567850908043
 10
130.6043107657064
 20
113.5460176157277
 10
130.6168638321954
 20
113.5254331705073
 10
130.6312794034036
 20
113.5062052316142
 10
130.6474282882522
 20
113.4884629901272
 10
130.6652028275089
 20
113.4723464030483
 10
130.6844522982485
 20
113.4579631296098
 10
130.7050798071618
 20
113.4454531268137
 10
130.7269453972468
 20
113.4349348198157
 10
130.7499091115016
 20
113.4265373996944
 10
130.7738632906937
 20
113.4203792916055
 10
130.7986787437443
 20
113.4166004525509
 97
        0
 75
     1
 76
     1
 98
        0
  0
LWPOLYLINE
  5
86
330
1F
100
AcDbEntity
  8
ISS138金台
  6
Continuous
 62
   250
420
  2367521
370
    13
100
AcDbPolyline
 90
       68
 70
     0
 43
0.0
 10
130.8242155136516
 20
113.415308541763
 10
130.8497522835589
 20
113.4166004525509
 10
130.8745677366096
 20
113.4203900575287
 10
130.8985111498785
 20
113.4265266337712
 10
130.9214856300565
 20
113.4349455857389
 10
130.9433404542182
 20
113.4454531268137
 10
130.9639679631316
 20
113.4579631296098
 10
130.9832281997943
 20
113.4723356371251
 10
131.001002739051
 20
113.4884629901272
 10
131.0171623898229
 20
113.5062052316142
 10
131.0315779610311
 20
113.5254331705073
 10
131.0441094956736
 20
113.5460283816509
 10
131.0546601004414
 20
113.567850908043
 10
131.0630790524091
 20
113.5908038563745
 10
131.0692479264213
 20
113.6147365037202
 10
131.0730482973223
 20
113.6395411908476
 10
131.0743402081102
 20
113.6650779607549
 10
131.0743402081102
 20
113.6650779607549
 10
131.0730482973223
 20
113.6906685602783
 10
131.0692479264213
 20
113.715527077022
 10
131.0630790524091
 20
113.7395027880605
 10
131.0546601004414
 20
113.7625095660082
 10
131.0441094956736
 20
113.78436439017
 10
131.0315671951078
 20
113.8049918990833
 10
131.0171623898229
 20
113.8242413698228
 10
131.001002739051
 20
113.8419943772331
 10
130.9832389657175
 20
113.8581324961585
 10
130.9639679631316
 20
113.8725157695969
 10
130.9433512201415
 20
113.8850365383162
 10
130.9214856300565
 20
113.8955548453143
 10
130.8985219158017
 20
113.9039630313588
 10
130.8745677366096
 20
113.9101103735245
 10
130.8497522835589
 20
113.9138999785023
 10
130.8242155136516
 20
113.9151918892902
 10
130.8242155136516
 20
113.9151918892902
 10
130.7986679778211
 20
113.9139107444256
 10
130.7738632906937
 20
113.9101211394478
 10
130.7499091115016
 20
113.9039630313588
 10
130.7269453972468
 20
113.8955656112375
 10
130.7050690412386
 20
113.8850365383162
 10
130.6844630641717
 20
113.8725157695969
 10
130.6652028275089
 20
113.8581217302352
 10
130.6474282882522
 20
113.8419943772331
 10
130.6312794034036
 20
113.8242413698228
 10
130.6168638321954
 20
113.8049918990833
 10
130.6043215316297
 20
113.78436439017
 10
130.5937709268619
 20
113.762498800085
 10
130.5853519748942
 20
113.7395135539838
 10
130.579183100882
 20
113.715527077022
 10
130.575382729981
 20
113.6906793262016
 10
130.5740908191931
 20
113.6650779607549
 10
130.5740908191931
 20
113.6650779607549
 10
130.5753934959042
 20
113.6395411908476
 10
130.579183100882
 20
113.6147472696434
 10
130.5853627408174
 20
113.5907930904513
 10
130.5937709268619
 20
113.567850908043
 10
130.6043107657064
 20
113.5460176157277
 10
130.6168638321954
 20
113.5254331705073
 10
130.6312794034036
 20
113.5062052316142
 10
130.6474282882522
 20
113.4884629901272
 10
130.6652028275089
 20
113.4723464030483
 10
130.6844522982485
 20
113.4579631296098
 10
130.7050798071618
 20
113.4454531268137
 10
130.7269453972468
 20
113.4349348198157
 10
130.7499091115016
 20
113.4265373996944
 10
130.7738632906937
 20
113.4203792916055
 10
130.7986787437443
 20
113.4166004525509
 10
130.8242155136516
 20
113.415308541763
  0
TEXT
  5
87
330
1F
100
AcDbEntity
  8
ISS138金台
  6
Continuous
 62
   250
420
  2367521
100
AcDbText
 10
123.8347951304766
 20
114.1954752075634
 30
0.0
 40
2.150533301035563
  1
10
 41
1.09912633895874
  7
MS Gothic
100
AcDbText
  0
TEXT
  5
88
330
1F
100
AcDbEntity
  8
ISS138金台
  6
Continuous
 62
   250
420
  2367521
100
AcDbText
 10
133.4910283187878
 20
105.7937023630634
 30
0.0
 40
2.150533301035563
  1
6
 50
90.00000250447816
 41
0.7580032348632811
  7
MS Gothic
100
AcDbText
  0
TEXT
  5
89
330
1F
100
AcDbEntity
  8
ISS138金台
  6
Continuous
 62
   250
420
  2367521
100
AcDbText
 10
119.8040765359555
 20
98.6069135995035
 30
0.0
 40
2.150533301035563
  1
18
 41
1.09912633895874
  7
MS Gothic
100
AcDbText
  0
TEXT
  5
8A
330
1F
100
AcDbEntity
  8
ISS138金台
  6
Continuous
 62
   250
420
  2367521
100
AcDbText
 10
109.0611783404997
 20
103.5433767912556
 30
0.0
 40
2.150533301035563
  1
2
 50
90.00000250447816
 41
0.7939987182617186
  7
MS Gothic
100
AcDbText
  0
LINE
  5
8B
330
1F
100
AcDbEntity
  8
ISS138金台
  6
Continuous
 62
   250
420
  2367521
370
    13
100
AcDbLine
 10
109.6134627092397
 20
105.4629839846813
 30
0.0
 11
112.1195973829729
 21
105.4629839846813
 31
0.0
  0
LINE
  5
8C
330
1F
100
AcDbEntity
  8
ISS138金台
  6
Continuous
 62
   250
420
  2367521
370
    13
100
AcDbLine
 10
109.6134627092397
 20
103.3904253372869
 30
0.0
 11
112.1195973829729
 21
103.3904253372869
 31
0.0
  0
LINE
  5
8D
330
1F
100
AcDbEntity
  8
ISS138金台
  6
Continuous
 62
   250
420
  2367521
370
    13
100
AcDbLine
 10
110.0764620037727
 20
105.4629839846813
 30
0.0
 11
110.0764620037727
 21
103.324096484252
 31
0.0
  0
HATCH
  5
8E
330
1F
100
AcDbEntity
  8
ISS138金台
  6
Continuous
 62
   250
420
  2367521
370
    13
100
AcDbHatch
 10
0.0
 20
0.0
 30
0.0
210
0.0
220
0.0
230
1.0
  2
SOLID
 70
     1
 71
     0
 91
        1
 92
        3
 72
     0
 73
     1
 93
       67
 10
110.0764620037727
 20
103.0745100859551
 10
110.10199877368
 20
103.075801996743
 10
110.1268034608074
 20
103.0795916017208
 10
110.1507576399995
 20
103.0857389438865
 10
110.1737321201775
 20
103.094147129931
 10
110.1955977102625
 20
103.1046654369291
 10
110.2162144532526
 20
103.1171646738019
 10
110.2354854558386
 20
103.1315479472404
 10
110.2532492291721
 20
103.1476645343193
 10
110.2693981140207
 20
103.1654067758063
 10
110.2838136852289
 20
103.1846347146994
 10
110.2963559857946
 20
103.205229925843
 10
110.3068958246392
 20
103.2270524522351
 10
110.3153255425301
 20
103.2500054005666
 10
110.3214944165423
 20
103.2739380479122
 10
110.3252947874434
 20
103.2987427350397
 10
110.3265866982313
 20
103.324279504947
 10
110.3265866982313
 20
103.324279504947
 10
110.3252947874434
 20
103.3498808703937
 10
110.3215051824655
 20
103.3747286212141
 10
110.3153255425301
 20
103.3987150981759
 10
110.3069065905624
 20
103.4217111102003
 10
110.2963559857946
 20
103.4435659343621
 10
110.2838136852289
 20
103.4641934432754
 10
110.2693981140207
 20
103.4834321480917
 10
110.2532492291721
 20
103.5011959214252
 10
110.2354854558386
 20
103.5173340403505
 10
110.2162144532526
 20
103.5317173137891
 10
110.1955977102625
 20
103.5442380825083
 10
110.1737321201775
 20
103.5547563895064
 10
110.1507684059228
 20
103.5631645755509
 10
110.1268142267306
 20
103.5693119177166
 10
110.10199877368
 20
103.5731015226944
 10
110.0764620037727
 20
103.5743934334823
 10
110.0764620037727
 20
103.5743934334823
 10
110.0509359997886
 20
103.5731015226944
 10
110.0260990148915
 20
103.5693226836399
 10
110.0021556016226
 20
103.5631645755509
 10
109.9791918873679
 20
103.5547671554296
 10
109.9573370632061
 20
103.5442380825083
 10
109.9367095542928
 20
103.5317173137891
 10
109.91744931763
 20
103.5173340403505
 10
109.8996747783733
 20
103.5011959214252
 10
109.8835151276014
 20
103.4834429140149
 10
109.8691103223165
 20
103.4641934432754
 10
109.8565680217507
 20
103.4435659343621
 10
109.8460174169829
 20
103.4217003442771
 10
109.8375984650152
 20
103.3987150981759
 10
109.831429591003
 20
103.3747286212141
 10
109.827629220102
 20
103.3498808703937
 10
109.8263373093141
 20
103.324279504947
 10
109.8263373093141
 20
103.324279504947
 10
109.8276184541788
 20
103.2987427350397
 10
109.831429591003
 20
103.2739488138355
 10
109.8375984650152
 20
103.2500054005666
 10
109.8460174169829
 20
103.2270632181583
 10
109.8565680217507
 20
103.205229925843
 10
109.8691103223165
 20
103.1846347146994
 10
109.8835151276014
 20
103.1654067758063
 10
109.8996747783733
 20
103.1476645343193
 10
109.91744931763
 20
103.1315479472404
 10
109.9367095542928
 20
103.1171646738019
 10
109.9573262972828
 20
103.1046546710058
 10
109.9791918873679
 20
103.0941363640078
 10
110.0021663675458
 20
103.0857389438865
 10
110.0261097808147
 20
103.0795808357976
 10
110.0509252338654
 20
103.075801996743
 97
        0
 75
     1
 76
     1
 98
        0
  0
LWPOLYLINE
  5
8F
330
1F
100
AcDbEntity
  8
ISS138金台
  6
Continuous
 62
   250
420
  2367521
370
    13
100
AcDbPolyline
 90
       68
 70
     0
 43
0.0
 10
110.0764620037727
 20
103.0745100859551
 10
110.10199877368
 20
103.075801996743
 10
110.1268034608074
 20
103.0795916017208
 10
110.1507576399995
 20
103.0857389438865
 10
110.1737321201775
 20
103.094147129931
 10
110.1955977102625
 20
103.1046654369291
 10
110.2162144532526
 20
103.1171646738019
 10
110.2354854558386
 20
103.1315479472404
 10
110.2532492291721
 20
103.1476645343193
 10
110.2693981140207
 20
103.1654067758063
 10
110.2838136852289
 20
103.1846347146994
 10
110.2963559857946
 20
103.205229925843
 10
110.3068958246392
 20
103.2270524522351
 10
110.3153255425301
 20
103.2500054005666
 10
110.3214944165423
 20
103.2739380479122
 10
110.3252947874434
 20
103.2987427350397
 10
110.3265866982313
 20
103.324279504947
 10
110.3265866982313
 20
103.324279504947
 10
110.3252947874434
 20
103.3498808703937
 10
110.3215051824655
 20
103.3747286212141
 10
110.3153255425301
 20
103.3987150981759
 10
110.3069065905624
 20
103.4217111102003
 10
110.2963559857946
 20
103.4435659343621
 10
110.2838136852289
 20
103.4641934432754
 10
110.2693981140207
 20
103.4834321480917
 10
110.2532492291721
 20
103.5011959214252
 10
110.2354854558386
 20
103.5173340403505
 10
110.2162144532526
 20
103.5317173137891
 10
110.1955977102625
 20
103.5442380825083
 10
110.1737321201775
 20
103.5547563895064
 10
110.1507684059228
 20
103.5631645755509
 10
110.1268142267306
 20
103.5693119177166
 10
110.10199877368
 20
103.5731015226944
 10
110.0764620037727
 20
103.5743934334823
 10
110.0764620037727
 20
103.5743934334823
 10
110.0509359997886
 20
103.5731015226944
 10
110.0260990148915
 20
103.5693226836399
 10
110.0021556016226
 20
103.5631645755509
 10
109.9791918873679
 20
103.5547671554296
 10
109.9573370632061
 20
103.5442380825083
 10
109.9367095542928
 20
103.5317173137891
 10
109.91744931763
 20
103.5173340403505
 10
109.8996747783733
 20
103.5011959214252
 10
109.8835151276014
 20
103.4834429140149
 10
109.8691103223165
 20
103.4641934432754
 10
109.8565680217507
 20
103.4435659343621
 10
109.8460174169829
 20
103.4217003442771
 10
109.8375984650152
 20
103.3987150981759
 10
109.831429591003
 20
103.3747286212141
 10
109.827629220102
 20
103.3498808703937
 10
109.8263373093141
 20
103.324279504947
 10
109.8263373093141
 20
103.324279504947
 10
109.8276184541788
 20
103.2987427350397
 10
109.831429591003
 20
103.2739488138355
 10
109.8375984650152
 20
103.2500054005666
 10
109.8460174169829
 20
103.2270632181583
 10
109.8565680217507
 20
103.205229925843
 10
109.8691103223165
 20
103.1846347146994
 10
109.8835151276014
 20
103.1654067758063
 10
109.8996747783733
 20
103.1476645343193
 10
109.91744931763
 20
103.1315479472404
 10
109.9367095542928
 20
103.1171646738019
 10
109.9573262972828
 20
103.1046546710058
 10
109.9791918873679
 20
103.0941363640078
 10
110.0021663675458
 20
103.0857389438865
 10
110.0261097808147
 20
103.0795808357976
 10
110.0509252338654
 20
103.075801996743
 10
110.0764620037727
 20
103.0745100859551
  0
HATCH
  5
90
330
1F
100
AcDbEntity
  8
ISS138金台
  6
Continuous
 62
   250
420
  2367521
370
    13
100
AcDbHatch
 10
0.0
 20
0.0
 30
0.0
210
0.0
220
0.0
230
1.0
  2
SOLID
 70
     1
 71
     0
 91
        1
 92
        3
 72
     0
 73
     1
 93
       67
 10
110.0764620037727
 20
105.2132360975358
 10
110.10199877368
 20
105.2145280083237
 10
110.1268034608074
 20
105.2183176133015
 10
110.1507576399995
 20
105.2244649554672
 10
110.1737321201775
 20
105.2328623755885
 10
110.1955977102625
 20
105.2433806825866
 10
110.2162144532526
 20
105.2558906853826
 10
110.2354854558386
 20
105.2702739588211
 10
110.2532492291721
 20
105.2863905459001
 10
110.2693981140207
 20
105.3041327873871
 10
110.2838136852289
 20
105.3233607262801
 10
110.2963559857946
 20
105.3439451715005
 10
110.3068958246392
 20
105.3657784638158
 10
110.3153255425301
 20
105.3887314121473
 10
110.3214944165423
 20
105.412664059493
 10
110.3252947874434
 20
105.4374687466204
 10
110.3265866982313
 20
105.4630055165277
 10
110.3265866982313
 20
105.4630055165277
 10
110.3252947874434
 20
105.4885961160512
 10
110.3215051824655
 20
105.5134546327948
 10
110.3153255425301
 20
105.5374303438334
 10
110.3069065905624
 20
105.5604263558578
 10
110.2963559857946
 20
105.5822919459428
 10
110.2838136852289
 20
105.6029086889329
 10
110.2693981140207
 20
105.6221689255957
 10
110.2532492291721
 20
105.6399219330059
 10
110.2354854558386
 20
105.6560600519313
 10
110.2162144532526
 20
105.6704433253698
 10
110.1955977102625
 20
105.6829640940891
 10
110.1737321201775
 20
105.6934824010871
 10
110.1507684059228
 20
105.7018905871316
 10
110.1268142267306
 20
105.7080486952206
 10
110.10199877368
 20
105.7118275342752
 10
110.0764620037727
 20
105.7131194450631
 10
110.0764620037727
 20
105.7131194450631
 10
110.0509359997886
 20
105.7118275342752
 10
110.0260990148915
 20
105.7080486952206
 10
110.0021556016226
 20
105.7018905871316
 10
109.9791918873679
 20
105.6934931670104
 10
109.9573370632061
 20
105.6829533281659
 10
109.9367095542928
 20
105.6704433253698
 10
109.91744931763
 20
105.6560600519313
 10
109.8996747783733
 20
105.6399219330059
 10
109.8835151276014
 20
105.6221581596724
 10
109.8691103223165
 20
105.6029194548561
 10
109.8565680217507
 20
105.5822919459428
 10
109.8460174169829
 20
105.5604263558578
 10
109.8375984650152
 20
105.5374411097566
 10
109.831429591003
 20
105.5134546327948
 10
109.827629220102
 20
105.4886068819744
 10
109.8263373093141
 20
105.4630055165277
 10
109.8263373093141
 20
105.4630055165277
 10
109.8276184541788
 20
105.4374687466204
 10
109.831429591003
 20
105.4126748254162
 10
109.8375984650152
 20
105.3887206462241
 10
109.8460174169829
 20
105.3657784638158
 10
109.8565680217507
 20
105.3439451715005
 10
109.8691103223165
 20
105.3233607262801
 10
109.8835151276014
 20
105.3041327873871
 10
109.8996747783733
 20
105.2863905459001
 10
109.91744931763
 20
105.2702739588211
 10
109.9367095542928
 20
105.2558906853826
 10
109.9573262972828
 20
105.2433806825866
 10
109.9791918873679
 20
105.2328623755885
 10
110.0021663675458
 20
105.2244649554672
 10
110.0261097808147
 20
105.2183068473783
 10
110.0509252338654
 20
105.2145280083237
 97
        0
 75
     1
 76
     1
 98
        0
  0
LWPOLYLINE
  5
91
330
1F
100
AcDbEntity
  8
ISS138金台
  6
Continuous
 62
   250
420
  2367521
370
    13
100
AcDbPolyline
 90
       68
 70
     0
 43
0.0
 10
110.0764620037727
 20
105.2132360975358
 10
110.10199877368
 20
105.2145280083237
 10
110.1268034608074
 20
105.2183176133015
 10
110.1507576399995
 20
105.2244649554672
 10
110.1737321201775
 20
105.2328623755885
 10
110.1955977102625
 20
105.2433806825866
 10
110.2162144532526
 20
105.2558906853826
 10
110.2354854558386
 20
105.2702739588211
 10
110.2532492291721
 20
105.2863905459001
 10
110.2693981140207
 20
105.3041327873871
 10
110.2838136852289
 20
105.3233607262801
 10
110.2963559857946
 20
105.3439451715005
 10
110.3068958246392
 20
105.3657784638158
 10
110.3153255425301
 20
105.3887314121473
 10
110.3214944165423
 20
105.412664059493
 10
110.3252947874434
 20
105.4374687466204
 10
110.3265866982313
 20
105.4630055165277
 10
110.3265866982313
 20
105.4630055165277
 10
110.3252947874434
 20
105.4885961160512
 10
110.3215051824655
 20
105.5134546327948
 10
110.3153255425301
 20
105.5374303438334
 10
110.3069065905624
 20
105.5604263558578
 10
110.2963559857946
 20
105.5822919459428
 10
110.2838136852289
 20
105.6029086889329
 10
110.2693981140207
 20
105.6221689255957
 10
110.2532492291721
 20
105.6399219330059
 10
110.2354854558386
 20
105.6560600519313
 10
110.2162144532526
 20
105.6704433253698
 10
110.1955977102625
 20
105.6829640940891
 10
110.1737321201775
 20
105.6934824010871
 10
110.1507684059228
 20
105.7018905871316
 10
110.1268142267306
 20
105.7080486952206
 10
110.10199877368
 20
105.7118275342752
 10
110.0764620037727
 20
105.7131194450631
 10
110.0764620037727
 20
105.7131194450631
 10
110.0509359997886
 20
105.7118275342752
 10
110.0260990148915
 20
105.7080486952206
 10
110.0021556016226
 20
105.7018905871316
 10
109.9791918873679
 20
105.6934931670104
 10
109.9573370632061
 20
105.6829533281659
 10
109.9367095542928
 20
105.6704433253698
 10
109.91744931763
 20
105.6560600519313
 10
109.8996747783733
 20
105.6399219330059
 10
109.8835151276014
 20
105.6221581596724
 10
109.8691103223165
 20
105.6029194548561
 10
109.8565680217507
 20
105.5822919459428
 10
109.8460174169829
 20
105.5604263558578
 10
109.8375984650152
 20
105.5374411097566
 10
109.831429591003
 20
105.5134546327948
 10
109.827629220102
 20
105.4886068819744
 10
109.8263373093141
 20
105.4630055165277
 10
109.8263373093141
 20
105.4630055165277
 10
109.8276184541788
 20
105.4374687466204
 10
109.831429591003
 20
105.4126748254162
 10
109.8375984650152
 20
105.3887206462241
 10
109.8460174169829
 20
105.3657784638158
 10
109.8565680217507
 20
105.3439451715005
 10
109.8691103223165
 20
105.3233607262801
 10
109.8835151276014
 20
105.3041327873871
 10
109.8996747783733
 20
105.2863905459001
 10
109.91744931763
 20
105.2702739588211
 10
109.9367095542928
 20
105.2558906853826
 10
109.9573262972828
 20
105.2433806825866
 10
109.9791918873679
 20
105.2328623755885
 10
110.0021663675458
 20
105.2244649554672
 10
110.0261097808147
 20
105.2183068473783
 10
110.0509252338654
 20
105.2145280083237
 10
110.0764620037727
 20
105.2132360975358
  0
LINE
  5
92
330
1F
100
AcDbEntity
  8
ISS138金台
  6
UserDefined01
 62
   140
420
    44526
370
    13
100
AcDbLine
 10
125.8412402433007
 20
100.2154253849706
 30
0.0
 11
130.8464471451265
 21
100.2154253849706
 31
0.0
  0
TEXT
  5
93
330
1F
100
AcDbEntity
  8
ISS138金台
  6
Continuous
 62
   140
420
    44526
100
AcDbText
 10
127.5111748936494
 20
101.0045784960842
 30
0.0
 40
1.881716638406118
  1
5
 41
1.010001046316964
  7
MS Gothic
100
AcDbText
  0
HATCH
  5
94
330
1F
100
AcDbEntity
  8
ISS138金台
  6
Continuous
 62
   140
420
    44526
370
    13
100
AcDbHatch
 10
0.0
 20
0.0
 30
0.0
210
0.0
220
0.0
230
1.0
  2
SOLID
 70
     1
 71
     0
 91
        1
 92
        3
 72
     0
 73
     1
 93
        3
 10
124.9751647829463
 20
112.4742591920181
 10
126.7073049377319
 20
112.4735486410848
 10
125.8419400283108
 20
110.9753089344465
 97
        0
 75
     1
 76
     1
 98
        0
  0
LWPOLYLINE
  5
95
330
1F
100
AcDbEntity
  8
ISS138金台
  6
Continuous
 62
   140
420
    44526
370
    13
100
AcDbPolyline
 90
        4
 70
     0
 43
0.0
 10
124.9751647829463
 20
112.4742591920181
 10
126.7073049377319
 20
112.4735486410848
 10
125.8419400283108
 20
110.9753089344465
 10
124.9751647829463
 20
112.4742591920181
  0
ENDSEC
  0
SECTION
  2
OBJECTS
  0
DICTIONARY
  5
C
330
0
100
AcDbDictionary
281
     1
  3
ACAD_DETAILVIEWSTYLE
350
9D
  3
ACAD_GROUP
350
D
  3
ACAD_LAYOUT
350
1A
  3
ACAD_MATERIAL
350
43
  3
ACAD_MLEADERSTYLE
350
5B
  3
ACAD_MLINESTYLE
350
17
  3
ACAD_PLOTSETTINGS
350
19
  3
ACAD_PLOTSTYLENAME
350
E
  3
ACAD_SCALELIST
350
47
  3
ACAD_SECTIONVIEWSTYLE
350
9E
  3
ACAD_TABLESTYLE
350
59
  3
ACAD_VISUALSTYLE
350
2A
  3
ACDB_RECOMPOSE_DATA
350
9A
  3
AcDbVariableDictionary
350
96
  0
SUN
  5
5D
330
29
100
AcDbSun
 90
        1
290
     0
 63
     7
421
 16777215
 40
1.0
291
     1
 91
  2455826
 92
 54000000
292
     0
 70
     2
 71
   256
280
     1
  0
DICTIONARY
  5
9D
102
{ACAD_REACTORS
330
C
102
}
330
C
100
AcDbDictionary
281
     1
  0
DICTIONARY
  5
D
102
{ACAD_REACTORS
330
C
102
}
330
C
100
AcDbDictionary
281
     1
  0
DICTIONARY
  5
1A
102
{ACAD_REACTORS
330
C
102
}
330
C
100
AcDbDictionary
281
     1
  3
Layout1
350
1E
  3
Layout2
350
26
  3
Model
350
22
  0
DICTIONARY
  5
43
102
{ACAD_REACTORS
330
C
102
}
330
C
100
AcDbDictionary
281
     1
  3
ByBlock
350
45
  3
ByLayer
350
44
  3
Global
350
46
  0
DICTIONARY
  5
5B
102
{ACAD_REACTORS
330
C
102
}
330
C
100
AcDbDictionary
281
     1
  3
Standard
350
5C
  0
DICTIONARY
  5
17
102
{ACAD_REACTORS
330
C
102
}
330
C
100
AcDbDictionary
281
     1
  3
Standard
350
18
  0
DICTIONARY
  5
19
102
{ACAD_REACTORS
330
C
102
}
330
C
100
AcDbDictionary
281
     1
  0
ACDBDICTIONARYWDFLT
  5
E
102
{ACAD_REACTORS
330
C
102
}
330
C
100
AcDbDictionary
281
     1
  3
Normal
350
F
100
AcDbDictionaryWithDefault
340
F
  0
DICTIONARY
  5
47
102
{ACAD_REACTORS
330
C
102
}
330
C
100
AcDbDictionary
281
     1
  3
A0
350
48
  3
A1
350
49
  3
A2
350
4A
  3
A3
350
4B
  3
A4
350
4C
  3
A5
350
4D
  3
A6
350
4E
  3
A7
350
4F
  3
A8
350
50
  3
A9
350
51
  3
B0
350
52
  3
B1
350
53
  3
B2
350
54
  3
B3
350
55
  3
B4
350
56
  3
B5
350
57
  3
B6
350
58
  0
DICTIONARY
  5
9E
102
{ACAD_REACTORS
330
C
102
}
330
C
100
AcDbDictionary
281
     1
  0
DICTIONARY
  5
59
102
{ACAD_REACTORS
330
C
102
}
330
C
100
AcDbDictionary
281
     1
  3
Standard
350
5A
  0
DICTIONARY
  5
2A
102
{ACAD_REACTORS
330
C
102
}
330
C
100
AcDbDictionary
281
     1
  3
2dWireframe
350
2F
  3
Basic
350
32
  3
Brighten
350
36
  3
ColorChange
350
3A
  3
Conceptual
350
34
  3
Dim
350
35
  3
EdgeColorOff
350
3D
  3
Facepattern
350
39
  3
Flat
350
2B
  3
FlatWithEdges
350
2C
  3
Gouraud
350
2D
  3
GouraudWithEdges
350
2E
  3
Hidden
350
31
  3
JitterOff
350
3B
  3
Linepattern
350
38
  3
OverhangOff
350
3C
  3
Realistic
350
33
  3
Shaded
350
42
  3
Shaded with edges
350
41
  3
Shades of Gray
350
3E
  3
Sketchy
350
3F
  3
Thicken
350
37
  3
Wireframe
350
30
  3
X-Ray
350
40
  0
XRECORD
  5
9A
102
{ACAD_REACTORS
330
C
102
}
330
C
100
AcDbXrecord
280
     1
 90
        1
330
5A
  0
DICTIONARY
  5
96
102
{ACAD_REACTORS
330
C
102
}
330
C
100
AcDbDictionary
281
     1
  3
CANNOSCALE
350
97
  3
CENTEREXE
350
9F
  3
CENTERLTYPEFILE
350
A0
  3
CMLEADERSTYLE
350
9C
  3
CTABLESTYLE
350
9B
  0
LAYOUT
  5
1E
102
{ACAD_REACTORS
330
1A
102
}
330
1A
100
AcDbPlotSettings
  1

  2
none_device
  4

  6

 40
0.0
 41
0.0
 42
0.0
 43
0.0
 44
0.0
 45
0.0
 46
0.0
 47
0.0
 48
0.0
 49
0.0
140
0.0
141
0.0
142
1.0
143
1.0
 70
   688
 72
     1
 73
     0
 74
     5
  7

 75
    16
 76
     0
 77
     5
 78
   300
147
1.0
148
0.0
149
0.0
100
AcDbLayout
  1
Layout1
 70
     1
 71
     1
 10
0.0
 20
0.0
 11
420.0
 21
297.0
 12
0.0
 22
0.0
 32
0.0
 14
1.000000000000000E+20
 24
1.000000000000000E+20
 34
1.000000000000000E+20
 15
-1.000000000000000E+20
 25
-1.000000000000000E+20
 35
-1.000000000000000E+20
146
0.0
 13
0.0
 23
0.0
 33
0.0
 16
1.0
 26
0.0
 36
0.0
 17
0.0
 27
1.0
 37
0.0
 76
     0
330
1B
  0
LAYOUT
  5
26
102
{ACAD_REACTORS
330
1A
102
}
330
1A
100
AcDbPlotSettings
  1

  2
none_device
  4

  6

 40
0.0
 41
0.0
 42
0.0
 43
0.0
 44
0.0
 45
0.0
 46
0.0
 47
0.0
 48
0.0
 49
0.0
140
0.0
141
0.0
142
1.0
143
1.0
 70
   688
 72
     1
 73
     0
 74
     5
  7

 75
    16
 76
     0
 77
     5
 78
   300
147
1.0
148
0.0
149
0.0
100
AcDbLayout
  1
Layout2
 70
     1
 71
     2
 10
0.0
 20
0.0
 11
0.0
 21
0.0
 12
0.0
 22
0.0
 32
0.0
 14
0.0
 24
0.0
 34
0.0
 15
0.0
 25
0.0
 35
0.0
146
0.0
 13
0.0
 23
0.0
 33
0.0
 16
1.0
 26
0.0
 36
0.0
 17
0.0
 27
1.0
 37
0.0
 76
     0
330
23
  0
LAYOUT
  5
22
102
{ACAD_REACTORS
330
1A
102
}
330
1A
100
AcDbPlotSettings
  1

  2
none_device
  4
Letter_(8.50_x_11.00_Inches)
  6

 40
6.35
 41
6.35
 42
6.35000508
 43
6.35000508
 44
215.9
 45
279.4
 46
0.0
 47
0.0
 48
0.0
 49
0.0
140
0.0
141
0.0
142
1.0
143
1.0
 70
  1712
 72
     1
 73
     0
 74
     0
  7

 75
     0
 76
     0
 77
     5
 78
   300
147
1.0
148
0.0
149
0.0
100
AcDbLayout
  1
Model
 70
     1
 71
     0
 10
0.0
 20
0.0
 11
302.9997823349792
 21
216.0016055409748
 12
0.0
 22
0.0
 32
0.0
 14
0.0
 24
0.0
 34
0.0
 15
302.9997823349792
 25
216.0016055409748
 35
0.0
146
0.0
 13
0.0
 23
0.0
 33
0.0
 16
1.0
 26
0.0
 36
0.0
 17
0.0
 27
1.0
 37
0.0
 76
     0
330
1F
331
29
  0
MATERIAL
  5
45
102
{ACAD_REACTORS
330
43
102
}
330
43
100
AcDbMaterial
  1
ByBlock
 72
     1
 94
      127
  0
MATERIAL
  5
44
102
{ACAD_REACTORS
330
43
102
}
330
43
100
AcDbMaterial
  1
ByLayer
 72
     1
 94
      127
  0
MATERIAL
  5
46
102
{ACAD_REACTORS
330
43
102
}
330
43
100
AcDbMaterial
  1
Global
 72
     1
 94
      127
  0
MLEADERSTYLE
  5
5C
102
{ACAD_REACTORS
330
5B
102
}
330
5B
100
AcDbMLeaderStyle
179
     2
170
     2
171
     1
172
     0
 90
        2
 40
0.0
 41
0.0
173
     1
 91
-1056964608
340
14
 92
       -2
290
     1
 42
2.0
291
     1
 43
8.0
  3
Standard
341
0
 44
4.0
300

342
11
174
     1
178
     6
175
     1
176
     0
 93
-1056964608
 45
4.0
292
     0
297
     0
 46
4.0
343
0
 94
-1056964608
 47
1.0
 49
1.0
140
1.0
293
     1
141
0.0
294
     1
177
     0
142
1.0
295
     0
296
     0
143
3.75
271
     0
272
     9
273
     9
298
     0
  0
MLINESTYLE
  5
18
102
{ACAD_REACTORS
330
17
102
}
330
17
100
AcDbMlineStyle
  2
Standard
 70
     0
  3

 62
   256
 51
90.0
 52
90.0
 71
     2
 49
0.5
 62
   256
  6
BYLAYER
 49
-0.5
 62
   256
  6
BYLAYER
  0
ACDBPLACEHOLDER
  5
F
102
{ACAD_REACTORS
330
E
102
}
330
E
  0
SCALE
  5
48
102
{ACAD_REACTORS
330
47
102
}
330
47
100
AcDbScale
 70
     0
300
1:1
140
1.0
141
1.0
290
     1
  0
SCALE
  5
49
102
{ACAD_REACTORS
330
47
102
}
330
47
100
AcDbScale
 70
     0
300
1:2
140
1.0
141
2.0
290
     0
  0
SCALE
  5
4A
102
{ACAD_REACTORS
330
47
102
}
330
47
100
AcDbScale
 70
     0
300
1:4
140
1.0
141
4.0
290
     0
  0
SCALE
  5
4B
102
{ACAD_REACTORS
330
47
102
}
330
47
100
AcDbScale
 70
     0
300
1:5
140
1.0
141
5.0
290
     0
  0
SCALE
  5
4C
102
{ACAD_REACTORS
330
47
102
}
330
47
100
AcDbScale
 70
     0
300
1:8
140
1.0
141
8.0
290
     0
  0
SCALE
  5
4D
102
{ACAD_REACTORS
330
47
102
}
330
47
100
AcDbScale
 70
     0
300
1:10
140
1.0
141
10.0
290
     0
  0
SCALE
  5
4E
102
{ACAD_REACTORS
330
47
102
}
330
47
100
AcDbScale
 70
     0
300
1:16
140
1.0
141
16.0
290
     0
  0
SCALE
  5
4F
102
{ACAD_REACTORS
330
47
102
}
330
47
100
AcDbScale
 70
     0
300
1:20
140
1.0
141
20.0
290
     0
  0
SCALE
  5
50
102
{ACAD_REACTORS
330
47
102
}
330
47
100
AcDbScale
 70
     0
300
1:30
140
1.0
141
30.0
290
     0
  0
SCALE
  5
51
102
{ACAD_REACTORS
330
47
102
}
330
47
100
AcDbScale
 70
     0
300
1:40
140
1.0
141
40.0
290
     0
  0
SCALE
  5
52
102
{ACAD_REACTORS
330
47
102
}
330
47
100
AcDbScale
 70
     0
300
1:50
140
1.0
141
50.0
290
     0
  0
SCALE
  5
53
102
{ACAD_REACTORS
330
47
102
}
330
47
100
AcDbScale
 70
     0
300
1:100
140
1.0
141
100.0
290
     0
  0
SCALE
  5
54
102
{ACAD_REACTORS
330
47
102
}
330
47
100
AcDbScale
 70
     0
300
2:1
140
2.0
141
1.0
290
     0
  0
SCALE
  5
55
102
{ACAD_REACTORS
330
47
102
}
330
47
100
AcDbScale
 70
     0
300
4:1
140
4.0
141
1.0
290
     0
  0
SCALE
  5
56
102
{ACAD_REACTORS
330
47
102
}
330
47
100
AcDbScale
 70
     0
300
8:1
140
8.0
141
1.0
290
     0
  0
SCALE
  5
57
102
{ACAD_REACTORS
330
47
102
}
330
47
100
AcDbScale
 70
     0
300
10:1
140
10.0
141
1.0
290
     0
  0
SCALE
  5
58
102
{ACAD_REACTORS
330
47
102
}
330
47
100
AcDbScale
 70
     0
300
100:1
140
100.0
141
1.0
290
     0
  0
TABLESTYLE
  5
5A
102
{ACAD_REACTORS
330
59
102
}
102
{ACAD_XDICTIONARY
360
98
102
}
330
59
100
AcDbTableStyle
  3
Standard
 70
     0
 71
     0
 40
0.06
 41
0.06
280
     0
281
     0
  7
Standard
140
4.5
170
     2
 62
     0
 63
   257
283
     0
 90
        4
 91
        0
  1

274
    -2
284
     1
 64
     0
275
    -2
285
     1
 65
     0
276
    -2
286
     1
 66
     0
277
    -2
287
     1
 67
     0
278
    -2
288
     1
 68
     0
279
    -2
289
     1
 69
     0
  7
Standard
140
6.0
170
     5
 62
     0
 63
   257
283
     0
 90
        4
 91
        0
  1

274
    -2
284
     1
 64
     0
275
    -2
285
     1
 65
     0
276
    -2
286
     1
 66
     0
277
    -2
287
     1
 67
     0
278
    -2
288
     1
 68
     0
279
    -2
289
     1
 69
     0
  7
Standard
140
4.5
170
     5
 62
     0
 63
   257
283
     0
 90
        4
 91
        0
  1

274
    -2
284
     1
 64
     0
275
    -2
285
     1
 65
     0
276
    -2
286
     1
 66
     0
277
    -2
287
     1
 67
     0
278
    -2
288
     1
 68
     0
279
    -2
289
     1
 69
     0
  0
VISUALSTYLE
  5
2F
102
{ACAD_REACTORS
330
2A
102
}
330
2A
100
AcDbVisualStyle
  2
2dWireframe
 70
     4
177
     3
291
     0
 70
    58
 90
        0
176
     1
 90
        2
176
     1
 90
        0
176
     1
 90
        0
176
     1
 40
0.6
176
     1
 40
30.0
176
     1
 62
     7
420
 16777215
176
     1
 90
        1
176
     1
 90
        4
176
     1
 62
     7
176
     1
 62
   257
176
     1
 90
        1
176
     1
 90
        1
176
     1
 40
1.0
176
     1
 90
        0
176
     1
 62
   257
176
     1
 40
1.0
176
     1
 90
        1
176
     1
 90
        6
176
     1
 90
        2
176
     1
 62
     7
176
     1
 90
        5
176
     1
 90
        0
176
     1
 90
        0
176
     1
290
     0
176
     1
 90
        1
176
     1
 40
0.0
176
     1
 90
        0
176
     1
290
     1
176
     1
290
     1
176
     1
290
     0
176
     1
290
     0
176
     1
290
     0
176
     1
290
     0
176
     1
290
     0
176
     1
290
     0
176
     1
290
     0
176
     1
 90
       50
176
     1
 40
0.0
176
     1
 40
1.0
176
     1
 90
        0
176
     1
 62
    18
420
        0
176
     1
 90
       50
176
     1
 90
        3
176
     1
 62
     5
420
      255
176
     1
290
     0
176
     1
 90
       50
176
     1
 90
       50
176
     1
 90
       50
176
     1
290
     0
176
     1
 90
       50
176
     1
 62
   256
176
     0
 40
1.0
176
     0
 90
        2
176
     1
  1
strokes_ogs.tif
176
     1
290
     0
176
     1
 40
1.0
176
     1
 40
1.0
176
     1
  0
VISUALSTYLE
  5
32
102
{ACAD_REACTORS
330
2A
102
}
330
2A
100
AcDbVisualStyle
  2
Basic
 70
     7
177
     3
291
     1
 70
    58
 90
        1
176
     1
 90
        0
176
     1
 90
        1
176
     1
 90
        0
176
     1
 40
0.6
176
     1
 40
30.0
176
     1
 62
     7
420
 16777215
176
     1
 90
        0
176
     1
 90
        4
176
     1
 62
     7
176
     1
 62
   257
176
     1
 90
        1
176
     1
 90
        1
176
     1
 40
1.0
176
     1
 90
        8
176
     1
 62
     7
176
     1
 40
1.0
176
     1
 90
        1
176
     1
 90
        6
176
     1
 90
        2
176
     1
 62
     7
176
     1
 90
        5
176
     1
 90
        0
176
     1
 90
        0
176
     1
290
     0
176
     1
 90
        1
176
     1
 40
0.0
176
     1
 90
        0
176
     1
290
     0
176
     1
290
     1
176
     1
290
     1
176
     1
290
     0
176
     1
290
     0
176
     1
290
     0
176
     1
290
     0
176
     1
290
     0
176
     1
290
     0
176
     1
 90
       50
176
     1
 40
0.0
176
     1
 40
1.0
176
     1
 90
        0
176
     1
 62
    18
420
        0
176
     1
 90
       50
176
     1
 90
        3
176
     1
 62
     5
420
      255
176
     1
290
     0
176
     1
 90
       50
176
     1
 90
       50
176
     1
 90
       50
176
     1
290
     0
176
     1
 90
       50
176
     1
 62
   256
176
     0
 40
1.0
176
     0
 90
        2
176
     1
  1
strokes_ogs.tif
176
     1
290
     0
176
     1
 40
1.0
176
     1
 40
1.0
176
     1
  0
VISUALSTYLE
  5
36
102
{ACAD_REACTORS
330
2A
102
}
330
2A
100
AcDbVisualStyle
  2
Brighten
 70
    12
177
     3
291
     1
 70
    58
 90
        2
176
     1
 90
        2
176
     1
 90
        0
176
     1
 90
        0
176
     1
 40
0.6
176
     1
 40
30.0
176
     1
 62
     7
420
 16777215
176
     1
 90
        1
176
     1
 90
        4
176
     1
 62
     7
176
     1
 62
   257
176
     1
 90
        1
176
     1
 90
        1
176
     1
 40
1.0
176
     1
 90
        8
176
     1
 62
     7
176
     1
 40
1.0
176
     1
 90
        1
176
     1
 90
        6
176
     1
 90
        2
176
     1
 62
     7
176
     1
 90
        5
176
     1
 90
        0
176
     1
 90
        0
176
     1
290
     0
176
     1
 90
        1
176
     1
 40
50.0
176
     1
 90
        0
176
     1
290
     0
176
     1
290
     1
176
     1
290
     1
176
     1
290
     0
176
     1
290
     0
176
     1
290
     0
176
     1
290
     0
176
     1
290
     0
176
     1
290
     0
176
     1
 90
       50
176
     1
 40
0.0
176
     1
 40
1.0
176
     1
 90
        0
176
     1
 62
    18
420
        0
176
     1
 90
       50
176
     1
 90
        3
176
     1
 62
     5
420
      255
176
     1
290
     0
176
     1
 90
       50
176
     1
 90
       50
176
     1
 90
       50
176
     1
290
     0
176
     1
 90
       50
176
     1
 62
   256
176
     0
 40
1.0
176
     0
 90
        2
176
     1
  1
strokes_ogs.tif
176
     1
290
     0
176
     1
 40
1.0
176
     1
 40
1.0
176
     1
  0
VISUALSTYLE
  5
3A
102
{ACAD_REACTORS
330
2A
102
}
330
2A
100
AcDbVisualStyle
  2
ColorChange
 70
    16
177
     3
291
     1
 70
    58
 90
        2
176
     1
 90
        2
176
     1
 90
        3
176
     1
 90
        0
176
     1
 40
0.6
176
     1
 40
30.0
176
     1
 62
     8
420
  8421504
176
     1
 90
        1
176
     1
 90
        4
176
     1
 62
     7
176
     1
 62
   257
176
     1
 90
        1
176
     1
 90
        1
176
     1
 40
1.0
176
     1
 90
        8
176
     1
 62
     8
420
  8421504
176
     1
 40
1.0
176
     1
 90
        1
176
     1
 90
        6
176
     1
 90
        2
176
     1
 62
     7
176
     1
 90
        5
176
     1
 90
        0
176
     1
 90
        0
176
     1
290
     0
176
     1
 90
        1
176
     1
 40
0.0
176
     1
 90
        0
176
     1
290
     0
176
     1
290
     1
176
     1
290
     1
176
     1
290
     0
176
     1
290
     0
176
     1
290
     0
176
     1
290
     0
176
     1
290
     0
176
     1
290
     0
176
     1
 90
       50
176
     1
 40
0.0
176
     1
 40
1.0
176
     1
 90
        0
176
     1
 62
    18
420
        0
176
     1
 90
       50
176
     1
 90
        3
176
     1
 62
     5
420
      255
176
     1
290
     0
176
     1
 90
       50
176
     1
 90
       50
176
     1
 90
       50
176
     1
290
     0
176
     1
 90
       50
176
     1
 62
   256
176
     0
 40
1.0
176
     0
 90
        2
176
     1
  1
strokes_ogs.tif
176
     1
290
     0
176
     1
 40
1.0
176
     1
 40
1.0
176
     1
  0
VISUALSTYLE
  5
34
102
{ACAD_REACTORS
330
2A
102
}
330
2A
100
AcDbVisualStyle
  2
Conceptual
 70
     9
177
     3
291
     0
 70
    58
 90
        3
176
     1
 90
        2
176
     1
 90
        0
176
     1
 90
        0
176
     1
 40
0.6
176
     1
 40
30.0
176
     1
 62
     7
420
 16777215
176
     1
 90
        2
176
     1
 90
        2
176
     1
 62
     7
176
     1
 62
   257
176
     1
 90
        1
176
     1
 90
        1
176
     1
 40
179.0
176
     1
 90
        8
176
     1
 62
     7
176
     1
 40
1.0
176
     1
 90
        1
176
     1
 90
        6
176
     1
 90
        2
176
     1
 62
     7
176
     1
 90
        3
176
     1
 90
        0
176
     1
 90
        0
176
     1
290
     0
176
     1
 90
        1
176
     1
 40
0.0
176
     1
 90
        0
176
     1
290
     0
176
     1
290
     1
176
     1
290
     1
176
     1
290
     0
176
     1
290
     0
176
     1
290
     0
176
     1
290
     0
176
     1
290
     0
176
     1
290
     0
176
     1
 90
       50
176
     1
 40
0.0
176
     1
 40
1.0
176
     1
 90
        0
176
     1
 62
    18
420
        0
176
     1
 90
       50
176
     1
 90
        3
176
     1
 62
     5
420
      255
176
     1
290
     0
176
     1
 90
       50
176
     1
 90
       50
176
     1
 90
       50
176
     1
290
     0
176
     1
 90
       50
176
     1
 62
   256
176
     0
 40
1.0
176
     0
 90
        2
176
     1
  1
strokes_ogs.tif
176
     1
290
     0
176
     1
 40
1.0
176
     1
 40
1.0
176
     1
  0
VISUALSTYLE
  5
35
102
{ACAD_REACTORS
330
2A
102
}
330
2A
100
AcDbVisualStyle
  2
Dim
 70
    11
177
     3
291
     1
 70
    58
 90
        2
176
     1
 90
        2
176
     1
 90
        0
176
     1
 90
        0
176
     1
 40
0.6
176
     1
 40
30.0
176
     1
 62
     7
420
 16777215
176
     1
 90
        1
176
     1
 90
        4
176
     1
 62
     7
176
     1
 62
   257
176
     1
 90
        1
176
     1
 90
        1
176
     1
 40
1.0
176
     1
 90
        8
176
     1
 62
     7
176
     1
 40
1.0
176
     1
 90
        1
176
     1
 90
        6
176
     1
 90
        2
176
     1
 62
     7
176
     1
 90
        5
176
     1
 90
        0
176
     1
 90
        0
176
     1
290
     0
176
     1
 90
        1
176
     1
 40
-50.0
176
     1
 90
        0
176
     1
290
     0
176
     1
290
     1
176
     1
290
     1
176
     1
290
     0
176
     1
290
     0
176
     1
290
     0
176
     1
290
     0
176
     1
290
     0
176
     1
290
     0
176
     1
 90
       50
176
     1
 40
0.0
176
     1
 40
1.0
176
     1
 90
        0
176
     1
 62
    18
420
        0
176
     1
 90
       50
176
     1
 90
        3
176
     1
 62
     5
420
      255
176
     1
290
     0
176
     1
 90
       50
176
     1
 90
       50
176
     1
 90
       50
176
     1
290
     0
176
     1
 90
       50
176
     1
 62
   256
176
     0
 40
1.0
176
     0
 90
        2
176
     1
  1
strokes_ogs.tif
176
     1
290
     0
176
     1
 40
1.0
176
     1
 40
1.0
176
     1
  0
VISUALSTYLE
  5
3D
102
{ACAD_REACTORS
330
2A
102
}
330
2A
100
AcDbVisualStyle
  2
EdgeColorOff
 70
    22
177
     3
291
     1
 70
    58
 90
        2
176
     0
 90
        2
176
     0
 90
        0
176
     0
 90
        0
176
     0
 40
0.6
176
     0
 40
30.0
176
     0
 62
     7
420
 16777215
176
     0
 90
        1
176
     0
 90
        4
176
     0
 62
     7
176
     0
 62
   257
176
     0
 90
        1
176
     0
 90
        1
176
     0
 40
1.0
176
     0
 90
        8
176
     2
 62
     7
176
     0
 40
1.0
176
     0
 90
        1
176
     0
 90
        6
176
     0
 90
        2
176
     0
 62
     7
176
     0
 90
        5
176
     0
 90
        0
176
     0
 90
        0
176
     0
290
     0
176
     0
 90
        1
176
     0
 40
0.0
176
     0
 90
        0
176
     0
290
     0
176
     0
290
     1
176
     0
290
     1
176
     0
290
     0
176
     0
290
     0
176
     0
290
     0
176
     0
290
     0
176
     0
290
     0
176
     0
290
     0
176
     0
 90
       50
176
     0
 40
0.0
176
     0
 40
1.0
176
     0
 90
        0
176
     0
 62
    18
420
        0
176
     0
 90
       50
176
     0
 90
        3
176
     0
 62
     5
420
      255
176
     0
290
     0
176
     0
 90
       50
176
     0
 90
       50
176
     0
 90
       50
176
     0
290
     0
176
     0
 90
       50
176
     0
 62
   256
176
     0
 40
1.0
176
     0
 90
        2
176
     0
  1
strokes_ogs.tif
176
     0
290
     0
176
     0
 40
1.0
176
     0
 40
1.0
176
     0
  0
VISUALSTYLE
  5
39
102
{ACAD_REACTORS
330
2A
102
}
330
2A
100
AcDbVisualStyle
  2
Facepattern
 70
    15
177
     3
291
     1
 70
    58
 90
        2
176
     1
 90
        2
176
     1
 90
        0
176
     1
 90
        0
176
     1
 40
0.6
176
     1
 40
30.0
176
     1
 62
     7
420
 16777215
176
     1
 90
        1
176
     1
 90
        4
176
     1
 62
     7
176
     1
 62
   257
176
     1
 90
        1
176
     1
 90
        1
176
     1
 40
1.0
176
     1
 90
        8
176
     1
 62
     7
176
     1
 40
1.0
176
     1
 90
        1
176
     1
 90
        6
176
     1
 90
        2
176
     1
 62
     7
176
     1
 90
        5
176
     1
 90
        0
176
     1
 90
        0
176
     1
290
     0
176
     1
 90
        1
176
     1
 40
0.0
176
     1
 90
        0
176
     1
290
     0
176
     1
290
     1
176
     1
290
     1
176
     1
290
     0
176
     1
290
     0
176
     1
290
     0
176
     1
290
     0
176
     1
290
     0
176
     1
290
     0
176
     1
 90
       50
176
     1
 40
0.0
176
     1
 40
1.0
176
     1
 90
        0
176
     1
 62
    18
420
        0
176
     1
 90
       50
176
     1
 90
        3
176
     1
 62
     5
420
      255
176
     1
290
     0
176
     1
 90
       50
176
     1
 90
       50
176
     1
 90
       50
176
     1
290
     0
176
     1
 90
       50
176
     1
 62
   256
176
     0
 40
1.0
176
     0
 90
        2
176
     1
  1
strokes_ogs.tif
176
     1
290
     0
176
     1
 40
1.0
176
     1
 40
1.0
176
     1
  0
VISUALSTYLE
  5
2B
102
{ACAD_REACTORS
330
2A
102
}
330
2A
100
AcDbVisualStyle
  2
Flat
 70
     0
177
     3
291
     1
 70
    58
 90
        2
176
     1
 90
        1
176
     1
 90
        1
176
     1
 90
        2
176
     1
 40
0.6
176
     1
 40
30.0
176
     1
 62
     7
420
 16777215
176
     1
 90
        0
176
     1
 90
        0
176
     1
 62
     7
176
     1
 62
   257
176
     1
 90
        1
176
     1
 90
        1
176
     1
 40
1.0
176
     1
 90
        8
176
     1
 62
     7
176
     1
 40
1.0
176
     1
 90
        1
176
     1
 90
        6
176
     1
 90
        2
176
     1
 62
     7
176
     1
 90
        5
176
     1
 90
        0
176
     1
 90
        0
176
     1
290
     0
176
     1
 90
       13
176
     1
 40
0.0
176
     1
 90
        0
176
     1
290
     0
176
     1
290
     1
176
     1
290
     1
176
     1
290
     0
176
     1
290
     0
176
     1
290
     0
176
     1
290
     0
176
     1
290
     0
176
     1
290
     0
176
     1
 90
       50
176
     1
 40
0.0
176
     1
 40
1.0
176
     1
 90
        0
176
     1
 62
    18
420
        0
176
     1
 90
       50
176
     1
 90
        3
176
     1
 62
     5
420
      255
176
     1
290
     0
176
     1
 90
       50
176
     1
 90
       50
176
     1
 90
       50
176
     1
290
     0
176
     1
 90
       50
176
     1
 62
   256
176
     0
 40
1.0
176
     0
 90
        2
176
     1
  1
strokes_ogs.tif
176
     1
290
     0
176
     1
 40
1.0
176
     1
 40
1.0
176
     1
  0
VISUALSTYLE
  5
2C
102
{ACAD_REACTORS
330
2A
102
}
330
2A
100
AcDbVisualStyle
  2
FlatWithEdges
 70
     1
177
     3
291
     1
 70
    58
 90
        2
176
     1
 90
        1
176
     1
 90
        1
176
     1
 90
        2
176
     1
 40
0.6
176
     1
 40
30.0
176
     1
 62
     7
420
 16777215
176
     1
 90
        1
176
     1
 90
        0
176
     1
 62
     7
176
     1
 62
   257
176
     1
 90
        1
176
     1
 90
        1
176
     1
 40
1.0
176
     1
 90
        0
176
     1
 62
   257
176
     1
 40
1.0
176
     1
 90
        1
176
     1
 90
        6
176
     1
 90
        2
176
     1
 62
     7
176
     1
 90
        5
176
     1
 90
        0
176
     1
 90
        0
176
     1
290
     0
176
     1
 90
       13
176
     1
 40
0.0
176
     1
 90
        0
176
     1
290
     0
176
     1
290
     1
176
     1
290
     1
176
     1
290
     0
176
     1
290
     0
176
     1
290
     0
176
     1
290
     0
176
     1
290
     0
176
     1
290
     0
176
     1
 90
       50
176
     1
 40
0.0
176
     1
 40
1.0
176
     1
 90
        0
176
     1
 62
    18
420
        0
176
     1
 90
       50
176
     1
 90
        3
176
     1
 62
     5
420
      255
176
     1
290
     0
176
     1
 90
       50
176
     1
 90
       50
176
     1
 90
       50
176
     1
290
     0
176
     1
 90
       50
176
     1
 62
   256
176
     0
 40
1.0
176
     0
 90
        2
176
     1
  1
strokes_ogs.tif
176
     1
290
     0
176
     1
 40
1.0
176
     1
 40
1.0
176
     1
  0
VISUALSTYLE
  5
2D
102
{ACAD_REACTORS
330
2A
102
}
330
2A
100
AcDbVisualStyle
  2
Gouraud
 70
     2
177
     3
291
     1
 70
    58
 90
        2
176
     1
 90
        2
176
     1
 90
        1
176
     1
 90
        2
176
     1
 40
0.6
176
     1
 40
30.0
176
     1
 62
     7
420
 16777215
176
     1
 90
        0
176
     1
 90
        0
176
     1
 62
     7
176
     1
 62
   257
176
     1
 90
        1
176
     1
 90
        1
176
     1
 40
1.0
176
     1
 90
        0
176
     1
 62
     7
176
     1
 40
1.0
176
     1
 90
        1
176
     1
 90
        6
176
     1
 90
        2
176
     1
 62
     7
176
     1
 90
        5
176
     1
 90
        0
176
     1
 90
        0
176
     1
290
     0
176
     1
 90
       13
176
     1
 40
0.0
176
     1
 90
        0
176
     1
290
     0
176
     1
290
     1
176
     1
290
     1
176
     1
290
     0
176
     1
290
     0
176
     1
290
     0
176
     1
290
     0
176
     1
290
     0
176
     1
290
     0
176
     1
 90
       50
176
     1
 40
0.0
176
     1
 40
1.0
176
     1
 90
        0
176
     1
 62
    18
420
        0
176
     1
 90
       50
176
     1
 90
        3
176
     1
 62
     5
420
      255
176
     1
290
     0
176
     1
 90
       50
176
     1
 90
       50
176
     1
 90
       50
176
     1
290
     0
176
     1
 90
       50
176
     1
 62
   256
176
     0
 40
1.0
176
     0
 90
        2
176
     1
  1
strokes_ogs.tif
176
     1
290
     0
176
     1
 40
1.0
176
     1
 40
1.0
176
     1
  0
VISUALSTYLE
  5
2E
102
{ACAD_REACTORS
330
2A
102
}
330
2A
100
AcDbVisualStyle
  2
GouraudWithEdges
 70
     3
177
     3
291
     1
 70
    58
 90
        2
176
     1
 90
        2
176
     1
 90
        1
176
     1
 90
        2
176
     1
 40
0.6
176
     1
 40
30.0
176
     1
 62
     7
420
 16777215
176
     1
 90
        1
176
     1
 90
        0
176
     1
 62
     7
176
     1
 62
   257
176
     1
 90
        1
176
     1
 90
        1
176
     1
 40
1.0
176
     1
 90
        0
176
     1
 62
   257
176
     1
 40
1.0
176
     1
 90
        1
176
     1
 90
        6
176
     1
 90
        2
176
     1
 62
     7
176
     1
 90
        5
176
     1
 90
        0
176
     1
 90
        0
176
     1
290
     0
176
     1
 90
       13
176
     1
 40
0.0
176
     1
 90
        0
176
     1
290
     0
176
     1
290
     1
176
     1
290
     1
176
     1
290
     0
176
     1
290
     0
176
     1
290
     0
176
     1
290
     0
176
     1
290
     0
176
     1
290
     0
176
     1
 90
       50
176
     1
 40
0.0
176
     1
 40
1.0
176
     1
 90
        0
176
     1
 62
    18
420
        0
176
     1
 90
       50
176
     1
 90
        3
176
     1
 62
     5
420
      255
176
     1
290
     0
176
     1
 90
       50
176
     1
 90
       50
176
     1
 90
       50
176
     1
290
     0
176
     1
 90
       50
176
     1
 62
   256
176
     0
 40
1.0
176
     0
 90
        2
176
     1
  1
strokes_ogs.tif
176
     1
290
     0
176
     1
 40
1.0
176
     1
 40
1.0
176
     1
  0
VISUALSTYLE
  5
31
102
{ACAD_REACTORS
330
2A
102
}
330
2A
100
AcDbVisualStyle
  2
Hidden
 70
     6
177
     3
291
     0
 70
    58
 90
        1
176
     1
 90
        2
176
     1
 90
        2
176
     1
 90
        0
176
     1
 40
0.6
176
     1
 40
30.0
176
     1
 62
     7
420
 16777215
176
     1
 90
        2
176
     1
 90
        2
176
     1
 62
     7
176
     1
 62
   257
176
     1
 90
        2
176
     1
 90
        1
176
     1
 40
40.0
176
     1
 90
        0
176
     1
 62
   257
176
     1
 40
1.0
176
     1
 90
        1
176
     1
 90
        6
176
     1
 90
        2
176
     1
 62
     7
176
     1
 90
        3
176
     1
 90
        0
176
     1
 90
        0
176
     1
290
     0
176
     1
 90
        1
176
     1
 40
0.0
176
     1
 90
        0
176
     1
290
     0
176
     1
290
     1
176
     1
290
     1
176
     1
290
     0
176
     1
290
     0
176
     1
290
     0
176
     1
290
     0
176
     1
290
     0
176
     1
290
     0
176
     1
 90
       50
176
     1
 40
0.0
176
     1
 40
1.0
176
     1
 90
        0
176
     1
 62
    18
420
        0
176
     1
 90
       50
176
     1
 90
        3
176
     1
 62
     5
420
      255
176
     1
290
     0
176
     1
 90
       50
176
     1
 90
       50
176
     1
 90
       50
176
     1
290
     0
176
     1
 90
       50
176
     1
 62
   256
176
     0
 40
1.0
176
     0
 90
        2
176
     1
  1
strokes_ogs.tif
176
     1
290
     0
176
     1
 40
1.0
176
     1
 40
1.0
176
     1
  0
VISUALSTYLE
  5
3B
102
{ACAD_REACTORS
330
2A
102
}
330
2A
100
AcDbVisualStyle
  2
JitterOff
 70
    20
177
     3
291
     1
 70
    58
 90
        2
176
     0
 90
        2
176
     0
 90
        0
176
     0
 90
        0
176
     0
 40
0.6
176
     0
 40
30.0
176
     0
 62
     7
420
 16777215
176
     0
 90
        1
176
     0
 90
        4
176
     0
 62
     7
176
     0
 62
   257
176
     0
 90
        1
176
     0
 90
        1
176
     0
 40
1.0
176
     0
 90
       10
176
     2
 62
     7
176
     0
 40
1.0
176
     0
 90
        1
176
     0
 90
        6
176
     0
 90
        2
176
     0
 62
     7
176
     0
 90
        5
176
     0
 90
        0
176
     0
 90
        0
176
     0
290
     0
176
     0
 90
        1
176
     0
 40
0.0
176
     0
 90
        0
176
     0
290
     0
176
     0
290
     1
176
     0
290
     1
176
     0
290
     0
176
     0
290
     0
176
     0
290
     0
176
     0
290
     0
176
     0
290
     0
176
     0
290
     0
176
     0
 90
       50
176
     0
 40
0.0
176
     0
 40
1.0
176
     0
 90
        0
176
     0
 62
    18
420
        0
176
     0
 90
       50
176
     0
 90
        3
176
     0
 62
     5
420
      255
176
     0
290
     0
176
     0
 90
       50
176
     0
 90
       50
176
     0
 90
       50
176
     0
290
     0
176
     0
 90
       50
176
     0
 62
   256
176
     0
 40
1.0
176
     0
 90
        2
176
     0
  1
strokes_ogs.tif
176
     0
290
     0
176
     0
 40
1.0
176
     0
 40
1.0
176
     0
  0
VISUALSTYLE
  5
38
102
{ACAD_REACTORS
330
2A
102
}
330
2A
100
AcDbVisualStyle
  2
Linepattern
 70
    14
177
     3
291
     1
 70
    58
 90
        2
176
     1
 90
        2
176
     1
 90
        0
176
     1
 90
        0
176
     1
 40
0.6
176
     1
 40
30.0
176
     1
 62
     7
420
 16777215
176
     1
 90
        1
176
     1
 90
        4
176
     1
 62
     7
176
     1
 62
   257
176
     1
 90
        7
176
     1
 90
        7
176
     1
 40
1.0
176
     1
 90
        8
176
     1
 62
     7
176
     1
 40
1.0
176
     1
 90
        1
176
     1
 90
        6
176
     1
 90
        2
176
     1
 62
     7
176
     1
 90
        5
176
     1
 90
        0
176
     1
 90
        0
176
     1
290
     0
176
     1
 90
        1
176
     1
 40
0.0
176
     1
 90
        0
176
     1
290
     0
176
     1
290
     1
176
     1
290
     1
176
     1
290
     0
176
     1
290
     0
176
     1
290
     0
176
     1
290
     0
176
     1
290
     0
176
     1
290
     0
176
     1
 90
       50
176
     1
 40
0.0
176
     1
 40
1.0
176
     1
 90
        0
176
     1
 62
    18
420
        0
176
     1
 90
       50
176
     1
 90
        3
176
     1
 62
     5
420
      255
176
     1
290
     0
176
     1
 90
       50
176
     1
 90
       50
176
     1
 90
       50
176
     1
290
     0
176
     1
 90
       50
176
     1
 62
   256
176
     0
 40
1.0
176
     0
 90
        2
176
     1
  1
strokes_ogs.tif
176
     1
290
     0
176
     1
 40
1.0
176
     1
 40
1.0
176
     1
  0
VISUALSTYLE
  5
3C
102
{ACAD_REACTORS
330
2A
102
}
330
2A
100
AcDbVisualStyle
  2
OverhangOff
 70
    21
177
     3
291
     1
 70
    58
 90
        2
176
     0
 90
        2
176
     0
 90
        0
176
     0
 90
        0
176
     0
 40
0.6
176
     0
 40
30.0
176
     0
 62
     7
420
 16777215
176
     0
 90
        1
176
     0
 90
        4
176
     0
 62
     7
176
     0
 62
   257
176
     0
 90
        1
176
     0
 90
        1
176
     0
 40
1.0
176
     0
 90
        9
176
     2
 62
     7
176
     0
 40
1.0
176
     0
 90
        1
176
     0
 90
        6
176
     0
 90
        2
176
     0
 62
     7
176
     0
 90
        5
176
     0
 90
        0
176
     0
 90
        0
176
     0
290
     0
176
     0
 90
        1
176
     0
 40
0.0
176
     0
 90
        0
176
     0
290
     0
176
     0
290
     1
176
     0
290
     1
176
     0
290
     0
176
     0
290
     0
176
     0
290
     0
176
     0
290
     0
176
     0
290
     0
176
     0
290
     0
176
     0
 90
       50
176
     0
 40
0.0
176
     0
 40
1.0
176
     0
 90
        0
176
     0
 62
    18
420
        0
176
     0
 90
       50
176
     0
 90
        3
176
     0
 62
     5
420
      255
176
     0
290
     0
176
     0
 90
       50
176
     0
 90
       50
176
     0
 90
       50
176
     0
290
     0
176
     0
 90
       50
176
     0
 62
   256
176
     0
 40
1.0
176
     0
 90
        2
176
     0
  1
strokes_ogs.tif
176
     0
290
     0
176
     0
 40
1.0
176
     0
 40
1.0
176
     0
  0
VISUALSTYLE
  5
33
102
{ACAD_REACTORS
330
2A
102
}
330
2A
100
AcDbVisualStyle
  2
Realistic
 70
     8
177
     3
291
     0
 70
    58
 90
        2
176
     1
 90
        3
176
     1
 90
        0
176
     1
 90
        2
176
     1
 40
0.6
176
     1
 40
30.0
176
     1
 62
     7
420
 16777215
176
     1
 90
        0
176
     1
 90
        0
176
     1
 62
     7
176
     1
 62
   257
176
     1
 90
        1
176
     1
 90
        1
176
     1
 40
1.0
176
     1
 90
        8
176
     1
 62
   257
176
     1
 40
1.0
176
     1
 90
        1
176
     1
 90
        6
176
     1
 90
        2
176
     1
 62
     7
176
     1
 90
        3
176
     1
 90
        0
176
     1
 90
        0
176
     1
290
     0
176
     1
 90
       13
176
     1
 40
0.0
176
     1
 90
        0
176
     1
290
     0
176
     1
290
     1
176
     1
290
     1
176
     1
290
     0
176
     1
290
     0
176
     1
290
     0
176
     1
290
     0
176
     1
290
     0
176
     1
290
     0
176
     1
 90
       50
176
     1
 40
0.0
176
     1
 40
1.0
176
     1
 90
        0
176
     1
 62
    18
420
        0
176
     1
 90
       50
176
     1
 90
        3
176
     1
 62
     5
420
      255
176
     1
290
     0
176
     1
 90
       50
176
     1
 90
       50
176
     1
 90
       50
176
     1
290
     0
176
     1
 90
       50
176
     1
 62
   256
176
     0
 40
1.0
176
     0
 90
        2
176
     1
  1
strokes_ogs.tif
176
     1
290
     0
176
     1
 40
1.0
176
     1
 40
1.0
176
     1
  0
VISUALSTYLE
  5
42
102
{ACAD_REACTORS
330
2A
102
}
330
2A
100
AcDbVisualStyle
  2
Shaded
 70
    27
177
     3
291
     0
 70
    58
 90
        2
176
     1
 90
        2
176
     1
 90
        1
176
     1
 90
        2
176
     1
 40
0.6
176
     1
 40
30.0
176
     1
 62
     7
420
 16777215
176
     1
 90
        0
176
     1
 90
        4
176
     1
 62
     7
176
     1
 62
   257
176
     1
 90
        1
176
     1
 90
        1
176
     1
 40
1.0
176
     1
 90
        8
176
     1
 62
   257
176
     1
 40
1.0
176
     1
 90
        1
176
     1
 90
        6
176
     1
 90
        2
176
     1
 62
     8
420
  7895160
176
     1
 90
        3
176
     1
 90
        0
176
     1
 90
        0
176
     1
290
     0
176
     1
 90
        5
176
     1
 40
0.0
176
     1
 90
        0
176
     1
290
     0
176
     1
290
     1
176
     1
290
     1
176
     1
290
     0
176
     1
290
     0
176
     1
290
     0
176
     1
290
     0
176
     1
290
     0
176
     1
290
     0
176
     1
 90
       50
176
     1
 40
0.0
176
     1
 40
1.0
176
     1
 90
        0
176
     1
 62
    18
420
        0
176
     1
 90
       50
176
     1
 90
        3
176
     1
 62
     5
420
      255
176
     1
290
     0
176
     1
 90
       50
176
     1
 90
       50
176
     1
 90
       50
176
     1
290
     0
176
     1
 90
       50
176
     1
 62
   256
176
     0
 40
1.0
176
     0
 90
        2
176
     1
  1
strokes_ogs.tif
176
     1
290
     0
176
     1
 40
1.0
176
     1
 40
1.0
176
     1
  0
VISUALSTYLE
  5
41
102
{ACAD_REACTORS
330
2A
102
}
330
2A
100
AcDbVisualStyle
  2
Shaded with edges
 70
    26
177
     3
291
     0
 70
    58
 90
        2
176
     1
 90
        2
176
     1
 90
        1
176
     1
 90
        2
176
     1
 40
0.6
176
     1
 40
30.0
176
     1
 62
     7
420
 16777215
176
     1
 90
        1
176
     1
 90
       10
176
     1
 62
     7
176
     1
 62
   257
176
     1
 90
        2
176
     1
 90
        1
176
     1
 40
1.0
176
     1
 90
        8
176
     1
 62
   257
176
     1
 40
1.0
176
     1
 90
        1
176
     1
 90
        6
176
     1
 90
        2
176
     1
 62
     7
176
     1
 90
        3
176
     1
 90
        0
176
     1
 90
        0
176
     1
290
     0
176
     1
 90
        5
176
     1
 40
0.0
176
     1
 90
        0
176
     1
290
     0
176
     1
290
     1
176
     1
290
     1
176
     1
290
     0
176
     1
290
     0
176
     1
290
     0
176
     1
290
     0
176
     1
290
     0
176
     1
290
     0
176
     1
 90
       50
176
     1
 40
0.0
176
     1
 40
1.0
176
     1
 90
        0
176
     1
 62
    18
420
        0
176
     1
 90
       50
176
     1
 90
        3
176
     1
 62
     5
420
      255
176
     1
290
     0
176
     1
 90
       50
176
     1
 90
       50
176
     1
 90
       50
176
     1
290
     0
176
     1
 90
       50
176
     1
 62
   256
176
     0
 40
1.0
176
     0
 90
        2
176
     1
  1
strokes_ogs.tif
176
     1
290
     0
176
     1
 40
1.0
176
     1
 40
1.0
176
     1
  0
VISUALSTYLE
  5
3E
102
{ACAD_REACTORS
330
2A
102
}
330
2A
100
AcDbVisualStyle
  2
Shades of Gray
 70
    23
177
     3
291
     0
 70
    58
 90
        2
176
     1
 90
        2
176
     1
 90
        3
176
     1
 90
        0
176
     1
 40
0.6
176
     1
 40
30.0
176
     1
 62
     7
420
 16777215
176
     1
 90
        2
176
     1
 90
        2
176
     1
 62
     7
176
     1
 62
     7
176
     1
 90
        1
176
     1
 90
        1
176
     1
 40
40.0
176
     1
 90
        8
176
     1
 62
     7
176
     1
 40
1.0
176
     1
 90
        1
176
     1
 90
        6
176
     1
 90
        2
176
     1
 62
     7
176
     1
 90
        3
176
     1
 90
        0
176
     1
 90
        0
176
     1
290
     0
176
     1
 90
        1
176
     1
 40
0.0
176
     1
 90
        0
176
     1
290
     0
176
     1
290
     1
176
     1
290
     1
176
     1
290
     0
176
     1
290
     0
176
     1
290
     0
176
     1
290
     0
176
     1
290
     0
176
     1
290
     0
176
     1
 90
       50
176
     1
 40
0.0
176
     1
 40
1.0
176
     1
 90
        0
176
     1
 62
    18
420
        0
176
     1
 90
       50
176
     1
 90
        3
176
     1
 62
     5
420
      255
176
     1
290
     0
176
     1
 90
       50
176
     1
 90
       50
176
     1
 90
       50
176
     1
290
     0
176
     1
 90
       50
176
     1
 62
   256
176
     0
 40
1.0
176
     0
 90
        2
176
     1
  1
strokes_ogs.tif
176
     1
290
     0
176
     1
 40
1.0
176
     1
 40
1.0
176
     1
  0
VISUALSTYLE
  5
3F
102
{ACAD_REACTORS
330
2A
102
}
330
2A
100
AcDbVisualStyle
  2
Sketchy
 70
    24
177
     3
291
     0
 70
    58
 90
        1
176
     1
 90
        2
176
     1
 90
        2
176
     1
 90
        0
176
     1
 40
0.6
176
     1
 40
30.0
176
     1
 62
     7
420
 16777215
176
     1
 90
        2
176
     1
 90
        2
176
     1
 62
     7
176
     1
 62
     7
176
     1
 90
        1
176
     1
 90
        1
176
     1
 40
40.0
176
     1
 90
       11
176
     1
 62
     7
176
     1
 40
1.0
176
     1
 90
        1
176
     1
 90
        6
176
     1
 90
        2
176
     1
 62
     7
176
     1
 90
        6
176
     1
 90
        0
176
     1
 90
        0
176
     1
290
     0
176
     1
 90
        1
176
     1
 40
0.0
176
     1
 90
        0
176
     1
290
     0
176
     1
290
     1
176
     1
290
     1
176
     1
290
     0
176
     1
290
     0
176
     1
290
     0
176
     1
290
     0
176
     1
290
     0
176
     1
290
     0
176
     1
 90
       50
176
     1
 40
0.0
176
     1
 40
1.0
176
     1
 90
        0
176
     1
 62
    18
420
        0
176
     1
 90
       50
176
     1
 90
        3
176
     1
 62
     5
420
      255
176
     1
290
     0
176
     1
 90
       50
176
     1
 90
       50
176
     1
 90
       50
176
     1
290
     0
176
     1
 90
       50
176
     1
 62
   256
176
     0
 40
1.0
176
     0
 90
        2
176
     1
  1
strokes_ogs.tif
176
     1
290
     0
176
     1
 40
1.0
176
     1
 40
1.0
176
     1
  0
VISUALSTYLE
  5
37
102
{ACAD_REACTORS
330
2A
102
}
330
2A
100
AcDbVisualStyle
  2
Thicken
 70
    13
177
     3
291
     1
 70
    58
 90
        2
176
     1
 90
        2
176
     1
 90
        0
176
     1
 90
        0
176
     1
 40
0.6
176
     1
 40
30.0
176
     1
 62
     7
420
 16777215
176
     1
 90
        1
176
     1
 90
        4
176
     1
 62
     7
176
     1
 62
   257
176
     1
 90
        1
176
     1
 90
        1
176
     1
 40
1.0
176
     1
 90
       12
176
     1
 62
     7
176
     1
 40
1.0
176
     1
 90
        1
176
     1
 90
        6
176
     1
 90
        2
176
     1
 62
     7
176
     1
 90
        5
176
     1
 90
        0
176
     1
 90
        0
176
     1
290
     0
176
     1
 90
        1
176
     1
 40
0.0
176
     1
 90
        0
176
     1
290
     0
176
     1
290
     1
176
     1
290
     1
176
     1
290
     0
176
     1
290
     0
176
     1
290
     0
176
     1
290
     0
176
     1
290
     0
176
     1
290
     0
176
     1
 90
       50
176
     1
 40
0.0
176
     1
 40
1.0
176
     1
 90
        0
176
     1
 62
    18
420
        0
176
     1
 90
       50
176
     1
 90
        3
176
     1
 62
     5
420
      255
176
     1
290
     0
176
     1
 90
       50
176
     1
 90
       50
176
     1
 90
       50
176
     1
290
     0
176
     1
 90
       50
176
     1
 62
   256
176
     0
 40
1.0
176
     0
 90
        2
176
     1
  1
strokes_ogs.tif
176
     1
290
     0
176
     1
 40
1.0
176
     1
 40
1.0
176
     1
  0
VISUALSTYLE
  5
30
102
{ACAD_REACTORS
330
2A
102
}
330
2A
100
AcDbVisualStyle
  2
Wireframe
 70
     5
177
     3
291
     0
 70
    58
 90
        0
176
     1
 90
        2
176
     1
 90
        0
176
     1
 90
        0
176
     1
 40
0.6
176
     1
 40
30.0
176
     1
 62
     7
420
 16777215
176
     1
 90
        1
176
     1
 90
        4
176
     1
 62
     7
176
     1
 62
   257
176
     1
 90
        1
176
     1
 90
        1
176
     1
 40
1.0
176
     1
 90
        0
176
     1
 62
   257
176
     1
 40
1.0
176
     1
 90
        1
176
     1
 90
        6
176
     1
 90
        2
176
     1
 62
     7
176
     1
 90
        3
176
     1
 90
        0
176
     1
 90
        0
176
     1
290
     0
176
     1
 90
        1
176
     1
 40
0.0
176
     1
 90
        0
176
     1
290
     0
176
     1
290
     1
176
     1
290
     1
176
     1
290
     0
176
     1
290
     0
176
     1
290
     0
176
     1
290
     0
176
     1
290
     0
176
     1
290
     0
176
     1
 90
       50
176
     1
 40
0.0
176
     1
 40
1.0
176
     1
 90
        0
176
     1
 62
    18
420
        0
176
     1
 90
       50
176
     1
 90
        3
176
     1
 62
     5
420
      255
176
     1
290
     0
176
     1
 90
       50
176
     1
 90
       50
176
     1
 90
       50
176
     1
290
     0
176
     1
 90
       50
176
     1
 62
   256
176
     0
 40
1.0
176
     0
 90
        2
176
     1
  1
strokes_ogs.tif
176
     1
290
     0
176
     1
 40
1.0
176
     1
 40
1.0
176
     1
  0
VISUALSTYLE
  5
40
102
{ACAD_REACTORS
330
2A
102
}
330
2A
100
AcDbVisualStyle
  2
X-Ray
 70
    25
177
     3
291
     0
 70
    58
 90
        2
176
     1
 90
        2
176
     1
 90
        1
176
     1
 90
        1
176
     1
 40
0.5
176
     1
 40
30.0
176
     1
 62
     7
420
 16777215
176
     1
 90
        1
176
     1
 90
        0
176
     1
 62
     7
176
     1
 62
   257
176
     1
 90
        1
176
     1
 90
        1
176
     1
 40
1.0
176
     1
 90
        8
176
     1
 62
     7
176
     1
 40
1.0
176
     1
 90
        1
176
     1
 90
        6
176
     1
 90
        2
176
     1
 62
     7
176
     1
 90
        3
176
     1
 90
        0
176
     1
 90
        0
176
     1
290
     0
176
     1
 90
       13
176
     1
 40
0.0
176
     1
 90
        0
176
     1
290
     0
176
     1
290
     1
176
     1
290
     1
176
     1
290
     0
176
     1
290
     0
176
     1
290
     0
176
     1
290
     0
176
     1
290
     0
176
     1
290
     0
176
     1
 90
       50
176
     1
 40
0.0
176
     1
 40
1.0
176
     1
 90
        0
176
     1
 62
    18
420
        0
176
     1
 90
       50
176
     1
 90
        3
176
     1
 62
     5
420
      255
176
     1
290
     0
176
     1
 90
       50
176
     1
 90
       50
176
     1
 90
       50
176
     1
290
     0
176
     1
 90
       50
176
     1
 62
   256
176
     0
 40
1.0
176
     0
 90
        2
176
     1
  1
strokes_ogs.tif
176
     1
290
     0
176
     1
 40
1.0
176
     1
 40
1.0
176
     1
  0
DICTIONARYVAR
  5
97
102
{ACAD_REACTORS
330
96
102
}
330
96
100
DictionaryVariables
280
     0
  1
1:1
  0
DICTIONARYVAR
  5
9F
102
{ACAD_REACTORS
330
96
102
}
330
96
100
DictionaryVariables
280
     0
  1
3.500000
  0
DICTIONARYVAR
  5
A0
102
{ACAD_REACTORS
330
96
102
}
330
96
100
DictionaryVariables
280
     0
  1
acadiso.lin
  0
DICTIONARYVAR
  5
9C
102
{ACAD_REACTORS
330
96
102
}
330
96
100
DictionaryVariables
280
     0
  1
Standard
  0
DICTIONARYVAR
  5
9B
102
{ACAD_REACTORS
330
96
102
}
330
96
100
DictionaryVariables
280
     0
  1
Standard
  0
DICTIONARY
  5
98
330
5A
100
AcDbDictionary
280
     1
281
     1
  3
ACAD_ROUNDTRIP_2008_TABLESTYLE_CELLSTYLEMAP
360
99
  0
CELLSTYLEMAP
  5
99
102
{ACAD_REACTORS
330
98
102
}
330
98
100
AcDbCellStyleMap
 90
        3
300
CELLSTYLE
  1
TABLEFORMAT_BEGIN
 90
        5
170
     1
 91
        0
 92
    32768
 62
   257
 93
        1
300
CONTENTFORMAT
  1
CONTENTFORMAT_BEGIN
 90
        0
 91
        0
 92
        4
 93
        0
300

 40
0.0
140
1.0
 94
        5
 62
     0
340
11
144
6.0
309
CONTENTFORMAT_END
171
     1
301
MARGIN
  1
CELLMARGIN_BEGIN
 40
1.5
 40
1.5
 40
1.5
 40
1.5
 40
1.5
 40
1.5
309
CELLMARGIN_END
 94
        6
 95
        1
302
GRIDFORMAT
  1
GRIDFORMAT_BEGIN
 90
        0
 91
        1
 62
     0
 92
       -2
340
14
 93
        0
 40
0.045
309
GRIDFORMAT_END
 95
        2
302
GRIDFORMAT
  1
GRIDFORMAT_BEGIN
 90
        0
 91
        1
 62
     0
 92
       -2
340
14
 93
        0
 40
0.045
309
GRIDFORMAT_END
 95
        4
302
GRIDFORMAT
  1
GRIDFORMAT_BEGIN
 90
        0
 91
        1
 62
     0
 92
       -2
340
14
 93
        0
 40
0.045
309
GRIDFORMAT_END
 95
        8
302
GRIDFORMAT
  1
GRIDFORMAT_BEGIN
 90
        0
 91
        1
 62
     0
 92
       -2
340
14
 93
        0
 40
0.045
309
GRIDFORMAT_END
 95
       16
302
GRIDFORMAT
  1
GRIDFORMAT_BEGIN
 90
        0
 91
        1
 62
     0
 92
       -2
340
14
 93
        0
 40
0.045
309
GRIDFORMAT_END
 95
       32
302
GRIDFORMAT
  1
GRIDFORMAT_BEGIN
 90
        0
 91
        1
 62
     0
 92
       -2
340
14
 93
        0
 40
0.045
309
GRIDFORMAT_END
309
TABLEFORMAT_END
  1
CELLSTYLE_BEGIN
 90
        1
 91
        1
300
_TITLE
309
CELLSTYLE_END
300
CELLSTYLE
  1
TABLEFORMAT_BEGIN
 90
        5
170
     1
 91
        0
 92
        0
 62
   257
 93
        1
300
CONTENTFORMAT
  1
CONTENTFORMAT_BEGIN
 90
        0
 91
        0
 92
        4
 93
        0
300

 40
0.0
140
1.0
 94
        5
 62
     0
340
11
144
4.5
309
CONTENTFORMAT_END
171
     1
301
MARGIN
  1
CELLMARGIN_BEGIN
 40
1.5
 40
1.5
 40
1.5
 40
1.5
 40
1.5
 40
1.5
309
CELLMARGIN_END
 94
        6
 95
        1
302
GRIDFORMAT
  1
GRIDFORMAT_BEGIN
 90
        0
 91
        1
 62
     0
 92
       -2
340
14
 93
        0
 40
0.045
309
GRIDFORMAT_END
 95
        2
302
GRIDFORMAT
  1
GRIDFORMAT_BEGIN
 90
        0
 91
        1
 62
     0
 92
       -2
340
14
 93
        0
 40
0.045
309
GRIDFORMAT_END
 95
        4
302
GRIDFORMAT
  1
GRIDFORMAT_BEGIN
 90
        0
 91
        1
 62
     0
 92
       -2
340
14
 93
        0
 40
0.045
309
GRIDFORMAT_END
 95
        8
302
GRIDFORMAT
  1
GRIDFORMAT_BEGIN
 90
        0
 91
        1
 62
     0
 92
       -2
340
14
 93
        0
 40
0.045
309
GRIDFORMAT_END
 95
       16
302
GRIDFORMAT
  1
GRIDFORMAT_BEGIN
 90
        0
 91
        1
 62
     0
 92
       -2
340
14
 93
        0
 40
0.045
309
GRIDFORMAT_END
 95
       32
302
GRIDFORMAT
  1
GRIDFORMAT_BEGIN
 90
        0
 91
        1
 62
     0
 92
       -2
340
14
 93
        0
 40
0.045
309
GRIDFORMAT_END
309
TABLEFORMAT_END
  1
CELLSTYLE_BEGIN
 90
        2
 91
        1
300
_HEADER
309
CELLSTYLE_END
300
CELLSTYLE
  1
TABLEFORMAT_BEGIN
 90
        5
170
     1
 91
        0
 92
        0
 62
   257
 93
        1
300
CONTENTFORMAT
  1
CONTENTFORMAT_BEGIN
 90
        0
 91
        0
 92
        4
 93
        0
300

 40
0.0
140
1.0
 94
        2
 62
     0
340
11
144
4.5
309
CONTENTFORMAT_END
171
     1
301
MARGIN
  1
CELLMARGIN_BEGIN
 40
1.5
 40
1.5
 40
1.5
 40
1.5
 40
1.5
 40
1.5
309
CELLMARGIN_END
 94
        6
 95
        1
302
GRIDFORMAT
  1
GRIDFORMAT_BEGIN
 90
        0
 91
        1
 62
     0
 92
       -2
340
14
 93
        0
 40
0.045
309
GRIDFORMAT_END
 95
        2
302
GRIDFORMAT
  1
GRIDFORMAT_BEGIN
 90
        0
 91
        1
 62
     0
 92
       -2
340
14
 93
        0
 40
0.045
309
GRIDFORMAT_END
 95
        4
302
GRIDFORMAT
  1
GRIDFORMAT_BEGIN
 90
        0
 91
        1
 62
     0
 92
       -2
340
14
 93
        0
 40
0.045
309
GRIDFORMAT_END
 95
        8
302
GRIDFORMAT
  1
GRIDFORMAT_BEGIN
 90
        0
 91
        1
 62
     0
 92
       -2
340
14
 93
        0
 40
0.045
309
GRIDFORMAT_END
 95
       16
302
GRIDFORMAT
  1
GRIDFORMAT_BEGIN
 90
        0
 91
        1
 62
     0
 92
       -2
340
14
 93
        0
 40
0.045
309
GRIDFORMAT_END
 95
       32
302
GRIDFORMAT
  1
GRIDFORMAT_BEGIN
 90
        0
 91
        1
 62
     0
 92
       -2
340
14
 93
        0
 40
0.045
309
GRIDFORMAT_END
309
TABLEFORMAT_END
  1
CELLSTYLE_BEGIN
 90
        3
 91
        2
300
_DATA
309
CELLSTYLE_END
  0
ENDSEC
  0
EOF
