  0
SECTION
  2
HEADER
  9
$ACADVER
  1
AC1027
  9
$ACADMAINTVER
 70
   105
  9
$DWGCODEPAGE
  3
ANSI_932
  9
$LASTSAVEDBY
  1
a.yasuda
  9
$REQUIREDVERSIONS
160
                 0
  9
$INSBASE
 10
0.0
 20
0.0
 30
0.0
  9
$EXTMIN
 10
0.0
 20
0.0
 30
0.0
  9
$EXTMAX
 10
302.9997823349792
 20
216.0016055409748
 30
0.0
  9
$LIMMIN
 10
0.0
 20
0.0
  9
$LIMMAX
 10
302.9997823349792
 20
216.0016055409748
  9
$ORTHOMODE
 70
     0
  9
$REGENMODE
 70
     1
  9
$FILLMODE
 70
     1
  9
$QTEXTMODE
 70
     0
  9
$MIRRTEXT
 70
     1
  9
$LTSCALE
 40
1.0
  9
$ATTMODE
 70
     1
  9
$TEXTSIZE
 40
2.5
  9
$TRACEWID
 40
1.0
  9
$TEXTSTYLE
  7
Standard
  9
$CLAYER
  8
0
  9
$CELTYPE
  6
ByLayer
  9
$CECOLOR
 62
   256
  9
$CELTSCALE
 40
1.0
  9
$DISPSILH
 70
     0
  9
$DIMSCALE
 40
1.0
  9
$DIMASZ
 40
2.5
  9
$DIMEXO
 40
0.625
  9
$DIMDLI
 40
3.75
  9
$DIMRND
 40
0.0
  9
$DIMDLE
 40
0.0
  9
$DIMEXE
 40
1.25
  9
$DIMTP
 40
0.0
  9
$DIMTM
 40
0.0
  9
$DIMTXT
 40
2.5
  9
$DIMCEN
 40
2.5
  9
$DIMTSZ
 40
0.0
  9
$DIMTOL
 70
     0
  9
$DIMLIM
 70
     0
  9
$DIMTIH
 70
     0
  9
$DIMTOH
 70
     0
  9
$DIMSE1
 70
     0
  9
$DIMSE2
 70
     0
  9
$DIMTAD
 70
     1
  9
$DIMZIN
 70
     8
  9
$DIMBLK
  1

  9
$DIMASO
 70
     1
  9
$DIMSHO
 70
     1
  9
$DIMPOST
  1

  9
$DIMAPOST
  1

  9
$DIMALT
 70
     0
  9
$DIMALTD
 70
     3
  9
$DIMALTF
 40
0.03937007874016
  9
$DIMLFAC
 40
1.0
  9
$DIMTOFL
 70
     1
  9
$DIMTVP
 40
0.0
  9
$DIMTIX
 70
     0
  9
$DIMSOXD
 70
     0
  9
$DIMSAH
 70
     0
  9
$DIMBLK1
  1

  9
$DIMBLK2
  1

  9
$DIMSTYLE
  2
ISO-25
  9
$DIMCLRD
 70
     0
  9
$DIMCLRE
 70
     0
  9
$DIMCLRT
 70
     0
  9
$DIMTFAC
 40
1.0
  9
$DIMGAP
 40
0.625
  9
$DIMJUST
 70
     0
  9
$DIMSD1
 70
     0
  9
$DIMSD2
 70
     0
  9
$DIMTOLJ
 70
     0
  9
$DIMTZIN
 70
     8
  9
$DIMALTZ
 70
     0
  9
$DIMALTTZ
 70
     0
  9
$DIMUPT
 70
     0
  9
$DIMDEC
 70
     2
  9
$DIMTDEC
 70
     2
  9
$DIMALTU
 70
     2
  9
$DIMALTTD
 70
     3
  9
$DIMTXSTY
  7
Standard
  9
$DIMAUNIT
 70
     0
  9
$DIMADEC
 70
     0
  9
$DIMALTRND
 40
0.0
  9
$DIMAZIN
 70
     0
  9
$DIMDSEP
 70
    44
  9
$DIMATFIT
 70
     3
  9
$DIMFRAC
 70
     0
  9
$DIMLDRBLK
  1

  9
$DIMLUNIT
 70
     2
  9
$DIMLWD
 70
    -2
  9
$DIMLWE
 70
    -2
  9
$DIMTMOVE
 70
     0
  9
$DIMFXL
 40
1.0
  9
$DIMFXLON
 70
     0
  9
$DIMJOGANG
 40
0.7853981633974483
  9
$DIMTFILL
 70
     0
  9
$DIMTFILLCLR
 70
     0
  9
$DIMARCSYM
 70
     0
  9
$DIMLTYPE
  6

  9
$DIMLTEX1
  6

  9
$DIMLTEX2
  6

  9
$DIMTXTDIRECTION
 70
     0
  9
$LUNITS
 70
     2
  9
$LUPREC
 70
     4
  9
$SKETCHINC
 40
1.0
  9
$FILLETRAD
 40
0.0
  9
$AUNITS
 70
     0
  9
$AUPREC
 70
     0
  9
$MENU
  1
.
  9
$ELEVATION
 40
0.0
  9
$PELEVATION
 40
0.0
  9
$THICKNESS
 40
0.0
  9
$LIMCHECK
 70
     0
  9
$CHAMFERA
 40
0.0
  9
$CHAMFERB
 40
0.0
  9
$CHAMFERC
 40
0.0
  9
$CHAMFERD
 40
0.0
  9
$SKPOLY
 70
     0
  9
$TDCREATE
 40
2459866.620520729
  9
$TDUCREATE
 40
2459866.245520729
  9
$TDUPDATE
 40
2459866.620520776
  9
$TDUUPDATE
 40
2459866.245520776
  9
$TDINDWG
 40
0.0000000116
  9
$TDUSRTIMER
 40
0.0000000116
  9
$USRTIMER
 70
     1
  9
$ANGBASE
 50
0.0
  9
$ANGDIR
 70
     0
  9
$PDMODE
 70
     0
  9
$PDSIZE
 40
0.0
  9
$PLINEWID
 40
0.0
  9
$SPLFRAME
 70
     0
  9
$SPLINETYPE
 70
     6
  9
$SPLINESEGS
 70
     8
  9
$HANDSEED
  5
A1
  9
$SURFTAB1
 70
     6
  9
$SURFTAB2
 70
     6
  9
$SURFTYPE
 70
     6
  9
$SURFU
 70
     6
  9
$SURFV
 70
     6
  9
$UCSBASE
  2

  9
$UCSNAME
  2

  9
$UCSORG
 10
0.0
 20
0.0
 30
0.0
  9
$UCSXDIR
 10
1.0
 20
0.0
 30
0.0
  9
$UCSYDIR
 10
0.0
 20
1.0
 30
0.0
  9
$UCSORTHOREF
  2

  9
$UCSORTHOVIEW
 70
     0
  9
$UCSORGTOP
 10
0.0
 20
0.0
 30
0.0
  9
$UCSORGBOTTOM
 10
0.0
 20
0.0
 30
0.0
  9
$UCSORGLEFT
 10
0.0
 20
0.0
 30
0.0
  9
$UCSORGRIGHT
 10
0.0
 20
0.0
 30
0.0
  9
$UCSORGFRONT
 10
0.0
 20
0.0
 30
0.0
  9
$UCSORGBACK
 10
0.0
 20
0.0
 30
0.0
  9
$PUCSBASE
  2

  9
$PUCSNAME
  2

  9
$PUCSORG
 10
0.0
 20
0.0
 30
0.0
  9
$PUCSXDIR
 10
1.0
 20
0.0
 30
0.0
  9
$PUCSYDIR
 10
0.0
 20
1.0
 30
0.0
  9
$PUCSORTHOREF
  2

  9
$PUCSORTHOVIEW
 70
     0
  9
$PUCSORGTOP
 10
0.0
 20
0.0
 30
0.0
  9
$PUCSORGBOTTOM
 10
0.0
 20
0.0
 30
0.0
  9
$PUCSORGLEFT
 10
0.0
 20
0.0
 30
0.0
  9
$PUCSORGRIGHT
 10
0.0
 20
0.0
 30
0.0
  9
$PUCSORGFRONT
 10
0.0
 20
0.0
 30
0.0
  9
$PUCSORGBACK
 10
0.0
 20
0.0
 30
0.0
  9
$USERI1
 70
     0
  9
$USERI2
 70
     0
  9
$USERI3
 70
     0
  9
$USERI4
 70
     0
  9
$USERI5
 70
     0
  9
$USERR1
 40
0.0
  9
$USERR2
 40
0.0
  9
$USERR3
 40
0.0
  9
$USERR4
 40
0.0
  9
$USERR5
 40
0.0
  9
$WORLDVIEW
 70
     1
  9
$SHADEDGE
 70
     3
  9
$SHADEDIF
 70
    70
  9
$TILEMODE
 70
     1
  9
$MAXACTVP
 70
    64
  9
$PINSBASE
 10
0.0
 20
0.0
 30
0.0
  9
$PLIMCHECK
 70
     0
  9
$PEXTMIN
 10
1.000000000000000E+20
 20
1.000000000000000E+20
 30
1.000000000000000E+20
  9
$PEXTMAX
 10
-1.000000000000000E+20
 20
-1.000000000000000E+20
 30
-1.000000000000000E+20
  9
$PLIMMIN
 10
0.0
 20
0.0
  9
$PLIMMAX
 10
420.0
 20
297.0
  9
$UNITMODE
 70
     0
  9
$VISRETAIN
 70
     1
  9
$PLINEGEN
 70
     0
  9
$PSLTSCALE
 70
     1
  9
$TREEDEPTH
 70
  3020
  9
$CMLSTYLE
  2
Standard
  9
$CMLJUST
 70
     0
  9
$CMLSCALE
 40
20.0
  9
$PROXYGRAPHICS
 70
     1
  9
$MEASUREMENT
 70
     1
  9
$CELWEIGHT
370
    -1
  9
$ENDCAPS
280
     0
  9
$JOINSTYLE
280
     0
  9
$LWDISPLAY
290
     0
  9
$INSUNITS
 70
     4
  9
$HYPERLINKBASE
  1

  9
$STYLESHEET
  1

  9
$XEDIT
290
     1
  9
$CEPSNTYPE
380
     0
  9
$PSTYLEMODE
290
     1
  9
$FINGERPRINTGUID
  2
{70e99bb6-aa35-4a9c-b431-fe427208b968}
  9
$VERSIONGUID
  2
{FAEB1C32-E019-11D5-929B-00C0DF256EC4}
  9
$EXTNAMES
290
     1
  9
$PSVPSCALE
 40
0.0
  9
$OLESTARTUP
290
     0
  9
$SORTENTS
280
   127
  9
$INDEXCTL
280
     0
  9
$HIDETEXT
280
     1
  9
$XCLIPFRAME
280
     2
  9
$HALOGAP
280
     0
  9
$OBSCOLOR
 70
   257
  9
$OBSLTYPE
280
     0
  9
$INTERSECTIONDISPLAY
280
     0
  9
$INTERSECTIONCOLOR
 70
   257
  9
$DIMASSOC
280
     2
  9
$PROJECTNAME
  1

  9
$CAMERADISPLAY
290
     0
  9
$LENSLENGTH
 40
50.0
  9
$CAMERAHEIGHT
 40
0.0
  9
$STEPSPERSEC
 40
2.0
  9
$STEPSIZE
 40
6.0
  9
$3DDWFPREC
 40
2.0
  9
$PSOLWIDTH
 40
5.0
  9
$PSOLHEIGHT
 40
80.0
  9
$LOFTANG1
 40
1.570796326794897
  9
$LOFTANG2
 40
1.570796326794897
  9
$LOFTMAG1
 40
0.0
  9
$LOFTMAG2
 40
0.0
  9
$LOFTPARAM
 70
     7
  9
$LOFTNORMALS
280
     1
  9
$LATITUDE
 40
37.795
  9
$LONGITUDE
 40
-122.394
  9
$NORTHDIRECTION
 40
0.0
  9
$TIMEZONE
 70
 -8000
  9
$LIGHTGLYPHDISPLAY
280
     1
  9
$TILEMODELIGHTSYNCH
280
     1
  9
$CMATERIAL
347
44
  9
$SOLIDHIST
280
     0
  9
$SHOWHIST
280
     1
  9
$DWFFRAME
280
     2
  9
$DGNFRAME
280
     2
  9
$REALWORLDSCALE
290
     1
  9
$INTERFERECOLOR
 62
   256
  9
$CSHADOW
280
     0
  9
$SHADOWPLANELOCATION
 40
0.0
  0
ENDSEC
  0
SECTION
  2
CLASSES
  0
CLASS
  1
ACDBDICTIONARYWDFLT
  2
AcDbDictionaryWithDefault
  3
ObjectDBX Classes
 90
        0
 91
        3
280
     0
281
     0
  0
CLASS
  1
VISUALSTYLE
  2
AcDbVisualStyle
  3
ObjectDBX Classes
 90
     4095
 91
        3
280
     0
281
     0
  0
CLASS
  1
MATERIAL
  2
AcDbMaterial
  3
ObjectDBX Classes
 90
     1153
 91
        3
280
     0
281
     0
  0
CLASS
  1
SCALE
  2
AcDbScale
  3
ObjectDBX Classes
 90
     1153
 91
        3
280
     0
281
     0
  0
CLASS
  1
TABLESTYLE
  2
AcDbTableStyle
  3
ObjectDBX Classes
 90
     4095
 91
        3
280
     0
281
     0
  0
CLASS
  1
MLEADERSTYLE
  2
AcDbMLeaderStyle
  3
ACDB_MLEADERSTYLE_CLASS
 90
     4095
 91
        3
280
     0
281
     0
  0
CLASS
  1
SUN
  2
AcDbSun
  3
SCENEOE
 90
     1153
 91
        3
280
     0
281
     0
  0
CLASS
  1
DICTIONARYVAR
  2
AcDbDictionaryVar
  3
ObjectDBX Classes
 90
        0
 91
        3
280
     0
281
     0
  0
CLASS
  1
CELLSTYLEMAP
  2
AcDbCellStyleMap
  3
ObjectDBX Classes
 90
     1152
 91
        3
280
     0
281
     0
  0
ENDSEC
  0
SECTION
  2
TABLES
  0
TABLE
  2
VPORT
  5
8
330
0
100
AcDbSymbolTable
 70
     1
  0
VPORT
  5
29
330
8
100
AcDbSymbolTableRecord
100
AcDbViewportTableRecord
  2
*Active
 70
     0
 10
0.0
 20
0.0
 11
1.0
 21
1.0
 12
151.4998911674896
 22
108.0008027704874
 13
0.0
 23
0.0
 14
10.0
 24
10.0
 15
10.0
 25
10.0
 16
0.0
 26
0.0
 36
1.0
 17
0.0
 27
0.0
 37
0.0
 40
237.6017660950723
 41
1.402766343222857
 42
50.0
 43
0.0
 44
0.0
 50
0.0
 51
0.0
 71
     0
 72
 10000
 73
     1
 74
     3
 75
     0
 76
     0
 77
     0
 78
     0
281
     0
 65
     1
110
0.0
120
0.0
130
0.0
111
1.0
121
0.0
131
0.0
112
0.0
122
1.0
132
0.0
 79
     0
146
0.0
348
2F
 60
     3
 61
     5
292
     1
282
     1
141
0.0
142
0.0
 63
   250
361
5D
  0
ENDTAB
  0
TABLE
  2
LTYPE
  5
5
330
0
100
AcDbSymbolTable
 70
     2
  0
LTYPE
  5
14
330
5
100
AcDbSymbolTableRecord
100
AcDbLinetypeTableRecord
  2
ByBlock
 70
     0
  3

 72
    65
 73
     0
 40
0.0
  0
LTYPE
  5
15
330
5
100
AcDbSymbolTableRecord
100
AcDbLinetypeTableRecord
  2
ByLayer
 70
     0
  3

 72
    65
 73
     0
 40
0.0
  0
LTYPE
  5
16
330
5
100
AcDbSymbolTableRecord
100
AcDbLinetypeTableRecord
  2
Continuous
 70
     0
  3
Solid line
 72
    65
 73
     0
 40
0.0
  0
LTYPE
  5
5F
330
5
100
AcDbSymbolTableRecord
100
AcDbLinetypeTableRecord
  2
UserDefined01
 70
     0
  3
----------------                
 72
    65
 73
     2
 40
0.7055555449591743
 49
0.3527777724795871
 74
     0
 49
-0.3527777724795871
 74
     0
  0
ENDTAB
  0
TABLE
  2
LAYER
  5
2
330
0
100
AcDbSymbolTable
 70
     3
  0
LAYER
  5
10
330
2
100
AcDbSymbolTableRecord
100
AcDbLayerTableRecord
  2
0
 70
     0
 62
     7
  6
Continuous
370
    -3
390
F
347
46
348
0
  0
LAYER
  5
60
330
2
100
AcDbSymbolTableRecord
100
AcDbLayerTableRecord
  2
外枠
 70
     0
 62
     7
  6
Continuous
370
    -3
390
F
347
46
348
0
  0
LAYER
  5
61
330
2
100
AcDbSymbolTableRecord
100
AcDbLayerTableRecord
  2
ISS138金台
 70
     0
 62
     7
  6
Continuous
370
    -3
390
F
347
46
348
0
  0
ENDTAB
  0
TABLE
  2
STYLE
  5
3
330
0
100
AcDbSymbolTable
 70
     2
  0
STYLE
  5
11
330
3
100
AcDbSymbolTableRecord
100
AcDbTextStyleTableRecord
  2
Standard
 70
     0
 40
0.0
 41
1.0
 50
0.0
 71
     0
 42
2.5
  3

  4

  0
STYLE
  5
5E
330
3
100
AcDbSymbolTableRecord
100
AcDbTextStyleTableRecord
  2
MS Gothic
 70
     0
 40
1.0
 41
1.0
 50
0.0
 71
     0
 42
2.5
  3
msgothic.ttc
  4

1001
ACAD
1000
MS Gothic
1071
    32817
  0
ENDTAB
  0
TABLE
  2
VIEW
  5
6
330
0
100
AcDbSymbolTable
 70
     0
  0
ENDTAB
  0
TABLE
  2
UCS
  5
7
330
0
100
AcDbSymbolTable
 70
     0
  0
ENDTAB
  0
TABLE
  2
APPID
  5
9
330
0
100
AcDbSymbolTable
 70
     1
  0
APPID
  5
12
330
9
100
AcDbSymbolTableRecord
100
AcDbRegAppTableRecord
  2
ACAD
 70
     0
  0
ENDTAB
  0
TABLE
  2
DIMSTYLE
  5
A
330
0
100
AcDbSymbolTable
 70
     1
100
AcDbDimStyleTable
  0
DIMSTYLE
105
27
330
A
100
AcDbSymbolTableRecord
100
AcDbDimStyleTableRecord
  2
ISO-25
 70
     0
 41
2.5
 42
0.625
 43
3.75
 44
1.25
 73
     0
 74
     0
 77
     1
 78
     8
140
2.5
141
2.5
143
0.03937007874016
147
0.625
171
     3
172
     1
178
     0
271
     2
272
     2
274
     3
278
    44
283
     0
284
     8
340
11
  0
ENDTAB
  0
TABLE
  2
BLOCK_RECORD
  5
1
330
0
100
AcDbSymbolTable
 70
     1
  0
BLOCK_RECORD
  5
1F
330
1
100
AcDbSymbolTableRecord
100
AcDbBlockTableRecord
  2
*Model_Space
340
22
 70
     0
280
     1
281
     0
  0
BLOCK_RECORD
  5
1B
330
1
100
AcDbSymbolTableRecord
100
AcDbBlockTableRecord
  2
*Paper_Space
340
1E
 70
     0
280
     1
281
     0
  0
BLOCK_RECORD
  5
23
330
1
100
AcDbSymbolTableRecord
100
AcDbBlockTableRecord
  2
*Paper_Space0
340
26
 70
     0
280
     1
281
     0
  0
ENDTAB
  0
ENDSEC
  0
SECTION
  2
BLOCKS
  0
BLOCK
  5
20
330
1F
100
AcDbEntity
  8
0
100
AcDbBlockBegin
  2
*Model_Space
 70
     0
 10
0.0
 20
0.0
 30
0.0
  3
*Model_Space
  1

  0
ENDBLK
  5
21
330
1F
100
AcDbEntity
  8
0
100
AcDbBlockEnd
  0
BLOCK
  5
1C
330
1B
100
AcDbEntity
 67
     1
  8
0
100
AcDbBlockBegin
  2
*Paper_Space
 70
     0
 10
0.0
 20
0.0
 30
0.0
  3
*Paper_Space
  1

  0
ENDBLK
  5
1D
330
1B
100
AcDbEntity
 67
     1
  8
0
100
AcDbBlockEnd
  0
BLOCK
  5
24
330
23
100
AcDbEntity
  8
0
100
AcDbBlockBegin
  2
*Paper_Space0
 70
     0
 10
0.0
 20
0.0
 30
0.0
  3
*Paper_Space0
  1

  0
ENDBLK
  5
25
330
23
100
AcDbEntity
  8
0
100
AcDbBlockEnd
  0
ENDSEC
  0
SECTION
  2
ENTITIES
  0
LWPOLYLINE
  5
62
330
1F
100
AcDbEntity
  8
外枠
  6
Continuous
 62
   250
420
  2367521
370
   100
100
AcDbPolyline
 90
        5
 70
     0
 43
0.0
 10
281.9999662644599
 20
13.29407825637392
 10
20.99981607051935
 20
13.29407825637392
 10
20.99981607051935
 20
193.0018900389566
 10
281.9999662644599
 20
193.0018900389566
 10
281.9999662644599
 20
13.29407825637392
  0
LINE
  5
63
330
1F
100
AcDbEntity
  8
外枠
  6
Continuous
 62
   250
420
  2367521
370
    25
100
AcDbLine
 10
223.3097080177524
 20
174.0786160074276
 30
0.0
 11
281.9999232007669
 21
174.0786160074276
 31
0.0
  0
LINE
  5
64
330
1F
100
AcDbEntity
  8
外枠
  6
Continuous
 62
   250
420
  2367521
370
    25
100
AcDbLine
 10
223.3097080177524
 20
50.37109023844297
 30
0.0
 11
281.9999232007669
 21
50.37109023844297
 31
0.0
  0
LINE
  5
65
330
1F
100
AcDbEntity
  8
外枠
  6
Continuous
 62
   250
420
  2367521
370
    25
100
AcDbLine
 10
223.3097080177524
 20
36.25997933925949
 30
0.0
 11
281.9999232007669
 21
36.25997933925949
 31
0.0
  0
LINE
  5
66
330
1F
100
AcDbEntity
  8
外枠
  6
Continuous
 62
   250
420
  2367521
370
    50
100
AcDbLine
 10
223.0158413772006
 20
193.3637327187979
 30
0.0
 11
223.0158413772006
 21
13.29396655992039
 31
0.0
  0
TEXT
  5
67
330
1F
100
AcDbEntity
  8
外枠
  6
Continuous
 62
   250
420
  2367521
100
AcDbText
 10
224.7190965599536
 20
186.6888051931772
 30
0.0
 40
2.688166626294454
  1
品名：
 41
0.974166170756022
  7
MS Gothic
100
AcDbText
  0
TEXT
  5
68
330
1F
100
AcDbEntity
  8
外枠
  6
Continuous
 62
   250
420
  2367521
100
AcDbText
 10
224.7190965599536
 20
168.1080059455944
 30
0.0
 40
2.688166626294454
  1
仕様：
 41
0.9978878657023111
  7
MS Gothic
100
AcDbText
  0
TEXT
  5
69
330
1F
100
AcDbEntity
  8
外枠
  6
Continuous
 62
   250
420
  2367521
100
AcDbText
 10
224.7190965599536
 20
44.16660664327048
 30
0.0
 40
2.688166626294454
  1
縮尺：
 41
0.9939999262491861
  7
MS Gothic
100
AcDbText
  0
TEXT
  5
6A
330
1F
100
AcDbEntity
  8
外枠
  6
Continuous
 62
   250
420
  2367521
100
AcDbText
 10
250.2379519709696
 20
40.59738467878129
 30
0.0
 40
2.150533301035563
  1
1/1
 41
1.000003814697266
  7
MS Gothic
100
AcDbText
  0
TEXT
  5
6B
330
1F
100
AcDbEntity
  8
外枠
  6
Continuous
 62
   250
420
  2367521
100
AcDbText
 10
226.1633020978884
 20
24.25683874973963
 30
0.0
 40
2.553758294979732
  1
ヤスダインテリアサプライ株式会社
 41
1.0194908945184
  7
MS Gothic
100
AcDbText
  0
TEXT
  5
6C
330
1F
100
AcDbEntity
  8
外枠
  6
Continuous
 62
   250
420
  2367521
100
AcDbText
 10
227.7635273953072
 20
161.7763665048245
 30
0.0
 40
2.150533301035563
  1
材質
 41
1.028502464294433
  7
MS Gothic
100
AcDbText
  0
TEXT
  5
6D
330
1F
100
AcDbEntity
  8
外枠
  6
Continuous
 62
   250
420
  2367521
100
AcDbText
 10
232.7757967427735
 20
156.199681315683
 30
0.0
 40
2.016124969720841
  1
 ステンレスSUS304（18.8CR）/HL仕上
 41
1.066277118757659
  7
MS Gothic
100
AcDbText
  0
TEXT
  5
6E
330
1F
100
AcDbEntity
  8
外枠
  6
Continuous
 62
   250
420
  2367521
100
AcDbText
 10
232.7757967427735
 20
181.9845273775436
 30
0.0
 40
2.688166626294454
  1
スロープバー　XS-09
 41
1.022127171566612
  7
MS Gothic
100
AcDbText
  0
TEXT
  5
6F
330
1F
100
AcDbEntity
  8
ISS138金台
  6
Continuous
 62
   250
420
  2367521
100
AcDbText
 10
125.9308019586711
 20
117.422463803169
 30
0.0
 40
2.150533301035563
  1
11
 41
1.003749370574951
  7
MS Gothic
100
AcDbText
  0
TEXT
  5
70
330
1F
100
AcDbEntity
  8
ISS138金台
  6
Continuous
 62
   250
420
  2367521
100
AcDbText
 10
137.9462365004396
 20
104.8311642305466
 30
0.0
 40
2.150533301035563
  1
9 .  5
 50
90.00000250447816
 41
0.5870005289713541
  7
MS Gothic
100
AcDbText
  0
TEXT
  5
71
330
1F
100
AcDbEntity
  8
ISS138金台
  6
Continuous
 62
   250
420
  2367521
100
AcDbText
 10
120.80454301602
 20
97.01254496432307
 30
0.0
 40
2.150533301035563
  1
22
 41
0.9280014038085936
  7
MS Gothic
100
AcDbText
  0
TEXT
  5
72
330
1F
100
AcDbEntity
  8
ISS138金台
  6
Continuous
 62
   250
420
  2367521
100
AcDbText
 10
104.2669942999522
 20
101.7019086860449
 30
0.0
 40
2.150533301035563
  1
2 .  8
 50
90.00000250447816
 41
0.5956675211588541
  7
MS Gothic
100
AcDbText
  0
TEXT
  5
73
330
1F
100
AcDbEntity
  8
ISS138金台
  6
Continuous
 62
   140
420
    44526
100
AcDbText
 10
128.4112168418021
 20
100.4688553901163
 30
0.0
 40
1.881716638406118
  1
5 .  5
 41
0.6111114592779249
  7
MS Gothic
100
AcDbText
  0
HATCH
  5
74
330
1F
100
AcDbEntity
  8
ISS138金台
  6
Continuous
 62
     7
420
 16777215
370
    50
100
AcDbHatch
 10
0.0
 20
0.0
 30
0.0
210
0.0
220
0.0
230
1.0
  2
SOLID
 70
     1
 71
     0
 91
        1
 92
        3
 72
     0
 73
     1
 93
        8
 10
111.6358952180639
 20
102.957032331643
 10
111.6358952180639
 20
105.7573781554715
 10
121.6459645121722
 20
112.4601558325837
 10
133.6404087764782
 20
112.4601558325837
 10
133.6404087764782
 20
102.957032331643
 10
128.6037976765834
 20
102.957032331643
 10
128.3021795713042
 20
103.1574076948447
 10
128.0054922588654
 20
102.957032331643
 97
        0
 75
     1
 76
     1
 98
        0
  0
LWPOLYLINE
  5
75
330
1F
100
AcDbEntity
  8
ISS138金台
  6
Continuous
 62
     7
420
 16777215
370
    50
100
AcDbPolyline
 90
        9
 70
     0
 43
0.0
 10
111.6358952180639
 20
102.957032331643
 10
111.6358952180639
 20
105.7573781554715
 10
121.6459645121722
 20
112.4601558325837
 10
133.6404087764782
 20
112.4601558325837
 10
133.6404087764782
 20
102.957032331643
 10
128.6037976765834
 20
102.957032331643
 10
128.3021795713042
 20
103.1574076948447
 10
128.0054922588654
 20
102.957032331643
 10
111.6358952180639
 20
102.957032331643
  0
LWPOLYLINE
  5
76
330
1F
100
AcDbEntity
  8
ISS138金台
  6
Continuous
 62
   250
420
  2367521
370
    25
100
AcDbPolyline
 90
        9
 70
     0
 43
0.0
 10
111.6358952180639
 20
102.957032331643
 10
111.6358952180639
 20
105.7573781554715
 10
121.6459645121722
 20
112.4601558325837
 10
133.6404087764782
 20
112.4601558325837
 10
133.6404087764782
 20
102.957032331643
 10
128.6037976765834
 20
102.957032331643
 10
128.3021795713042
 20
103.1574076948447
 10
128.0054922588654
 20
102.957032331643
 10
111.6358952180639
 20
102.957032331643
  0
LINE
  5
77
330
1F
100
AcDbEntity
  8
ISS138金台
  6
Continuous
 62
   250
420
  2367521
370
    13
100
AcDbLine
 10
121.645953746249
 20
115.9217877250396
 30
0.0
 11
121.645953746249
 21
113.5183168952507
 31
0.0
  0
LINE
  5
78
330
1F
100
AcDbEntity
  8
ISS138金台
  6
Continuous
 62
   250
420
  2367521
370
    13
100
AcDbLine
 10
133.7065546088181
 20
116.1717293988032
 30
0.0
 11
133.7065546088181
 21
113.5184891500224
 31
0.0
  0
LINE
  5
79
330
1F
100
AcDbEntity
  8
ISS138金台
  6
Continuous
 62
   250
420
  2367521
370
    13
100
AcDbLine
 10
121.645953746249
 20
115.9217877250396
 30
0.0
 11
133.7067160976666
 21
115.9217877250396
 31
0.0
  0
LINE
  5
7A
330
1F
100
AcDbEntity
  8
ISS138金台
  6
Continuous
 62
   250
420
  2367521
370
    13
100
AcDbLine
 10
134.6987313279937
 20
112.5263124308468
 30
0.0
 11
139.7039382298196
 21
112.5263124308468
 31
0.0
  0
LINE
  5
7B
330
1F
100
AcDbEntity
  8
ISS138金台
  6
Continuous
 62
   250
420
  2367521
370
    13
100
AcDbLine
 10
134.6987313279937
 20
102.8908864993031
 30
0.0
 11
139.7039382298196
 21
102.8908864993031
 31
0.0
  0
LINE
  5
7C
330
1F
100
AcDbEntity
  8
ISS138金台
  6
Continuous
 62
   250
420
  2367521
370
    13
100
AcDbLine
 10
139.1966586930317
 20
112.5263124308468
 30
0.0
 11
139.1966586930317
 21
102.8908972652264
 31
0.0
  0
LINE
  5
7D
330
1F
100
AcDbEntity
  8
ISS138金台
  6
Continuous
 62
   250
420
  2367521
370
    13
100
AcDbLine
 10
111.569749385724
 20
101.9648448465442
 30
0.0
 11
111.569749385724
 21
95.79123382815143
 31
0.0
  0
LINE
  5
7E
330
1F
100
AcDbEntity
  8
ISS138金台
  6
Continuous
 62
   250
420
  2367521
370
    13
100
AcDbLine
 10
133.7065546088181
 20
101.9648448465442
 30
0.0
 11
133.7065546088181
 21
95.79123382815143
 31
0.0
  0
LINE
  5
7F
330
1F
100
AcDbEntity
  8
ISS138金台
  6
Continuous
 62
   250
420
  2367521
370
    13
100
AcDbLine
 10
111.569749385724
 20
95.79123382815143
 30
0.0
 11
133.7065546088181
 21
95.79123382815143
 31
0.0
  0
HATCH
  5
80
330
1F
100
AcDbEntity
  8
ISS138金台
  6
Continuous
 62
   250
420
  2367521
370
    13
100
AcDbHatch
 10
0.0
 20
0.0
 30
0.0
210
0.0
220
0.0
230
1.0
  2
SOLID
 70
     1
 71
     0
 91
        1
 92
        3
 72
     0
 73
     1
 93
       67
 10
111.569749385724
 20
95.54110913369287
 10
111.5952861556313
 20
95.54241181040399
 10
111.6200908427588
 20
95.54619064945857
 10
111.6440450219509
 20
95.55237028939396
 10
111.6670195021288
 20
95.56080000728494
 10
111.6888850922139
 20
95.57133984612948
 10
111.7095126011271
 20
95.58388214669523
 10
111.7287728377899
 20
95.5982869519802
 10
111.7465366111234
 20
95.61444660275205
 10
111.762685495972
 20
95.63222114200875
 10
111.7771010671802
 20
95.6514706127483
 10
111.789643367746
 20
95.6720981216616
 10
111.8001939725137
 20
95.69395294582338
 10
111.8086129244815
 20
95.71692742600135
 10
111.8147817984936
 20
95.74088160519347
 10
111.8185821693947
 20
95.76569705824417
 10
111.8198740801826
 20
95.79123382815143
 10
111.8198740801826
 20
95.79123382815143
 10
111.8185929353179
 20
95.81678136398195
 10
111.8147925644169
 20
95.84158605110942
 10
111.8086129244815
 20
95.86554023030152
 10
111.8001832065905
 20
95.88851471047948
 10
111.789643367746
 20
95.91035876871805
 10
111.7771118331034
 20
95.93098627763135
 10
111.762685495972
 20
95.95024651429412
 10
111.7465366111234
 20
95.96802105355083
 10
111.7287620718667
 20
95.98416993839945
 10
111.7095018352039
 20
95.99858550960764
 10
111.6888850922139
 20
96.01111704425017
 10
111.6670195021288
 20
96.02166764901793
 10
111.6440557878741
 20
96.03008660098567
 10
111.620101608682
 20
96.03625547499783
 10
111.5952861556313
 20
96.04005584589888
 10
111.569749385724
 20
96.04134775668678
 10
111.569749385724
 20
96.04134775668678
 10
111.5442018498935
 20
96.04005584589888
 10
111.5193863968428
 20
96.03624470907461
 10
111.4954429835739
 20
96.03007583506243
 10
111.4724685033959
 20
96.02166764901793
 10
111.4506244451574
 20
96.01111704425017
 10
111.4299861703209
 20
95.9985747436844
 10
111.4107366995813
 20
95.98416993839945
 10
111.3929621603246
 20
95.96802105355083
 10
111.3768025095528
 20
95.95024651429412
 10
111.3623977042678
 20
95.93098627763135
 10
111.3498554037021
 20
95.91035876871805
 10
111.3393155648575
 20
95.88850394455625
 10
111.3308858469666
 20
95.86554023030152
 10
111.3247169729544
 20
95.84158605110942
 10
111.3209166020533
 20
95.81677059805871
 10
111.3196246912654
 20
95.79123382815143
 10
111.3196246912654
 20
95.79123382815143
 10
111.3209166020533
 20
95.76569705824417
 10
111.3247169729544
 20
95.74088160519347
 10
111.3308858469666
 20
95.71692742600135
 10
111.3393047989343
 20
95.69396371174662
 10
111.3498554037021
 20
95.6720981216616
 10
111.3623977042678
 20
95.6514706127483
 10
111.3768025095528
 20
95.63221037608551
 10
111.3929621603246
 20
95.61444660275205
 10
111.4107259336581
 20
95.59829771790342
 10
111.4299969362441
 20
95.58388214669523
 10
111.4506244451574
 20
95.57133984612948
 10
111.4724792693192
 20
95.56078924136172
 10
111.4954429835739
 20
95.55237028939396
 10
111.519397162766
 20
95.5462014153818
 10
111.5442126158167
 20
95.54240104448075
 97
        0
 75
     1
 76
     1
 98
        0
  0
LWPOLYLINE
  5
81
330
1F
100
AcDbEntity
  8
ISS138金台
  6
Continuous
 62
   250
420
  2367521
370
    13
100
AcDbPolyline
 90
       68
 70
     0
 43
0.0
 10
111.569749385724
 20
95.54110913369287
 10
111.5952861556313
 20
95.54241181040399
 10
111.6200908427588
 20
95.54619064945857
 10
111.6440450219509
 20
95.55237028939396
 10
111.6670195021288
 20
95.56080000728494
 10
111.6888850922139
 20
95.57133984612948
 10
111.7095126011271
 20
95.58388214669523
 10
111.7287728377899
 20
95.5982869519802
 10
111.7465366111234
 20
95.61444660275205
 10
111.762685495972
 20
95.63222114200875
 10
111.7771010671802
 20
95.6514706127483
 10
111.789643367746
 20
95.6720981216616
 10
111.8001939725137
 20
95.69395294582338
 10
111.8086129244815
 20
95.71692742600135
 10
111.8147817984936
 20
95.74088160519347
 10
111.8185821693947
 20
95.76569705824417
 10
111.8198740801826
 20
95.79123382815143
 10
111.8198740801826
 20
95.79123382815143
 10
111.8185929353179
 20
95.81678136398195
 10
111.8147925644169
 20
95.84158605110942
 10
111.8086129244815
 20
95.86554023030152
 10
111.8001832065905
 20
95.88851471047948
 10
111.789643367746
 20
95.91035876871805
 10
111.7771118331034
 20
95.93098627763135
 10
111.762685495972
 20
95.95024651429412
 10
111.7465366111234
 20
95.96802105355083
 10
111.7287620718667
 20
95.98416993839945
 10
111.7095018352039
 20
95.99858550960764
 10
111.6888850922139
 20
96.01111704425017
 10
111.6670195021288
 20
96.02166764901793
 10
111.6440557878741
 20
96.03008660098567
 10
111.620101608682
 20
96.03625547499783
 10
111.5952861556313
 20
96.04005584589888
 10
111.569749385724
 20
96.04134775668678
 10
111.569749385724
 20
96.04134775668678
 10
111.5442018498935
 20
96.04005584589888
 10
111.5193863968428
 20
96.03624470907461
 10
111.4954429835739
 20
96.03007583506243
 10
111.4724685033959
 20
96.02166764901793
 10
111.4506244451574
 20
96.01111704425017
 10
111.4299861703209
 20
95.9985747436844
 10
111.4107366995813
 20
95.98416993839945
 10
111.3929621603246
 20
95.96802105355083
 10
111.3768025095528
 20
95.95024651429412
 10
111.3623977042678
 20
95.93098627763135
 10
111.3498554037021
 20
95.91035876871805
 10
111.3393155648575
 20
95.88850394455625
 10
111.3308858469666
 20
95.86554023030152
 10
111.3247169729544
 20
95.84158605110942
 10
111.3209166020533
 20
95.81677059805871
 10
111.3196246912654
 20
95.79123382815143
 10
111.3196246912654
 20
95.79123382815143
 10
111.3209166020533
 20
95.76569705824417
 10
111.3247169729544
 20
95.74088160519347
 10
111.3308858469666
 20
95.71692742600135
 10
111.3393047989343
 20
95.69396371174662
 10
111.3498554037021
 20
95.6720981216616
 10
111.3623977042678
 20
95.6514706127483
 10
111.3768025095528
 20
95.63221037608551
 10
111.3929621603246
 20
95.61444660275205
 10
111.4107259336581
 20
95.59829771790342
 10
111.4299969362441
 20
95.58388214669523
 10
111.4506244451574
 20
95.57133984612948
 10
111.4724792693192
 20
95.56078924136172
 10
111.4954429835739
 20
95.55237028939396
 10
111.519397162766
 20
95.5462014153818
 10
111.5442126158167
 20
95.54240104448075
 10
111.569749385724
 20
95.54110913369287
  0
HATCH
  5
82
330
1F
100
AcDbEntity
  8
ISS138金台
  6
Continuous
 62
   250
420
  2367521
370
    13
100
AcDbHatch
 10
0.0
 20
0.0
 30
0.0
210
0.0
220
0.0
230
1.0
  2
SOLID
 70
     1
 71
     0
 91
        1
 92
        3
 72
     0
 73
     1
 93
       67
 10
133.7065546088181
 20
95.54110913369287
 10
133.7320913787254
 20
95.54241181040399
 10
133.7568960658529
 20
95.54619064945857
 10
133.780850245045
 20
95.55237028939396
 10
133.8038247252229
 20
95.56080000728494
 10
133.825690315308
 20
95.57133984612948
 10
133.846307058298
 20
95.58388214669523
 10
133.865578060884
 20
95.5982869519802
 10
133.8833418342175
 20
95.61444660275205
 10
133.8994907190661
 20
95.63222114200875
 10
133.9139062902743
 20
95.6514706127483
 10
133.92644859084
 20
95.6720981216616
 10
133.9369991956078
 20
95.69395294582338
 10
133.9454181475756
 20
95.71692742600135
 10
133.9515870215877
 20
95.74088160519347
 10
133.9553873924888
 20
95.76569705824417
 10
133.9566793032766
 20
95.79123382815143
 10
133.9566793032766
 20
95.79123382815143
 10
133.955398158412
 20
95.81678136398195
 10
133.951597787511
 20
95.84158605110942
 10
133.9454181475756
 20
95.86554023030152
 10
133.9369884296846
 20
95.88851471047948
 10
133.92644859084
 20
95.91035876871805
 10
133.9139170561975
 20
95.93098627763135
 10
133.8994907190661
 20
95.95024651429412
 10
133.8833418342175
 20
95.96802105355083
 10
133.8655672949608
 20
95.98416993839945
 10
133.8463178242212
 20
95.99858550960764
 10
133.825690315308
 20
96.01111704425017
 10
133.8038247252229
 20
96.02166764901793
 10
133.7808610109682
 20
96.03008660098567
 10
133.7569068317761
 20
96.03625547499783
 10
133.7320913787254
 20
96.04005584589888
 10
133.7065546088181
 20
96.04134775668678
 10
133.7065546088181
 20
96.04134775668678
 10
133.6810070729876
 20
96.04005584589888
 10
133.6561916199369
 20
96.03624470907461
 10
133.632248206668
 20
96.03007583506243
 10
133.60927372649
 20
96.02166764901793
 10
133.5874189023282
 20
96.01111704425017
 10
133.5668021593382
 20
95.9985747436844
 10
133.5475419226754
 20
95.98416993839945
 10
133.5297673834187
 20
95.96802105355083
 10
133.5136077326468
 20
95.95024651429412
 10
133.4992029273619
 20
95.93098627763135
 10
133.4866606267962
 20
95.91035876871805
 10
133.4761207879516
 20
95.88850394455625
 10
133.4676910700607
 20
95.86554023030152
 10
133.4615221960485
 20
95.84158605110942
 10
133.4577218251474
 20
95.81677059805871
 10
133.4564299143595
 20
95.79123382815143
 10
133.4564299143595
 20
95.79123382815143
 10
133.4577218251474
 20
95.76569705824417
 10
133.4615221960485
 20
95.74088160519347
 10
133.4676910700607
 20
95.71692742600135
 10
133.4761100220284
 20
95.69396371174662
 10
133.4866606267962
 20
95.6720981216616
 10
133.4992029273619
 20
95.6514706127483
 10
133.5136077326468
 20
95.63221037608551
 10
133.5297673834187
 20
95.61444660275205
 10
133.5475311567522
 20
95.59829771790342
 10
133.5668021593382
 20
95.58388214669523
 10
133.5874296682515
 20
95.57133984612948
 10
133.6092844924133
 20
95.56078924136172
 10
133.632248206668
 20
95.55237028939396
 10
133.6562023858601
 20
95.5462014153818
 10
133.6810178389108
 20
95.54240104448075
 97
        0
 75
     1
 76
     1
 98
        0
  0
LWPOLYLINE
  5
83
330
1F
100
AcDbEntity
  8
ISS138金台
  6
Continuous
 62
   250
420
  2367521
370
    13
100
AcDbPolyline
 90
       68
 70
     0
 43
0.0
 10
133.7065546088181
 20
95.54110913369287
 10
133.7320913787254
 20
95.54241181040399
 10
133.7568960658529
 20
95.54619064945857
 10
133.780850245045
 20
95.55237028939396
 10
133.8038247252229
 20
95.56080000728494
 10
133.825690315308
 20
95.57133984612948
 10
133.846307058298
 20
95.58388214669523
 10
133.865578060884
 20
95.5982869519802
 10
133.8833418342175
 20
95.61444660275205
 10
133.8994907190661
 20
95.63222114200875
 10
133.9139062902743
 20
95.6514706127483
 10
133.92644859084
 20
95.6720981216616
 10
133.9369991956078
 20
95.69395294582338
 10
133.9454181475756
 20
95.71692742600135
 10
133.9515870215877
 20
95.74088160519347
 10
133.9553873924888
 20
95.76569705824417
 10
133.9566793032766
 20
95.79123382815143
 10
133.9566793032766
 20
95.79123382815143
 10
133.955398158412
 20
95.81678136398195
 10
133.951597787511
 20
95.84158605110942
 10
133.9454181475756
 20
95.86554023030152
 10
133.9369884296846
 20
95.88851471047948
 10
133.92644859084
 20
95.91035876871805
 10
133.9139170561975
 20
95.93098627763135
 10
133.8994907190661
 20
95.95024651429412
 10
133.8833418342175
 20
95.96802105355083
 10
133.8655672949608
 20
95.98416993839945
 10
133.8463178242212
 20
95.99858550960764
 10
133.825690315308
 20
96.01111704425017
 10
133.8038247252229
 20
96.02166764901793
 10
133.7808610109682
 20
96.03008660098567
 10
133.7569068317761
 20
96.03625547499783
 10
133.7320913787254
 20
96.04005584589888
 10
133.7065546088181
 20
96.04134775668678
 10
133.7065546088181
 20
96.04134775668678
 10
133.6810070729876
 20
96.04005584589888
 10
133.6561916199369
 20
96.03624470907461
 10
133.632248206668
 20
96.03007583506243
 10
133.60927372649
 20
96.02166764901793
 10
133.5874189023282
 20
96.01111704425017
 10
133.5668021593382
 20
95.9985747436844
 10
133.5475419226754
 20
95.98416993839945
 10
133.5297673834187
 20
95.96802105355083
 10
133.5136077326468
 20
95.95024651429412
 10
133.4992029273619
 20
95.93098627763135
 10
133.4866606267962
 20
95.91035876871805
 10
133.4761207879516
 20
95.88850394455625
 10
133.4676910700607
 20
95.86554023030152
 10
133.4615221960485
 20
95.84158605110942
 10
133.4577218251474
 20
95.81677059805871
 10
133.4564299143595
 20
95.79123382815143
 10
133.4564299143595
 20
95.79123382815143
 10
133.4577218251474
 20
95.76569705824417
 10
133.4615221960485
 20
95.74088160519347
 10
133.4676910700607
 20
95.71692742600135
 10
133.4761100220284
 20
95.69396371174662
 10
133.4866606267962
 20
95.6720981216616
 10
133.4992029273619
 20
95.6514706127483
 10
133.5136077326468
 20
95.63221037608551
 10
133.5297673834187
 20
95.61444660275205
 10
133.5475311567522
 20
95.59829771790342
 10
133.5668021593382
 20
95.58388214669523
 10
133.5874296682515
 20
95.57133984612948
 10
133.6092844924133
 20
95.56078924136172
 10
133.632248206668
 20
95.55237028939396
 10
133.6562023858601
 20
95.5462014153818
 10
133.6810178389108
 20
95.54240104448075
 10
133.7065546088181
 20
95.54110913369287
  0
HATCH
  5
84
330
1F
100
AcDbEntity
  8
ISS138金台
  6
Continuous
 62
   250
420
  2367521
370
    13
100
AcDbHatch
 10
0.0
 20
0.0
 30
0.0
210
0.0
220
0.0
230
1.0
  2
SOLID
 70
     1
 71
     0
 91
        1
 92
        3
 72
     0
 73
     1
 93
       67
 10
139.1966586930317
 20
112.2763599911599
 10
139.2222062288622
 20
112.2776519019478
 10
139.2470001500664
 20
112.2814307410024
 10
139.2709543292585
 20
112.2875996150146
 10
139.2939288094365
 20
112.2959970351359
 10
139.3157943995215
 20
112.3065153421339
 10
139.3364111425116
 20
112.3190145790068
 10
139.3556713791743
 20
112.3333978524453
 10
139.3734459184311
 20
112.3495144395242
 10
139.3896055692029
 20
112.3672566810112
 10
139.4040103744879
 20
112.3864846199043
 10
139.4165526750537
 20
112.4070690651246
 10
139.4271032798214
 20
112.42890235744
 10
139.4355222317892
 20
112.4518553057715
 10
139.4416911058013
 20
112.4757879531171
 10
139.4454914767023
 20
112.5005926402446
 10
139.4467833874903
 20
112.5261294101519
 10
139.4467833874903
 20
112.5261294101519
 10
139.4454914767023
 20
112.5517200096753
 10
139.4416911058013
 20
112.5765892923421
 10
139.4355222317892
 20
112.6005650033807
 10
139.4270925138982
 20
112.6235610154051
 10
139.4165526750537
 20
112.6454266054902
 10
139.4040211404111
 20
112.666032582557
 10
139.3896055692029
 20
112.6852928192198
 10
139.3734459184311
 20
112.70304582663
 10
139.3556713791743
 20
112.7191839455554
 10
139.3364219084348
 20
112.7335672189939
 10
139.3157943995215
 20
112.7460879877132
 10
139.2939288094365
 20
112.7566062947113
 10
139.2709650951818
 20
112.7650144807558
 10
139.2470109159896
 20
112.7711725888447
 10
139.2221954629389
 20
112.7749514278993
 10
139.1966586930317
 20
112.7762433386872
 10
139.1966586930317
 20
112.7762433386872
 10
139.1711219231244
 20
112.7749621938225
 10
139.1462957041505
 20
112.7711618229215
 10
139.1223630568048
 20
112.7650144807558
 10
139.0993778107036
 20
112.7566170606345
 10
139.0775229865419
 20
112.7460879877132
 10
139.0569062435518
 20
112.7335672189939
 10
139.0376352409658
 20
112.7191731796322
 10
139.0198714676323
 20
112.70304582663
 10
139.0037118168604
 20
112.6852928192198
 10
138.9893070115755
 20
112.6660433484802
 10
138.9767647110097
 20
112.645415839567
 10
138.9662248721652
 20
112.6235502494819
 10
138.9577951542742
 20
112.6005650033807
 10
138.951626280262
 20
112.5765785264189
 10
138.947825909361
 20
112.5517307755985
 10
138.9465339985731
 20
112.5261294101519
 10
138.9465339985731
 20
112.5261294101519
 10
138.9478366752842
 20
112.5005926402446
 10
138.951626280262
 20
112.4757879531171
 10
138.9578059201974
 20
112.4518553057715
 10
138.9662141062419
 20
112.42890235744
 10
138.9767647110097
 20
112.4070798310479
 10
138.9893070115755
 20
112.3864846199043
 10
139.0037225827837
 20
112.3672566810112
 10
139.0198714676323
 20
112.3495144395242
 10
139.037646006889
 20
112.3333978524453
 10
139.0569062435518
 20
112.3190145790068
 10
139.0775337524651
 20
112.3065045762107
 10
139.0993885766268
 20
112.2959862692126
 10
139.1223522908816
 20
112.2875888490914
 10
139.1463064700737
 20
112.2814307410024
 10
139.1711219231244
 20
112.2776519019478
 97
        0
 75
     1
 76
     1
 98
        0
  0
LWPOLYLINE
  5
85
330
1F
100
AcDbEntity
  8
ISS138金台
  6
Continuous
 62
   250
420
  2367521
370
    13
100
AcDbPolyline
 90
       68
 70
     0
 43
0.0
 10
139.1966586930317
 20
112.2763599911599
 10
139.2222062288622
 20
112.2776519019478
 10
139.2470001500664
 20
112.2814307410024
 10
139.2709543292585
 20
112.2875996150146
 10
139.2939288094365
 20
112.2959970351359
 10
139.3157943995215
 20
112.3065153421339
 10
139.3364111425116
 20
112.3190145790068
 10
139.3556713791743
 20
112.3333978524453
 10
139.3734459184311
 20
112.3495144395242
 10
139.3896055692029
 20
112.3672566810112
 10
139.4040103744879
 20
112.3864846199043
 10
139.4165526750537
 20
112.4070690651246
 10
139.4271032798214
 20
112.42890235744
 10
139.4355222317892
 20
112.4518553057715
 10
139.4416911058013
 20
112.4757879531171
 10
139.4454914767023
 20
112.5005926402446
 10
139.4467833874903
 20
112.5261294101519
 10
139.4467833874903
 20
112.5261294101519
 10
139.4454914767023
 20
112.5517200096753
 10
139.4416911058013
 20
112.5765892923421
 10
139.4355222317892
 20
112.6005650033807
 10
139.4270925138982
 20
112.6235610154051
 10
139.4165526750537
 20
112.6454266054902
 10
139.4040211404111
 20
112.666032582557
 10
139.3896055692029
 20
112.6852928192198
 10
139.3734459184311
 20
112.70304582663
 10
139.3556713791743
 20
112.7191839455554
 10
139.3364219084348
 20
112.7335672189939
 10
139.3157943995215
 20
112.7460879877132
 10
139.2939288094365
 20
112.7566062947113
 10
139.2709650951818
 20
112.7650144807558
 10
139.2470109159896
 20
112.7711725888447
 10
139.2221954629389
 20
112.7749514278993
 10
139.1966586930317
 20
112.7762433386872
 10
139.1966586930317
 20
112.7762433386872
 10
139.1711219231244
 20
112.7749621938225
 10
139.1462957041505
 20
112.7711618229215
 10
139.1223630568048
 20
112.7650144807558
 10
139.0993778107036
 20
112.7566170606345
 10
139.0775229865419
 20
112.7460879877132
 10
139.0569062435518
 20
112.7335672189939
 10
139.0376352409658
 20
112.7191731796322
 10
139.0198714676323
 20
112.70304582663
 10
139.0037118168604
 20
112.6852928192198
 10
138.9893070115755
 20
112.6660433484802
 10
138.9767647110097
 20
112.645415839567
 10
138.9662248721652
 20
112.6235502494819
 10
138.9577951542742
 20
112.6005650033807
 10
138.951626280262
 20
112.5765785264189
 10
138.947825909361
 20
112.5517307755985
 10
138.9465339985731
 20
112.5261294101519
 10
138.9465339985731
 20
112.5261294101519
 10
138.9478366752842
 20
112.5005926402446
 10
138.951626280262
 20
112.4757879531171
 10
138.9578059201974
 20
112.4518553057715
 10
138.9662141062419
 20
112.42890235744
 10
138.9767647110097
 20
112.4070798310479
 10
138.9893070115755
 20
112.3864846199043
 10
139.0037225827837
 20
112.3672566810112
 10
139.0198714676323
 20
112.3495144395242
 10
139.037646006889
 20
112.3333978524453
 10
139.0569062435518
 20
112.3190145790068
 10
139.0775337524651
 20
112.3065045762107
 10
139.0993885766268
 20
112.2959862692126
 10
139.1223522908816
 20
112.2875888490914
 10
139.1463064700737
 20
112.2814307410024
 10
139.1711219231244
 20
112.2776519019478
 10
139.1966586930317
 20
112.2763599911599
  0
HATCH
  5
86
330
1F
100
AcDbEntity
  8
ISS138金台
  6
Continuous
 62
   250
420
  2367521
370
    13
100
AcDbHatch
 10
0.0
 20
0.0
 30
0.0
210
0.0
220
0.0
230
1.0
  2
SOLID
 70
     1
 71
     0
 91
        1
 92
        3
 72
     0
 73
     1
 93
       67
 10
139.1966586930317
 20
102.6407618048446
 10
139.2222062288622
 20
102.6420644815557
 10
139.2470001500664
 20
102.6458433206103
 10
139.2709543292585
 20
102.6520121946224
 10
139.2939288094365
 20
102.6604526784366
 10
139.3157943995215
 20
102.6709925172812
 10
139.3364111425116
 20
102.6835348178469
 10
139.3556713791743
 20
102.6979503890551
 10
139.3734459184311
 20
102.7140992739037
 10
139.3896055692029
 20
102.7318738131604
 10
139.4040103744879
 20
102.7511232839
 10
139.4165526750537
 20
102.7717507928133
 10
139.4271032798214
 20
102.7936056169751
 10
139.4355222317892
 20
102.8165800971531
 10
139.4416911058013
 20
102.8405342763451
 10
139.4454914767023
 20
102.8653497293959
 10
139.4467833874903
 20
102.8908864993031
 10
139.4467833874903
 20
102.8908864993031
 10
139.4454914767023
 20
102.9164340351336
 10
139.4416911058013
 20
102.9412387222611
 10
139.4355222317892
 20
102.9651929014532
 10
139.4270925138982
 20
102.9881673816312
 10
139.4165526750537
 20
103.0100114398697
 10
139.4040211404111
 20
103.030638948783
 10
139.3896055692029
 20
103.0498884195226
 10
139.3734459184311
 20
103.0676737247025
 10
139.3556713791743
 20
103.0838226095511
 10
139.3364219084348
 20
103.0982381807593
 10
139.3157943995215
 20
103.1107697154018
 10
139.2939288094365
 20
103.1213203201696
 10
139.2709650951818
 20
103.1297392721374
 10
139.2470109159896
 20
103.1359081461495
 10
139.2221954629389
 20
103.1397085170506
 10
139.1966586930317
 20
103.1410004278384
 10
139.1966586930317
 20
103.1410004278384
 10
139.1711219231244
 20
103.1397085170506
 10
139.1462957041505
 20
103.1358973802263
 10
139.1223630568048
 20
103.1297392721374
 10
139.0993778107036
 20
103.1213203201696
 10
139.0775229865419
 20
103.1107697154018
 10
139.0569062435518
 20
103.0982274148361
 10
139.0376352409658
 20
103.0838226095511
 10
139.0198714676323
 20
103.0676737247025
 10
139.0037118168604
 20
103.0498991854458
 10
138.9893070115755
 20
103.030638948783
 10
138.9767647110097
 20
103.0100114398697
 10
138.9662248721652
 20
102.988156615708
 10
138.9577951542742
 20
102.9651929014532
 10
138.951626280262
 20
102.9412387222611
 10
138.947825909361
 20
102.9164232692104
 10
138.9465339985731
 20
102.8908864993031
 10
138.9465339985731
 20
102.8908864993031
 10
138.9478366752842
 20
102.8653497293959
 10
138.951626280262
 20
102.8405342763451
 10
138.9578059201974
 20
102.8165800971531
 10
138.9662141062419
 20
102.7936163828983
 10
138.9767647110097
 20
102.7717507928133
 10
138.9893070115755
 20
102.7511232839
 10
139.0037225827837
 20
102.7318630472372
 10
139.0198714676323
 20
102.7140992739037
 10
139.037646006889
 20
102.6979503890551
 10
139.0569062435518
 20
102.6835348178469
 10
139.0775337524651
 20
102.6709925172812
 10
139.0993885766268
 20
102.6604419125134
 10
139.1223522908816
 20
102.6520229605457
 10
139.1463064700737
 20
102.6458540865335
 10
139.1711219231244
 20
102.6420537156325
 97
        0
 75
     1
 76
     1
 98
        0
  0
LWPOLYLINE
  5
87
330
1F
100
AcDbEntity
  8
ISS138金台
  6
Continuous
 62
   250
420
  2367521
370
    13
100
AcDbPolyline
 90
       68
 70
     0
 43
0.0
 10
139.1966586930317
 20
102.6407618048446
 10
139.2222062288622
 20
102.6420644815557
 10
139.2470001500664
 20
102.6458433206103
 10
139.2709543292585
 20
102.6520121946224
 10
139.2939288094365
 20
102.6604526784366
 10
139.3157943995215
 20
102.6709925172812
 10
139.3364111425116
 20
102.6835348178469
 10
139.3556713791743
 20
102.6979503890551
 10
139.3734459184311
 20
102.7140992739037
 10
139.3896055692029
 20
102.7318738131604
 10
139.4040103744879
 20
102.7511232839
 10
139.4165526750537
 20
102.7717507928133
 10
139.4271032798214
 20
102.7936056169751
 10
139.4355222317892
 20
102.8165800971531
 10
139.4416911058013
 20
102.8405342763451
 10
139.4454914767023
 20
102.8653497293959
 10
139.4467833874903
 20
102.8908864993031
 10
139.4467833874903
 20
102.8908864993031
 10
139.4454914767023
 20
102.9164340351336
 10
139.4416911058013
 20
102.9412387222611
 10
139.4355222317892
 20
102.9651929014532
 10
139.4270925138982
 20
102.9881673816312
 10
139.4165526750537
 20
103.0100114398697
 10
139.4040211404111
 20
103.030638948783
 10
139.3896055692029
 20
103.0498884195226
 10
139.3734459184311
 20
103.0676737247025
 10
139.3556713791743
 20
103.0838226095511
 10
139.3364219084348
 20
103.0982381807593
 10
139.3157943995215
 20
103.1107697154018
 10
139.2939288094365
 20
103.1213203201696
 10
139.2709650951818
 20
103.1297392721374
 10
139.2470109159896
 20
103.1359081461495
 10
139.2221954629389
 20
103.1397085170506
 10
139.1966586930317
 20
103.1410004278384
 10
139.1966586930317
 20
103.1410004278384
 10
139.1711219231244
 20
103.1397085170506
 10
139.1462957041505
 20
103.1358973802263
 10
139.1223630568048
 20
103.1297392721374
 10
139.0993778107036
 20
103.1213203201696
 10
139.0775229865419
 20
103.1107697154018
 10
139.0569062435518
 20
103.0982274148361
 10
139.0376352409658
 20
103.0838226095511
 10
139.0198714676323
 20
103.0676737247025
 10
139.0037118168604
 20
103.0498991854458
 10
138.9893070115755
 20
103.030638948783
 10
138.9767647110097
 20
103.0100114398697
 10
138.9662248721652
 20
102.988156615708
 10
138.9577951542742
 20
102.9651929014532
 10
138.951626280262
 20
102.9412387222611
 10
138.947825909361
 20
102.9164232692104
 10
138.9465339985731
 20
102.8908864993031
 10
138.9465339985731
 20
102.8908864993031
 10
138.9478366752842
 20
102.8653497293959
 10
138.951626280262
 20
102.8405342763451
 10
138.9578059201974
 20
102.8165800971531
 10
138.9662141062419
 20
102.7936163828983
 10
138.9767647110097
 20
102.7717507928133
 10
138.9893070115755
 20
102.7511232839
 10
139.0037225827837
 20
102.7318630472372
 10
139.0198714676323
 20
102.7140992739037
 10
139.037646006889
 20
102.6979503890551
 10
139.0569062435518
 20
102.6835348178469
 10
139.0775337524651
 20
102.6709925172812
 10
139.0993885766268
 20
102.6604419125134
 10
139.1223522908816
 20
102.6520229605457
 10
139.1463064700737
 20
102.6458540865335
 10
139.1711219231244
 20
102.6420537156325
 10
139.1966586930317
 20
102.6407618048446
  0
HATCH
  5
88
330
1F
100
AcDbEntity
  8
ISS138金台
  6
Continuous
 62
   250
420
  2367521
370
    13
100
AcDbHatch
 10
0.0
 20
0.0
 30
0.0
210
0.0
220
0.0
230
1.0
  2
SOLID
 70
     1
 71
     0
 91
        1
 92
        3
 72
     0
 73
     1
 93
       67
 10
121.645953746249
 20
115.6718352853528
 10
121.6715012820795
 20
115.6731271961406
 10
121.6962952032837
 20
115.6769060351952
 10
121.7202493824758
 20
115.6830641432841
 10
121.7432130967306
 20
115.6914723293287
 10
121.7650786868156
 20
115.7019798704035
 10
121.7857169616521
 20
115.7144898731996
 10
121.8049664323917
 20
115.7288731466381
 10
121.8227409716484
 20
115.744989733717
 10
121.8389006224202
 20
115.762731975204
 10
121.8533161936284
 20
115.7819491481738
 10
121.8658477282709
 20
115.8025443593174
 10
121.8763983330387
 20
115.824388417556
 10
121.8848172850064
 20
115.8473305999643
 10
121.8909861590186
 20
115.8712632473099
 10
121.8947865299197
 20
115.8960679344374
 10
121.8960784407075
 20
115.9216047043446
 10
121.8960784407075
 20
115.9216047043446
 10
121.8947865299197
 20
115.9471953038681
 10
121.8909969249419
 20
115.9720645865349
 10
121.8848172850064
 20
115.9960295316503
 10
121.8763875671155
 20
116.0190147777515
 10
121.8658477282709
 20
116.0408911337597
 10
121.8532946617819
 20
116.0615078767498
 10
121.8389006224202
 20
116.0807681134126
 10
121.8227409716484
 20
116.0985211208228
 10
121.8049664323917
 20
116.1146592397482
 10
121.7857061957289
 20
116.1290425131867
 10
121.7650894527388
 20
116.141563281906
 10
121.7432238626538
 20
116.1520815889041
 10
121.7202601483991
 20
116.1604897749486
 10
121.696305969207
 20
116.1666478830375
 10
121.6714905161563
 20
116.1704267220921
 10
121.645953746249
 20
116.17171863288
 10
121.645953746249
 20
116.17171863288
 10
121.6204169763417
 20
116.1704374880153
 10
121.595601523291
 20
116.1666478830375
 10
121.5716581100221
 20
116.1604897749486
 10
121.5486728639209
 20
116.1520815889041
 10
121.5268180397591
 20
116.141563281906
 10
121.5061905308458
 20
116.1290425131867
 10
121.4869302941831
 20
116.114648473825
 10
121.4691665208496
 20
116.0985211208228
 10
121.453017636001
 20
116.0807681134126
 10
121.4385912988695
 20
116.0615078767498
 10
121.426059764227
 20
116.0408911337597
 10
121.4155091594593
 20
116.0190255436747
 10
121.4070902074915
 20
115.9960402975735
 10
121.4009213334793
 20
115.9720538206117
 10
121.3971209625783
 20
115.9472060697913
 10
121.3958290517904
 20
115.9216047043446
 10
121.3958290517904
 20
115.9216047043446
 10
121.3971209625783
 20
115.8960679344374
 10
121.4009213334793
 20
115.8712632473099
 10
121.4071009734147
 20
115.847319834041
 10
121.4155091594593
 20
115.824388417556
 10
121.4260489983038
 20
115.8025551252407
 10
121.4385912988695
 20
115.7819599140971
 10
121.453017636001
 20
115.762731975204
 10
121.4691665208496
 20
115.744989733717
 10
121.4869410601063
 20
115.7288731466381
 10
121.5061905308458
 20
115.7144898731996
 10
121.5268180397591
 20
115.7019798704035
 10
121.5486836298442
 20
115.6914615634054
 10
121.5716473440989
 20
115.6830641432841
 10
121.595601523291
 20
115.6769060351952
 10
121.6204169763417
 20
115.6731271961406
 97
        0
 75
     1
 76
     1
 98
        0
  0
LWPOLYLINE
  5
89
330
1F
100
AcDbEntity
  8
ISS138金台
  6
Continuous
 62
   250
420
  2367521
370
    13
100
AcDbPolyline
 90
       68
 70
     0
 43
0.0
 10
121.645953746249
 20
115.6718352853528
 10
121.6715012820795
 20
115.6731271961406
 10
121.6962952032837
 20
115.6769060351952
 10
121.7202493824758
 20
115.6830641432841
 10
121.7432130967306
 20
115.6914723293287
 10
121.7650786868156
 20
115.7019798704035
 10
121.7857169616521
 20
115.7144898731996
 10
121.8049664323917
 20
115.7288731466381
 10
121.8227409716484
 20
115.744989733717
 10
121.8389006224202
 20
115.762731975204
 10
121.8533161936284
 20
115.7819491481738
 10
121.8658477282709
 20
115.8025443593174
 10
121.8763983330387
 20
115.824388417556
 10
121.8848172850064
 20
115.8473305999643
 10
121.8909861590186
 20
115.8712632473099
 10
121.8947865299197
 20
115.8960679344374
 10
121.8960784407075
 20
115.9216047043446
 10
121.8960784407075
 20
115.9216047043446
 10
121.8947865299197
 20
115.9471953038681
 10
121.8909969249419
 20
115.9720645865349
 10
121.8848172850064
 20
115.9960295316503
 10
121.8763875671155
 20
116.0190147777515
 10
121.8658477282709
 20
116.0408911337597
 10
121.8532946617819
 20
116.0615078767498
 10
121.8389006224202
 20
116.0807681134126
 10
121.8227409716484
 20
116.0985211208228
 10
121.8049664323917
 20
116.1146592397482
 10
121.7857061957289
 20
116.1290425131867
 10
121.7650894527388
 20
116.141563281906
 10
121.7432238626538
 20
116.1520815889041
 10
121.7202601483991
 20
116.1604897749486
 10
121.696305969207
 20
116.1666478830375
 10
121.6714905161563
 20
116.1704267220921
 10
121.645953746249
 20
116.17171863288
 10
121.645953746249
 20
116.17171863288
 10
121.6204169763417
 20
116.1704374880153
 10
121.595601523291
 20
116.1666478830375
 10
121.5716581100221
 20
116.1604897749486
 10
121.5486728639209
 20
116.1520815889041
 10
121.5268180397591
 20
116.141563281906
 10
121.5061905308458
 20
116.1290425131867
 10
121.4869302941831
 20
116.114648473825
 10
121.4691665208496
 20
116.0985211208228
 10
121.453017636001
 20
116.0807681134126
 10
121.4385912988695
 20
116.0615078767498
 10
121.426059764227
 20
116.0408911337597
 10
121.4155091594593
 20
116.0190255436747
 10
121.4070902074915
 20
115.9960402975735
 10
121.4009213334793
 20
115.9720538206117
 10
121.3971209625783
 20
115.9472060697913
 10
121.3958290517904
 20
115.9216047043446
 10
121.3958290517904
 20
115.9216047043446
 10
121.3971209625783
 20
115.8960679344374
 10
121.4009213334793
 20
115.8712632473099
 10
121.4071009734147
 20
115.847319834041
 10
121.4155091594593
 20
115.824388417556
 10
121.4260489983038
 20
115.8025551252407
 10
121.4385912988695
 20
115.7819599140971
 10
121.453017636001
 20
115.762731975204
 10
121.4691665208496
 20
115.744989733717
 10
121.4869410601063
 20
115.7288731466381
 10
121.5061905308458
 20
115.7144898731996
 10
121.5268180397591
 20
115.7019798704035
 10
121.5486836298442
 20
115.6914615634054
 10
121.5716473440989
 20
115.6830641432841
 10
121.595601523291
 20
115.6769060351952
 10
121.6204169763417
 20
115.6731271961406
 10
121.645953746249
 20
115.6718352853528
  0
HATCH
  5
8A
330
1F
100
AcDbEntity
  8
ISS138金台
  6
Continuous
 62
   250
420
  2367521
370
    13
100
AcDbHatch
 10
0.0
 20
0.0
 30
0.0
210
0.0
220
0.0
230
1.0
  2
SOLID
 70
     1
 71
     0
 91
        1
 92
        3
 72
     0
 73
     1
 93
       67
 10
133.7065546088181
 20
115.6718352853528
 10
133.7320913787254
 20
115.6731271961406
 10
133.7568960658529
 20
115.6769060351952
 10
133.780850245045
 20
115.6830641432841
 10
133.8038247252229
 20
115.6914723293287
 10
133.825690315308
 20
115.7019798704035
 10
133.846307058298
 20
115.7144898731996
 10
133.865578060884
 20
115.7288731466381
 10
133.8833418342175
 20
115.744989733717
 10
133.8994907190661
 20
115.762731975204
 10
133.9139062902743
 20
115.7819491481738
 10
133.92644859084
 20
115.8025443593174
 10
133.9369991956078
 20
115.824388417556
 10
133.9454181475756
 20
115.8473305999643
 10
133.9515870215877
 20
115.8712632473099
 10
133.9553873924888
 20
115.8960679344374
 10
133.9566793032766
 20
115.9216047043446
 10
133.9566793032766
 20
115.9216047043446
 10
133.955398158412
 20
115.9471953038681
 10
133.951597787511
 20
115.9720645865349
 10
133.9454181475756
 20
115.9960295316503
 10
133.9369884296846
 20
116.0190147777515
 10
133.92644859084
 20
116.0408911337597
 10
133.9139170561975
 20
116.0615078767498
 10
133.8994907190661
 20
116.0807681134126
 10
133.8833418342175
 20
116.0985211208228
 10
133.8655672949608
 20
116.1146592397482
 10
133.8463178242212
 20
116.1290425131867
 10
133.825690315308
 20
116.141563281906
 10
133.8038247252229
 20
116.1520815889041
 10
133.7808610109682
 20
116.1604897749486
 10
133.7569068317761
 20
116.1666478830375
 10
133.7320913787254
 20
116.1704267220921
 10
133.7065546088181
 20
116.17171863288
 10
133.7065546088181
 20
116.17171863288
 10
133.6810070729876
 20
116.1704374880153
 10
133.6561916199369
 20
116.1666478830375
 10
133.632248206668
 20
116.1604897749486
 10
133.60927372649
 20
116.1520815889041
 10
133.5874189023282
 20
116.141563281906
 10
133.5668021593382
 20
116.1290425131867
 10
133.5475419226754
 20
116.114648473825
 10
133.5297673834187
 20
116.0985211208228
 10
133.5136077326468
 20
116.0807681134126
 10
133.4992029273619
 20
116.0615078767498
 10
133.4866606267962
 20
116.0408911337597
 10
133.4761207879516
 20
116.0190255436747
 10
133.4676910700607
 20
115.9960402975735
 10
133.4615221960485
 20
115.9720538206117
 10
133.4577218251474
 20
115.9472060697913
 10
133.4564299143595
 20
115.9216047043446
 10
133.4564299143595
 20
115.9216047043446
 10
133.4577218251474
 20
115.8960679344374
 10
133.4615221960485
 20
115.8712632473099
 10
133.4676910700607
 20
115.847319834041
 10
133.4761100220284
 20
115.824388417556
 10
133.4866606267962
 20
115.8025551252407
 10
133.4992029273619
 20
115.7819599140971
 10
133.5136077326468
 20
115.762731975204
 10
133.5297673834187
 20
115.744989733717
 10
133.5475311567522
 20
115.7288731466381
 10
133.5668021593382
 20
115.7144898731996
 10
133.5874296682515
 20
115.7019798704035
 10
133.6092844924133
 20
115.6914615634054
 10
133.632248206668
 20
115.6830641432841
 10
133.6562023858601
 20
115.6769060351952
 10
133.6810178389108
 20
115.6731271961406
 97
        0
 75
     1
 76
     1
 98
        0
  0
LWPOLYLINE
  5
8B
330
1F
100
AcDbEntity
  8
ISS138金台
  6
Continuous
 62
   250
420
  2367521
370
    13
100
AcDbPolyline
 90
       68
 70
     0
 43
0.0
 10
133.7065546088181
 20
115.6718352853528
 10
133.7320913787254
 20
115.6731271961406
 10
133.7568960658529
 20
115.6769060351952
 10
133.780850245045
 20
115.6830641432841
 10
133.8038247252229
 20
115.6914723293287
 10
133.825690315308
 20
115.7019798704035
 10
133.846307058298
 20
115.7144898731996
 10
133.865578060884
 20
115.7288731466381
 10
133.8833418342175
 20
115.744989733717
 10
133.8994907190661
 20
115.762731975204
 10
133.9139062902743
 20
115.7819491481738
 10
133.92644859084
 20
115.8025443593174
 10
133.9369991956078
 20
115.824388417556
 10
133.9454181475756
 20
115.8473305999643
 10
133.9515870215877
 20
115.8712632473099
 10
133.9553873924888
 20
115.8960679344374
 10
133.9566793032766
 20
115.9216047043446
 10
133.9566793032766
 20
115.9216047043446
 10
133.955398158412
 20
115.9471953038681
 10
133.951597787511
 20
115.9720645865349
 10
133.9454181475756
 20
115.9960295316503
 10
133.9369884296846
 20
116.0190147777515
 10
133.92644859084
 20
116.0408911337597
 10
133.9139170561975
 20
116.0615078767498
 10
133.8994907190661
 20
116.0807681134126
 10
133.8833418342175
 20
116.0985211208228
 10
133.8655672949608
 20
116.1146592397482
 10
133.8463178242212
 20
116.1290425131867
 10
133.825690315308
 20
116.141563281906
 10
133.8038247252229
 20
116.1520815889041
 10
133.7808610109682
 20
116.1604897749486
 10
133.7569068317761
 20
116.1666478830375
 10
133.7320913787254
 20
116.1704267220921
 10
133.7065546088181
 20
116.17171863288
 10
133.7065546088181
 20
116.17171863288
 10
133.6810070729876
 20
116.1704374880153
 10
133.6561916199369
 20
116.1666478830375
 10
133.632248206668
 20
116.1604897749486
 10
133.60927372649
 20
116.1520815889041
 10
133.5874189023282
 20
116.141563281906
 10
133.5668021593382
 20
116.1290425131867
 10
133.5475419226754
 20
116.114648473825
 10
133.5297673834187
 20
116.0985211208228
 10
133.5136077326468
 20
116.0807681134126
 10
133.4992029273619
 20
116.0615078767498
 10
133.4866606267962
 20
116.0408911337597
 10
133.4761207879516
 20
116.0190255436747
 10
133.4676910700607
 20
115.9960402975735
 10
133.4615221960485
 20
115.9720538206117
 10
133.4577218251474
 20
115.9472060697913
 10
133.4564299143595
 20
115.9216047043446
 10
133.4564299143595
 20
115.9216047043446
 10
133.4577218251474
 20
115.8960679344374
 10
133.4615221960485
 20
115.8712632473099
 10
133.4676910700607
 20
115.847319834041
 10
133.4761100220284
 20
115.824388417556
 10
133.4866606267962
 20
115.8025551252407
 10
133.4992029273619
 20
115.7819599140971
 10
133.5136077326468
 20
115.762731975204
 10
133.5297673834187
 20
115.744989733717
 10
133.5475311567522
 20
115.7288731466381
 10
133.5668021593382
 20
115.7144898731996
 10
133.5874296682515
 20
115.7019798704035
 10
133.6092844924133
 20
115.6914615634054
 10
133.632248206668
 20
115.6830641432841
 10
133.6562023858601
 20
115.6769060351952
 10
133.6810178389108
 20
115.6731271961406
 10
133.7065546088181
 20
115.6718352853528
  0
LINE
  5
8C
330
1F
100
AcDbEntity
  8
ISS138金台
  6
Continuous
 62
   250
420
  2367521
370
    13
100
AcDbLine
 10
105.638673085911
 20
105.7868337214354
 30
0.0
 11
110.6216591221851
 21
105.7868337214354
 31
0.0
  0
LINE
  5
8D
330
1F
100
AcDbEntity
  8
ISS138金台
  6
Continuous
 62
   250
420
  2367521
370
    13
100
AcDbLine
 10
105.638673085911
 20
102.8908864993031
 30
0.0
 11
110.6216591221851
 21
102.8908864993031
 31
0.0
  0
LINE
  5
8E
330
1F
100
AcDbEntity
  8
ISS138金台
  6
Continuous
 62
   250
420
  2367521
370
    13
100
AcDbLine
 10
106.1237317571471
 20
105.7868337214354
 30
0.0
 11
106.1237317571471
 21
102.8908757333799
 31
0.0
  0
HATCH
  5
8F
330
1F
100
AcDbEntity
  8
ISS138金台
  6
Continuous
 62
   250
420
  2367521
370
    13
100
AcDbHatch
 10
0.0
 20
0.0
 30
0.0
210
0.0
220
0.0
230
1.0
  2
SOLID
 70
     1
 71
     0
 91
        1
 92
        3
 72
     0
 73
     1
 93
       67
 10
106.1237317571471
 20
102.6407618048446
 10
106.1492685270544
 20
102.6420644815557
 10
106.1740624482587
 20
102.6458433206103
 10
106.1980058615275
 20
102.6520121946224
 10
106.2209480439358
 20
102.6604526784366
 10
106.2427813362511
 20
102.6709925172812
 10
106.2633765473947
 20
102.6835348178469
 10
106.2826044862878
 20
102.6979503890551
 10
106.3003467277748
 20
102.7140992739037
 10
106.3164633148537
 20
102.7318738131604
 10
106.3308465882922
 20
102.7511232839
 10
106.3433565910883
 20
102.7717507928133
 10
106.3538748980864
 20
102.7936056169751
 10
106.3622723182076
 20
102.8165800971531
 10
106.3684304262966
 20
102.8405342763451
 10
106.3722092653512
 20
102.8653497293959
 10
106.373501176139
 20
102.8908864993031
 10
106.373501176139
 20
102.8908864993031
 10
106.3722092653512
 20
102.9164340351336
 10
106.3684304262966
 20
102.9412387222611
 10
106.3622723182076
 20
102.9651929014532
 10
106.3538641321631
 20
102.9881673816312
 10
106.3433565910883
 20
103.0100114398697
 10
106.330835822369
 20
103.030638948783
 10
106.3164633148537
 20
103.0498884195226
 10
106.3003467277748
 20
103.0676737247025
 10
106.2826044862878
 20
103.0838226095511
 10
106.2633765473947
 20
103.0982381807593
 10
106.2427813362511
 20
103.1107697154018
 10
106.2209480439358
 20
103.1213203201696
 10
106.1980058615275
 20
103.1297392721374
 10
106.1740624482587
 20
103.1359081461495
 10
106.1492685270544
 20
103.1397085170506
 10
106.1237317571471
 20
103.1410004278384
 10
106.1237317571471
 20
103.1410004278384
 10
106.0981949872399
 20
103.1397085170506
 10
106.0734010660356
 20
103.1358973802263
 10
106.0494576527668
 20
103.1297392721374
 10
106.0265154703585
 20
103.1213203201696
 10
106.0046821780432
 20
103.1107697154018
 10
105.9840869668996
 20
103.0982274148361
 10
105.9648590280065
 20
103.0838226095511
 10
105.9471275524427
 20
103.0676737247025
 10
105.9310001994406
 20
103.0498991854458
 10
105.9166169260021
 20
103.030638948783
 10
105.904106923206
 20
103.0100114398697
 10
105.8935886162079
 20
102.988156615708
 10
105.8851911960867
 20
102.9651929014532
 10
105.8790330879977
 20
102.9412387222611
 10
105.8752542489431
 20
102.9164232692104
 10
105.8739623381553
 20
102.8908864993031
 10
105.8739623381553
 20
102.8908864993031
 10
105.8752542489431
 20
102.8653497293959
 10
105.8790438539209
 20
102.8405342763451
 10
105.8852019620099
 20
102.8165800971531
 10
105.8935886162079
 20
102.7936163828983
 10
105.904106923206
 20
102.7717507928133
 10
105.9166169260021
 20
102.7511232839
 10
105.9310001994406
 20
102.7318630472372
 10
105.9471275524427
 20
102.7140992739037
 10
105.9648590280065
 20
102.6979503890551
 10
105.9840869668996
 20
102.6835348178469
 10
106.0046821780432
 20
102.6709925172812
 10
106.0265154703585
 20
102.6604419125134
 10
106.0494576527668
 20
102.6520229605457
 10
106.0734010660356
 20
102.6458540865335
 10
106.0981949872399
 20
102.6420537156325
 97
        0
 75
     1
 76
     1
 98
        0
  0
LWPOLYLINE
  5
90
330
1F
100
AcDbEntity
  8
ISS138金台
  6
Continuous
 62
   250
420
  2367521
370
    13
100
AcDbPolyline
 90
       68
 70
     0
 43
0.0
 10
106.1237317571471
 20
102.6407618048446
 10
106.1492685270544
 20
102.6420644815557
 10
106.1740624482587
 20
102.6458433206103
 10
106.1980058615275
 20
102.6520121946224
 10
106.2209480439358
 20
102.6604526784366
 10
106.2427813362511
 20
102.6709925172812
 10
106.2633765473947
 20
102.6835348178469
 10
106.2826044862878
 20
102.6979503890551
 10
106.3003467277748
 20
102.7140992739037
 10
106.3164633148537
 20
102.7318738131604
 10
106.3308465882922
 20
102.7511232839
 10
106.3433565910883
 20
102.7717507928133
 10
106.3538748980864
 20
102.7936056169751
 10
106.3622723182076
 20
102.8165800971531
 10
106.3684304262966
 20
102.8405342763451
 10
106.3722092653512
 20
102.8653497293959
 10
106.373501176139
 20
102.8908864993031
 10
106.373501176139
 20
102.8908864993031
 10
106.3722092653512
 20
102.9164340351336
 10
106.3684304262966
 20
102.9412387222611
 10
106.3622723182076
 20
102.9651929014532
 10
106.3538641321631
 20
102.9881673816312
 10
106.3433565910883
 20
103.0100114398697
 10
106.330835822369
 20
103.030638948783
 10
106.3164633148537
 20
103.0498884195226
 10
106.3003467277748
 20
103.0676737247025
 10
106.2826044862878
 20
103.0838226095511
 10
106.2633765473947
 20
103.0982381807593
 10
106.2427813362511
 20
103.1107697154018
 10
106.2209480439358
 20
103.1213203201696
 10
106.1980058615275
 20
103.1297392721374
 10
106.1740624482587
 20
103.1359081461495
 10
106.1492685270544
 20
103.1397085170506
 10
106.1237317571471
 20
103.1410004278384
 10
106.1237317571471
 20
103.1410004278384
 10
106.0981949872399
 20
103.1397085170506
 10
106.0734010660356
 20
103.1358973802263
 10
106.0494576527668
 20
103.1297392721374
 10
106.0265154703585
 20
103.1213203201696
 10
106.0046821780432
 20
103.1107697154018
 10
105.9840869668996
 20
103.0982274148361
 10
105.9648590280065
 20
103.0838226095511
 10
105.9471275524427
 20
103.0676737247025
 10
105.9310001994406
 20
103.0498991854458
 10
105.9166169260021
 20
103.030638948783
 10
105.904106923206
 20
103.0100114398697
 10
105.8935886162079
 20
102.988156615708
 10
105.8851911960867
 20
102.9651929014532
 10
105.8790330879977
 20
102.9412387222611
 10
105.8752542489431
 20
102.9164232692104
 10
105.8739623381553
 20
102.8908864993031
 10
105.8739623381553
 20
102.8908864993031
 10
105.8752542489431
 20
102.8653497293959
 10
105.8790438539209
 20
102.8405342763451
 10
105.8852019620099
 20
102.8165800971531
 10
105.8935886162079
 20
102.7936163828983
 10
105.904106923206
 20
102.7717507928133
 10
105.9166169260021
 20
102.7511232839
 10
105.9310001994406
 20
102.7318630472372
 10
105.9471275524427
 20
102.7140992739037
 10
105.9648590280065
 20
102.6979503890551
 10
105.9840869668996
 20
102.6835348178469
 10
106.0046821780432
 20
102.6709925172812
 10
106.0265154703585
 20
102.6604419125134
 10
106.0494576527668
 20
102.6520229605457
 10
106.0734010660356
 20
102.6458540865335
 10
106.0981949872399
 20
102.6420537156325
 10
106.1237317571471
 20
102.6407618048446
  0
HATCH
  5
91
330
1F
100
AcDbEntity
  8
ISS138金台
  6
Continuous
 62
   250
420
  2367521
370
    13
100
AcDbHatch
 10
0.0
 20
0.0
 30
0.0
210
0.0
220
0.0
230
1.0
  2
SOLID
 70
     1
 71
     0
 91
        1
 92
        3
 72
     0
 73
     1
 93
       67
 10
106.1237317571471
 20
105.5373872801404
 10
106.1492685270544
 20
105.5386791909283
 10
106.1740624482587
 20
105.5424472640597
 10
106.1980058615275
 20
105.5485946062254
 10
106.2209480439358
 20
105.556959728577
 10
106.2427813362511
 20
105.5674457378053
 10
106.2633765473947
 20
105.5799342087549
 10
106.2826044862878
 20
105.5942851844237
 10
106.3003467277748
 20
105.6103694737329
 10
106.3164633148537
 20
105.6280794174503
 10
106.3308465882922
 20
105.6472642926504
 10
106.3433565910883
 20
105.6678379719475
 10
106.3538748980864
 20
105.6896389664932
 10
106.3622723182076
 20
105.712559617055
 10
106.3684304262966
 20
105.7364814984774
 10
106.3722092653512
 20
105.7612754196816
 10
106.373501176139
 20
105.7868014236657
 10
106.373501176139
 20
105.7868014236657
 10
106.3722092653512
 20
105.8124673846517
 10
106.3684304262966
 20
105.8373581991651
 10
106.3622723182076
 20
105.8613662079733
 10
106.3538641321631
 20
105.884372985921
 10
106.3433565910883
 20
105.9062493419293
 10
106.330835822369
 20
105.9268660849193
 10
106.3164633148537
 20
105.9461155556589
 10
106.3003467277748
 20
105.9638470312226
 10
106.2826044862878
 20
105.9799743842248
 10
106.2633765473947
 20
105.9943361258168
 10
106.2427813362511
 20
106.0068353626896
 10
106.2209480439358
 20
106.0173321378413
 10
106.1980058615275
 20
106.025708026116
 10
106.1740624482587
 20
106.0318553682818
 10
106.1492685270544
 20
106.0356342073363
 10
106.1237317571471
 20
106.036915352201
 10
106.1237317571471
 20
106.036915352201
 10
106.0981949872399
 20
106.0356342073363
 10
106.0734010660356
 20
106.0318553682818
 10
106.0494576527668
 20
106.0257187920393
 10
106.0265154703585
 20
106.0173321378413
 10
106.0046821780432
 20
106.0068245967664
 10
105.9840869668996
 20
105.9943361258168
 10
105.9648590280065
 20
105.9799636183016
 10
105.9471275524427
 20
105.9638577971459
 10
105.9310001994406
 20
105.9461047897356
 10
105.9166169260021
 20
105.9268660849193
 10
105.904106923206
 20
105.9062493419293
 10
105.8935886162079
 20
105.884372985921
 10
105.8851911960867
 20
105.8613662079733
 10
105.8790330879977
 20
105.8373581991651
 10
105.8752542489431
 20
105.8124566187285
 10
105.8739623381553
 20
105.7868014236657
 10
105.8739623381553
 20
105.7868014236657
 10
105.8752542489431
 20
105.7612646537584
 10
105.8790438539209
 20
105.7364814984774
 10
105.8852019620099
 20
105.712559617055
 10
105.8935886162079
 20
105.6896389664932
 10
105.904106923206
 20
105.6678272060243
 10
105.9166169260021
 20
105.6472642926504
 10
105.9310001994406
 20
105.6280794174503
 10
105.9471275524427
 20
105.6103694737329
 10
105.9648590280065
 20
105.5942851844237
 10
105.9840869668996
 20
105.5799342087549
 10
106.0046821780432
 20
105.5674457378053
 10
106.0265154703585
 20
105.556959728577
 10
106.0494576527668
 20
105.5485838403022
 10
106.0734010660356
 20
105.5424472640597
 10
106.0981949872399
 20
105.5386684250051
 97
        0
 75
     1
 76
     1
 98
        0
  0
LWPOLYLINE
  5
92
330
1F
100
AcDbEntity
  8
ISS138金台
  6
Continuous
 62
   250
420
  2367521
370
    13
100
AcDbPolyline
 90
       68
 70
     0
 43
0.0
 10
106.1237317571471
 20
105.5373872801404
 10
106.1492685270544
 20
105.5386791909283
 10
106.1740624482587
 20
105.5424472640597
 10
106.1980058615275
 20
105.5485946062254
 10
106.2209480439358
 20
105.556959728577
 10
106.2427813362511
 20
105.5674457378053
 10
106.2633765473947
 20
105.5799342087549
 10
106.2826044862878
 20
105.5942851844237
 10
106.3003467277748
 20
105.6103694737329
 10
106.3164633148537
 20
105.6280794174503
 10
106.3308465882922
 20
105.6472642926504
 10
106.3433565910883
 20
105.6678379719475
 10
106.3538748980864
 20
105.6896389664932
 10
106.3622723182076
 20
105.712559617055
 10
106.3684304262966
 20
105.7364814984774
 10
106.3722092653512
 20
105.7612754196816
 10
106.373501176139
 20
105.7868014236657
 10
106.373501176139
 20
105.7868014236657
 10
106.3722092653512
 20
105.8124673846517
 10
106.3684304262966
 20
105.8373581991651
 10
106.3622723182076
 20
105.8613662079733
 10
106.3538641321631
 20
105.884372985921
 10
106.3433565910883
 20
105.9062493419293
 10
106.330835822369
 20
105.9268660849193
 10
106.3164633148537
 20
105.9461155556589
 10
106.3003467277748
 20
105.9638470312226
 10
106.2826044862878
 20
105.9799743842248
 10
106.2633765473947
 20
105.9943361258168
 10
106.2427813362511
 20
106.0068353626896
 10
106.2209480439358
 20
106.0173321378413
 10
106.1980058615275
 20
106.025708026116
 10
106.1740624482587
 20
106.0318553682818
 10
106.1492685270544
 20
106.0356342073363
 10
106.1237317571471
 20
106.036915352201
 10
106.1237317571471
 20
106.036915352201
 10
106.0981949872399
 20
106.0356342073363
 10
106.0734010660356
 20
106.0318553682818
 10
106.0494576527668
 20
106.0257187920393
 10
106.0265154703585
 20
106.0173321378413
 10
106.0046821780432
 20
106.0068245967664
 10
105.9840869668996
 20
105.9943361258168
 10
105.9648590280065
 20
105.9799636183016
 10
105.9471275524427
 20
105.9638577971459
 10
105.9310001994406
 20
105.9461047897356
 10
105.9166169260021
 20
105.9268660849193
 10
105.904106923206
 20
105.9062493419293
 10
105.8935886162079
 20
105.884372985921
 10
105.8851911960867
 20
105.8613662079733
 10
105.8790330879977
 20
105.8373581991651
 10
105.8752542489431
 20
105.8124566187285
 10
105.8739623381553
 20
105.7868014236657
 10
105.8739623381553
 20
105.7868014236657
 10
105.8752542489431
 20
105.7612646537584
 10
105.8790438539209
 20
105.7364814984774
 10
105.8852019620099
 20
105.712559617055
 10
105.8935886162079
 20
105.6896389664932
 10
105.904106923206
 20
105.6678272060243
 10
105.9166169260021
 20
105.6472642926504
 10
105.9310001994406
 20
105.6280794174503
 10
105.9471275524427
 20
105.6103694737329
 10
105.9648590280065
 20
105.5942851844237
 10
105.9840869668996
 20
105.5799342087549
 10
106.0046821780432
 20
105.5674457378053
 10
106.0265154703585
 20
105.556959728577
 10
106.0494576527668
 20
105.5485838403022
 10
106.0734010660356
 20
105.5424472640597
 10
106.0981949872399
 20
105.5386684250051
 10
106.1237317571471
 20
105.5373872801404
  0
LINE
  5
93
330
1F
100
AcDbEntity
  8
ISS138金台
  6
UserDefined01
 62
   140
420
    44526
370
    13
100
AcDbLine
 10
128.3046449677244
 20
99.42925460684718
 30
0.0
 11
133.6404087764782
 21
99.42925460684718
 31
0.0
  0
HATCH
  5
94
330
1F
100
AcDbEntity
  8
ISS138金台
  6
Continuous
 62
   140
420
    44526
370
    13
100
AcDbHatch
 10
0.0
 20
0.0
 30
0.0
210
0.0
220
0.0
230
1.0
  2
SOLID
 70
     1
 71
     0
 91
        1
 92
        3
 72
     0
 73
     1
 93
        3
 10
127.34967527924
 20
114.2457487962181
 10
129.0814601585589
 20
114.2450382452848
 10
128.2164505246045
 20
112.7467985386465
 97
        0
 75
     1
 76
     1
 98
        0
  0
LWPOLYLINE
  5
95
330
1F
100
AcDbEntity
  8
ISS138金台
  6
Continuous
 62
   140
420
    44526
370
    13
100
AcDbPolyline
 90
        4
 70
     0
 43
0.0
 10
127.34967527924
 20
114.2457487962181
 10
129.0814601585589
 20
114.2450382452848
 10
128.2164505246045
 20
112.7467985386465
 10
127.34967527924
 20
114.2457487962181
  0
ENDSEC
  0
SECTION
  2
OBJECTS
  0
DICTIONARY
  5
C
330
0
100
AcDbDictionary
281
     1
  3
ACAD_DETAILVIEWSTYLE
350
9D
  3
ACAD_GROUP
350
D
  3
ACAD_LAYOUT
350
1A
  3
ACAD_MATERIAL
350
43
  3
ACAD_MLEADERSTYLE
350
5B
  3
ACAD_MLINESTYLE
350
17
  3
ACAD_PLOTSETTINGS
350
19
  3
ACAD_PLOTSTYLENAME
350
E
  3
ACAD_SCALELIST
350
47
  3
ACAD_SECTIONVIEWSTYLE
350
9E
  3
ACAD_TABLESTYLE
350
59
  3
ACAD_VISUALSTYLE
350
2A
  3
ACDB_RECOMPOSE_DATA
350
9A
  3
AcDbVariableDictionary
350
96
  0
SUN
  5
5D
330
29
100
AcDbSun
 90
        1
290
     0
 63
     7
421
 16777215
 40
1.0
291
     1
 91
  2455826
 92
 54000000
292
     0
 70
     2
 71
   256
280
     1
  0
DICTIONARY
  5
9D
102
{ACAD_REACTORS
330
C
102
}
330
C
100
AcDbDictionary
281
     1
  0
DICTIONARY
  5
D
102
{ACAD_REACTORS
330
C
102
}
330
C
100
AcDbDictionary
281
     1
  0
DICTIONARY
  5
1A
102
{ACAD_REACTORS
330
C
102
}
330
C
100
AcDbDictionary
281
     1
  3
Layout1
350
1E
  3
Layout2
350
26
  3
Model
350
22
  0
DICTIONARY
  5
43
102
{ACAD_REACTORS
330
C
102
}
330
C
100
AcDbDictionary
281
     1
  3
ByBlock
350
45
  3
ByLayer
350
44
  3
Global
350
46
  0
DICTIONARY
  5
5B
102
{ACAD_REACTORS
330
C
102
}
330
C
100
AcDbDictionary
281
     1
  3
Standard
350
5C
  0
DICTIONARY
  5
17
102
{ACAD_REACTORS
330
C
102
}
330
C
100
AcDbDictionary
281
     1
  3
Standard
350
18
  0
DICTIONARY
  5
19
102
{ACAD_REACTORS
330
C
102
}
330
C
100
AcDbDictionary
281
     1
  0
ACDBDICTIONARYWDFLT
  5
E
102
{ACAD_REACTORS
330
C
102
}
330
C
100
AcDbDictionary
281
     1
  3
Normal
350
F
100
AcDbDictionaryWithDefault
340
F
  0
DICTIONARY
  5
47
102
{ACAD_REACTORS
330
C
102
}
330
C
100
AcDbDictionary
281
     1
  3
A0
350
48
  3
A1
350
49
  3
A2
350
4A
  3
A3
350
4B
  3
A4
350
4C
  3
A5
350
4D
  3
A6
350
4E
  3
A7
350
4F
  3
A8
350
50
  3
A9
350
51
  3
B0
350
52
  3
B1
350
53
  3
B2
350
54
  3
B3
350
55
  3
B4
350
56
  3
B5
350
57
  3
B6
350
58
  0
DICTIONARY
  5
9E
102
{ACAD_REACTORS
330
C
102
}
330
C
100
AcDbDictionary
281
     1
  0
DICTIONARY
  5
59
102
{ACAD_REACTORS
330
C
102
}
330
C
100
AcDbDictionary
281
     1
  3
Standard
350
5A
  0
DICTIONARY
  5
2A
102
{ACAD_REACTORS
330
C
102
}
330
C
100
AcDbDictionary
281
     1
  3
2dWireframe
350
2F
  3
Basic
350
32
  3
Brighten
350
36
  3
ColorChange
350
3A
  3
Conceptual
350
34
  3
Dim
350
35
  3
EdgeColorOff
350
3D
  3
Facepattern
350
39
  3
Flat
350
2B
  3
FlatWithEdges
350
2C
  3
Gouraud
350
2D
  3
GouraudWithEdges
350
2E
  3
Hidden
350
31
  3
JitterOff
350
3B
  3
Linepattern
350
38
  3
OverhangOff
350
3C
  3
Realistic
350
33
  3
Shaded
350
42
  3
Shaded with edges
350
41
  3
Shades of Gray
350
3E
  3
Sketchy
350
3F
  3
Thicken
350
37
  3
Wireframe
350
30
  3
X-Ray
350
40
  0
XRECORD
  5
9A
102
{ACAD_REACTORS
330
C
102
}
330
C
100
AcDbXrecord
280
     1
 90
        1
330
5A
  0
DICTIONARY
  5
96
102
{ACAD_REACTORS
330
C
102
}
330
C
100
AcDbDictionary
281
     1
  3
CANNOSCALE
350
97
  3
CENTEREXE
350
9F
  3
CENTERLTYPEFILE
350
A0
  3
CMLEADERSTYLE
350
9C
  3
CTABLESTYLE
350
9B
  0
LAYOUT
  5
1E
102
{ACAD_REACTORS
330
1A
102
}
330
1A
100
AcDbPlotSettings
  1

  2
none_device
  4

  6

 40
0.0
 41
0.0
 42
0.0
 43
0.0
 44
0.0
 45
0.0
 46
0.0
 47
0.0
 48
0.0
 49
0.0
140
0.0
141
0.0
142
1.0
143
1.0
 70
   688
 72
     1
 73
     0
 74
     5
  7

 75
    16
 76
     0
 77
     5
 78
   300
147
1.0
148
0.0
149
0.0
100
AcDbLayout
  1
Layout1
 70
     1
 71
     1
 10
0.0
 20
0.0
 11
420.0
 21
297.0
 12
0.0
 22
0.0
 32
0.0
 14
1.000000000000000E+20
 24
1.000000000000000E+20
 34
1.000000000000000E+20
 15
-1.000000000000000E+20
 25
-1.000000000000000E+20
 35
-1.000000000000000E+20
146
0.0
 13
0.0
 23
0.0
 33
0.0
 16
1.0
 26
0.0
 36
0.0
 17
0.0
 27
1.0
 37
0.0
 76
     0
330
1B
  0
LAYOUT
  5
26
102
{ACAD_REACTORS
330
1A
102
}
330
1A
100
AcDbPlotSettings
  1

  2
none_device
  4

  6

 40
0.0
 41
0.0
 42
0.0
 43
0.0
 44
0.0
 45
0.0
 46
0.0
 47
0.0
 48
0.0
 49
0.0
140
0.0
141
0.0
142
1.0
143
1.0
 70
   688
 72
     1
 73
     0
 74
     5
  7

 75
    16
 76
     0
 77
     5
 78
   300
147
1.0
148
0.0
149
0.0
100
AcDbLayout
  1
Layout2
 70
     1
 71
     2
 10
0.0
 20
0.0
 11
0.0
 21
0.0
 12
0.0
 22
0.0
 32
0.0
 14
0.0
 24
0.0
 34
0.0
 15
0.0
 25
0.0
 35
0.0
146
0.0
 13
0.0
 23
0.0
 33
0.0
 16
1.0
 26
0.0
 36
0.0
 17
0.0
 27
1.0
 37
0.0
 76
     0
330
23
  0
LAYOUT
  5
22
102
{ACAD_REACTORS
330
1A
102
}
330
1A
100
AcDbPlotSettings
  1

  2
none_device
  4
Letter_(8.50_x_11.00_Inches)
  6

 40
6.35
 41
6.35
 42
6.35000508
 43
6.35000508
 44
215.9
 45
279.4
 46
0.0
 47
0.0
 48
0.0
 49
0.0
140
0.0
141
0.0
142
1.0
143
1.0
 70
  1712
 72
     1
 73
     0
 74
     0
  7

 75
     0
 76
     0
 77
     5
 78
   300
147
1.0
148
0.0
149
0.0
100
AcDbLayout
  1
Model
 70
     1
 71
     0
 10
0.0
 20
0.0
 11
302.9997823349792
 21
216.0016055409748
 12
0.0
 22
0.0
 32
0.0
 14
0.0
 24
0.0
 34
0.0
 15
302.9997823349792
 25
216.0016055409748
 35
0.0
146
0.0
 13
0.0
 23
0.0
 33
0.0
 16
1.0
 26
0.0
 36
0.0
 17
0.0
 27
1.0
 37
0.0
 76
     0
330
1F
331
29
  0
MATERIAL
  5
45
102
{ACAD_REACTORS
330
43
102
}
330
43
100
AcDbMaterial
  1
ByBlock
 72
     1
 94
      127
  0
MATERIAL
  5
44
102
{ACAD_REACTORS
330
43
102
}
330
43
100
AcDbMaterial
  1
ByLayer
 72
     1
 94
      127
  0
MATERIAL
  5
46
102
{ACAD_REACTORS
330
43
102
}
330
43
100
AcDbMaterial
  1
Global
 72
     1
 94
      127
  0
MLEADERSTYLE
  5
5C
102
{ACAD_REACTORS
330
5B
102
}
330
5B
100
AcDbMLeaderStyle
179
     2
170
     2
171
     1
172
     0
 90
        2
 40
0.0
 41
0.0
173
     1
 91
-1056964608
340
14
 92
       -2
290
     1
 42
2.0
291
     1
 43
8.0
  3
Standard
341
0
 44
4.0
300

342
11
174
     1
178
     6
175
     1
176
     0
 93
-1056964608
 45
4.0
292
     0
297
     0
 46
4.0
343
0
 94
-1056964608
 47
1.0
 49
1.0
140
1.0
293
     1
141
0.0
294
     1
177
     0
142
1.0
295
     0
296
     0
143
3.75
271
     0
272
     9
273
     9
298
     0
  0
MLINESTYLE
  5
18
102
{ACAD_REACTORS
330
17
102
}
330
17
100
AcDbMlineStyle
  2
Standard
 70
     0
  3

 62
   256
 51
90.0
 52
90.0
 71
     2
 49
0.5
 62
   256
  6
BYLAYER
 49
-0.5
 62
   256
  6
BYLAYER
  0
ACDBPLACEHOLDER
  5
F
102
{ACAD_REACTORS
330
E
102
}
330
E
  0
SCALE
  5
48
102
{ACAD_REACTORS
330
47
102
}
330
47
100
AcDbScale
 70
     0
300
1:1
140
1.0
141
1.0
290
     1
  0
SCALE
  5
49
102
{ACAD_REACTORS
330
47
102
}
330
47
100
AcDbScale
 70
     0
300
1:2
140
1.0
141
2.0
290
     0
  0
SCALE
  5
4A
102
{ACAD_REACTORS
330
47
102
}
330
47
100
AcDbScale
 70
     0
300
1:4
140
1.0
141
4.0
290
     0
  0
SCALE
  5
4B
102
{ACAD_REACTORS
330
47
102
}
330
47
100
AcDbScale
 70
     0
300
1:5
140
1.0
141
5.0
290
     0
  0
SCALE
  5
4C
102
{ACAD_REACTORS
330
47
102
}
330
47
100
AcDbScale
 70
     0
300
1:8
140
1.0
141
8.0
290
     0
  0
SCALE
  5
4D
102
{ACAD_REACTORS
330
47
102
}
330
47
100
AcDbScale
 70
     0
300
1:10
140
1.0
141
10.0
290
     0
  0
SCALE
  5
4E
102
{ACAD_REACTORS
330
47
102
}
330
47
100
AcDbScale
 70
     0
300
1:16
140
1.0
141
16.0
290
     0
  0
SCALE
  5
4F
102
{ACAD_REACTORS
330
47
102
}
330
47
100
AcDbScale
 70
     0
300
1:20
140
1.0
141
20.0
290
     0
  0
SCALE
  5
50
102
{ACAD_REACTORS
330
47
102
}
330
47
100
AcDbScale
 70
     0
300
1:30
140
1.0
141
30.0
290
     0
  0
SCALE
  5
51
102
{ACAD_REACTORS
330
47
102
}
330
47
100
AcDbScale
 70
     0
300
1:40
140
1.0
141
40.0
290
     0
  0
SCALE
  5
52
102
{ACAD_REACTORS
330
47
102
}
330
47
100
AcDbScale
 70
     0
300
1:50
140
1.0
141
50.0
290
     0
  0
SCALE
  5
53
102
{ACAD_REACTORS
330
47
102
}
330
47
100
AcDbScale
 70
     0
300
1:100
140
1.0
141
100.0
290
     0
  0
SCALE
  5
54
102
{ACAD_REACTORS
330
47
102
}
330
47
100
AcDbScale
 70
     0
300
2:1
140
2.0
141
1.0
290
     0
  0
SCALE
  5
55
102
{ACAD_REACTORS
330
47
102
}
330
47
100
AcDbScale
 70
     0
300
4:1
140
4.0
141
1.0
290
     0
  0
SCALE
  5
56
102
{ACAD_REACTORS
330
47
102
}
330
47
100
AcDbScale
 70
     0
300
8:1
140
8.0
141
1.0
290
     0
  0
SCALE
  5
57
102
{ACAD_REACTORS
330
47
102
}
330
47
100
AcDbScale
 70
     0
300
10:1
140
10.0
141
1.0
290
     0
  0
SCALE
  5
58
102
{ACAD_REACTORS
330
47
102
}
330
47
100
AcDbScale
 70
     0
300
100:1
140
100.0
141
1.0
290
     0
  0
TABLESTYLE
  5
5A
102
{ACAD_REACTORS
330
59
102
}
102
{ACAD_XDICTIONARY
360
98
102
}
330
59
100
AcDbTableStyle
  3
Standard
 70
     0
 71
     0
 40
0.06
 41
0.06
280
     0
281
     0
  7
Standard
140
4.5
170
     2
 62
     0
 63
   257
283
     0
 90
        4
 91
        0
  1

274
    -2
284
     1
 64
     0
275
    -2
285
     1
 65
     0
276
    -2
286
     1
 66
     0
277
    -2
287
     1
 67
     0
278
    -2
288
     1
 68
     0
279
    -2
289
     1
 69
     0
  7
Standard
140
6.0
170
     5
 62
     0
 63
   257
283
     0
 90
        4
 91
        0
  1

274
    -2
284
     1
 64
     0
275
    -2
285
     1
 65
     0
276
    -2
286
     1
 66
     0
277
    -2
287
     1
 67
     0
278
    -2
288
     1
 68
     0
279
    -2
289
     1
 69
     0
  7
Standard
140
4.5
170
     5
 62
     0
 63
   257
283
     0
 90
        4
 91
        0
  1

274
    -2
284
     1
 64
     0
275
    -2
285
     1
 65
     0
276
    -2
286
     1
 66
     0
277
    -2
287
     1
 67
     0
278
    -2
288
     1
 68
     0
279
    -2
289
     1
 69
     0
  0
VISUALSTYLE
  5
2F
102
{ACAD_REACTORS
330
2A
102
}
330
2A
100
AcDbVisualStyle
  2
2dWireframe
 70
     4
177
     3
291
     0
 70
    58
 90
        0
176
     1
 90
        2
176
     1
 90
        0
176
     1
 90
        0
176
     1
 40
0.6
176
     1
 40
30.0
176
     1
 62
     7
420
 16777215
176
     1
 90
        1
176
     1
 90
        4
176
     1
 62
     7
176
     1
 62
   257
176
     1
 90
        1
176
     1
 90
        1
176
     1
 40
1.0
176
     1
 90
        0
176
     1
 62
   257
176
     1
 40
1.0
176
     1
 90
        1
176
     1
 90
        6
176
     1
 90
        2
176
     1
 62
     7
176
     1
 90
        5
176
     1
 90
        0
176
     1
 90
        0
176
     1
290
     0
176
     1
 90
        1
176
     1
 40
0.0
176
     1
 90
        0
176
     1
290
     1
176
     1
290
     1
176
     1
290
     0
176
     1
290
     0
176
     1
290
     0
176
     1
290
     0
176
     1
290
     0
176
     1
290
     0
176
     1
290
     0
176
     1
 90
       50
176
     1
 40
0.0
176
     1
 40
1.0
176
     1
 90
        0
176
     1
 62
    18
420
        0
176
     1
 90
       50
176
     1
 90
        3
176
     1
 62
     5
420
      255
176
     1
290
     0
176
     1
 90
       50
176
     1
 90
       50
176
     1
 90
       50
176
     1
290
     0
176
     1
 90
       50
176
     1
 62
   256
176
     0
 40
1.0
176
     0
 90
        2
176
     1
  1
strokes_ogs.tif
176
     1
290
     0
176
     1
 40
1.0
176
     1
 40
1.0
176
     1
  0
VISUALSTYLE
  5
32
102
{ACAD_REACTORS
330
2A
102
}
330
2A
100
AcDbVisualStyle
  2
Basic
 70
     7
177
     3
291
     1
 70
    58
 90
        1
176
     1
 90
        0
176
     1
 90
        1
176
     1
 90
        0
176
     1
 40
0.6
176
     1
 40
30.0
176
     1
 62
     7
420
 16777215
176
     1
 90
        0
176
     1
 90
        4
176
     1
 62
     7
176
     1
 62
   257
176
     1
 90
        1
176
     1
 90
        1
176
     1
 40
1.0
176
     1
 90
        8
176
     1
 62
     7
176
     1
 40
1.0
176
     1
 90
        1
176
     1
 90
        6
176
     1
 90
        2
176
     1
 62
     7
176
     1
 90
        5
176
     1
 90
        0
176
     1
 90
        0
176
     1
290
     0
176
     1
 90
        1
176
     1
 40
0.0
176
     1
 90
        0
176
     1
290
     0
176
     1
290
     1
176
     1
290
     1
176
     1
290
     0
176
     1
290
     0
176
     1
290
     0
176
     1
290
     0
176
     1
290
     0
176
     1
290
     0
176
     1
 90
       50
176
     1
 40
0.0
176
     1
 40
1.0
176
     1
 90
        0
176
     1
 62
    18
420
        0
176
     1
 90
       50
176
     1
 90
        3
176
     1
 62
     5
420
      255
176
     1
290
     0
176
     1
 90
       50
176
     1
 90
       50
176
     1
 90
       50
176
     1
290
     0
176
     1
 90
       50
176
     1
 62
   256
176
     0
 40
1.0
176
     0
 90
        2
176
     1
  1
strokes_ogs.tif
176
     1
290
     0
176
     1
 40
1.0
176
     1
 40
1.0
176
     1
  0
VISUALSTYLE
  5
36
102
{ACAD_REACTORS
330
2A
102
}
330
2A
100
AcDbVisualStyle
  2
Brighten
 70
    12
177
     3
291
     1
 70
    58
 90
        2
176
     1
 90
        2
176
     1
 90
        0
176
     1
 90
        0
176
     1
 40
0.6
176
     1
 40
30.0
176
     1
 62
     7
420
 16777215
176
     1
 90
        1
176
     1
 90
        4
176
     1
 62
     7
176
     1
 62
   257
176
     1
 90
        1
176
     1
 90
        1
176
     1
 40
1.0
176
     1
 90
        8
176
     1
 62
     7
176
     1
 40
1.0
176
     1
 90
        1
176
     1
 90
        6
176
     1
 90
        2
176
     1
 62
     7
176
     1
 90
        5
176
     1
 90
        0
176
     1
 90
        0
176
     1
290
     0
176
     1
 90
        1
176
     1
 40
50.0
176
     1
 90
        0
176
     1
290
     0
176
     1
290
     1
176
     1
290
     1
176
     1
290
     0
176
     1
290
     0
176
     1
290
     0
176
     1
290
     0
176
     1
290
     0
176
     1
290
     0
176
     1
 90
       50
176
     1
 40
0.0
176
     1
 40
1.0
176
     1
 90
        0
176
     1
 62
    18
420
        0
176
     1
 90
       50
176
     1
 90
        3
176
     1
 62
     5
420
      255
176
     1
290
     0
176
     1
 90
       50
176
     1
 90
       50
176
     1
 90
       50
176
     1
290
     0
176
     1
 90
       50
176
     1
 62
   256
176
     0
 40
1.0
176
     0
 90
        2
176
     1
  1
strokes_ogs.tif
176
     1
290
     0
176
     1
 40
1.0
176
     1
 40
1.0
176
     1
  0
VISUALSTYLE
  5
3A
102
{ACAD_REACTORS
330
2A
102
}
330
2A
100
AcDbVisualStyle
  2
ColorChange
 70
    16
177
     3
291
     1
 70
    58
 90
        2
176
     1
 90
        2
176
     1
 90
        3
176
     1
 90
        0
176
     1
 40
0.6
176
     1
 40
30.0
176
     1
 62
     8
420
  8421504
176
     1
 90
        1
176
     1
 90
        4
176
     1
 62
     7
176
     1
 62
   257
176
     1
 90
        1
176
     1
 90
        1
176
     1
 40
1.0
176
     1
 90
        8
176
     1
 62
     8
420
  8421504
176
     1
 40
1.0
176
     1
 90
        1
176
     1
 90
        6
176
     1
 90
        2
176
     1
 62
     7
176
     1
 90
        5
176
     1
 90
        0
176
     1
 90
        0
176
     1
290
     0
176
     1
 90
        1
176
     1
 40
0.0
176
     1
 90
        0
176
     1
290
     0
176
     1
290
     1
176
     1
290
     1
176
     1
290
     0
176
     1
290
     0
176
     1
290
     0
176
     1
290
     0
176
     1
290
     0
176
     1
290
     0
176
     1
 90
       50
176
     1
 40
0.0
176
     1
 40
1.0
176
     1
 90
        0
176
     1
 62
    18
420
        0
176
     1
 90
       50
176
     1
 90
        3
176
     1
 62
     5
420
      255
176
     1
290
     0
176
     1
 90
       50
176
     1
 90
       50
176
     1
 90
       50
176
     1
290
     0
176
     1
 90
       50
176
     1
 62
   256
176
     0
 40
1.0
176
     0
 90
        2
176
     1
  1
strokes_ogs.tif
176
     1
290
     0
176
     1
 40
1.0
176
     1
 40
1.0
176
     1
  0
VISUALSTYLE
  5
34
102
{ACAD_REACTORS
330
2A
102
}
330
2A
100
AcDbVisualStyle
  2
Conceptual
 70
     9
177
     3
291
     0
 70
    58
 90
        3
176
     1
 90
        2
176
     1
 90
        0
176
     1
 90
        0
176
     1
 40
0.6
176
     1
 40
30.0
176
     1
 62
     7
420
 16777215
176
     1
 90
        2
176
     1
 90
        2
176
     1
 62
     7
176
     1
 62
   257
176
     1
 90
        1
176
     1
 90
        1
176
     1
 40
179.0
176
     1
 90
        8
176
     1
 62
     7
176
     1
 40
1.0
176
     1
 90
        1
176
     1
 90
        6
176
     1
 90
        2
176
     1
 62
     7
176
     1
 90
        3
176
     1
 90
        0
176
     1
 90
        0
176
     1
290
     0
176
     1
 90
        1
176
     1
 40
0.0
176
     1
 90
        0
176
     1
290
     0
176
     1
290
     1
176
     1
290
     1
176
     1
290
     0
176
     1
290
     0
176
     1
290
     0
176
     1
290
     0
176
     1
290
     0
176
     1
290
     0
176
     1
 90
       50
176
     1
 40
0.0
176
     1
 40
1.0
176
     1
 90
        0
176
     1
 62
    18
420
        0
176
     1
 90
       50
176
     1
 90
        3
176
     1
 62
     5
420
      255
176
     1
290
     0
176
     1
 90
       50
176
     1
 90
       50
176
     1
 90
       50
176
     1
290
     0
176
     1
 90
       50
176
     1
 62
   256
176
     0
 40
1.0
176
     0
 90
        2
176
     1
  1
strokes_ogs.tif
176
     1
290
     0
176
     1
 40
1.0
176
     1
 40
1.0
176
     1
  0
VISUALSTYLE
  5
35
102
{ACAD_REACTORS
330
2A
102
}
330
2A
100
AcDbVisualStyle
  2
Dim
 70
    11
177
     3
291
     1
 70
    58
 90
        2
176
     1
 90
        2
176
     1
 90
        0
176
     1
 90
        0
176
     1
 40
0.6
176
     1
 40
30.0
176
     1
 62
     7
420
 16777215
176
     1
 90
        1
176
     1
 90
        4
176
     1
 62
     7
176
     1
 62
   257
176
     1
 90
        1
176
     1
 90
        1
176
     1
 40
1.0
176
     1
 90
        8
176
     1
 62
     7
176
     1
 40
1.0
176
     1
 90
        1
176
     1
 90
        6
176
     1
 90
        2
176
     1
 62
     7
176
     1
 90
        5
176
     1
 90
        0
176
     1
 90
        0
176
     1
290
     0
176
     1
 90
        1
176
     1
 40
-50.0
176
     1
 90
        0
176
     1
290
     0
176
     1
290
     1
176
     1
290
     1
176
     1
290
     0
176
     1
290
     0
176
     1
290
     0
176
     1
290
     0
176
     1
290
     0
176
     1
290
     0
176
     1
 90
       50
176
     1
 40
0.0
176
     1
 40
1.0
176
     1
 90
        0
176
     1
 62
    18
420
        0
176
     1
 90
       50
176
     1
 90
        3
176
     1
 62
     5
420
      255
176
     1
290
     0
176
     1
 90
       50
176
     1
 90
       50
176
     1
 90
       50
176
     1
290
     0
176
     1
 90
       50
176
     1
 62
   256
176
     0
 40
1.0
176
     0
 90
        2
176
     1
  1
strokes_ogs.tif
176
     1
290
     0
176
     1
 40
1.0
176
     1
 40
1.0
176
     1
  0
VISUALSTYLE
  5
3D
102
{ACAD_REACTORS
330
2A
102
}
330
2A
100
AcDbVisualStyle
  2
EdgeColorOff
 70
    22
177
     3
291
     1
 70
    58
 90
        2
176
     0
 90
        2
176
     0
 90
        0
176
     0
 90
        0
176
     0
 40
0.6
176
     0
 40
30.0
176
     0
 62
     7
420
 16777215
176
     0
 90
        1
176
     0
 90
        4
176
     0
 62
     7
176
     0
 62
   257
176
     0
 90
        1
176
     0
 90
        1
176
     0
 40
1.0
176
     0
 90
        8
176
     2
 62
     7
176
     0
 40
1.0
176
     0
 90
        1
176
     0
 90
        6
176
     0
 90
        2
176
     0
 62
     7
176
     0
 90
        5
176
     0
 90
        0
176
     0
 90
        0
176
     0
290
     0
176
     0
 90
        1
176
     0
 40
0.0
176
     0
 90
        0
176
     0
290
     0
176
     0
290
     1
176
     0
290
     1
176
     0
290
     0
176
     0
290
     0
176
     0
290
     0
176
     0
290
     0
176
     0
290
     0
176
     0
290
     0
176
     0
 90
       50
176
     0
 40
0.0
176
     0
 40
1.0
176
     0
 90
        0
176
     0
 62
    18
420
        0
176
     0
 90
       50
176
     0
 90
        3
176
     0
 62
     5
420
      255
176
     0
290
     0
176
     0
 90
       50
176
     0
 90
       50
176
     0
 90
       50
176
     0
290
     0
176
     0
 90
       50
176
     0
 62
   256
176
     0
 40
1.0
176
     0
 90
        2
176
     0
  1
strokes_ogs.tif
176
     0
290
     0
176
     0
 40
1.0
176
     0
 40
1.0
176
     0
  0
VISUALSTYLE
  5
39
102
{ACAD_REACTORS
330
2A
102
}
330
2A
100
AcDbVisualStyle
  2
Facepattern
 70
    15
177
     3
291
     1
 70
    58
 90
        2
176
     1
 90
        2
176
     1
 90
        0
176
     1
 90
        0
176
     1
 40
0.6
176
     1
 40
30.0
176
     1
 62
     7
420
 16777215
176
     1
 90
        1
176
     1
 90
        4
176
     1
 62
     7
176
     1
 62
   257
176
     1
 90
        1
176
     1
 90
        1
176
     1
 40
1.0
176
     1
 90
        8
176
     1
 62
     7
176
     1
 40
1.0
176
     1
 90
        1
176
     1
 90
        6
176
     1
 90
        2
176
     1
 62
     7
176
     1
 90
        5
176
     1
 90
        0
176
     1
 90
        0
176
     1
290
     0
176
     1
 90
        1
176
     1
 40
0.0
176
     1
 90
        0
176
     1
290
     0
176
     1
290
     1
176
     1
290
     1
176
     1
290
     0
176
     1
290
     0
176
     1
290
     0
176
     1
290
     0
176
     1
290
     0
176
     1
290
     0
176
     1
 90
       50
176
     1
 40
0.0
176
     1
 40
1.0
176
     1
 90
        0
176
     1
 62
    18
420
        0
176
     1
 90
       50
176
     1
 90
        3
176
     1
 62
     5
420
      255
176
     1
290
     0
176
     1
 90
       50
176
     1
 90
       50
176
     1
 90
       50
176
     1
290
     0
176
     1
 90
       50
176
     1
 62
   256
176
     0
 40
1.0
176
     0
 90
        2
176
     1
  1
strokes_ogs.tif
176
     1
290
     0
176
     1
 40
1.0
176
     1
 40
1.0
176
     1
  0
VISUALSTYLE
  5
2B
102
{ACAD_REACTORS
330
2A
102
}
330
2A
100
AcDbVisualStyle
  2
Flat
 70
     0
177
     3
291
     1
 70
    58
 90
        2
176
     1
 90
        1
176
     1
 90
        1
176
     1
 90
        2
176
     1
 40
0.6
176
     1
 40
30.0
176
     1
 62
     7
420
 16777215
176
     1
 90
        0
176
     1
 90
        0
176
     1
 62
     7
176
     1
 62
   257
176
     1
 90
        1
176
     1
 90
        1
176
     1
 40
1.0
176
     1
 90
        8
176
     1
 62
     7
176
     1
 40
1.0
176
     1
 90
        1
176
     1
 90
        6
176
     1
 90
        2
176
     1
 62
     7
176
     1
 90
        5
176
     1
 90
        0
176
     1
 90
        0
176
     1
290
     0
176
     1
 90
       13
176
     1
 40
0.0
176
     1
 90
        0
176
     1
290
     0
176
     1
290
     1
176
     1
290
     1
176
     1
290
     0
176
     1
290
     0
176
     1
290
     0
176
     1
290
     0
176
     1
290
     0
176
     1
290
     0
176
     1
 90
       50
176
     1
 40
0.0
176
     1
 40
1.0
176
     1
 90
        0
176
     1
 62
    18
420
        0
176
     1
 90
       50
176
     1
 90
        3
176
     1
 62
     5
420
      255
176
     1
290
     0
176
     1
 90
       50
176
     1
 90
       50
176
     1
 90
       50
176
     1
290
     0
176
     1
 90
       50
176
     1
 62
   256
176
     0
 40
1.0
176
     0
 90
        2
176
     1
  1
strokes_ogs.tif
176
     1
290
     0
176
     1
 40
1.0
176
     1
 40
1.0
176
     1
  0
VISUALSTYLE
  5
2C
102
{ACAD_REACTORS
330
2A
102
}
330
2A
100
AcDbVisualStyle
  2
FlatWithEdges
 70
     1
177
     3
291
     1
 70
    58
 90
        2
176
     1
 90
        1
176
     1
 90
        1
176
     1
 90
        2
176
     1
 40
0.6
176
     1
 40
30.0
176
     1
 62
     7
420
 16777215
176
     1
 90
        1
176
     1
 90
        0
176
     1
 62
     7
176
     1
 62
   257
176
     1
 90
        1
176
     1
 90
        1
176
     1
 40
1.0
176
     1
 90
        0
176
     1
 62
   257
176
     1
 40
1.0
176
     1
 90
        1
176
     1
 90
        6
176
     1
 90
        2
176
     1
 62
     7
176
     1
 90
        5
176
     1
 90
        0
176
     1
 90
        0
176
     1
290
     0
176
     1
 90
       13
176
     1
 40
0.0
176
     1
 90
        0
176
     1
290
     0
176
     1
290
     1
176
     1
290
     1
176
     1
290
     0
176
     1
290
     0
176
     1
290
     0
176
     1
290
     0
176
     1
290
     0
176
     1
290
     0
176
     1
 90
       50
176
     1
 40
0.0
176
     1
 40
1.0
176
     1
 90
        0
176
     1
 62
    18
420
        0
176
     1
 90
       50
176
     1
 90
        3
176
     1
 62
     5
420
      255
176
     1
290
     0
176
     1
 90
       50
176
     1
 90
       50
176
     1
 90
       50
176
     1
290
     0
176
     1
 90
       50
176
     1
 62
   256
176
     0
 40
1.0
176
     0
 90
        2
176
     1
  1
strokes_ogs.tif
176
     1
290
     0
176
     1
 40
1.0
176
     1
 40
1.0
176
     1
  0
VISUALSTYLE
  5
2D
102
{ACAD_REACTORS
330
2A
102
}
330
2A
100
AcDbVisualStyle
  2
Gouraud
 70
     2
177
     3
291
     1
 70
    58
 90
        2
176
     1
 90
        2
176
     1
 90
        1
176
     1
 90
        2
176
     1
 40
0.6
176
     1
 40
30.0
176
     1
 62
     7
420
 16777215
176
     1
 90
        0
176
     1
 90
        0
176
     1
 62
     7
176
     1
 62
   257
176
     1
 90
        1
176
     1
 90
        1
176
     1
 40
1.0
176
     1
 90
        0
176
     1
 62
     7
176
     1
 40
1.0
176
     1
 90
        1
176
     1
 90
        6
176
     1
 90
        2
176
     1
 62
     7
176
     1
 90
        5
176
     1
 90
        0
176
     1
 90
        0
176
     1
290
     0
176
     1
 90
       13
176
     1
 40
0.0
176
     1
 90
        0
176
     1
290
     0
176
     1
290
     1
176
     1
290
     1
176
     1
290
     0
176
     1
290
     0
176
     1
290
     0
176
     1
290
     0
176
     1
290
     0
176
     1
290
     0
176
     1
 90
       50
176
     1
 40
0.0
176
     1
 40
1.0
176
     1
 90
        0
176
     1
 62
    18
420
        0
176
     1
 90
       50
176
     1
 90
        3
176
     1
 62
     5
420
      255
176
     1
290
     0
176
     1
 90
       50
176
     1
 90
       50
176
     1
 90
       50
176
     1
290
     0
176
     1
 90
       50
176
     1
 62
   256
176
     0
 40
1.0
176
     0
 90
        2
176
     1
  1
strokes_ogs.tif
176
     1
290
     0
176
     1
 40
1.0
176
     1
 40
1.0
176
     1
  0
VISUALSTYLE
  5
2E
102
{ACAD_REACTORS
330
2A
102
}
330
2A
100
AcDbVisualStyle
  2
GouraudWithEdges
 70
     3
177
     3
291
     1
 70
    58
 90
        2
176
     1
 90
        2
176
     1
 90
        1
176
     1
 90
        2
176
     1
 40
0.6
176
     1
 40
30.0
176
     1
 62
     7
420
 16777215
176
     1
 90
        1
176
     1
 90
        0
176
     1
 62
     7
176
     1
 62
   257
176
     1
 90
        1
176
     1
 90
        1
176
     1
 40
1.0
176
     1
 90
        0
176
     1
 62
   257
176
     1
 40
1.0
176
     1
 90
        1
176
     1
 90
        6
176
     1
 90
        2
176
     1
 62
     7
176
     1
 90
        5
176
     1
 90
        0
176
     1
 90
        0
176
     1
290
     0
176
     1
 90
       13
176
     1
 40
0.0
176
     1
 90
        0
176
     1
290
     0
176
     1
290
     1
176
     1
290
     1
176
     1
290
     0
176
     1
290
     0
176
     1
290
     0
176
     1
290
     0
176
     1
290
     0
176
     1
290
     0
176
     1
 90
       50
176
     1
 40
0.0
176
     1
 40
1.0
176
     1
 90
        0
176
     1
 62
    18
420
        0
176
     1
 90
       50
176
     1
 90
        3
176
     1
 62
     5
420
      255
176
     1
290
     0
176
     1
 90
       50
176
     1
 90
       50
176
     1
 90
       50
176
     1
290
     0
176
     1
 90
       50
176
     1
 62
   256
176
     0
 40
1.0
176
     0
 90
        2
176
     1
  1
strokes_ogs.tif
176
     1
290
     0
176
     1
 40
1.0
176
     1
 40
1.0
176
     1
  0
VISUALSTYLE
  5
31
102
{ACAD_REACTORS
330
2A
102
}
330
2A
100
AcDbVisualStyle
  2
Hidden
 70
     6
177
     3
291
     0
 70
    58
 90
        1
176
     1
 90
        2
176
     1
 90
        2
176
     1
 90
        0
176
     1
 40
0.6
176
     1
 40
30.0
176
     1
 62
     7
420
 16777215
176
     1
 90
        2
176
     1
 90
        2
176
     1
 62
     7
176
     1
 62
   257
176
     1
 90
        2
176
     1
 90
        1
176
     1
 40
40.0
176
     1
 90
        0
176
     1
 62
   257
176
     1
 40
1.0
176
     1
 90
        1
176
     1
 90
        6
176
     1
 90
        2
176
     1
 62
     7
176
     1
 90
        3
176
     1
 90
        0
176
     1
 90
        0
176
     1
290
     0
176
     1
 90
        1
176
     1
 40
0.0
176
     1
 90
        0
176
     1
290
     0
176
     1
290
     1
176
     1
290
     1
176
     1
290
     0
176
     1
290
     0
176
     1
290
     0
176
     1
290
     0
176
     1
290
     0
176
     1
290
     0
176
     1
 90
       50
176
     1
 40
0.0
176
     1
 40
1.0
176
     1
 90
        0
176
     1
 62
    18
420
        0
176
     1
 90
       50
176
     1
 90
        3
176
     1
 62
     5
420
      255
176
     1
290
     0
176
     1
 90
       50
176
     1
 90
       50
176
     1
 90
       50
176
     1
290
     0
176
     1
 90
       50
176
     1
 62
   256
176
     0
 40
1.0
176
     0
 90
        2
176
     1
  1
strokes_ogs.tif
176
     1
290
     0
176
     1
 40
1.0
176
     1
 40
1.0
176
     1
  0
VISUALSTYLE
  5
3B
102
{ACAD_REACTORS
330
2A
102
}
330
2A
100
AcDbVisualStyle
  2
JitterOff
 70
    20
177
     3
291
     1
 70
    58
 90
        2
176
     0
 90
        2
176
     0
 90
        0
176
     0
 90
        0
176
     0
 40
0.6
176
     0
 40
30.0
176
     0
 62
     7
420
 16777215
176
     0
 90
        1
176
     0
 90
        4
176
     0
 62
     7
176
     0
 62
   257
176
     0
 90
        1
176
     0
 90
        1
176
     0
 40
1.0
176
     0
 90
       10
176
     2
 62
     7
176
     0
 40
1.0
176
     0
 90
        1
176
     0
 90
        6
176
     0
 90
        2
176
     0
 62
     7
176
     0
 90
        5
176
     0
 90
        0
176
     0
 90
        0
176
     0
290
     0
176
     0
 90
        1
176
     0
 40
0.0
176
     0
 90
        0
176
     0
290
     0
176
     0
290
     1
176
     0
290
     1
176
     0
290
     0
176
     0
290
     0
176
     0
290
     0
176
     0
290
     0
176
     0
290
     0
176
     0
290
     0
176
     0
 90
       50
176
     0
 40
0.0
176
     0
 40
1.0
176
     0
 90
        0
176
     0
 62
    18
420
        0
176
     0
 90
       50
176
     0
 90
        3
176
     0
 62
     5
420
      255
176
     0
290
     0
176
     0
 90
       50
176
     0
 90
       50
176
     0
 90
       50
176
     0
290
     0
176
     0
 90
       50
176
     0
 62
   256
176
     0
 40
1.0
176
     0
 90
        2
176
     0
  1
strokes_ogs.tif
176
     0
290
     0
176
     0
 40
1.0
176
     0
 40
1.0
176
     0
  0
VISUALSTYLE
  5
38
102
{ACAD_REACTORS
330
2A
102
}
330
2A
100
AcDbVisualStyle
  2
Linepattern
 70
    14
177
     3
291
     1
 70
    58
 90
        2
176
     1
 90
        2
176
     1
 90
        0
176
     1
 90
        0
176
     1
 40
0.6
176
     1
 40
30.0
176
     1
 62
     7
420
 16777215
176
     1
 90
        1
176
     1
 90
        4
176
     1
 62
     7
176
     1
 62
   257
176
     1
 90
        7
176
     1
 90
        7
176
     1
 40
1.0
176
     1
 90
        8
176
     1
 62
     7
176
     1
 40
1.0
176
     1
 90
        1
176
     1
 90
        6
176
     1
 90
        2
176
     1
 62
     7
176
     1
 90
        5
176
     1
 90
        0
176
     1
 90
        0
176
     1
290
     0
176
     1
 90
        1
176
     1
 40
0.0
176
     1
 90
        0
176
     1
290
     0
176
     1
290
     1
176
     1
290
     1
176
     1
290
     0
176
     1
290
     0
176
     1
290
     0
176
     1
290
     0
176
     1
290
     0
176
     1
290
     0
176
     1
 90
       50
176
     1
 40
0.0
176
     1
 40
1.0
176
     1
 90
        0
176
     1
 62
    18
420
        0
176
     1
 90
       50
176
     1
 90
        3
176
     1
 62
     5
420
      255
176
     1
290
     0
176
     1
 90
       50
176
     1
 90
       50
176
     1
 90
       50
176
     1
290
     0
176
     1
 90
       50
176
     1
 62
   256
176
     0
 40
1.0
176
     0
 90
        2
176
     1
  1
strokes_ogs.tif
176
     1
290
     0
176
     1
 40
1.0
176
     1
 40
1.0
176
     1
  0
VISUALSTYLE
  5
3C
102
{ACAD_REACTORS
330
2A
102
}
330
2A
100
AcDbVisualStyle
  2
OverhangOff
 70
    21
177
     3
291
     1
 70
    58
 90
        2
176
     0
 90
        2
176
     0
 90
        0
176
     0
 90
        0
176
     0
 40
0.6
176
     0
 40
30.0
176
     0
 62
     7
420
 16777215
176
     0
 90
        1
176
     0
 90
        4
176
     0
 62
     7
176
     0
 62
   257
176
     0
 90
        1
176
     0
 90
        1
176
     0
 40
1.0
176
     0
 90
        9
176
     2
 62
     7
176
     0
 40
1.0
176
     0
 90
        1
176
     0
 90
        6
176
     0
 90
        2
176
     0
 62
     7
176
     0
 90
        5
176
     0
 90
        0
176
     0
 90
        0
176
     0
290
     0
176
     0
 90
        1
176
     0
 40
0.0
176
     0
 90
        0
176
     0
290
     0
176
     0
290
     1
176
     0
290
     1
176
     0
290
     0
176
     0
290
     0
176
     0
290
     0
176
     0
290
     0
176
     0
290
     0
176
     0
290
     0
176
     0
 90
       50
176
     0
 40
0.0
176
     0
 40
1.0
176
     0
 90
        0
176
     0
 62
    18
420
        0
176
     0
 90
       50
176
     0
 90
        3
176
     0
 62
     5
420
      255
176
     0
290
     0
176
     0
 90
       50
176
     0
 90
       50
176
     0
 90
       50
176
     0
290
     0
176
     0
 90
       50
176
     0
 62
   256
176
     0
 40
1.0
176
     0
 90
        2
176
     0
  1
strokes_ogs.tif
176
     0
290
     0
176
     0
 40
1.0
176
     0
 40
1.0
176
     0
  0
VISUALSTYLE
  5
33
102
{ACAD_REACTORS
330
2A
102
}
330
2A
100
AcDbVisualStyle
  2
Realistic
 70
     8
177
     3
291
     0
 70
    58
 90
        2
176
     1
 90
        3
176
     1
 90
        0
176
     1
 90
        2
176
     1
 40
0.6
176
     1
 40
30.0
176
     1
 62
     7
420
 16777215
176
     1
 90
        0
176
     1
 90
        0
176
     1
 62
     7
176
     1
 62
   257
176
     1
 90
        1
176
     1
 90
        1
176
     1
 40
1.0
176
     1
 90
        8
176
     1
 62
   257
176
     1
 40
1.0
176
     1
 90
        1
176
     1
 90
        6
176
     1
 90
        2
176
     1
 62
     7
176
     1
 90
        3
176
     1
 90
        0
176
     1
 90
        0
176
     1
290
     0
176
     1
 90
       13
176
     1
 40
0.0
176
     1
 90
        0
176
     1
290
     0
176
     1
290
     1
176
     1
290
     1
176
     1
290
     0
176
     1
290
     0
176
     1
290
     0
176
     1
290
     0
176
     1
290
     0
176
     1
290
     0
176
     1
 90
       50
176
     1
 40
0.0
176
     1
 40
1.0
176
     1
 90
        0
176
     1
 62
    18
420
        0
176
     1
 90
       50
176
     1
 90
        3
176
     1
 62
     5
420
      255
176
     1
290
     0
176
     1
 90
       50
176
     1
 90
       50
176
     1
 90
       50
176
     1
290
     0
176
     1
 90
       50
176
     1
 62
   256
176
     0
 40
1.0
176
     0
 90
        2
176
     1
  1
strokes_ogs.tif
176
     1
290
     0
176
     1
 40
1.0
176
     1
 40
1.0
176
     1
  0
VISUALSTYLE
  5
42
102
{ACAD_REACTORS
330
2A
102
}
330
2A
100
AcDbVisualStyle
  2
Shaded
 70
    27
177
     3
291
     0
 70
    58
 90
        2
176
     1
 90
        2
176
     1
 90
        1
176
     1
 90
        2
176
     1
 40
0.6
176
     1
 40
30.0
176
     1
 62
     7
420
 16777215
176
     1
 90
        0
176
     1
 90
        4
176
     1
 62
     7
176
     1
 62
   257
176
     1
 90
        1
176
     1
 90
        1
176
     1
 40
1.0
176
     1
 90
        8
176
     1
 62
   257
176
     1
 40
1.0
176
     1
 90
        1
176
     1
 90
        6
176
     1
 90
        2
176
     1
 62
     8
420
  7895160
176
     1
 90
        3
176
     1
 90
        0
176
     1
 90
        0
176
     1
290
     0
176
     1
 90
        5
176
     1
 40
0.0
176
     1
 90
        0
176
     1
290
     0
176
     1
290
     1
176
     1
290
     1
176
     1
290
     0
176
     1
290
     0
176
     1
290
     0
176
     1
290
     0
176
     1
290
     0
176
     1
290
     0
176
     1
 90
       50
176
     1
 40
0.0
176
     1
 40
1.0
176
     1
 90
        0
176
     1
 62
    18
420
        0
176
     1
 90
       50
176
     1
 90
        3
176
     1
 62
     5
420
      255
176
     1
290
     0
176
     1
 90
       50
176
     1
 90
       50
176
     1
 90
       50
176
     1
290
     0
176
     1
 90
       50
176
     1
 62
   256
176
     0
 40
1.0
176
     0
 90
        2
176
     1
  1
strokes_ogs.tif
176
     1
290
     0
176
     1
 40
1.0
176
     1
 40
1.0
176
     1
  0
VISUALSTYLE
  5
41
102
{ACAD_REACTORS
330
2A
102
}
330
2A
100
AcDbVisualStyle
  2
Shaded with edges
 70
    26
177
     3
291
     0
 70
    58
 90
        2
176
     1
 90
        2
176
     1
 90
        1
176
     1
 90
        2
176
     1
 40
0.6
176
     1
 40
30.0
176
     1
 62
     7
420
 16777215
176
     1
 90
        1
176
     1
 90
       10
176
     1
 62
     7
176
     1
 62
   257
176
     1
 90
        2
176
     1
 90
        1
176
     1
 40
1.0
176
     1
 90
        8
176
     1
 62
   257
176
     1
 40
1.0
176
     1
 90
        1
176
     1
 90
        6
176
     1
 90
        2
176
     1
 62
     7
176
     1
 90
        3
176
     1
 90
        0
176
     1
 90
        0
176
     1
290
     0
176
     1
 90
        5
176
     1
 40
0.0
176
     1
 90
        0
176
     1
290
     0
176
     1
290
     1
176
     1
290
     1
176
     1
290
     0
176
     1
290
     0
176
     1
290
     0
176
     1
290
     0
176
     1
290
     0
176
     1
290
     0
176
     1
 90
       50
176
     1
 40
0.0
176
     1
 40
1.0
176
     1
 90
        0
176
     1
 62
    18
420
        0
176
     1
 90
       50
176
     1
 90
        3
176
     1
 62
     5
420
      255
176
     1
290
     0
176
     1
 90
       50
176
     1
 90
       50
176
     1
 90
       50
176
     1
290
     0
176
     1
 90
       50
176
     1
 62
   256
176
     0
 40
1.0
176
     0
 90
        2
176
     1
  1
strokes_ogs.tif
176
     1
290
     0
176
     1
 40
1.0
176
     1
 40
1.0
176
     1
  0
VISUALSTYLE
  5
3E
102
{ACAD_REACTORS
330
2A
102
}
330
2A
100
AcDbVisualStyle
  2
Shades of Gray
 70
    23
177
     3
291
     0
 70
    58
 90
        2
176
     1
 90
        2
176
     1
 90
        3
176
     1
 90
        0
176
     1
 40
0.6
176
     1
 40
30.0
176
     1
 62
     7
420
 16777215
176
     1
 90
        2
176
     1
 90
        2
176
     1
 62
     7
176
     1
 62
     7
176
     1
 90
        1
176
     1
 90
        1
176
     1
 40
40.0
176
     1
 90
        8
176
     1
 62
     7
176
     1
 40
1.0
176
     1
 90
        1
176
     1
 90
        6
176
     1
 90
        2
176
     1
 62
     7
176
     1
 90
        3
176
     1
 90
        0
176
     1
 90
        0
176
     1
290
     0
176
     1
 90
        1
176
     1
 40
0.0
176
     1
 90
        0
176
     1
290
     0
176
     1
290
     1
176
     1
290
     1
176
     1
290
     0
176
     1
290
     0
176
     1
290
     0
176
     1
290
     0
176
     1
290
     0
176
     1
290
     0
176
     1
 90
       50
176
     1
 40
0.0
176
     1
 40
1.0
176
     1
 90
        0
176
     1
 62
    18
420
        0
176
     1
 90
       50
176
     1
 90
        3
176
     1
 62
     5
420
      255
176
     1
290
     0
176
     1
 90
       50
176
     1
 90
       50
176
     1
 90
       50
176
     1
290
     0
176
     1
 90
       50
176
     1
 62
   256
176
     0
 40
1.0
176
     0
 90
        2
176
     1
  1
strokes_ogs.tif
176
     1
290
     0
176
     1
 40
1.0
176
     1
 40
1.0
176
     1
  0
VISUALSTYLE
  5
3F
102
{ACAD_REACTORS
330
2A
102
}
330
2A
100
AcDbVisualStyle
  2
Sketchy
 70
    24
177
     3
291
     0
 70
    58
 90
        1
176
     1
 90
        2
176
     1
 90
        2
176
     1
 90
        0
176
     1
 40
0.6
176
     1
 40
30.0
176
     1
 62
     7
420
 16777215
176
     1
 90
        2
176
     1
 90
        2
176
     1
 62
     7
176
     1
 62
     7
176
     1
 90
        1
176
     1
 90
        1
176
     1
 40
40.0
176
     1
 90
       11
176
     1
 62
     7
176
     1
 40
1.0
176
     1
 90
        1
176
     1
 90
        6
176
     1
 90
        2
176
     1
 62
     7
176
     1
 90
        6
176
     1
 90
        0
176
     1
 90
        0
176
     1
290
     0
176
     1
 90
        1
176
     1
 40
0.0
176
     1
 90
        0
176
     1
290
     0
176
     1
290
     1
176
     1
290
     1
176
     1
290
     0
176
     1
290
     0
176
     1
290
     0
176
     1
290
     0
176
     1
290
     0
176
     1
290
     0
176
     1
 90
       50
176
     1
 40
0.0
176
     1
 40
1.0
176
     1
 90
        0
176
     1
 62
    18
420
        0
176
     1
 90
       50
176
     1
 90
        3
176
     1
 62
     5
420
      255
176
     1
290
     0
176
     1
 90
       50
176
     1
 90
       50
176
     1
 90
       50
176
     1
290
     0
176
     1
 90
       50
176
     1
 62
   256
176
     0
 40
1.0
176
     0
 90
        2
176
     1
  1
strokes_ogs.tif
176
     1
290
     0
176
     1
 40
1.0
176
     1
 40
1.0
176
     1
  0
VISUALSTYLE
  5
37
102
{ACAD_REACTORS
330
2A
102
}
330
2A
100
AcDbVisualStyle
  2
Thicken
 70
    13
177
     3
291
     1
 70
    58
 90
        2
176
     1
 90
        2
176
     1
 90
        0
176
     1
 90
        0
176
     1
 40
0.6
176
     1
 40
30.0
176
     1
 62
     7
420
 16777215
176
     1
 90
        1
176
     1
 90
        4
176
     1
 62
     7
176
     1
 62
   257
176
     1
 90
        1
176
     1
 90
        1
176
     1
 40
1.0
176
     1
 90
       12
176
     1
 62
     7
176
     1
 40
1.0
176
     1
 90
        1
176
     1
 90
        6
176
     1
 90
        2
176
     1
 62
     7
176
     1
 90
        5
176
     1
 90
        0
176
     1
 90
        0
176
     1
290
     0
176
     1
 90
        1
176
     1
 40
0.0
176
     1
 90
        0
176
     1
290
     0
176
     1
290
     1
176
     1
290
     1
176
     1
290
     0
176
     1
290
     0
176
     1
290
     0
176
     1
290
     0
176
     1
290
     0
176
     1
290
     0
176
     1
 90
       50
176
     1
 40
0.0
176
     1
 40
1.0
176
     1
 90
        0
176
     1
 62
    18
420
        0
176
     1
 90
       50
176
     1
 90
        3
176
     1
 62
     5
420
      255
176
     1
290
     0
176
     1
 90
       50
176
     1
 90
       50
176
     1
 90
       50
176
     1
290
     0
176
     1
 90
       50
176
     1
 62
   256
176
     0
 40
1.0
176
     0
 90
        2
176
     1
  1
strokes_ogs.tif
176
     1
290
     0
176
     1
 40
1.0
176
     1
 40
1.0
176
     1
  0
VISUALSTYLE
  5
30
102
{ACAD_REACTORS
330
2A
102
}
330
2A
100
AcDbVisualStyle
  2
Wireframe
 70
     5
177
     3
291
     0
 70
    58
 90
        0
176
     1
 90
        2
176
     1
 90
        0
176
     1
 90
        0
176
     1
 40
0.6
176
     1
 40
30.0
176
     1
 62
     7
420
 16777215
176
     1
 90
        1
176
     1
 90
        4
176
     1
 62
     7
176
     1
 62
   257
176
     1
 90
        1
176
     1
 90
        1
176
     1
 40
1.0
176
     1
 90
        0
176
     1
 62
   257
176
     1
 40
1.0
176
     1
 90
        1
176
     1
 90
        6
176
     1
 90
        2
176
     1
 62
     7
176
     1
 90
        3
176
     1
 90
        0
176
     1
 90
        0
176
     1
290
     0
176
     1
 90
        1
176
     1
 40
0.0
176
     1
 90
        0
176
     1
290
     0
176
     1
290
     1
176
     1
290
     1
176
     1
290
     0
176
     1
290
     0
176
     1
290
     0
176
     1
290
     0
176
     1
290
     0
176
     1
290
     0
176
     1
 90
       50
176
     1
 40
0.0
176
     1
 40
1.0
176
     1
 90
        0
176
     1
 62
    18
420
        0
176
     1
 90
       50
176
     1
 90
        3
176
     1
 62
     5
420
      255
176
     1
290
     0
176
     1
 90
       50
176
     1
 90
       50
176
     1
 90
       50
176
     1
290
     0
176
     1
 90
       50
176
     1
 62
   256
176
     0
 40
1.0
176
     0
 90
        2
176
     1
  1
strokes_ogs.tif
176
     1
290
     0
176
     1
 40
1.0
176
     1
 40
1.0
176
     1
  0
VISUALSTYLE
  5
40
102
{ACAD_REACTORS
330
2A
102
}
330
2A
100
AcDbVisualStyle
  2
X-Ray
 70
    25
177
     3
291
     0
 70
    58
 90
        2
176
     1
 90
        2
176
     1
 90
        1
176
     1
 90
        1
176
     1
 40
0.5
176
     1
 40
30.0
176
     1
 62
     7
420
 16777215
176
     1
 90
        1
176
     1
 90
        0
176
     1
 62
     7
176
     1
 62
   257
176
     1
 90
        1
176
     1
 90
        1
176
     1
 40
1.0
176
     1
 90
        8
176
     1
 62
     7
176
     1
 40
1.0
176
     1
 90
        1
176
     1
 90
        6
176
     1
 90
        2
176
     1
 62
     7
176
     1
 90
        3
176
     1
 90
        0
176
     1
 90
        0
176
     1
290
     0
176
     1
 90
       13
176
     1
 40
0.0
176
     1
 90
        0
176
     1
290
     0
176
     1
290
     1
176
     1
290
     1
176
     1
290
     0
176
     1
290
     0
176
     1
290
     0
176
     1
290
     0
176
     1
290
     0
176
     1
290
     0
176
     1
 90
       50
176
     1
 40
0.0
176
     1
 40
1.0
176
     1
 90
        0
176
     1
 62
    18
420
        0
176
     1
 90
       50
176
     1
 90
        3
176
     1
 62
     5
420
      255
176
     1
290
     0
176
     1
 90
       50
176
     1
 90
       50
176
     1
 90
       50
176
     1
290
     0
176
     1
 90
       50
176
     1
 62
   256
176
     0
 40
1.0
176
     0
 90
        2
176
     1
  1
strokes_ogs.tif
176
     1
290
     0
176
     1
 40
1.0
176
     1
 40
1.0
176
     1
  0
DICTIONARYVAR
  5
97
102
{ACAD_REACTORS
330
96
102
}
330
96
100
DictionaryVariables
280
     0
  1
1:1
  0
DICTIONARYVAR
  5
9F
102
{ACAD_REACTORS
330
96
102
}
330
96
100
DictionaryVariables
280
     0
  1
3.500000
  0
DICTIONARYVAR
  5
A0
102
{ACAD_REACTORS
330
96
102
}
330
96
100
DictionaryVariables
280
     0
  1
acadiso.lin
  0
DICTIONARYVAR
  5
9C
102
{ACAD_REACTORS
330
96
102
}
330
96
100
DictionaryVariables
280
     0
  1
Standard
  0
DICTIONARYVAR
  5
9B
102
{ACAD_REACTORS
330
96
102
}
330
96
100
DictionaryVariables
280
     0
  1
Standard
  0
DICTIONARY
  5
98
330
5A
100
AcDbDictionary
280
     1
281
     1
  3
ACAD_ROUNDTRIP_2008_TABLESTYLE_CELLSTYLEMAP
360
99
  0
CELLSTYLEMAP
  5
99
102
{ACAD_REACTORS
330
98
102
}
330
98
100
AcDbCellStyleMap
 90
        3
300
CELLSTYLE
  1
TABLEFORMAT_BEGIN
 90
        5
170
     1
 91
        0
 92
    32768
 62
   257
 93
        1
300
CONTENTFORMAT
  1
CONTENTFORMAT_BEGIN
 90
        0
 91
        0
 92
        4
 93
        0
300

 40
0.0
140
1.0
 94
        5
 62
     0
340
11
144
6.0
309
CONTENTFORMAT_END
171
     1
301
MARGIN
  1
CELLMARGIN_BEGIN
 40
1.5
 40
1.5
 40
1.5
 40
1.5
 40
1.5
 40
1.5
309
CELLMARGIN_END
 94
        6
 95
        1
302
GRIDFORMAT
  1
GRIDFORMAT_BEGIN
 90
        0
 91
        1
 62
     0
 92
       -2
340
14
 93
        0
 40
0.045
309
GRIDFORMAT_END
 95
        2
302
GRIDFORMAT
  1
GRIDFORMAT_BEGIN
 90
        0
 91
        1
 62
     0
 92
       -2
340
14
 93
        0
 40
0.045
309
GRIDFORMAT_END
 95
        4
302
GRIDFORMAT
  1
GRIDFORMAT_BEGIN
 90
        0
 91
        1
 62
     0
 92
       -2
340
14
 93
        0
 40
0.045
309
GRIDFORMAT_END
 95
        8
302
GRIDFORMAT
  1
GRIDFORMAT_BEGIN
 90
        0
 91
        1
 62
     0
 92
       -2
340
14
 93
        0
 40
0.045
309
GRIDFORMAT_END
 95
       16
302
GRIDFORMAT
  1
GRIDFORMAT_BEGIN
 90
        0
 91
        1
 62
     0
 92
       -2
340
14
 93
        0
 40
0.045
309
GRIDFORMAT_END
 95
       32
302
GRIDFORMAT
  1
GRIDFORMAT_BEGIN
 90
        0
 91
        1
 62
     0
 92
       -2
340
14
 93
        0
 40
0.045
309
GRIDFORMAT_END
309
TABLEFORMAT_END
  1
CELLSTYLE_BEGIN
 90
        1
 91
        1
300
_TITLE
309
CELLSTYLE_END
300
CELLSTYLE
  1
TABLEFORMAT_BEGIN
 90
        5
170
     1
 91
        0
 92
        0
 62
   257
 93
        1
300
CONTENTFORMAT
  1
CONTENTFORMAT_BEGIN
 90
        0
 91
        0
 92
        4
 93
        0
300

 40
0.0
140
1.0
 94
        5
 62
     0
340
11
144
4.5
309
CONTENTFORMAT_END
171
     1
301
MARGIN
  1
CELLMARGIN_BEGIN
 40
1.5
 40
1.5
 40
1.5
 40
1.5
 40
1.5
 40
1.5
309
CELLMARGIN_END
 94
        6
 95
        1
302
GRIDFORMAT
  1
GRIDFORMAT_BEGIN
 90
        0
 91
        1
 62
     0
 92
       -2
340
14
 93
        0
 40
0.045
309
GRIDFORMAT_END
 95
        2
302
GRIDFORMAT
  1
GRIDFORMAT_BEGIN
 90
        0
 91
        1
 62
     0
 92
       -2
340
14
 93
        0
 40
0.045
309
GRIDFORMAT_END
 95
        4
302
GRIDFORMAT
  1
GRIDFORMAT_BEGIN
 90
        0
 91
        1
 62
     0
 92
       -2
340
14
 93
        0
 40
0.045
309
GRIDFORMAT_END
 95
        8
302
GRIDFORMAT
  1
GRIDFORMAT_BEGIN
 90
        0
 91
        1
 62
     0
 92
       -2
340
14
 93
        0
 40
0.045
309
GRIDFORMAT_END
 95
       16
302
GRIDFORMAT
  1
GRIDFORMAT_BEGIN
 90
        0
 91
        1
 62
     0
 92
       -2
340
14
 93
        0
 40
0.045
309
GRIDFORMAT_END
 95
       32
302
GRIDFORMAT
  1
GRIDFORMAT_BEGIN
 90
        0
 91
        1
 62
     0
 92
       -2
340
14
 93
        0
 40
0.045
309
GRIDFORMAT_END
309
TABLEFORMAT_END
  1
CELLSTYLE_BEGIN
 90
        2
 91
        1
300
_HEADER
309
CELLSTYLE_END
300
CELLSTYLE
  1
TABLEFORMAT_BEGIN
 90
        5
170
     1
 91
        0
 92
        0
 62
   257
 93
        1
300
CONTENTFORMAT
  1
CONTENTFORMAT_BEGIN
 90
        0
 91
        0
 92
        4
 93
        0
300

 40
0.0
140
1.0
 94
        2
 62
     0
340
11
144
4.5
309
CONTENTFORMAT_END
171
     1
301
MARGIN
  1
CELLMARGIN_BEGIN
 40
1.5
 40
1.5
 40
1.5
 40
1.5
 40
1.5
 40
1.5
309
CELLMARGIN_END
 94
        6
 95
        1
302
GRIDFORMAT
  1
GRIDFORMAT_BEGIN
 90
        0
 91
        1
 62
     0
 92
       -2
340
14
 93
        0
 40
0.045
309
GRIDFORMAT_END
 95
        2
302
GRIDFORMAT
  1
GRIDFORMAT_BEGIN
 90
        0
 91
        1
 62
     0
 92
       -2
340
14
 93
        0
 40
0.045
309
GRIDFORMAT_END
 95
        4
302
GRIDFORMAT
  1
GRIDFORMAT_BEGIN
 90
        0
 91
        1
 62
     0
 92
       -2
340
14
 93
        0
 40
0.045
309
GRIDFORMAT_END
 95
        8
302
GRIDFORMAT
  1
GRIDFORMAT_BEGIN
 90
        0
 91
        1
 62
     0
 92
       -2
340
14
 93
        0
 40
0.045
309
GRIDFORMAT_END
 95
       16
302
GRIDFORMAT
  1
GRIDFORMAT_BEGIN
 90
        0
 91
        1
 62
     0
 92
       -2
340
14
 93
        0
 40
0.045
309
GRIDFORMAT_END
 95
       32
302
GRIDFORMAT
  1
GRIDFORMAT_BEGIN
 90
        0
 91
        1
 62
     0
 92
       -2
340
14
 93
        0
 40
0.045
309
GRIDFORMAT_END
309
TABLEFORMAT_END
  1
CELLSTYLE_BEGIN
 90
        3
 91
        2
300
_DATA
309
CELLSTYLE_END
  0
ENDSEC
  0
EOF
